  0
SECTION
  2
HEADER
  9
$ACADVER
  1
AC1012
  9
$DWGCODEPAGE
  3
ansi_1252
  9
$INSBASE
 10
-33.478
 20
26.3607
 30
0.0
  9
$EXTMIN
 10
-4.5
 20
-69.3291
 30
0.0
  9
$EXTMAX
 10
239.197
 20
50.0375
 30
0.0
  9
$LIMMIN
 10
0.0
 20
0.0
  9
$LIMMAX
 10
10.0
 20
10.0
  9
$ORTHOMODE
 70
     1
  9
$REGENMODE
 70
     1
  9
$FILLMODE
 70
     1
  9
$QTEXTMODE
 70
     0
  9
$MIRRTEXT
 70
     1
  9
$DRAGMODE
 70
     2
  9
$LTSCALE
 40
6.0
  9
$OSMODE
 70
     0
  9
$ATTMODE
 70
     1
  9
$TEXTSIZE
 40
0.2
  9
$TRACEWID
 40
0.05
  9
$TEXTSTYLE
  7
STANDARD
  9
$CLAYER
  8
0
  9
$CELTYPE
  6
CONTINUOUS
  9
$CECOLOR
 62
   256
  9
$CELTSCALE
 40
1.0
  9
$DELOBJ
 70
     1
  9
$DISPSILH
 70
     0
  9
$DIMSCALE
 40
1.0
  9
$DIMASZ
 40
0.18
  9
$DIMEXO
 40
0.0625
  9
$DIMDLI
 40
0.38
  9
$DIMRND
 40
0.0
  9
$DIMDLE
 40
0.0
  9
$DIMEXE
 40
0.18
  9
$DIMTP
 40
0.0
  9
$DIMTM
 40
0.0
  9
$DIMTXT
 40
0.18
  9
$DIMCEN
 40
0.09
  9
$DIMTSZ
 40
0.0
  9
$DIMTOL
 70
     0
  9
$DIMLIM
 70
     0
  9
$DIMTIH
 70
     1
  9
$DIMTOH
 70
     1
  9
$DIMSE1
 70
     0
  9
$DIMSE2
 70
     0
  9
$DIMTAD
 70
     0
  9
$DIMZIN
 70
     0
  9
$DIMBLK
  1

  9
$DIMASO
 70
     1
  9
$DIMSHO
 70
     1
  9
$DIMPOST
  1

  9
$DIMAPOST
  1

  9
$DIMALT
 70
     0
  9
$DIMALTD
 70
     2
  9
$DIMALTF
 40
25.4
  9
$DIMLFAC
 40
1.0
  9
$DIMTOFL
 70
     0
  9
$DIMTVP
 40
0.0
  9
$DIMTIX
 70
     0
  9
$DIMSOXD
 70
     0
  9
$DIMSAH
 70
     0
  9
$DIMBLK1
  1

  9
$DIMBLK2
  1

  9
$DIMSTYLE
  2
STANDARD
  9
$DIMCLRD
 70
     0
  9
$DIMCLRE
 70
     0
  9
$DIMCLRT
 70
     0
  9
$DIMTFAC
 40
1.0
  9
$DIMGAP
 40
0.09
  9
$DIMJUST
 70
     0
  9
$DIMSD1
 70
     0
  9
$DIMSD2
 70
     0
  9
$DIMTOLJ
 70
     1
  9
$DIMTZIN
 70
     0
  9
$DIMALTZ
 70
     0
  9
$DIMALTTZ
 70
     0
  9
$DIMFIT
 70
     3
  9
$DIMUPT
 70
     0
  9
$DIMUNIT
 70
     2
  9
$DIMDEC
 70
     4
  9
$DIMTDEC
 70
     4
  9
$DIMALTU
 70
     2
  9
$DIMALTTD
 70
     2
  9
$DIMTXSTY
  7
STANDARD
  9
$DIMAUNIT
 70
     0
  9
$LUNITS
 70
     2
  9
$LUPREC
 70
     4
  9
$SKETCHINC
 40
0.1
  9
$FILLETRAD
 40
0.0
  9
$AUNITS
 70
     0
  9
$AUPREC
 70
     0
  9
$MENU
  1
.
  9
$ELEVATION
 40
0.0
  9
$PELEVATION
 40
0.0
  9
$THICKNESS
 40
0.0
  9
$LIMCHECK
 70
     0
  9
$BLIPMODE
 70
     1
  9
$CHAMFERA
 40
0.0
  9
$CHAMFERB
 40
0.0
  9
$CHAMFERC
 40
0.0
  9
$CHAMFERD
 40
0.0
  9
$SKPOLY
 70
     0
  9
$TDCREATE
 40
2450772.456981944
  9
$TDUPDATE
 40
2450772.456981944
  9
$TDINDWG
 40
0.0000000000
  9
$TDUSRTIMER
 40
0.0000000000
  9
$USRTIMER
 70
     1
  9
$ANGBASE
 50
0.0
  9
$ANGDIR
 70
     0
  9
$PDMODE
 70
     0
  9
$PDSIZE
 40
0.0
  9
$PLINEWID
 40
0.0
  9
$COORDS
 70
     1
  9
$SPLFRAME
 70
     0
  9
$SPLINETYPE
 70
     6
  9
$SPLINESEGS
 70
     8
  9
$ATTDIA
 70
     0
  9
$ATTREQ
 70
     1
  9
$HANDLING
 70
     1
  9
$HANDSEED
  5
9E
  9
$SURFTAB1
 70
     6
  9
$SURFTAB2
 70
     6
  9
$SURFTYPE
 70
     6
  9
$SURFU
 70
     6
  9
$SURFV
 70
     6
  9
$UCSNAME
  2

  9
$UCSORG
 10
0.0
 20
0.0
 30
0.0
  9
$UCSXDIR
 10
1.0
 20
0.0
 30
0.0
  9
$UCSYDIR
 10
0.0
 20
1.0
 30
0.0
  9
$PUCSNAME
  2

  9
$PUCSORG
 10
0.0
 20
0.0
 30
0.0
  9
$PUCSXDIR
 10
1.0
 20
0.0
 30
0.0
  9
$PUCSYDIR
 10
0.0
 20
1.0
 30
0.0
  9
$USERI1
 70
     0
  9
$USERI2
 70
     0
  9
$USERI3
 70
     0
  9
$USERI4
 70
     0
  9
$USERI5
 70
     0
  9
$USERR1
 40
0.0
  9
$USERR2
 40
0.0
  9
$USERR3
 40
0.0
  9
$USERR4
 40
0.0
  9
$USERR5
 40
0.0
  9
$WORLDVIEW
 70
     1
  9
$SHADEDGE
 70
     3
  9
$SHADEDIF
 70
    70
  9
$TILEMODE
 70
     1
  9
$MAXACTVP
 70
    16
  9
$PINSBASE
 10
0.0
 20
0.0
 30
0.0
  9
$PLIMCHECK
 70
     0
  9
$PEXTMIN
 10
1.000000E+20
 20
1.000000E+20
 30
1.000000E+20
  9
$PEXTMAX
 10
-1.000000E+20
 20
-1.000000E+20
 30
-1.000000E+20
  9
$PLIMMIN
 10
0.0
 20
0.0
  9
$PLIMMAX
 10
12.0
 20
9.0
  9
$UNITMODE
 70
     0
  9
$VISRETAIN
 70
     0
  9
$PLINEGEN
 70
     0
  9
$PSLTSCALE
 70
     1
  9
$TREEDEPTH
 70
  3020
  9
$PICKSTYLE
 70
     1
  9
$CMLSTYLE
  2
STANDARD
  9
$CMLJUST
 70
     0
  9
$CMLSCALE
 40
1.0
  9
$SAVEIMAGES
 70
     0
  0
ENDSEC
  0
SECTION
  2
CLASSES
  0
ENDSEC
  0
SECTION
  2
TABLES
  0
TABLE
  2
VPORT
  5
12
100
AcDbSymbolTable
 70
     2
  0
VPORT
  5
9D
100
AcDbSymbolTableRecord
100
AcDbViewportTableRecord
  2
*ACTIVE
 70
     0
 10
0.0
 20
0.0
 11
1.0
 21
1.0
 12
117.3485
 22
6.07159
 13
0.0
 23
0.0
 14
1.0
 24
1.0
 15
0.0
 25
0.0
 16
0.0
 26
0.0
 36
1.0
 17
0.0
 27
0.0
 37
0.0
 40
150.801379
 41
1.616013
 42
50.0
 43
0.0
 44
0.0
 50
0.0
 51
0.0
 71
     0
 72
   100
 73
     1
 74
     1
 75
     0
 76
     0
 77
     0
 78
     0
  0
ENDTAB
  0
TABLE
  2
LTYPE
  5
E
100
AcDbSymbolTable
 70
     3
  0
LTYPE
  5
F
100
AcDbSymbolTableRecord
100
AcDbLinetypeTableRecord
  2
BYBLOCK
 70
     0
  3

 72
    65
 73
     0
 40
0.0
  0
LTYPE
  5
6
100
AcDbSymbolTableRecord
100
AcDbLinetypeTableRecord
  2
BYLAYER
 70
     0
  3

 72
    65
 73
     0
 40
0.0
  0
LTYPE
  5
5
100
AcDbSymbolTableRecord
100
AcDbLinetypeTableRecord
  2
CONTINUOUS
 70
    64
  3

 72
    65
 73
     0
 40
0.0
  0
LTYPE
  5
3F
100
AcDbSymbolTableRecord
100
AcDbLinetypeTableRecord
  2
DASHED
 70
    64
  3

 72
    65
 73
     2
 40
0.75
 49
0.5
 74
     0
 49
-0.25
 74
     0
  0
LTYPE
  5
2A
100
AcDbSymbolTableRecord
100
AcDbLinetypeTableRecord
  2
CENTER
 70
    64
  3

 72
    65
 73
     4
 40
2.0
 49
1.25
 74
     0
 49
-0.25
 74
     0
 49
0.25
 74
     0
 49
-0.25
 74
     0
  0
ENDTAB
  0
TABLE
  2
LAYER
  5
B
100
AcDbSymbolTable
 70
     1
  0
LAYER
  5
4
100
AcDbSymbolTableRecord
100
AcDbLayerTableRecord
  2
0
 70
    64
 62
     7
  6
CONTINUOUS
  0
ENDTAB
  0
TABLE
  2
STYLE
  5
C
100
AcDbSymbolTable
 70
     1
  0
STYLE
  5
D
100
AcDbSymbolTableRecord
100
AcDbTextStyleTableRecord
  2
STANDARD
 70
     0
 40
0.0
 41
1.0
 50
0.0
 71
     0
 42
0.2
  3
TXT
  4

  0
ENDTAB
  0
TABLE
  2
VIEW
  5
10
100
AcDbSymbolTable
 70
     0
  0
ENDTAB
  0
TABLE
  2
UCS
  5
11
100
AcDbSymbolTable
 70
     0
  0
ENDTAB
  0
TABLE
  2
APPID
  5
14
100
AcDbSymbolTable
 70
     1
  0
APPID
  5
15
100
AcDbSymbolTableRecord
100
AcDbRegAppTableRecord
  2
ACAD
 70
     0
  0
ENDTAB
  0
TABLE
  2
DIMSTYLE
  5
16
100
AcDbSymbolTable
 70
     1
  0
DIMSTYLE
105
1C
100
AcDbSymbolTableRecord
100
AcDbDimStyleTableRecord
  2
STANDARD
 70
     0
  3

  4

  5

  6

  7

 40
1.0
 41
0.18
 42
0.0625
 43
0.38
 44
0.18
 45
0.0
 46
0.0
 47
0.0
 48
0.0
140
0.18
141
0.09
142
0.0
143
25.4
144
1.0
145
0.0
146
1.0
147
0.09
 71
     0
 72
     0
 73
     1
 74
     1
 75
     0
 76
     0
 77
     0
 78
     0
170
     0
171
     2
172
     0
173
     0
174
     0
175
     0
176
     0
177
     0
178
     0
270
     2
271
     4
272
     4
273
     2
274
     2
340
D
275
     0
280
     0
281
     0
282
     0
283
     1
284
     0
285
     0
286
     0
287
     3
288
     0
  0
ENDTAB
  0
TABLE
  2
BLOCK_RECORD
  5
1
100
AcDbSymbolTable
 70
     2
  0
BLOCK_RECORD
  5
2
100
AcDbSymbolTableRecord
100
AcDbBlockTableRecord
  2
*MODEL_SPACE
  0
BLOCK_RECORD
  5
8
100
AcDbSymbolTableRecord
100
AcDbBlockTableRecord
  2
*PAPER_SPACE
  0
BLOCK_RECORD
  5
7C
100
AcDbSymbolTableRecord
100
AcDbBlockTableRecord
  2
A$C32A2
  0
BLOCK_RECORD
  5
1E
100
AcDbSymbolTableRecord
100
AcDbBlockTableRecord
  2
A$C4101
  0
ENDTAB
  0
ENDSEC
  0
SECTION
  2
BLOCKS
  0
BLOCK
  5
3
100
AcDbEntity
  8
0
100
AcDbBlockBegin
  2
*MODEL_SPACE
 70
     0
 10
0.0
 20
0.0
 30
0.0
  3
*MODEL_SPACE
  1

  0
ENDBLK
  5
7
100
AcDbEntity
  8
0
100
AcDbBlockEnd
  0
BLOCK
  5
9
100
AcDbEntity
 67
     1
  8
0
100
AcDbBlockBegin
  2
*PAPER_SPACE
 70
     0
 10
0.0
 20
0.0
 30
0.0
  3
*PAPER_SPACE
  1

  0
ENDBLK
  5
A
100
AcDbEntity
 67
     1
  8
0
100
AcDbBlockEnd
  0
BLOCK
  5
99
100
AcDbEntity
  8
0
  6
CONTINUOUS
100
AcDbBlockBegin
  2
A$C32A2
 70
     0
 10
0.0
 20
0.0
 30
0.0
  3
A$C32A2
  1

  0
CIRCLE
  5
7D
100
AcDbEntity
  8
0
  6
CONTINUOUS
100
AcDbCircle
 10
31.881762
 20
277.699143
 30
0.0
 40
19.0
  0
CIRCLE
  5
7E
100
AcDbEntity
  8
0
  6
DASHED
100
AcDbCircle
 10
30.381762
 20
277.699143
 30
0.0
 40
25.0
  0
LINE
  5
7F
100
AcDbEntity
  8
0
  6
CENTER
 62
     1
100
AcDbLine
 10
30.381762
 20
307.026543
 30
0.0
 11
30.381762
 21
248.292503
 31
0.0
  0
LINE
  5
80
100
AcDbEntity
  8
0
  6
CENTER
 62
     1
100
AcDbLine
 10
31.881762
 20
260.315543
 30
0.0
 11
31.881762
 21
293.924243
 31
0.0
  0
ARC
  5
81
100
AcDbEntity
  8
0
  6
CONTINUOUS
100
AcDbCircle
 10
31.881762
 20
277.699143
 30
0.0
 40
7.59998
100
AcDbArc
 50
0.0
 51
270.0
  0
CIRCLE
  5
82
100
AcDbEntity
  8
0
  6
CONTINUOUS
100
AcDbCircle
 10
31.881762
 20
277.699143
 30
0.0
 40
9.0
  0
CIRCLE
  5
83
100
AcDbEntity
  8
0
  6
CONTINUOUS
100
AcDbCircle
 10
31.881762
 20
277.699143
 30
0.0
 40
13.5
  0
LINE
  5
84
100
AcDbEntity
  8
0
  6
CONTINUOUS
100
AcDbLine
 10
18.381762
 20
269.904843
 30
0.0
 11
31.881762
 21
262.110643
 31
0.0
  0
LINE
  5
85
100
AcDbEntity
  8
0
  6
CONTINUOUS
100
AcDbLine
 10
18.381762
 20
285.493443
 30
0.0
 11
31.881762
 21
293.287643
 31
0.0
  0
LINE
  5
86
100
AcDbEntity
  8
0
  6
CENTER
 62
     1
100
AcDbLine
 10
0.881762
 20
277.699243
 30
0.0
 11
59.881762
 21
277.699243
 31
0.0
  0
POLYLINE
  5
87
100
AcDbEntity
  8
0
100
AcDb2dPolyline
 66
     1
 10
0.0
 20
0.0
 30
0.0
 40
3.0
 41
3.0
  0
VERTEX
  5
88
100
AcDbEntity
  8
0
100
AcDbVertex
100
AcDb2dVertex
 10
5.381762
 20
279.199243
 30
0.0
 42
0.414214
  0
VERTEX
  5
89
100
AcDbEntity
  8
0
100
AcDbVertex
100
AcDb2dVertex
 10
3.881762
 20
277.699243
 30
0.0
 42
1.0
  0
SEQEND
  5
8A
100
AcDbEntity
  8
0
  0
POLYLINE
  5
8B
100
AcDbEntity
  8
0
100
AcDb2dPolyline
 66
     1
 10
0.0
 20
0.0
 30
0.0
 40
3.0
 41
3.0
  0
VERTEX
  5
8C
100
AcDbEntity
  8
0
100
AcDbVertex
100
AcDb2dVertex
 10
5.381762
 20
276.199243
 30
0.0
 42
0.414214
  0
VERTEX
  5
8D
100
AcDbEntity
  8
0
100
AcDbVertex
100
AcDb2dVertex
 10
6.881762
 20
277.699243
 30
0.0
 42
1.0
  0
SEQEND
  5
8E
100
AcDbEntity
  8
0
  0
CIRCLE
  5
8F
100
AcDbEntity
  8
0
100
AcDbCircle
 10
5.381762
 20
277.699243
 30
0.0
 40
3.0
  0
LINE
  5
90
100
AcDbEntity
  8
0
  6
CONTINUOUS
100
AcDbLine
 10
18.381762
 20
269.904843
 30
0.0
 11
18.381762
 21
285.493443
 31
0.0
  0
CIRCLE
  5
91
100
AcDbEntity
  8
0
  6
CONTINUOUS
100
AcDbCircle
 10
31.881762
 20
277.699243
 30
0.0
 40
6.45797
  0
LINE
  5
92
100
AcDbEntity
  8
0
  6
CONTINUOUS
100
AcDbLine
 10
38.307762
 20
278.344643
 30
0.0
 11
32.527762
 21
284.124843
 31
0.0
  0
LINE
  5
93
100
AcDbEntity
  8
0
  6
CONTINUOUS
100
AcDbLine
 10
25.456762
 20
278.344643
 30
0.0
 11
31.236762
 21
284.124843
 31
0.0
  0
LINE
  5
94
100
AcDbEntity
  8
0
  6
CONTINUOUS
100
AcDbLine
 10
45.381762
 20
285.493443
 30
0.0
 11
45.381762
 21
269.904843
 31
0.0
  0
LINE
  5
95
100
AcDbEntity
  8
0
  6
CONTINUOUS
100
AcDbLine
 10
32.527762
 20
271.273543
 30
0.0
 11
38.307762
 21
277.053743
 31
0.0
  0
LINE
  5
96
100
AcDbEntity
  8
0
  6
CONTINUOUS
100
AcDbLine
 10
45.381762
 20
269.904843
 30
0.0
 11
31.881762
 21
262.110643
 31
0.0
  0
LINE
  5
97
100
AcDbEntity
  8
0
  6
CONTINUOUS
100
AcDbLine
 10
31.236762
 20
271.273543
 30
0.0
 11
25.456762
 21
277.053743
 31
0.0
  0
LINE
  5
98
100
AcDbEntity
  8
0
  6
CONTINUOUS
100
AcDbLine
 10
45.381762
 20
285.493443
 30
0.0
 11
31.881762
 21
293.287643
 31
0.0
  0
ENDBLK
  5
9A
100
AcDbEntity
  8
0
  6
CONTINUOUS
100
AcDbBlockEnd
  0
BLOCK
  5
79
100
AcDbEntity
  8
0
  6
CONTINUOUS
100
AcDbBlockBegin
  2
A$C4101
 70
     0
 10
0.0
 20
0.0
 30
0.0
  3
A$C4101
  1

  0
LINE
  5
1F
100
AcDbEntity
  8
0
  6
CONTINUOUS
100
AcDbLine
 10
18.201537
 20
94.482577
 30
0.0
 11
18.201537
 21
44.482607
 31
0.0
  0
LINE
  5
20
100
AcDbEntity
  8
0
  6
CONTINUOUS
100
AcDbLine
 10
6.201537
 20
49.482607
 30
0.0
 11
6.201537
 21
89.482577
 31
0.0
  0
LINE
  5
21
100
AcDbEntity
  8
0
  6
CONTINUOUS
100
AcDbLine
 10
0.201537
 20
89.482577
 30
0.0
 11
0.201537
 21
49.482607
 31
0.0
  0
LINE
  5
22
100
AcDbEntity
  8
0
  6
CONTINUOUS
100
AcDbLine
 10
48.701537
 20
44.482607
 30
0.0
 11
48.701537
 21
94.482577
 31
0.0
  0
LINE
  5
23
100
AcDbEntity
  8
0
  6
CONTINUOUS
100
AcDbLine
 10
56.701537
 20
89.863777
 30
0.0
 11
56.701537
 21
49.101407
 31
0.0
  0
LINE
  5
24
100
AcDbEntity
  8
0
  6
CONTINUOUS
100
AcDbLine
 10
58.201537
 20
88.482577
 30
0.0
 11
58.201537
 21
50.482607
 31
0.0
  0
LINE
  5
25
100
AcDbEntity
  8
0
  6
CONTINUOUS
100
AcDbLine
 10
58.201537
 20
50.482607
 30
0.0
 11
58.201537
 21
56.982577
 31
0.0
  0
LINE
  5
26
100
AcDbEntity
  8
0
  6
CONTINUOUS
100
AcDbLine
 10
115.701537
 20
50.482547
 30
0.0
 11
115.701537
 21
88.482577
 31
0.0
  0
LINE
  5
27
100
AcDbEntity
  8
0
  6
CONTINUOUS
100
AcDbLine
 10
114.201537
 20
50.482547
 30
0.0
 11
114.201537
 21
88.482577
 31
0.0
  0
LINE
  5
28
100
AcDbEntity
  8
0
  6
CONTINUOUS
100
AcDbLine
 10
119.201537
 20
88.482677
 30
0.0
 11
119.201537
 21
50.482517
 31
0.0
  0
LINE
  5
29
100
AcDbEntity
  8
0
  6
CENTER
 62
     1
100
AcDbLine
 10
86.201537
 20
0.153477
 30
0.0
 11
86.201537
 21
119.520077
 31
0.0
  0
LINE
  5
2B
100
AcDbEntity
  8
0
  6
CONTINUOUS
100
AcDbLine
 10
48.701537
 20
44.482607
 30
0.0
 11
18.201537
 21
44.482607
 31
0.0
  0
LINE
  5
2C
100
AcDbEntity
  8
0
  6
CONTINUOUS
100
AcDbLine
 10
0.201537
 20
49.482607
 30
0.0
 11
6.201537
 21
49.482607
 31
0.0
  0
LINE
  5
2D
100
AcDbEntity
  8
0
  6
CONTINUOUS
100
AcDbLine
 10
56.701537
 20
49.101407
 30
0.0
 11
48.701537
 21
44.482607
 31
0.0
  0
LINE
  5
2E
100
AcDbEntity
  8
0
  6
CONTINUOUS
100
AcDbLine
 10
58.201537
 20
50.482607
 30
0.0
 11
56.701537
 21
50.482607
 31
0.0
  0
LINE
  5
2F
100
AcDbEntity
  8
0
  6
CONTINUOUS
100
AcDbLine
 10
114.201537
 20
50.482547
 30
0.0
 11
119.201537
 21
50.482547
 31
0.0
  0
LINE
  5
30
100
AcDbEntity
  8
0
  6
CONTINUOUS
100
AcDbLine
 10
114.201537
 20
80.482577
 30
0.0
 11
58.201537
 21
80.482577
 31
0.0
  0
LINE
  5
31
100
AcDbEntity
  8
0
  6
CONTINUOUS
100
AcDbLine
 10
58.201537
 20
58.482577
 30
0.0
 11
114.201537
 21
58.482577
 31
0.0
  0
LINE
  5
32
100
AcDbEntity
  8
0
  6
CONTINUOUS
100
AcDbLine
 10
78.201537
 20
81.982577
 30
0.0
 11
58.201537
 21
81.982577
 31
0.0
  0
LINE
  5
33
100
AcDbEntity
  8
0
  6
CONTINUOUS
100
AcDbLine
 10
58.201537
 20
56.982577
 30
0.0
 11
78.201537
 21
56.982577
 31
0.0
  0
LINE
  5
34
100
AcDbEntity
  8
0
  6
CENTER
 62
     1
100
AcDbLine
 10
159.398537
 20
69.482577
 30
0.0
 11
0.201537
 21
69.482577
 31
0.0
  0
LINE
  5
35
100
AcDbEntity
  8
0
  6
CONTINUOUS
100
AcDbLine
 10
18.201537
 20
94.482577
 30
0.0
 11
24.701537
 21
94.482577
 31
0.0
  0
LINE
  5
36
100
AcDbEntity
  8
0
  6
CONTINUOUS
100
AcDbLine
 10
0.201537
 20
89.482577
 30
0.0
 11
6.201537
 21
89.482577
 31
0.0
  0
LINE
  5
37
100
AcDbEntity
  8
0
  6
CONTINUOUS
100
AcDbLine
 10
18.201537
 20
54.482577
 30
0.0
 11
6.201537
 21
54.482577
 31
0.0
  0
LINE
  5
38
100
AcDbEntity
  8
0
  6
CONTINUOUS
100
AcDbLine
 10
18.201537
 20
84.482477
 30
0.0
 11
6.201537
 21
84.482477
 31
0.0
  0
LINE
  5
39
100
AcDbEntity
  8
0
  6
CENTER
 62
     1
100
AcDbLine
 10
43.201537
 20
97.721577
 30
0.0
 11
43.201537
 21
82.173277
 31
0.0
  0
LINE
  5
3A
100
AcDbEntity
  8
0
  6
CENTER
 62
     1
100
AcDbLine
 10
27.201537
 20
99.039877
 30
0.0
 11
27.201537
 21
76.482577
 31
0.0
  0
ARC
  5
3B
100
AcDbEntity
  8
0
  6
CONTINUOUS
100
AcDbCircle
 10
43.201637
 20
105.597577
 30
0.0
 40
11.8998
100
AcDbArc
 50
249.074
 51
290.926
  0
LINE
  5
3C
100
AcDbEntity
  8
0
  6
CONTINUOUS
100
AcDbLine
 10
29.701537
 20
94.482577
 30
0.0
 11
38.951537
 21
94.482577
 31
0.0
  0
ARC
  5
3D
100
AcDbEntity
  8
0
  6
CONTINUOUS
100
AcDbCircle
 10
27.302637
 20
101.516077
 30
0.0
 40
7.65211
100
AcDbArc
 50
246.905
 51
289.969
  0
LINE
  5
3E
100
AcDbEntity
  8
0
  6
DASHED
100
AcDbLine
 10
58.201537
 20
79.250777
 30
0.0
 11
58.201537
 21
59.250777
 31
0.0
  0
LINE
  5
40
100
AcDbEntity
  8
0
  6
CONTINUOUS
100
AcDbLine
 10
56.701537
 20
89.863777
 30
0.0
 11
48.701537
 21
94.482577
 31
0.0
  0
LINE
  5
41
100
AcDbEntity
  8
0
  6
CONTINUOUS
100
AcDbLine
 10
47.451537
 20
94.482577
 30
0.0
 11
48.701537
 21
94.482577
 31
0.0
  0
LINE
  5
42
100
AcDbEntity
  8
0
  6
CONTINUOUS
100
AcDbLine
 10
58.201537
 20
81.982577
 30
0.0
 11
58.201537
 21
88.482577
 31
0.0
  0
LINE
  5
43
100
AcDbEntity
  8
0
  6
CONTINUOUS
100
AcDbLine
 10
56.701537
 20
88.482577
 30
0.0
 11
58.201537
 21
88.482577
 31
0.0
  0
LINE
  5
44
100
AcDbEntity
  8
0
  6
CONTINUOUS
100
AcDbLine
 10
147.701537
 20
75.982477
 30
0.0
 11
140.668537
 21
75.982477
 31
0.0
  0
LINE
  5
45
100
AcDbEntity
  8
0
  6
CONTINUOUS
100
AcDbLine
 10
147.701537
 20
62.982477
 30
0.0
 11
140.701537
 21
62.982477
 31
0.0
  0
LINE
  5
46
100
AcDbEntity
  8
0
  6
CONTINUOUS
100
AcDbLine
 10
147.701537
 20
68.883877
 30
0.0
 11
141.701537
 21
68.883877
 31
0.0
  0
LINE
  5
47
100
AcDbEntity
  8
0
  6
CONTINUOUS
100
AcDbLine
 10
147.701537
 20
70.081277
 30
0.0
 11
141.701537
 21
70.081277
 31
0.0
  0
LINE
  5
48
100
AcDbEntity
  8
0
  6
CONTINUOUS
 62
     1
100
AcDbLine
 10
141.679537
 20
68.940877
 30
0.0
 11
147.633537
 21
62.966777
 31
0.0
  0
LINE
  5
49
100
AcDbEntity
  8
0
  6
CONTINUOUS
 62
     1
100
AcDbLine
 10
147.694537
 20
68.886077
 30
0.0
 11
141.720537
 21
63.021677
 31
0.0
  0
LINE
  5
4A
100
AcDbEntity
  8
0
  6
CONTINUOUS
 62
     1
100
AcDbLine
 10
147.694537
 20
70.078977
 30
0.0
 11
141.720537
 21
75.943377
 31
0.0
  0
LINE
  5
4B
100
AcDbEntity
  8
0
  6
CONTINUOUS
 62
     1
100
AcDbLine
 10
141.679537
 20
70.024177
 30
0.0
 11
147.633537
 21
75.998277
 31
0.0
  0
LINE
  5
4C
100
AcDbEntity
  8
0
  6
CONTINUOUS
100
AcDbLine
 10
114.001537
 20
81.982577
 30
0.0
 11
94.201537
 21
81.982577
 31
0.0
  0
LINE
  5
4D
100
AcDbEntity
  8
0
  6
CONTINUOUS
100
AcDbLine
 10
94.201537
 20
56.982577
 30
0.0
 11
114.201537
 21
56.982577
 31
0.0
  0
LINE
  5
4E
100
AcDbEntity
  8
0
  6
CONTINUOUS
100
AcDbLine
 10
78.201537
 20
56.982577
 30
0.0
 11
78.201537
 21
58.482577
 31
0.0
  0
LINE
  5
4F
100
AcDbEntity
  8
0
  6
CONTINUOUS
100
AcDbLine
 10
78.201537
 20
80.482577
 30
0.0
 11
78.201537
 21
81.982577
 31
0.0
  0
LINE
  5
50
100
AcDbEntity
  8
0
  6
CONTINUOUS
100
AcDbLine
 10
94.201537
 20
58.482577
 30
0.0
 11
94.201537
 21
56.982577
 31
0.0
  0
LINE
  5
51
100
AcDbEntity
  8
0
  6
CONTINUOUS
100
AcDbLine
 10
94.201537
 20
80.482577
 30
0.0
 11
94.201537
 21
81.982577
 31
0.0
  0
LINE
  5
52
100
AcDbEntity
  8
0
  6
CONTINUOUS
100
AcDbLine
 10
121.484537
 20
83.339077
 30
0.0
 11
132.436537
 21
83.339077
 31
0.0
  0
LINE
  5
53
100
AcDbEntity
  8
0
  6
CONTINUOUS
100
AcDbLine
 10
121.484537
 20
55.626177
 30
0.0
 11
132.436537
 21
55.626177
 31
0.0
  0
LINE
  5
54
100
AcDbEntity
  8
0
  6
CONTINUOUS
100
AcDbLine
 10
132.436537
 20
76.482577
 30
0.0
 11
121.484537
 21
76.482577
 31
0.0
  0
LINE
  5
55
100
AcDbEntity
  8
0
  6
CONTINUOUS
100
AcDbLine
 10
132.436537
 20
62.482577
 30
0.0
 11
121.484537
 21
62.482577
 31
0.0
  0
LINE
  5
56
100
AcDbEntity
  8
0
  6
CONTINUOUS
100
AcDbLine
 10
120.701537
 20
57.482577
 30
0.0
 11
120.701537
 21
80.416677
 31
0.0
  0
ARC
  5
57
100
AcDbEntity
  8
0
  6
CONTINUOUS
100
AcDbCircle
 10
152.379537
 20
69.482577
 30
0.0
 40
31.6779
100
AcDbArc
 50
167.234
 51
192.766
  0
ARC
  5
58
100
AcDbEntity
  8
0
  6
CONTINUOUS
100
AcDbCircle
 10
128.597537
 20
59.054277
 30
0.0
 40
7.89589
100
AcDbArc
 50
154.267
 51
205.733
  0
LINE
  5
59
100
AcDbEntity
  8
0
  6
CONTINUOUS
100
AcDbLine
 10
119.201537
 20
57.482577
 30
0.0
 11
120.701537
 21
57.482577
 31
0.0
  0
LINE
  5
5A
100
AcDbEntity
  8
0
  6
CONTINUOUS
100
AcDbLine
 10
121.484537
 20
55.626177
 30
0.0
 11
120.701537
 21
58.548477
 31
0.0
  0
ARC
  5
5B
100
AcDbEntity
  8
0
  6
CONTINUOUS
100
AcDbCircle
 10
128.597537
 20
79.910777
 30
0.0
 40
7.89589
100
AcDbArc
 50
154.267
 51
205.733
  0
LINE
  5
5C
100
AcDbEntity
  8
0
  6
CONTINUOUS
100
AcDbLine
 10
119.201537
 20
81.482577
 30
0.0
 11
120.701537
 21
81.482577
 31
0.0
  0
LINE
  5
5D
100
AcDbEntity
  8
0
  6
CONTINUOUS
100
AcDbLine
 10
119.201537
 20
88.482577
 30
0.0
 11
114.201537
 21
88.482577
 31
0.0
  0
LINE
  5
5E
100
AcDbEntity
  8
0
  6
CONTINUOUS
100
AcDbLine
 10
140.701537
 20
76.482577
 30
0.0
 11
140.701537
 21
62.482577
 31
0.0
  0
LINE
  5
5F
100
AcDbEntity
  8
0
  6
CONTINUOUS
100
AcDbLine
 10
138.701537
 20
59.482577
 30
0.0
 11
138.701537
 21
79.482577
 31
0.0
  0
ARC
  5
60
100
AcDbEntity
  8
0
  6
CONTINUOUS
100
AcDbCircle
 10
101.541537
 20
69.482577
 30
0.0
 40
31.6779
100
AcDbArc
 50
347.234
 51
12.7662
  0
LINE
  5
61
100
AcDbEntity
  8
0
  6
CONTINUOUS
100
AcDbLine
 10
137.701537
 20
80.482677
 30
0.0
 11
137.701537
 21
58.482477
 31
0.0
  0
LINE
  5
62
100
AcDbEntity
  8
0
  6
CONTINUOUS
100
AcDbLine
 10
133.198537
 20
80.482677
 30
0.0
 11
133.198537
 21
59.054277
 31
0.0
  0
LINE
  5
63
100
AcDbEntity
  8
0
  6
CONTINUOUS
100
AcDbLine
 10
141.701537
 20
70.081277
 30
0.0
 11
141.701537
 21
75.982577
 31
0.0
  0
ARC
  5
64
100
AcDbEntity
  8
0
  6
CONTINUOUS
100
AcDbCircle
 10
125.323537
 20
59.054277
 30
0.0
 40
7.89589
100
AcDbArc
 50
334.267
 51
25.7334
  0
LINE
  5
65
100
AcDbEntity
  8
0
  6
CONTINUOUS
100
AcDbLine
 10
141.701537
 20
68.883877
 30
0.0
 11
141.701537
 21
62.982477
 31
0.0
  0
LINE
  5
66
100
AcDbEntity
  8
0
  6
CONTINUOUS
100
AcDbLine
 10
137.701537
 20
58.482477
 30
0.0
 11
138.701537
 21
59.482577
 31
0.0
  0
LINE
  5
67
100
AcDbEntity
  8
0
  6
CONTINUOUS
100
AcDbLine
 10
133.201537
 20
58.482477
 30
0.0
 11
137.701537
 21
58.482477
 31
0.0
  0
LINE
  5
68
100
AcDbEntity
  8
0
  6
CONTINUOUS
100
AcDbLine
 10
139.701537
 20
61.482577
 30
0.0
 11
138.701537
 21
61.482577
 31
0.0
  0
LINE
  5
69
100
AcDbEntity
  8
0
  6
CONTINUOUS
100
AcDbLine
 10
140.701537
 20
62.482577
 30
0.0
 11
138.701537
 21
62.482577
 31
0.0
  0
LINE
  5
6A
100
AcDbEntity
  8
0
  6
CONTINUOUS
100
AcDbLine
 10
139.701537
 20
61.482577
 30
0.0
 11
140.701537
 21
62.482577
 31
0.0
  0
ARC
  5
6B
100
AcDbEntity
  8
0
  6
CONTINUOUS
100
AcDbCircle
 10
125.323537
 20
79.910777
 30
0.0
 40
7.89589
100
AcDbArc
 50
334.267
 51
25.7334
  0
LINE
  5
6C
100
AcDbEntity
  8
0
  6
CONTINUOUS
100
AcDbLine
 10
137.701537
 20
80.482677
 30
0.0
 11
138.701537
 21
79.482577
 31
0.0
  0
LINE
  5
6D
100
AcDbEntity
  8
0
  6
CONTINUOUS
100
AcDbLine
 10
133.201537
 20
80.482677
 30
0.0
 11
137.701537
 21
80.482677
 31
0.0
  0
LINE
  5
6E
100
AcDbEntity
  8
0
  6
CONTINUOUS
100
AcDbLine
 10
139.701537
 20
77.482577
 30
0.0
 11
140.701537
 21
76.482577
 31
0.0
  0
LINE
  5
6F
100
AcDbEntity
  8
0
  6
CONTINUOUS
100
AcDbLine
 10
140.701537
 20
76.482577
 30
0.0
 11
138.870537
 21
76.482577
 31
0.0
  0
LINE
  5
70
100
AcDbEntity
  8
0
  6
CONTINUOUS
100
AcDbLine
 10
138.701537
 20
77.482577
 30
0.0
 11
139.701537
 21
77.482577
 31
0.0
  0
LINE
  5
71
100
AcDbEntity
  8
0
  6
CONTINUOUS
100
AcDbLine
 10
148.701537
 20
74.982477
 30
0.0
 11
148.701537
 21
63.982477
 31
0.0
  0
ARC
  5
72
100
AcDbEntity
  8
0
  6
CONTINUOUS
100
AcDbCircle
 10
144.001537
 20
73.051377
 30
0.0
 40
4.70917
100
AcDbArc
 50
320.862
 51
38.7395
  0
ARC
  5
73
100
AcDbEntity
  8
0
  6
CONTINUOUS
100
AcDbCircle
 10
144.001537
 20
65.913677
 30
0.0
 40
4.70917
100
AcDbArc
 50
321.261
 51
39.1382
  0
LINE
  5
74
100
AcDbEntity
  8
0
  6
CONTINUOUS
100
AcDbLine
 10
147.701537
 20
62.982477
 30
0.0
 11
148.701537
 21
63.982477
 31
0.0
  0
LINE
  5
75
100
AcDbEntity
  8
0
  6
CONTINUOUS
100
AcDbLine
 10
147.701537
 20
63.000877
 30
0.0
 11
147.701537
 21
62.982477
 31
0.0
  0
LINE
  5
76
100
AcDbEntity
  8
0
  6
CONTINUOUS
100
AcDbLine
 10
147.701537
 20
70.081277
 30
0.0
 11
147.701537
 21
68.826477
 31
0.0
  0
LINE
  5
77
100
AcDbEntity
  8
0
  6
CONTINUOUS
100
AcDbLine
 10
147.701537
 20
75.982477
 30
0.0
 11
148.701537
 21
74.982477
 31
0.0
  0
LINE
  5
78
100
AcDbEntity
  8
0
  6
CONTINUOUS
100
AcDbLine
 10
147.701537
 20
75.982477
 30
0.0
 11
147.701537
 21
75.939777
 31
0.0
  0
ENDBLK
  5
7A
100
AcDbEntity
  8
0
  6
CONTINUOUS
100
AcDbBlockEnd
  0
ENDSEC
  0
SECTION
  2
ENTITIES
  0
INSERT
  5
1D
100
AcDbEntity
  8
0
  6
CONTINUOUS
100
AcDbBlockReference
  2
A$C4101
 10
79.798463
 20
-69.482577
 30
0.0
  0
INSERT
  5
7B
100
AcDbEntity
  8
0
  6
CONTINUOUS
100
AcDbBlockReference
  2
A$C32A2
 10
-5.381762
 20
-277.699243
 30
0.0
  0
ENDSEC
  0
SECTION
  2
OBJECTS
  0
DICTIONARY
  5
1A
100
AcDbDictionary
  3
ACAD_GROUP
350
18
  3
ACAD_MLINESTYLE
350
19
  0
DICTIONARY
  5
18
102
{ACAD_REACTORS
330
1A
102
}
100
AcDbDictionary
  0
DICTIONARY
  5
19
102
{ACAD_REACTORS
330
1A
102
}
100
AcDbDictionary
  3
STANDARD
350
1B
  0
MLINESTYLE
  5
1B
102
{ACAD_REACTORS
330
19
102
}
100
AcDbMlineStyle
  2
STANDARD
 70
     0
  3

 62
     0
 51
90.0
 52
90.0
 71
     2
 49
0.5
 62
   256
  6
BYLAYER
 49
-0.5
 62
   256
  6
BYLAYER
  0
ENDSEC
  0
EOF
