  0
SECTION
  2
HEADER
  9
$ACADVER
  1
AC1012
  9
$DWGCODEPAGE
  3
ansi_1252
  9
$INSBASE
 10
-59.5407
 20
8.00001
 30
0.0
  9
$EXTMIN
 10
-4.0284
 20
-45.50001
 30
0.0
  9
$EXTMAX
 10
84.5033
 20
29.49999
 30
0.0
  9
$LIMMIN
 10
0.0
 20
0.0
  9
$LIMMAX
 10
10.0
 20
10.0
  9
$ORTHOMODE
 70
     0
  9
$REGENMODE
 70
     1
  9
$FILLMODE
 70
     1
  9
$QTEXTMODE
 70
     0
  9
$MIRRTEXT
 70
     1
  9
$DRAGMODE
 70
     2
  9
$LTSCALE
 40
6.0
  9
$OSMODE
 70
     0
  9
$ATTMODE
 70
     1
  9
$TEXTSIZE
 40
0.2
  9
$TRACEWID
 40
0.05
  9
$TEXTSTYLE
  7
STANDARD
  9
$CLAYER
  8
0
  9
$CELTYPE
  6
CONTINUOUS
  9
$CECOLOR
 62
   256
  9
$CELTSCALE
 40
1.0
  9
$DELOBJ
 70
     1
  9
$DISPSILH
 70
     0
  9
$DIMSCALE
 40
1.0
  9
$DIMASZ
 40
0.18
  9
$DIMEXO
 40
0.0625
  9
$DIMDLI
 40
0.38
  9
$DIMRND
 40
0.0
  9
$DIMDLE
 40
0.0
  9
$DIMEXE
 40
0.18
  9
$DIMTP
 40
0.0
  9
$DIMTM
 40
0.0
  9
$DIMTXT
 40
0.18
  9
$DIMCEN
 40
0.09
  9
$DIMTSZ
 40
0.0
  9
$DIMTOL
 70
     0
  9
$DIMLIM
 70
     0
  9
$DIMTIH
 70
     1
  9
$DIMTOH
 70
     1
  9
$DIMSE1
 70
     0
  9
$DIMSE2
 70
     0
  9
$DIMTAD
 70
     0
  9
$DIMZIN
 70
     0
  9
$DIMBLK
  1

  9
$DIMASO
 70
     1
  9
$DIMSHO
 70
     1
  9
$DIMPOST
  1

  9
$DIMAPOST
  1

  9
$DIMALT
 70
     0
  9
$DIMALTD
 70
     2
  9
$DIMALTF
 40
25.4
  9
$DIMLFAC
 40
1.0
  9
$DIMTOFL
 70
     0
  9
$DIMTVP
 40
0.0
  9
$DIMTIX
 70
     0
  9
$DIMSOXD
 70
     0
  9
$DIMSAH
 70
     0
  9
$DIMBLK1
  1

  9
$DIMBLK2
  1

  9
$DIMSTYLE
  2
STANDARD
  9
$DIMCLRD
 70
     0
  9
$DIMCLRE
 70
     0
  9
$DIMCLRT
 70
     0
  9
$DIMTFAC
 40
1.0
  9
$DIMGAP
 40
0.09
  9
$DIMJUST
 70
     0
  9
$DIMSD1
 70
     0
  9
$DIMSD2
 70
     0
  9
$DIMTOLJ
 70
     1
  9
$DIMTZIN
 70
     0
  9
$DIMALTZ
 70
     0
  9
$DIMALTTZ
 70
     0
  9
$DIMFIT
 70
     3
  9
$DIMUPT
 70
     0
  9
$DIMUNIT
 70
     2
  9
$DIMDEC
 70
     4
  9
$DIMTDEC
 70
     4
  9
$DIMALTU
 70
     2
  9
$DIMALTTD
 70
     2
  9
$DIMTXSTY
  7
STANDARD
  9
$DIMAUNIT
 70
     0
  9
$LUNITS
 70
     2
  9
$LUPREC
 70
     4
  9
$SKETCHINC
 40
0.1
  9
$FILLETRAD
 40
0.0
  9
$AUNITS
 70
     0
  9
$AUPREC
 70
     0
  9
$MENU
  1
.
  9
$ELEVATION
 40
0.0
  9
$PELEVATION
 40
0.0
  9
$THICKNESS
 40
0.0
  9
$LIMCHECK
 70
     0
  9
$BLIPMODE
 70
     1
  9
$CHAMFERA
 40
0.0
  9
$CHAMFERB
 40
0.0
  9
$CHAMFERC
 40
0.0
  9
$CHAMFERD
 40
0.0
  9
$SKPOLY
 70
     0
  9
$TDCREATE
 40
2450771.370243518
  9
$TDUPDATE
 40
2450771.370243518
  9
$TDINDWG
 40
0.0000000000
  9
$TDUSRTIMER
 40
0.0000000000
  9
$USRTIMER
 70
     1
  9
$ANGBASE
 50
0.0
  9
$ANGDIR
 70
     0
  9
$PDMODE
 70
     0
  9
$PDSIZE
 40
0.0
  9
$PLINEWID
 40
0.0
  9
$COORDS
 70
     1
  9
$SPLFRAME
 70
     0
  9
$SPLINETYPE
 70
     6
  9
$SPLINESEGS
 70
     8
  9
$ATTDIA
 70
     0
  9
$ATTREQ
 70
     1
  9
$HANDLING
 70
     1
  9
$HANDSEED
  5
82
  9
$SURFTAB1
 70
     6
  9
$SURFTAB2
 70
     6
  9
$SURFTYPE
 70
     6
  9
$SURFU
 70
     6
  9
$SURFV
 70
     6
  9
$UCSNAME
  2

  9
$UCSORG
 10
0.0
 20
0.0
 30
0.0
  9
$UCSXDIR
 10
1.0
 20
0.0
 30
0.0
  9
$UCSYDIR
 10
0.0
 20
1.0
 30
0.0
  9
$PUCSNAME
  2

  9
$PUCSORG
 10
0.0
 20
0.0
 30
0.0
  9
$PUCSXDIR
 10
1.0
 20
0.0
 30
0.0
  9
$PUCSYDIR
 10
0.0
 20
1.0
 30
0.0
  9
$USERI1
 70
     0
  9
$USERI2
 70
     0
  9
$USERI3
 70
     0
  9
$USERI4
 70
     0
  9
$USERI5
 70
     0
  9
$USERR1
 40
0.0
  9
$USERR2
 40
0.0
  9
$USERR3
 40
0.0
  9
$USERR4
 40
0.0
  9
$USERR5
 40
0.0
  9
$WORLDVIEW
 70
     1
  9
$SHADEDGE
 70
     3
  9
$SHADEDIF
 70
    70
  9
$TILEMODE
 70
     1
  9
$MAXACTVP
 70
    16
  9
$PINSBASE
 10
0.0
 20
0.0
 30
0.0
  9
$PLIMCHECK
 70
     0
  9
$PEXTMIN
 10
1.000000E+20
 20
1.000000E+20
 30
1.000000E+20
  9
$PEXTMAX
 10
-1.000000E+20
 20
-1.000000E+20
 30
-1.000000E+20
  9
$PLIMMIN
 10
0.0
 20
0.0
  9
$PLIMMAX
 10
12.0
 20
9.0
  9
$UNITMODE
 70
     0
  9
$VISRETAIN
 70
     0
  9
$PLINEGEN
 70
     0
  9
$PSLTSCALE
 70
     1
  9
$TREEDEPTH
 70
  3020
  9
$PICKSTYLE
 70
     1
  9
$CMLSTYLE
  2
STANDARD
  9
$CMLJUST
 70
     0
  9
$CMLSCALE
 40
1.0
  9
$SAVEIMAGES
 70
     0
  0
ENDSEC
  0
SECTION
  2
CLASSES
  0
ENDSEC
  0
SECTION
  2
TABLES
  0
TABLE
  2
VPORT
  5
12
100
AcDbSymbolTable
 70
     2
  0
VPORT
  5
81
100
AcDbSymbolTableRecord
100
AcDbViewportTableRecord
  2
*ACTIVE
 70
     0
 10
0.0
 20
0.0
 11
1.0
 21
1.0
 12
62.675737
 22
-8.00001
 13
0.0
 23
0.0
 14
1.0
 24
1.0
 15
0.0
 25
0.0
 16
0.0
 26
0.0
 36
1.0
 17
0.0
 27
0.0
 37
0.0
 40
75.0
 41
1.778777
 42
50.0
 43
0.0
 44
0.0
 50
0.0
 51
0.0
 71
     0
 72
   100
 73
     1
 74
     1
 75
     0
 76
     0
 77
     0
 78
     0
  0
ENDTAB
  0
TABLE
  2
LTYPE
  5
E
100
AcDbSymbolTable
 70
     3
  0
LTYPE
  5
F
100
AcDbSymbolTableRecord
100
AcDbLinetypeTableRecord
  2
BYBLOCK
 70
     0
  3

 72
    65
 73
     0
 40
0.0
  0
LTYPE
  5
6
100
AcDbSymbolTableRecord
100
AcDbLinetypeTableRecord
  2
BYLAYER
 70
     0
  3

 72
    65
 73
     0
 40
0.0
  0
LTYPE
  5
5
100
AcDbSymbolTableRecord
100
AcDbLinetypeTableRecord
  2
CONTINUOUS
 70
    64
  3

 72
    65
 73
     0
 40
0.0
  0
LTYPE
  5
35
100
AcDbSymbolTableRecord
100
AcDbLinetypeTableRecord
  2
DASHED
 70
    64
  3

 72
    65
 73
     2
 40
0.75
 49
0.5
 74
     0
 49
-0.25
 74
     0
  0
LTYPE
  5
24
100
AcDbSymbolTableRecord
100
AcDbLinetypeTableRecord
  2
CENTER
 70
    64
  3

 72
    65
 73
     4
 40
2.0
 49
1.25
 74
     0
 49
-0.25
 74
     0
 49
0.25
 74
     0
 49
-0.25
 74
     0
  0
ENDTAB
  0
TABLE
  2
LAYER
  5
B
100
AcDbSymbolTable
 70
     1
  0
LAYER
  5
4
100
AcDbSymbolTableRecord
100
AcDbLayerTableRecord
  2
0
 70
    64
 62
     7
  6
CONTINUOUS
  0
ENDTAB
  0
TABLE
  2
STYLE
  5
C
100
AcDbSymbolTable
 70
     1
  0
STYLE
  5
D
100
AcDbSymbolTableRecord
100
AcDbTextStyleTableRecord
  2
STANDARD
 70
     0
 40
0.0
 41
1.0
 50
0.0
 71
     0
 42
0.2
  3
TXT
  4

  0
ENDTAB
  0
TABLE
  2
VIEW
  5
10
100
AcDbSymbolTable
 70
     0
  0
ENDTAB
  0
TABLE
  2
UCS
  5
11
100
AcDbSymbolTable
 70
     0
  0
ENDTAB
  0
TABLE
  2
APPID
  5
14
100
AcDbSymbolTable
 70
     1
  0
APPID
  5
15
100
AcDbSymbolTableRecord
100
AcDbRegAppTableRecord
  2
ACAD
 70
     0
  0
ENDTAB
  0
TABLE
  2
DIMSTYLE
  5
16
100
AcDbSymbolTable
 70
     1
  0
DIMSTYLE
105
1C
100
AcDbSymbolTableRecord
100
AcDbDimStyleTableRecord
  2
STANDARD
 70
     0
  3

  4

  5

  6

  7

 40
1.0
 41
0.18
 42
0.0625
 43
0.38
 44
0.18
 45
0.0
 46
0.0
 47
0.0
 48
0.0
140
0.18
141
0.09
142
0.0
143
25.4
144
1.0
145
0.0
146
1.0
147
0.09
 71
     0
 72
     0
 73
     1
 74
     1
 75
     0
 76
     0
 77
     0
 78
     0
170
     0
171
     2
172
     0
173
     0
174
     0
175
     0
176
     0
177
     0
178
     0
270
     2
271
     4
272
     4
273
     2
274
     2
340
D
275
     0
280
     0
281
     0
282
     0
283
     1
284
     0
285
     0
286
     0
287
     3
288
     0
  0
ENDTAB
  0
TABLE
  2
BLOCK_RECORD
  5
1
100
AcDbSymbolTable
 70
     1
  0
BLOCK_RECORD
  5
2
100
AcDbSymbolTableRecord
100
AcDbBlockTableRecord
  2
*MODEL_SPACE
  0
BLOCK_RECORD
  5
8
100
AcDbSymbolTableRecord
100
AcDbBlockTableRecord
  2
*PAPER_SPACE
  0
BLOCK_RECORD
  5
1E
100
AcDbSymbolTableRecord
100
AcDbBlockTableRecord
  2
A$C1022
  0
ENDTAB
  0
ENDSEC
  0
SECTION
  2
BLOCKS
  0
BLOCK
  5
3
100
AcDbEntity
  8
0
100
AcDbBlockBegin
  2
*MODEL_SPACE
 70
     0
 10
0.0
 20
0.0
 30
0.0
  3
*MODEL_SPACE
  1

  0
ENDBLK
  5
7
100
AcDbEntity
  8
0
100
AcDbBlockEnd
  0
BLOCK
  5
9
100
AcDbEntity
 67
     1
  8
0
100
AcDbBlockBegin
  2
*PAPER_SPACE
 70
     0
 10
0.0
 20
0.0
 30
0.0
  3
*PAPER_SPACE
  1

  0
ENDBLK
  5
A
100
AcDbEntity
 67
     1
  8
0
100
AcDbBlockEnd
  0
BLOCK
  5
7D
100
AcDbEntity
  8
0
  6
CONTINUOUS
100
AcDbBlockBegin
  2
A$C1022
 70
     0
 10
0.0
 20
0.0
 30
0.0
  3
A$C1022
  1

  0
LINE
  5
1F
100
AcDbEntity
  8
0
  6
CONTINUOUS
100
AcDbLine
 10
22.202839
 20
44.886888
 30
0.0
 11
22.704339
 21
45.108778
 31
0.0
  0
LINE
  5
20
100
AcDbEntity
  8
0
  6
CONTINUOUS
100
AcDbLine
 10
22.704339
 20
45.854218
 30
0.0
 11
18.663639
 21
45.854218
 31
0.0
  0
LINE
  5
21
100
AcDbEntity
  8
0
  6
CONTINUOUS
100
AcDbLine
 10
22.202839
 20
30.866368
 30
0.0
 11
22.704339
 21
30.649898
 31
0.0
  0
LINE
  5
22
100
AcDbEntity
  8
0
  6
CONTINUOUS
100
AcDbLine
 10
22.704339
 20
29.854208
 30
0.0
 11
18.663639
 21
29.854208
 31
0.0
  0
LINE
  5
23
100
AcDbEntity
  8
0
  6
CENTER
 62
     1
100
AcDbLine
 10
88.666939
 20
37.854192
 30
0.0
 11
0.135239
 21
37.854216
 31
0.0
  0
LINE
  5
25
100
AcDbEntity
  8
0
  6
CONTINUOUS
100
AcDbLine
 10
16.663639
 20
36.420418
 30
0.0
 11
18.663639
 21
37.854206
 31
0.0
  0
LINE
  5
26
100
AcDbEntity
  8
0
  6
CONTINUOUS
100
AcDbLine
 10
18.663639
 20
24.354198
 30
0.0
 11
18.663639
 21
37.854206
 31
0.0
  0
LINE
  5
27
100
AcDbEntity
  8
0
  6
CONTINUOUS
100
AcDbLine
 10
16.663639
 20
24.354198
 30
0.0
 11
16.663639
 21
37.854206
 31
0.0
  0
LINE
  5
28
100
AcDbEntity
  8
0
  6
CONTINUOUS
100
AcDbLine
 10
22.204339
 20
30.900258
 30
0.0
 11
22.204339
 21
44.887508
 31
0.0
  0
ARC
  5
29
100
AcDbEntity
  8
0
  6
CONTINUOUS
100
AcDbCircle
 10
29.447639
 20
37.854204
 30
0.0
 40
20.784
100
AcDbArc
 50
160.511
 51
199.489
  0
ARC
  5
2A
100
AcDbEntity
  8
0
  6
CONTINUOUS
100
AcDbCircle
 10
-4.120361
 20
37.854207
 30
0.0
 40
20.784
100
AcDbArc
 50
340.511
 51
19.489
  0
LINE
  5
2B
100
AcDbEntity
  8
0
  6
CONTINUOUS
100
AcDbLine
 10
5.163639
 20
45.854208
 30
0.0
 11
5.163639
 21
29.854208
 31
0.0
  0
LINE
  5
2C
100
AcDbEntity
  8
0
  6
CONTINUOUS
100
AcDbLine
 10
4.163639
 20
44.854208
 30
0.0
 11
4.163639
 21
30.857488
 31
0.0
  0
LINE
  5
2D
100
AcDbEntity
  8
0
  6
CONTINUOUS
100
AcDbLine
 10
16.663639
 20
27.462198
 30
0.0
 11
16.663639
 21
48.246198
 31
0.0
  0
LINE
  5
2E
100
AcDbEntity
  8
0
  6
CONTINUOUS
100
AcDbLine
 10
16.663639
 20
27.462198
 30
0.0
 11
16.663639
 21
48.246198
 31
0.0
  0
LINE
  5
2F
100
AcDbEntity
  8
0
  6
CONTINUOUS
100
AcDbLine
 10
16.663639
 20
27.462198
 30
0.0
 11
16.663639
 21
48.246198
 31
0.0
  0
LINE
  5
30
100
AcDbEntity
  8
0
  6
CONTINUOUS
100
AcDbLine
 10
8.663639
 20
27.462198
 30
0.0
 11
8.663639
 21
48.246198
 31
0.0
  0
ARC
  5
31
100
AcDbEntity
  8
0
  6
CONTINUOUS
100
AcDbCircle
 10
14.279639
 20
27.462198
 30
0.0
 40
5.616
100
AcDbArc
 50
141.996
 51
217.98
  0
LINE
  5
32
100
AcDbEntity
  8
0
  6
CONTINUOUS
100
AcDbLine
 10
4.163639
 20
30.857488
 30
0.0
 11
5.163639
 21
29.854208
 31
0.0
  0
LINE
  5
33
100
AcDbEntity
  8
0
  6
CONTINUOUS
100
AcDbLine
 10
8.663639
 20
29.854208
 30
0.0
 11
5.163639
 21
29.854208
 31
0.0
  0
LINE
  5
34
100
AcDbEntity
  8
0
  6
DASHED
100
AcDbLine
 10
8.663639
 20
29.854208
 30
0.0
 11
8.642739
 21
29.854208
 31
0.0
  0
LINE
  5
36
100
AcDbEntity
  8
0
  6
CONTINUOUS
100
AcDbLine
 10
4.162439
 20
30.854208
 30
0.0
 11
8.663639
 21
30.854208
 31
0.0
  0
LINE
  5
37
100
AcDbEntity
  8
0
  6
DASHED
100
AcDbLine
 10
8.642739
 20
30.854208
 30
0.0
 11
8.663639
 21
30.854208
 31
0.0
  0
ARC
  5
38
100
AcDbEntity
  8
0
  6
CONTINUOUS
100
AcDbCircle
 10
11.047639
 20
27.462198
 30
0.0
 40
5.616
100
AcDbArc
 50
322.02
 51
38.0046
  0
LINE
  5
39
100
AcDbEntity
  8
0
  6
CONTINUOUS
100
AcDbLine
 10
15.463639
 20
24.006198
 30
0.0
 11
9.863639
 21
24.006198
 31
0.0
  0
LINE
  5
3A
100
AcDbEntity
  8
0
  6
CONTINUOUS
100
AcDbLine
 10
15.463639
 20
30.918198
 30
0.0
 11
9.863639
 21
30.918198
 31
0.0
  0
LINE
  5
3B
100
AcDbEntity
  8
0
  6
DASHED
100
AcDbLine
 10
18.801139
 20
29.854208
 30
0.0
 11
18.663639
 21
29.854208
 31
0.0
  0
LINE
  5
3C
100
AcDbEntity
  8
0
  6
CONTINUOUS
100
AcDbLine
 10
18.663639
 20
24.354198
 30
0.0
 11
16.663639
 21
24.354198
 31
0.0
  0
LINE
  5
3D
100
AcDbEntity
  8
0
  6
CONTINUOUS
100
AcDbLine
 10
18.663639
 20
30.900258
 30
0.0
 11
22.204339
 21
30.900258
 31
0.0
  0
LINE
  5
3E
100
AcDbEntity
  8
0
  6
DASHED
100
AcDbLine
 10
18.663639
 20
30.900258
 30
0.0
 11
18.692139
 21
30.900258
 31
0.0
  0
ARC
  5
3F
100
AcDbEntity
  8
0
  6
CONTINUOUS
100
AcDbCircle
 10
14.279639
 20
48.246198
 30
0.0
 40
5.616
100
AcDbArc
 50
142.02
 51
218.005
  0
CIRCLE
  5
40
100
AcDbEntity
  8
0
100
AcDbCircle
 10
4.163639
 20
45.854208
 30
0.0
 40
3.0
  0
POLYLINE
  5
41
100
AcDbEntity
  8
0
100
AcDb2dPolyline
 66
     1
 10
0.0
 20
0.0
 30
0.0
 40
3.0
 41
3.0
  0
VERTEX
  5
42
100
AcDbEntity
  8
0
100
AcDbVertex
100
AcDb2dVertex
 10
4.163639
 20
47.354208
 30
0.0
 42
0.414214
  0
VERTEX
  5
43
100
AcDbEntity
  8
0
100
AcDbVertex
100
AcDb2dVertex
 10
2.663639
 20
45.854208
 30
0.0
 42
1.0
  0
SEQEND
  5
44
100
AcDbEntity
  8
0
  0
POLYLINE
  5
45
100
AcDbEntity
  8
0
100
AcDb2dPolyline
 66
     1
 10
0.0
 20
0.0
 30
0.0
 40
3.0
 41
3.0
  0
VERTEX
  5
46
100
AcDbEntity
  8
0
100
AcDbVertex
100
AcDb2dVertex
 10
4.163639
 20
44.354208
 30
0.0
 42
0.414214
  0
VERTEX
  5
47
100
AcDbEntity
  8
0
100
AcDbVertex
100
AcDb2dVertex
 10
5.663639
 20
45.854208
 30
0.0
 42
1.0
  0
SEQEND
  5
48
100
AcDbEntity
  8
0
  0
LINE
  5
49
100
AcDbEntity
  8
0
  6
CONTINUOUS
100
AcDbLine
 10
4.162439
 20
44.854208
 30
0.0
 11
8.663639
 21
44.854208
 31
0.0
  0
LINE
  5
4A
100
AcDbEntity
  8
0
  6
CONTINUOUS
100
AcDbLine
 10
8.663639
 20
45.854208
 30
0.0
 11
5.163639
 21
45.854208
 31
0.0
  0
LINE
  5
4B
100
AcDbEntity
  8
0
  6
CONTINUOUS
100
AcDbLine
 10
4.167939
 20
44.855208
 30
0.0
 11
5.163639
 21
45.854208
 31
0.0
  0
LINE
  5
4C
100
AcDbEntity
  8
0
  6
DASHED
100
AcDbLine
 10
8.642739
 20
44.854208
 30
0.0
 11
8.663639
 21
44.854208
 31
0.0
  0
LINE
  5
4D
100
AcDbEntity
  8
0
  6
DASHED
100
AcDbLine
 10
8.663639
 20
45.854208
 30
0.0
 11
8.642739
 21
45.854208
 31
0.0
  0
LINE
  5
4E
100
AcDbEntity
  8
0
  6
CONTINUOUS
100
AcDbLine
 10
16.663639
 20
51.354198
 30
0.0
 11
16.663639
 21
37.854206
 31
0.0
  0
LINE
  5
4F
100
AcDbEntity
  8
0
  6
CONTINUOUS
100
AcDbLine
 10
18.663639
 20
51.354198
 30
0.0
 11
18.663639
 21
37.854206
 31
0.0
  0
ARC
  5
50
100
AcDbEntity
  8
0
  6
CONTINUOUS
100
AcDbCircle
 10
11.047639
 20
48.246198
 30
0.0
 40
5.616
100
AcDbArc
 50
321.995
 51
37.9798
  0
LINE
  5
51
100
AcDbEntity
  8
0
  6
CONTINUOUS
100
AcDbLine
 10
15.463639
 20
44.790208
 30
0.0
 11
9.863639
 21
44.790208
 31
0.0
  0
LINE
  5
52
100
AcDbEntity
  8
0
  6
CONTINUOUS
100
AcDbLine
 10
16.663639
 20
37.854206
 30
0.0
 11
18.663639
 21
39.170318
 31
0.0
  0
LINE
  5
53
100
AcDbEntity
  8
0
  6
CONTINUOUS
100
AcDbLine
 10
18.663639
 20
44.808168
 30
0.0
 11
22.204339
 21
44.808168
 31
0.0
  0
LINE
  5
54
100
AcDbEntity
  8
0
  6
DASHED
100
AcDbLine
 10
18.663639
 20
44.854208
 30
0.0
 11
18.692139
 21
44.854208
 31
0.0
  0
LINE
  5
55
100
AcDbEntity
  8
0
  6
DASHED
100
AcDbLine
 10
18.801139
 20
45.854208
 30
0.0
 11
18.663639
 21
45.854208
 31
0.0
  0
LINE
  5
56
100
AcDbEntity
  8
0
  6
CONTINUOUS
100
AcDbLine
 10
15.463639
 20
51.702198
 30
0.0
 11
9.863639
 21
51.702198
 31
0.0
  0
LINE
  5
57
100
AcDbEntity
  8
0
  6
CONTINUOUS
100
AcDbLine
 10
18.663639
 20
51.354198
 30
0.0
 11
16.663639
 21
51.354198
 31
0.0
  0
ARC
  5
58
100
AcDbEntity
  8
0
  6
CONTINUOUS
100
AcDbCircle
 10
65.461709
 20
65.854198
 30
0.0
 40
3.0
100
AcDbArc
 50
270.0
 51
315.0
  0
ARC
  5
59
100
AcDbEntity
  8
0
  6
CONTINUOUS
100
AcDbCircle
 10
61.946989
 20
65.854198
 30
0.0
 40
3.0
100
AcDbArc
 50
225.0
 51
270.0
  0
LINE
  5
5A
100
AcDbEntity
  8
0
  6
CENTER
 62
     1
100
AcDbLine
 10
63.704334
 20
1.447398
 30
0.0
 11
63.704338
 21
70.659298
 31
0.0
  0
LINE
  5
5B
100
AcDbEntity
  8
0
  6
CONTINUOUS
 62
     1
100
AcDbLine
 10
66.704339
 20
12.854198
 30
0.0
 11
66.704339
 21
63.123698
 31
0.0
  0
LINE
  5
5C
100
AcDbEntity
  8
0
  6
CONTINUOUS
 62
     1
100
AcDbLine
 10
60.704339
 20
12.854198
 30
0.0
 11
60.704339
 21
63.123698
 31
0.0
  0
LINE
  5
5D
100
AcDbEntity
  8
0
  6
CONTINUOUS
100
AcDbLine
 10
45.704339
 20
0.354198
 30
0.0
 11
45.704339
 21
75.354198
 31
0.0
  0
LINE
  5
5E
100
AcDbEntity
  8
0
  6
CONTINUOUS
100
AcDbLine
 10
81.704339
 20
75.354198
 30
0.0
 11
81.704339
 21
0.354198
 31
0.0
  0
LINE
  5
5F
100
AcDbEntity
  8
0
  6
CONTINUOUS
100
AcDbLine
 10
79.204339
 20
0.354198
 30
0.0
 11
79.204339
 21
75.354198
 31
0.0
  0
LINE
  5
60
100
AcDbEntity
  8
0
  6
CONTINUOUS
100
AcDbLine
 10
48.204339
 20
0.354198
 30
0.0
 11
48.204339
 21
75.354198
 31
0.0
  0
LINE
  5
61
100
AcDbEntity
  8
0
  6
CONTINUOUS
100
AcDbLine
 10
79.204339
 20
0.354198
 30
0.0
 11
67.583019
 21
11.975498
 31
0.0
  0
LINE
  5
62
100
AcDbEntity
  8
0
  6
CONTINUOUS
100
AcDbLine
 10
48.204339
 20
0.354198
 30
0.0
 11
59.825659
 21
11.975498
 31
0.0
  0
LINE
  5
63
100
AcDbEntity
  8
0
  6
CONTINUOUS
100
AcDbLine
 10
48.204339
 20
0.354198
 30
0.0
 11
45.704339
 21
0.354198
 31
0.0
  0
LINE
  5
64
100
AcDbEntity
  8
0
  6
CONTINUOUS
100
AcDbLine
 10
32.704339
 20
20.854198
 30
0.0
 11
32.704339
 21
54.854198
 31
0.0
  0
LINE
  5
65
100
AcDbEntity
  8
0
  6
CONTINUOUS
100
AcDbLine
 10
22.704339
 20
25.900298
 30
0.0
 11
22.704339
 21
49.900298
 31
0.0
  0
LINE
  5
66
100
AcDbEntity
  8
0
  6
CONTINUOUS
100
AcDbLine
 10
45.704339
 20
20.854198
 30
0.0
 11
32.704339
 21
20.854198
 31
0.0
  0
LINE
  5
67
100
AcDbEntity
  8
0
  6
CONTINUOUS
100
AcDbLine
 10
45.704339
 20
29.454698
 30
0.0
 11
32.696239
 21
29.454698
 31
0.0
  0
LINE
  5
68
100
AcDbEntity
  8
0
  6
CONTINUOUS
100
AcDbLine
 10
32.704339
 20
25.900298
 30
0.0
 11
22.704339
 21
25.900298
 31
0.0
  0
LINE
  5
69
100
AcDbEntity
  8
0
  6
CONTINUOUS
100
AcDbLine
 10
45.704339
 20
54.854198
 30
0.0
 11
32.704339
 21
54.854198
 31
0.0
  0
LINE
  5
6A
100
AcDbEntity
  8
0
  6
CONTINUOUS
100
AcDbLine
 10
45.704339
 20
46.253708
 30
0.0
 11
32.696239
 21
46.253718
 31
0.0
  0
LINE
  5
6B
100
AcDbEntity
  8
0
  6
CONTINUOUS
100
AcDbLine
 10
32.704339
 20
49.900298
 30
0.0
 11
22.704339
 21
49.900298
 31
0.0
  0
ARC
  5
6C
100
AcDbEntity
  8
0
  6
CONTINUOUS
100
AcDbCircle
 10
61.946989
 20
9.854198
 30
0.0
 40
3.0
100
AcDbArc
 50
90.0
 51
135.0
  0
LINE
  5
6D
100
AcDbEntity
  8
0
  6
CONTINUOUS
100
AcDbLine
 10
65.461689
 20
12.854198
 30
0.0
 11
61.946989
 21
12.854198
 31
0.0
  0
ARC
  5
6E
100
AcDbEntity
  8
0
  6
CONTINUOUS
100
AcDbCircle
 10
65.461689
 20
9.854198
 30
0.0
 40
3.0
100
AcDbArc
 50
44.9999
 51
90.0
  0
LINE
  5
6F
100
AcDbEntity
  8
0
  6
CONTINUOUS
100
AcDbLine
 10
65.461709
 20
62.854198
 30
0.0
 11
61.946989
 21
62.854198
 31
0.0
  0
LINE
  5
70
100
AcDbEntity
  8
0
  6
CONTINUOUS
100
AcDbLine
 10
79.204339
 20
0.354198
 30
0.0
 11
81.704339
 21
0.354198
 31
0.0
  0
ARC
  5
71
100
AcDbEntity
  8
0
  6
CONTINUOUS
100
AcDbCircle
 10
63.379632
 20
37.854198
 30
0.0
 40
20.784
100
AcDbArc
 50
340.511
 51
19.489
  0
LINE
  5
72
100
AcDbEntity
  8
0
  6
CONTINUOUS
100
AcDbLine
 10
84.163639
 20
27.462198
 30
0.0
 11
84.163639
 21
48.246198
 31
0.0
  0
ARC
  5
73
100
AcDbEntity
  8
0
  6
CONTINUOUS
100
AcDbCircle
 10
78.547639
 20
27.462198
 30
0.0
 40
5.616
100
AcDbArc
 50
322.02
 51
38.0045
  0
LINE
  5
74
100
AcDbEntity
  8
0
  6
CONTINUOUS
100
AcDbLine
 10
82.963639
 20
24.006198
 30
0.0
 11
81.704339
 21
24.006198
 31
0.0
  0
LINE
  5
75
100
AcDbEntity
  8
0
  6
CONTINUOUS
100
AcDbLine
 10
82.963639
 20
30.918208
 30
0.0
 11
81.704339
 21
30.918208
 31
0.0
  0
ARC
  5
76
100
AcDbEntity
  8
0
  6
CONTINUOUS
100
AcDbCircle
 10
78.547639
 20
48.246198
 30
0.0
 40
5.616
100
AcDbArc
 50
321.995
 51
37.9798
  0
LINE
  5
77
100
AcDbEntity
  8
0
  6
CONTINUOUS
100
AcDbLine
 10
82.963639
 20
44.790198
 30
0.0
 11
81.704339
 21
44.790198
 31
0.0
  0
LINE
  5
78
100
AcDbEntity
  8
0
  6
CONTINUOUS
100
AcDbLine
 10
82.963639
 20
51.702198
 30
0.0
 11
81.704339
 21
51.702198
 31
0.0
  0
LINE
  5
79
100
AcDbEntity
  8
0
  6
CONTINUOUS
100
AcDbLine
 10
79.204339
 20
75.354198
 30
0.0
 11
67.583029
 21
63.732898
 31
0.0
  0
LINE
  5
7A
100
AcDbEntity
  8
0
  6
CONTINUOUS
100
AcDbLine
 10
48.204339
 20
75.354198
 30
0.0
 11
59.825659
 21
63.732898
 31
0.0
  0
LINE
  5
7B
100
AcDbEntity
  8
0
  6
CONTINUOUS
100
AcDbLine
 10
45.704339
 20
75.354198
 30
0.0
 11
48.204339
 21
75.354198
 31
0.0
  0
LINE
  5
7C
100
AcDbEntity
  8
0
  6
CONTINUOUS
100
AcDbLine
 10
79.204339
 20
75.354198
 30
0.0
 11
81.704339
 21
75.354198
 31
0.0
  0
ENDBLK
  5
7E
100
AcDbEntity
  8
0
  6
CONTINUOUS
100
AcDbBlockEnd
  0
ENDSEC
  0
SECTION
  2
ENTITIES
  0
INSERT
  5
1D
100
AcDbEntity
  8
0
  6
CONTINUOUS
100
AcDbBlockReference
  2
A$C1022
 10
-4.163639
 20
-45.854208
 30
0.0
  0
ENDSEC
  0
SECTION
  2
OBJECTS
  0
DICTIONARY
  5
1A
100
AcDbDictionary
  3
ACAD_GROUP
350
18
  3
ACAD_MLINESTYLE
350
19
  0
DICTIONARY
  5
18
102
{ACAD_REACTORS
330
1A
102
}
100
AcDbDictionary
  0
DICTIONARY
  5
19
102
{ACAD_REACTORS
330
1A
102
}
100
AcDbDictionary
  3
STANDARD
350
1B
  0
MLINESTYLE
  5
1B
102
{ACAD_REACTORS
330
19
102
}
100
AcDbMlineStyle
  2
STANDARD
 70
     0
  3

 62
     0
 51
90.0
 52
90.0
 71
     2
 49
0.5
 62
   256
  6
BYLAYER
 49
-0.5
 62
   256
  6
BYLAYER
  0
ENDSEC
  0
EOF
