  0
SECTION
  2
HEADER
  9
$ACADVER
  1
AC1018
  9
$ACADMAINTVER
 70
   104
  9
$DWGCODEPAGE
  3
ANSI_1252
  9
$LASTSAVEDBY
  1
Achim
  9
$INSBASE
 10
0.0
 20
0.0
 30
0.0
  9
$EXTMIN
 10
-176.3708094288106
 20
-238.8302014157903
 30
-0.0015258207003583
  9
$EXTMAX
 10
649.4599723640992
 20
219.8705610962299
 30
0.0000000349246037
  9
$LIMMIN
 10
-26.195
 20
0.0
  9
$LIMMAX
 10
126.195
 20
100.0
  9
$ORTHOMODE
 70
     0
  9
$REGENMODE
 70
     1
  9
$FILLMODE
 70
     1
  9
$QTEXTMODE
 70
     0
  9
$MIRRTEXT
 70
     1
  9
$LTSCALE
 40
1.0
  9
$ATTMODE
 70
     1
  9
$TEXTSIZE
 40
0.2
  9
$TRACEWID
 40
0.05
  9
$TEXTSTYLE
  7
STANDARD
  9
$CLAYER
  8
0
  9
$CELTYPE
  6
CONTINUOUS
  9
$CECOLOR
 62
   256
  9
$CELTSCALE
 40
1.0
  9
$DISPSILH
 70
     0
  9
$DIMSCALE
 40
1.0
  9
$DIMASZ
 40
0.18
  9
$DIMEXO
 40
0.0625
  9
$DIMDLI
 40
0.38
  9
$DIMRND
 40
0.0
  9
$DIMDLE
 40
0.0
  9
$DIMEXE
 40
0.18
  9
$DIMTP
 40
0.0
  9
$DIMTM
 40
0.0
  9
$DIMTXT
 40
0.18
  9
$DIMCEN
 40
0.09
  9
$DIMTSZ
 40
0.0
  9
$DIMTOL
 70
     0
  9
$DIMLIM
 70
     0
  9
$DIMTIH
 70
     1
  9
$DIMTOH
 70
     1
  9
$DIMSE1
 70
     0
  9
$DIMSE2
 70
     0
  9
$DIMTAD
 70
     0
  9
$DIMZIN
 70
     0
  9
$DIMBLK
  1

  9
$DIMASO
 70
     1
  9
$DIMSHO
 70
     1
  9
$DIMPOST
  1

  9
$DIMAPOST
  1

  9
$DIMALT
 70
     0
  9
$DIMALTD
 70
     2
  9
$DIMALTF
 40
25.4
  9
$DIMLFAC
 40
1.0
  9
$DIMTOFL
 70
     0
  9
$DIMTVP
 40
0.0
  9
$DIMTIX
 70
     0
  9
$DIMSOXD
 70
     0
  9
$DIMSAH
 70
     0
  9
$DIMBLK1
  1

  9
$DIMBLK2
  1

  9
$DIMSTYLE
  2
STANDARD
  9
$DIMCLRD
 70
     0
  9
$DIMCLRE
 70
     0
  9
$DIMCLRT
 70
     0
  9
$DIMTFAC
 40
1.0
  9
$DIMGAP
 40
0.09
  9
$DIMJUST
 70
     0
  9
$DIMSD1
 70
     0
  9
$DIMSD2
 70
     0
  9
$DIMTOLJ
 70
     1
  9
$DIMTZIN
 70
     0
  9
$DIMALTZ
 70
     0
  9
$DIMALTTZ
 70
     0
  9
$DIMUPT
 70
     0
  9
$DIMDEC
 70
     4
  9
$DIMTDEC
 70
     4
  9
$DIMALTU
 70
     2
  9
$DIMALTTD
 70
     2
  9
$DIMTXSTY
  7
STANDARD
  9
$DIMAUNIT
 70
     0
  9
$DIMADEC
 70
     0
  9
$DIMALTRND
 40
0.0
  9
$DIMAZIN
 70
     0
  9
$DIMDSEP
 70
    46
  9
$DIMATFIT
 70
     3
  9
$DIMFRAC
 70
     0
  9
$DIMLDRBLK
  1

  9
$DIMLUNIT
 70
     2
  9
$DIMLWD
 70
    -2
  9
$DIMLWE
 70
    -2
  9
$DIMTMOVE
 70
     0
  9
$LUNITS
 70
     2
  9
$LUPREC
 70
     4
  9
$SKETCHINC
 40
0.1
  9
$FILLETRAD
 40
0.0
  9
$AUNITS
 70
     0
  9
$AUPREC
 70
     0
  9
$MENU
  1
.
  9
$ELEVATION
 40
0.0
  9
$PELEVATION
 40
0.0
  9
$THICKNESS
 40
0.0
  9
$LIMCHECK
 70
     0
  9
$CHAMFERA
 40
0.0
  9
$CHAMFERB
 40
0.0
  9
$CHAMFERC
 40
0.0
  9
$CHAMFERD
 40
0.0
  9
$SKPOLY
 70
     0
  9
$TDCREATE
 40
2452321.564642940
  9
$TDUCREATE
 40
2452321.481309607
  9
$TDUPDATE
 40
2455421.368296817
  9
$TDUUPDATE
 40
2455421.284963484
  9
$TDINDWG
 40
0.0042741435
  9
$TDUSRTIMER
 40
0.0042741435
  9
$USRTIMER
 70
     1
  9
$ANGBASE
 50
0.0
  9
$ANGDIR
 70
     0
  9
$PDMODE
 70
     0
  9
$PDSIZE
 40
0.0
  9
$PLINEWID
 40
0.0
  9
$SPLFRAME
 70
     0
  9
$SPLINETYPE
 70
     6
  9
$SPLINESEGS
 70
     8
  9
$HANDSEED
  5
3263
  9
$SURFTAB1
 70
     6
  9
$SURFTAB2
 70
     6
  9
$SURFTYPE
 70
     6
  9
$SURFU
 70
     6
  9
$SURFV
 70
     6
  9
$UCSBASE
  2

  9
$UCSNAME
  2

  9
$UCSORG
 10
0.0
 20
0.0
 30
0.0
  9
$UCSXDIR
 10
1.0
 20
0.0
 30
0.0
  9
$UCSYDIR
 10
0.0
 20
1.0
 30
0.0
  9
$UCSORTHOREF
  2

  9
$UCSORTHOVIEW
 70
     0
  9
$UCSORGTOP
 10
0.0
 20
0.0
 30
0.0
  9
$UCSORGBOTTOM
 10
0.0
 20
0.0
 30
0.0
  9
$UCSORGLEFT
 10
0.0
 20
0.0
 30
0.0
  9
$UCSORGRIGHT
 10
0.0
 20
0.0
 30
0.0
  9
$UCSORGFRONT
 10
0.0
 20
0.0
 30
0.0
  9
$UCSORGBACK
 10
0.0
 20
0.0
 30
0.0
  9
$PUCSBASE
  2

  9
$PUCSNAME
  2

  9
$PUCSORG
 10
0.0
 20
0.0
 30
0.0
  9
$PUCSXDIR
 10
1.0
 20
0.0
 30
0.0
  9
$PUCSYDIR
 10
0.0
 20
1.0
 30
0.0
  9
$PUCSORTHOREF
  2

  9
$PUCSORTHOVIEW
 70
     0
  9
$PUCSORGTOP
 10
0.0
 20
0.0
 30
0.0
  9
$PUCSORGBOTTOM
 10
0.0
 20
0.0
 30
0.0
  9
$PUCSORGLEFT
 10
0.0
 20
0.0
 30
0.0
  9
$PUCSORGRIGHT
 10
0.0
 20
0.0
 30
0.0
  9
$PUCSORGFRONT
 10
0.0
 20
0.0
 30
0.0
  9
$PUCSORGBACK
 10
0.0
 20
0.0
 30
0.0
  9
$USERI1
 70
     0
  9
$USERI2
 70
     0
  9
$USERI3
 70
     0
  9
$USERI4
 70
     0
  9
$USERI5
 70
     0
  9
$USERR1
 40
0.0
  9
$USERR2
 40
0.0
  9
$USERR3
 40
0.0
  9
$USERR4
 40
0.0
  9
$USERR5
 40
0.0
  9
$WORLDVIEW
 70
     1
  9
$SHADEDGE
 70
     3
  9
$SHADEDIF
 70
    70
  9
$TILEMODE
 70
     1
  9
$MAXACTVP
 70
    48
  9
$PINSBASE
 10
0.0
 20
0.0
 30
0.0
  9
$PLIMCHECK
 70
     0
  9
$PEXTMIN
 10
1.000000000000000E+20
 20
1.000000000000000E+20
 30
1.000000000000000E+20
  9
$PEXTMAX
 10
-1.000000000000000E+20
 20
-1.000000000000000E+20
 30
-1.000000000000000E+20
  9
$PLIMMIN
 10
0.0
 20
0.0
  9
$PLIMMAX
 10
12.0
 20
9.0
  9
$UNITMODE
 70
     0
  9
$VISRETAIN
 70
     1
  9
$PLINEGEN
 70
     0
  9
$PSLTSCALE
 70
     1
  9
$TREEDEPTH
 70
  3020
  9
$CMLSTYLE
  2
STANDARD
  9
$CMLJUST
 70
     0
  9
$CMLSCALE
 40
1.0
  9
$PROXYGRAPHICS
 70
     1
  9
$MEASUREMENT
 70
     0
  9
$CELWEIGHT
370
    -1
  9
$ENDCAPS
280
     0
  9
$JOINSTYLE
280
     0
  9
$LWDISPLAY
290
     0
  9
$INSUNITS
 70
     0
  9
$HYPERLINKBASE
  1

  9
$STYLESHEET
  1

  9
$XEDIT
290
     1
  9
$CEPSNTYPE
380
     0
  9
$PSTYLEMODE
290
     1
  9
$FINGERPRINTGUID
  2
{C5519AE0-B822-4A07-A2E4-7B0BD342DBEA}
  9
$VERSIONGUID
  2
{DC4D42E8-4F51-4156-88DA-0272BF35B7CB}
  9
$EXTNAMES
290
     1
  9
$PSVPSCALE
 40
0.0
  9
$OLESTARTUP
290
     0
  9
$SORTENTS
280
   127
  9
$INDEXCTL
280
     0
  9
$HIDETEXT
280
     0
  9
$XCLIPFRAME
290
     0
  9
$HALOGAP
280
     0
  9
$OBSCOLOR
 70
   257
  9
$OBSLTYPE
280
     0
  9
$INTERSECTIONDISPLAY
280
     0
  9
$INTERSECTIONCOLOR
 70
   257
  9
$DIMASSOC
280
     1
  9
$PROJECTNAME
  1

  0
ENDSEC
  0
SECTION
  2
CLASSES
  0
CLASS
  1
ACDBDICTIONARYWDFLT
  2
AcDbDictionaryWithDefault
  3
ObjectDBX Classes
 90
        0
 91
        1
280
     0
281
     0
  0
CLASS
  1
MATERIAL
  2
AcDbMaterial
  3
ObjectDBX Classes
 90
     1153
 91
        3
280
     0
281
     0
  0
CLASS
  1
VISUALSTYLE
  2
AcDbVisualStyle
  3
ObjectDBX Classes
 90
     4095
 91
       16
280
     0
281
     0
  0
CLASS
  1
TABLESTYLE
  2
AcDbTableStyle
  3
ObjectDBX Classes
 90
     4095
 91
        1
280
     0
281
     0
  0
CLASS
  1
SCALE
  2
AcDbScale
  3
ObjectDBX Classes
 90
     1153
 91
       33
280
     0
281
     0
  0
CLASS
  1
MLEADERSTYLE
  2
AcDbMLeaderStyle
  3
ACDB_MLEADERSTYLE_CLASS
 90
     4095
 91
        1
280
     0
281
     0
  0
CLASS
  1
CELLSTYLEMAP
  2
AcDbCellStyleMap
  3
ObjectDBX Classes
 90
     1152
 91
        2
280
     0
281
     0
  0
CLASS
  1
DICTIONARYVAR
  2
AcDbDictionaryVar
  3
ObjectDBX Classes
 90
        0
 91
        6
280
     0
281
     0
  0
ENDSEC
  0
SECTION
  2
TABLES
  0
TABLE
  2
VPORT
  5
8
330
0
100
AcDbSymbolTable
 70
     1
  0
VPORT
  5
31E7
330
8
100
AcDbSymbolTableRecord
100
AcDbViewportTableRecord
  2
*ACTIVE
 70
     0
 10
0.0
 20
0.0
 11
1.0
 21
1.0
 12
236.5445814676443
 22
-9.47982015978016
 13
0.0
 23
0.0
 14
1.0
 24
1.0
 15
0.0
 25
0.0
 16
0.0
 26
0.0
 36
1.0
 17
0.0
 27
0.0
 37
0.0
 40
477.0828021070053
 41
1.739910313901345
 42
50.0
 43
0.0
 44
0.0
 50
0.0
 51
0.0
 71
     0
 72
   100
 73
     1
 74
     1
 75
     0
 76
     0
 77
     0
 78
     0
281
     0
 65
     1
110
0.0
120
0.0
130
0.0
111
1.0
121
0.0
131
0.0
112
0.0
122
1.0
132
0.0
 79
     0
146
0.0
  0
ENDTAB
  0
TABLE
  2
LTYPE
  5
5
330
0
100
AcDbSymbolTable
 70
     4
  0
LTYPE
  5
12
330
5
100
AcDbSymbolTableRecord
100
AcDbLinetypeTableRecord
  2
BYBLOCK
 70
     0
  3

 72
    65
 73
     0
 40
0.0
  0
LTYPE
  5
13
330
5
100
AcDbSymbolTableRecord
100
AcDbLinetypeTableRecord
  2
BYLAYER
 70
     0
  3

 72
    65
 73
     0
 40
0.0
  0
LTYPE
  5
14
330
5
100
AcDbSymbolTableRecord
100
AcDbLinetypeTableRecord
  2
CONTINUOUS
 70
     0
  3

 72
    65
 73
     0
 40
0.0
  0
LTYPE
  5
1F
330
5
100
AcDbSymbolTableRecord
100
AcDbLinetypeTableRecord
  2
DASHED
 70
     0
  3

 72
    65
 73
     2
 40
0.75
 49
0.5
 74
     0
 49
-0.25
 74
     0
  0
LTYPE
  5
21
330
5
100
AcDbSymbolTableRecord
100
AcDbLinetypeTableRecord
  2
CENTER
 70
     0
  3

 72
    65
 73
     4
 40
2.0
 49
1.25
 74
     0
 49
-0.25
 74
     0
 49
0.25
 74
     0
 49
-0.25
 74
     0
  0
LTYPE
  5
26
330
5
100
AcDbSymbolTableRecord
100
AcDbLinetypeTableRecord
  2
DIVIDE
 70
     0
  3

 72
    65
 73
     6
 40
1.25
 49
0.5
 74
     0
 49
-0.25
 74
     0
 49
0.0
 74
     0
 49
-0.25
 74
     0
 49
0.0
 74
     0
 49
-0.25
 74
     0
  0
ENDTAB
  0
TABLE
  2
LAYER
  5
2
330
0
100
AcDbSymbolTable
 70
     2
  0
LAYER
  5
E
102
{ACAD_XDICTIONARY
360
3254
102
}
330
2
100
AcDbSymbolTableRecord
100
AcDbLayerTableRecord
  2
0
 70
     0
 62
     7
  6
CONTINUOUS
370
    -3
390
31EA
  0
LAYER
  5
27
102
{ACAD_XDICTIONARY
360
3256
102
}
330
2
100
AcDbSymbolTableRecord
100
AcDbLayerTableRecord
  2
1
 70
     0
 62
     1
  6
CONTINUOUS
370
    -3
390
31EA
  0
ENDTAB
  0
TABLE
  2
STYLE
  5
3
330
0
100
AcDbSymbolTable
 70
     1
  0
STYLE
  5
F
330
3
100
AcDbSymbolTableRecord
100
AcDbTextStyleTableRecord
  2
STANDARD
 70
     0
 40
0.0
 41
1.0
 50
0.0
 71
     0
 42
0.2
  3
TXT
  4

  0
ENDTAB
  0
TABLE
  2
VIEW
  5
6
330
0
100
AcDbSymbolTable
 70
     0
  0
ENDTAB
  0
TABLE
  2
UCS
  5
7
330
0
100
AcDbSymbolTable
 70
     0
  0
ENDTAB
  0
TABLE
  2
APPID
  5
9
330
0
100
AcDbSymbolTable
 70
     2
  0
APPID
  5
10
330
9
100
AcDbSymbolTableRecord
100
AcDbRegAppTableRecord
  2
ACAD
 70
     0
  0
APPID
  5
323C
330
9
100
AcDbSymbolTableRecord
100
AcDbRegAppTableRecord
  2
ACAD_MLEADERVER
 70
     0
  0
ENDTAB
  0
TABLE
  2
DIMSTYLE
  5
A
330
0
100
AcDbSymbolTable
 70
     1
100
AcDbDimStyleTable
 71
     0
  0
DIMSTYLE
105
31DD
330
A
100
AcDbSymbolTableRecord
100
AcDbDimStyleTableRecord
  2
STANDARD
 70
     0
340
F
  0
ENDTAB
  0
TABLE
  2
BLOCK_RECORD
  5
1
330
0
100
AcDbSymbolTable
 70
    24
  0
BLOCK_RECORD
  5
18
330
1
100
AcDbSymbolTableRecord
100
AcDbBlockTableRecord
  2
*MODEL_SPACE
340
323F
  0
BLOCK_RECORD
  5
15
330
1
100
AcDbSymbolTableRecord
100
AcDbBlockTableRecord
  2
*PAPER_SPACE
340
3240
  0
BLOCK_RECORD
  5
12D
330
1
100
AcDbSymbolTableRecord
100
AcDbBlockTableRecord
  2
_G_P_1
340
0
102
{BLKREFS
331
D6B
102
}
  0
BLOCK_RECORD
  5
1F8
330
1
100
AcDbSymbolTableRecord
100
AcDbBlockTableRecord
  2
_G_P_10
340
0
102
{BLKREFS
331
EF7
102
}
  0
BLOCK_RECORD
  5
225
330
1
100
AcDbSymbolTableRecord
100
AcDbBlockTableRecord
  2
_G_P_11
340
0
102
{BLKREFS
331
EF8
102
}
  0
BLOCK_RECORD
  5
27A
330
1
100
AcDbSymbolTableRecord
100
AcDbBlockTableRecord
  2
_G_P_12
340
0
102
{BLKREFS
331
EFE
102
}
  0
BLOCK_RECORD
  5
2E1
330
1
100
AcDbSymbolTableRecord
100
AcDbBlockTableRecord
  2
_G_P_13
340
0
102
{BLKREFS
331
FE8
102
}
  0
BLOCK_RECORD
  5
3AC
330
1
100
AcDbSymbolTableRecord
100
AcDbBlockTableRecord
  2
_G_P_14
340
0
102
{BLKREFS
331
FE9
102
}
  0
BLOCK_RECORD
  5
413
330
1
100
AcDbSymbolTableRecord
100
AcDbBlockTableRecord
  2
_G_P_15
340
0
102
{BLKREFS
331
FF1
102
}
  0
BLOCK_RECORD
  5
4DC
330
1
100
AcDbSymbolTableRecord
100
AcDbBlockTableRecord
  2
_G_P_16
340
0
102
{BLKREFS
331
FF9
102
}
  0
BLOCK_RECORD
  5
543
330
1
100
AcDbSymbolTableRecord
100
AcDbBlockTableRecord
  2
_G_P_17
340
0
102
{BLKREFS
331
1006
102
}
  0
BLOCK_RECORD
  5
60E
330
1
100
AcDbSymbolTableRecord
100
AcDbBlockTableRecord
  2
_G_P_18
340
0
102
{BLKREFS
331
1009
102
}
  0
BLOCK_RECORD
  5
63B
330
1
100
AcDbSymbolTableRecord
100
AcDbBlockTableRecord
  2
_G_P_19
340
0
102
{BLKREFS
331
100A
102
}
  0
BLOCK_RECORD
  5
690
330
1
100
AcDbSymbolTableRecord
100
AcDbBlockTableRecord
  2
_G_P_2
340
0
102
{BLKREFS
331
D6C
102
}
  0
BLOCK_RECORD
  5
6F7
330
1
100
AcDbSymbolTableRecord
100
AcDbBlockTableRecord
  2
_G_P_20
340
0
102
{BLKREFS
331
1010
102
}
  0
BLOCK_RECORD
  5
75E
330
1
100
AcDbSymbolTableRecord
100
AcDbBlockTableRecord
  2
_G_P_21
340
0
102
{BLKREFS
331
10BF
102
}
  0
BLOCK_RECORD
  5
829
330
1
100
AcDbSymbolTableRecord
100
AcDbBlockTableRecord
  2
_G_P_22
340
0
102
{BLKREFS
331
10C0
102
}
  0
BLOCK_RECORD
  5
890
330
1
100
AcDbSymbolTableRecord
100
AcDbBlockTableRecord
  2
_G_P_23
340
0
102
{BLKREFS
331
10C7
102
}
  0
BLOCK_RECORD
  5
8BD
330
1
100
AcDbSymbolTableRecord
100
AcDbBlockTableRecord
  2
_G_P_24
340
0
102
{BLKREFS
331
10C8
102
}
  0
BLOCK_RECORD
  5
912
330
1
100
AcDbSymbolTableRecord
100
AcDbBlockTableRecord
  2
_G_P_3
340
0
102
{BLKREFS
331
D73
102
}
  0
BLOCK_RECORD
  5
93F
330
1
100
AcDbSymbolTableRecord
100
AcDbBlockTableRecord
  2
_G_P_4
340
0
102
{BLKREFS
331
D74
102
}
  0
BLOCK_RECORD
  5
994
330
1
100
AcDbSymbolTableRecord
100
AcDbBlockTableRecord
  2
_G_P_5
340
0
102
{BLKREFS
331
E65
102
}
  0
BLOCK_RECORD
  5
A5F
330
1
100
AcDbSymbolTableRecord
100
AcDbBlockTableRecord
  2
_G_P_6
340
0
102
{BLKREFS
331
E66
102
}
  0
BLOCK_RECORD
  5
AC6
330
1
100
AcDbSymbolTableRecord
100
AcDbBlockTableRecord
  2
_G_P_7
340
0
102
{BLKREFS
331
E6E
102
}
  0
BLOCK_RECORD
  5
B8F
330
1
100
AcDbSymbolTableRecord
100
AcDbBlockTableRecord
  2
_G_P_8
340
0
102
{BLKREFS
331
E76
102
}
  0
BLOCK_RECORD
  5
BF6
330
1
100
AcDbSymbolTableRecord
100
AcDbBlockTableRecord
  2
_G_P_9
340
0
102
{BLKREFS
331
EF4
102
}
  0
ENDTAB
  0
ENDSEC
  0
SECTION
  2
BLOCKS
  0
BLOCK
  5
19
330
18
100
AcDbEntity
  8
0
100
AcDbBlockBegin
  2
*MODEL_SPACE
 70
     0
 10
0.0
 20
0.0
 30
0.0
  3
*MODEL_SPACE
  1

  0
ENDBLK
  5
1A
330
18
100
AcDbEntity
  8
0
100
AcDbBlockEnd
  0
BLOCK
  5
16
330
15
100
AcDbEntity
 67
     1
  8
0
100
AcDbBlockBegin
  2
*PAPER_SPACE
 70
     0
 10
0.0
 20
0.0
 30
0.0
  3
*PAPER_SPACE
  1

  0
ENDBLK
  5
17
330
15
100
AcDbEntity
 67
     1
  8
0
100
AcDbBlockEnd
  0
BLOCK
  5
12E
330
12D
100
AcDbEntity
  8
0
100
AcDbBlockBegin
  2
_G_P_1
 70
     0
 10
0.0
 20
0.0
 30
0.0
  3
_G_P_1
  1

  0
LWPOLYLINE
  5
12F
330
12D
100
AcDbEntity
  8
1
  6
Continuous
 62
     1
100
AcDbPolyline
 90
      198
 70
     0
 43
0.0
 10
-111.249
 20
130.202
 10
-109.68
 20
130.245
 10
-109.68
 20
130.245
 10
-108.12
 20
130.376
 10
-108.12
 20
130.376
 10
-106.58
 20
130.593
 10
-106.58
 20
130.593
 10
-105.068
 20
130.894
 10
-105.068
 20
130.894
 10
-103.595
 20
131.278
 10
-103.595
 20
131.278
 10
-102.169
 20
131.743
 10
-102.169
 20
131.743
 10
-100.799
 20
132.286
 10
-100.799
 20
132.286
 10
-99.4931
 20
132.903
 10
-99.4931
 20
132.903
 10
-98.25980000000001
 20
133.59
 10
-98.25980000000001
 20
133.59
 10
-97.1067
 20
134.344
 10
-97.1067
 20
134.344
 10
-96.0407
 20
135.159
 10
-96.0407
 20
135.159
 10
-95.0685
 20
136.031
 10
-95.0685
 20
136.031
 10
-94.196
 20
136.955
 10
-94.196
 20
136.955
 10
-93.42870000000001
 20
137.924
 10
-93.42870000000001
 20
137.924
 10
-92.7712
 20
138.932
 10
-92.7712
 20
138.932
 10
-92.48499999999999
 20
139.449
 10
-92.48499999999999
 20
139.449
 10
-92.2277
 20
139.974
 10
-92.2277
 20
139.974
 10
-91.9997
 20
140.505
 10
-91.9997
 20
140.505
 10
-91.80139999999999
 20
141.043
 10
-91.80139999999999
 20
141.043
 10
-91.6331
 20
141.585
 10
-91.6331
 20
141.585
 10
-91.49500000000001
 20
142.132
 10
-91.49500000000001
 20
142.132
 10
-91.3874
 20
142.682
 10
-91.3874
 20
142.682
 10
-91.3104
 20
143.234
 10
-91.3104
 20
143.234
 10
-91.26420000000001
 20
143.789
 10
-91.26420000000001
 20
143.789
 10
-91.2488
 20
144.344
 10
-91.2488
 20
144.344
 10
-91.26420000000001
 20
144.899
 10
-91.26420000000001
 20
144.899
 10
-91.3104
 20
145.453
 10
-91.3104
 20
145.453
 10
-91.3874
 20
146.006
 10
-91.3874
 20
146.006
 10
-91.49500000000001
 20
146.556
 10
-91.49500000000001
 20
146.556
 10
-91.6331
 20
147.103
 10
-91.6331
 20
147.103
 10
-91.80139999999999
 20
147.645
 10
-91.80139999999999
 20
147.645
 10
-91.9997
 20
148.183
 10
-91.9997
 20
148.183
 10
-92.2277
 20
148.714
 10
-92.2277
 20
148.714
 10
-92.48499999999999
 20
149.239
 10
-92.48499999999999
 20
149.239
 10
-93.0859
 20
150.265
 10
-93.0859
 20
150.265
 10
-93.79890000000001
 20
151.254
 10
-93.79890000000001
 20
151.254
 10
-94.6194
 20
152.201
 10
-94.6194
 20
152.201
 10
-95.5424
 20
153.099
 10
-95.5424
 20
153.099
 10
-96.5623
 20
153.944
 10
-96.5623
 20
153.944
 10
-97.67279999999999
 20
154.729
 10
-97.67279999999999
 20
154.729
 10
-98.86690000000001
 20
155.45
 10
-98.86690000000001
 20
155.45
 10
-100.137
 20
156.103
 10
-100.137
 20
156.103
 10
-101.476
 20
156.683
 10
-101.476
 20
156.683
 10
-102.876
 20
157.187
 10
-102.876
 20
157.187
 10
-104.326
 20
157.612
 10
-104.326
 20
157.612
 10
-105.82
 20
157.955
 10
-105.82
 20
157.955
 10
-107.347
 20
158.214
 10
-107.347
 20
158.214
 10
-108.898
 20
158.388
 10
-108.898
 20
158.388
 10
-110.464
 20
158.475
 10
-110.464
 20
158.475
 10
-112.034
 20
158.475
 10
-112.034
 20
158.475
 10
-113.6
 20
158.388
 10
-113.6
 20
158.388
 10
-115.151
 20
158.214
 10
-115.151
 20
158.214
 10
-116.678
 20
157.955
 10
-116.678
 20
157.955
 10
-118.171
 20
157.612
 10
-118.171
 20
157.612
 10
-119.622
 20
157.187
 10
-119.622
 20
157.187
 10
-121.021
 20
156.683
 10
-121.021
 20
156.683
 10
-122.36
 20
156.103
 10
-122.36
 20
156.103
 10
-123.631
 20
155.45
 10
-123.631
 20
155.45
 10
-124.825
 20
154.729
 10
-124.825
 20
154.729
 10
-125.935
 20
153.944
 10
-125.935
 20
153.944
 10
-126.955
 20
153.099
 10
-126.955
 20
153.099
 10
-127.878
 20
152.201
 10
-127.878
 20
152.201
 10
-128.699
 20
151.254
 10
-128.699
 20
151.254
 10
-129.412
 20
150.265
 10
-129.412
 20
150.265
 10
-130.013
 20
149.239
 10
-130.013
 20
149.239
 10
-130.27
 20
148.714
 10
-130.27
 20
148.714
 10
-130.498
 20
148.183
 10
-130.498
 20
148.183
 10
-130.696
 20
147.645
 10
-130.696
 20
147.645
 10
-130.864
 20
147.103
 10
-130.864
 20
147.103
 10
-131.003
 20
146.556
 10
-131.003
 20
146.556
 10
-131.11
 20
146.006
 10
-131.11
 20
146.006
 10
-131.187
 20
145.454
 10
-131.187
 20
145.454
 10
-131.233
 20
144.899
 10
-131.233
 20
144.899
 10
-131.249
 20
144.344
 10
-131.249
 20
144.344
 10
-131.233
 20
143.789
 10
-131.233
 20
143.789
 10
-131.187
 20
143.234
 10
-131.187
 20
143.234
 10
-131.11
 20
142.682
 10
-131.11
 20
142.682
 10
-131.003
 20
142.132
 10
-131.003
 20
142.132
 10
-130.864
 20
141.585
 10
-130.864
 20
141.585
 10
-130.696
 20
141.043
 10
-130.696
 20
141.043
 10
-130.498
 20
140.505
 10
-130.498
 20
140.505
 10
-130.27
 20
139.974
 10
-130.27
 20
139.974
 10
-130.013
 20
139.449
 10
-130.013
 20
139.449
 10
-129.412
 20
138.423
 10
-129.412
 20
138.423
 10
-128.699
 20
137.434
 10
-128.699
 20
137.434
 10
-127.878
 20
136.487
 10
-127.878
 20
136.487
 10
-126.955
 20
135.589
 10
-126.955
 20
135.589
 10
-125.935
 20
134.744
 10
-125.935
 20
134.744
 10
-124.825
 20
133.959
 10
-124.825
 20
133.959
 10
-123.631
 20
133.238
 10
-123.631
 20
133.238
 10
-122.36
 20
132.585
 10
-122.36
 20
132.585
 10
-121.021
 20
132.005
 10
-121.021
 20
132.005
 10
-119.622
 20
131.501
 10
-119.622
 20
131.501
 10
-118.171
 20
131.076
 10
-118.171
 20
131.076
 10
-116.678
 20
130.733
 10
-116.678
 20
130.733
 10
-115.151
 20
130.474
 10
-115.151
 20
130.474
 10
-113.6
 20
130.3
 10
-113.6
 20
130.3
 10
-112.426
 20
130.226
 10
-112.426
 20
130.226
 10
-111.249
 20
130.202
  0
ENDBLK
  5
1F7
330
12D
100
AcDbEntity
  8
0
100
AcDbBlockEnd
  0
BLOCK
  5
1F9
330
1F8
100
AcDbEntity
  8
0
100
AcDbBlockBegin
  2
_G_P_10
 70
     0
 10
0.0
 20
0.0
 30
0.0
  3
_G_P_10
  1

  0
LWPOLYLINE
  5
1FA
330
1F8
100
AcDbEntity
  8
1
  6
Continuous
 62
     1
100
AcDbPolyline
 90
       40
 70
     0
 43
0.0
 10
-130.459
 20
-2.3033
 10
-130.047
 20
-1.40027
 10
-130.047
 20
-1.40027
 10
-129.55
 20
-0.518817
 10
-129.55
 20
-0.518817
 10
-128.97
 20
0.337091
 10
-128.97
 20
0.337091
 10
-128.311
 20
1.163599999999999
 10
-128.311
 20
1.163599999999999
 10
-127.575
 20
1.95699
 10
-127.575
 20
1.95699
 10
-126.765
 20
2.713699999999999
 10
-126.765
 20
2.713699999999999
 10
-125.886
 20
3.430299999999999
 10
-125.886
 20
3.430299999999999
 10
-124.94
 20
4.10358
 10
-124.94
 20
4.10358
 10
-123.933
 20
4.730509999999999
 10
-123.933
 20
4.730509999999999
 10
-122.868
 20
5.308259999999999
 10
-122.868
 20
5.308259999999999
 10
-121.751
 20
5.83423
 10
-121.751
 20
5.83423
 10
-120.587
 20
6.306059999999999
 10
-120.587
 20
6.306059999999999
 10
-119.381
 20
6.72161
 10
-119.381
 20
6.72161
 10
-118.138
 20
7.07903
 10
-118.138
 20
7.07903
 10
-116.863
 20
7.376689999999999
 10
-116.863
 20
7.376689999999999
 10
-115.564
 20
7.613269999999999
 10
-115.564
 20
7.613269999999999
 10
-114.245
 20
7.787679999999999
 10
-114.245
 20
7.787679999999999
 10
-112.912
 20
7.89916
 10
-112.912
 20
7.89916
 10
-111.572
 20
7.947199999999999
 10
-111.572
 20
7.947199999999999
 10
-110.23
 20
7.93158
  0
ENDBLK
  5
224
330
1F8
100
AcDbEntity
  8
0
100
AcDbBlockEnd
  0
BLOCK
  5
226
330
225
100
AcDbEntity
  8
0
100
AcDbBlockBegin
  2
_G_P_11
 70
     0
 10
0.0
 20
0.0
 30
0.0
  3
_G_P_11
  1

  0
LWPOLYLINE
  5
227
330
225
100
AcDbEntity
  8
1
  6
Continuous
 62
     1
100
AcDbPolyline
 90
       80
 70
     0
 43
0.0
 10
-100.73
 20
19.9857
 10
-101.648
 20
20.3627
 10
-101.648
 20
20.3627
 10
-102.593
 20
20.7048
 10
-102.593
 20
20.7048
 10
-103.562
 20
21.0109
 10
-103.562
 20
21.0109
 10
-104.553
 20
21.2802
 10
-104.553
 20
21.2802
 10
-105.563
 20
21.5119
 10
-105.563
 20
21.5119
 10
-106.589
 20
21.7054
 10
-106.589
 20
21.7054
 10
-107.628
 20
21.8602
 10
-107.628
 20
21.8602
 10
-108.677
 20
21.9758
 10
-108.677
 20
21.9758
 10
-109.733
 20
22.0518
 10
-109.733
 20
22.0518
 10
-110.793
 20
22.0881
 10
-110.793
 20
22.0881
 10
-111.855
 20
22.0846
 10
-111.855
 20
22.0846
 10
-112.915
 20
22.0412
 10
-112.915
 20
22.0412
 10
-113.97
 20
21.9581
 10
-113.97
 20
21.9581
 10
-115.017
 20
21.8356
 10
-115.017
 20
21.8356
 10
-116.054
 20
21.6739
 10
-116.054
 20
21.6739
 10
-117.077
 20
21.4736
 10
-117.077
 20
21.4736
 10
-118.084
 20
21.2352
 10
-118.084
 20
21.2352
 10
-119.071
 20
20.9593
 10
-119.071
 20
20.9593
 10
-120.036
 20
20.6468
 10
-120.036
 20
20.6468
 10
-120.977
 20
20.2984
 10
-120.977
 20
20.2984
 10
-121.89
 20
19.9153
 10
-121.89
 20
19.9153
 10
-122.773
 20
19.4985
 10
-122.773
 20
19.4985
 10
-123.623
 20
19.0492
 10
-123.623
 20
19.0492
 10
-124.439
 20
18.5685
 10
-124.439
 20
18.5685
 10
-125.217
 20
18.058
 10
-125.217
 20
18.058
 10
-125.956
 20
17.5189
 10
-125.956
 20
17.5189
 10
-126.653
 20
16.9529
 10
-126.653
 20
16.9529
 10
-127.307
 20
16.3615
 10
-127.307
 20
16.3615
 10
-127.916
 20
15.7465
 10
-127.916
 20
15.7465
 10
-128.477
 20
15.1094
 10
-128.477
 20
15.1094
 10
-128.99
 20
14.4522
 10
-128.99
 20
14.4522
 10
-129.453
 20
13.7766
 10
-129.453
 20
13.7766
 10
-129.865
 20
13.0847
 10
-129.865
 20
13.0847
 10
-130.224
 20
12.3782
 10
-130.224
 20
12.3782
 10
-130.53
 20
11.6593
 10
-130.53
 20
11.6593
 10
-130.781
 20
10.93
 10
-130.781
 20
10.93
 10
-130.977
 20
10.1922
 10
-130.977
 20
10.1922
 10
-131.117
 20
9.448109999999999
 10
-131.117
 20
9.448109999999999
 10
-131.202
 20
8.699810000000001
 10
-131.202
 20
8.699810000000001
 10
-131.23
 20
7.949389999999999
  0
ENDBLK
  5
279
330
225
100
AcDbEntity
  8
0
100
AcDbBlockEnd
  0
BLOCK
  5
27B
330
27A
100
AcDbEntity
  8
0
100
AcDbBlockBegin
  2
_G_P_12
 70
     0
 10
0.0
 20
0.0
 30
0.0
  3
_G_P_12
  1

  0
LWPOLYLINE
  5
27C
330
27A
100
AcDbEntity
  8
1
  6
Continuous
 62
     1
100
AcDbPolyline
 90
       98
 70
     0
 43
0.0
 10
-109.237
 20
-5.854809999999999
 10
-109.222
 20
-6.39677
 10
-109.222
 20
-6.39677
 10
-109.175
 20
-6.937889999999999
 10
-109.175
 20
-6.937889999999999
 10
-109.098
 20
-7.477339999999998
 10
-109.098
 20
-7.477339999999998
 10
-108.991
 20
-8.014289999999999
 10
-108.991
 20
-8.014289999999999
 10
-108.853
 20
-8.547919999999999
 10
-108.853
 20
-8.547919999999999
 10
-108.684
 20
-9.077379999999999
 10
-108.684
 20
-9.077379999999999
 10
-108.486
 20
-9.601879999999999
 10
-108.486
 20
-9.601879999999999
 10
-108.258
 20
-10.1206
 10
-108.258
 20
-10.1206
 10
-108.001
 20
-10.6328
 10
-108.001
 20
-10.6328
 10
-107.4
 20
-11.6342
 10
-107.4
 20
-11.6342
 10
-106.687
 20
-12.5999
 10
-106.687
 20
-12.5999
 10
-105.866
 20
-13.5241
 10
-105.866
 20
-13.5241
 10
-104.943
 20
-14.401
 10
-104.943
 20
-14.401
 10
-103.924
 20
-15.2253
 10
-103.924
 20
-15.2253
 10
-102.813
 20
-15.9917
 10
-102.813
 20
-15.9917
 10
-101.619
 20
-16.6957
 10
-101.619
 20
-16.6957
 10
-100.349
 20
-17.3328
 10
-100.349
 20
-17.3328
 10
-99.00950000000001
 20
-17.8991
 10
-99.00950000000001
 20
-17.8991
 10
-97.61029999999999
 20
-18.3912
 10
-97.61029999999999
 20
-18.3912
 10
-96.15949999999999
 20
-18.806
 10
-96.15949999999999
 20
-18.806
 10
-94.66599999999999
 20
-19.141
 10
-94.66599999999999
 20
-19.141
 10
-93.139
 20
-19.394
 10
-93.139
 20
-19.394
 10
-91.58790000000001
 20
-19.5636
 10
-91.58790000000001
 20
-19.5636
 10
-90.0224
 20
-19.6486
 10
-90.0224
 20
-19.6486
 10
-88.45200000000001
 20
-19.6486
 10
-88.45200000000001
 20
-19.6486
 10
-86.88639999999999
 20
-19.5636
 10
-86.88639999999999
 20
-19.5636
 10
-85.3354
 20
-19.394
 10
-85.3354
 20
-19.394
 10
-83.8084
 20
-19.141
 10
-83.8084
 20
-19.141
 10
-82.31480000000001
 20
-18.806
 10
-82.31480000000001
 20
-18.806
 10
-80.86399999999999
 20
-18.3913
 10
-80.86399999999999
 20
-18.3913
 10
-79.4648
 20
-17.8992
 10
-79.4648
 20
-17.8992
 10
-78.1258
 20
-17.3328
 10
-78.1258
 20
-17.3328
 10
-76.85529999999999
 20
-16.6957
 10
-76.85529999999999
 20
-16.6957
 10
-75.66119999999999
 20
-15.9918
 10
-75.66119999999999
 20
-15.9918
 10
-74.5507
 20
-15.2253
 10
-74.5507
 20
-15.2253
 10
-73.5308
 20
-14.4011
 10
-73.5308
 20
-14.4011
 10
-72.6078
 20
-13.5242
 10
-72.6078
 20
-13.5242
 10
-71.7872
 20
-12.6
 10
-71.7872
 20
-12.6
 10
-71.07429999999999
 20
-11.6343
 10
-71.07429999999999
 20
-11.6343
 10
-70.47329999999999
 20
-10.6329
 10
-70.47329999999999
 20
-10.6329
 10
-70.21600000000001
 20
-10.1207
 10
-70.21600000000001
 20
-10.1207
 10
-69.988
 20
-9.602009999999999
 10
-69.988
 20
-9.602009999999999
 10
-69.7897
 20
-9.07751
 10
-69.7897
 20
-9.07751
 10
-69.62139999999999
 20
-8.54804
 10
-69.62139999999999
 20
-8.54804
 10
-69.4833
 20
-8.014419999999999
 10
-69.4833
 20
-8.014419999999999
 10
-69.3757
 20
-7.477469999999999
 10
-69.3757
 20
-7.477469999999999
 10
-69.2987
 20
-6.938019999999999
 10
-69.2987
 20
-6.938019999999999
 10
-69.2525
 20
-6.396889999999999
 10
-69.2525
 20
-6.396889999999999
 10
-69.23709999999999
 20
-5.85494
  0
ENDBLK
  5
2E0
330
27A
100
AcDbEntity
  8
0
100
AcDbBlockEnd
  0
BLOCK
  5
2E2
330
2E1
100
AcDbEntity
  8
0
100
AcDbBlockBegin
  2
_G_P_13
 70
     0
 10
0.0
 20
0.0
 30
0.0
  3
_G_P_13
  1

  0
LWPOLYLINE
  5
2E3
330
2E1
100
AcDbEntity
  8
1
  6
Continuous
 62
     1
100
AcDbPolyline
 90
      198
 70
     0
 43
0.0
 10
388.745
 20
-171.641
 10
387.176
 20
-171.598
 10
387.176
 20
-171.598
 10
385.616
 20
-171.467
 10
385.616
 20
-171.467
 10
384.076
 20
-171.25
 10
384.076
 20
-171.25
 10
382.564
 20
-170.949
 10
382.564
 20
-170.949
 10
381.091
 20
-170.565
 10
381.091
 20
-170.565
 10
379.665
 20
-170.1
 10
379.665
 20
-170.1
 10
378.295
 20
-169.557
 10
378.295
 20
-169.557
 10
376.989
 20
-168.94
 10
376.989
 20
-168.94
 10
375.756
 20
-168.253
 10
375.756
 20
-168.253
 10
374.603
 20
-167.499
 10
374.603
 20
-167.499
 10
373.537
 20
-166.684
 10
373.537
 20
-166.684
 10
372.564
 20
-165.812
 10
372.564
 20
-165.812
 10
371.692
 20
-164.888
 10
371.692
 20
-164.888
 10
370.925
 20
-163.919
 10
370.925
 20
-163.919
 10
370.267
 20
-162.911
 10
370.267
 20
-162.911
 10
369.981
 20
-162.394
 10
369.981
 20
-162.394
 10
369.724
 20
-161.869
 10
369.724
 20
-161.869
 10
369.496
 20
-161.338
 10
369.496
 20
-161.338
 10
369.297
 20
-160.8
 10
369.297
 20
-160.8
 10
369.129
 20
-160.258
 10
369.129
 20
-160.258
 10
368.991
 20
-159.711
 10
368.991
 20
-159.711
 10
368.883
 20
-159.161
 10
368.883
 20
-159.161
 10
368.806
 20
-158.608
 10
368.806
 20
-158.608
 10
368.76
 20
-158.054
 10
368.76
 20
-158.054
 10
368.745
 20
-157.499
 10
368.745
 20
-157.499
 10
368.76
 20
-156.944
 10
368.76
 20
-156.944
 10
368.806
 20
-156.389
 10
368.806
 20
-156.389
 10
368.883
 20
-155.837
 10
368.883
 20
-155.837
 10
368.991
 20
-155.287
 10
368.991
 20
-155.287
 10
369.129
 20
-154.74
 10
369.129
 20
-154.74
 10
369.297
 20
-154.197
 10
369.297
 20
-154.197
 10
369.496
 20
-153.66
 10
369.496
 20
-153.66
 10
369.724
 20
-153.129
 10
369.724
 20
-153.129
 10
369.981
 20
-152.604
 10
369.981
 20
-152.604
 10
370.582
 20
-151.578
 10
370.582
 20
-151.578
 10
371.295
 20
-150.589
 10
371.295
 20
-150.589
 10
372.115
 20
-149.642
 10
372.115
 20
-149.642
 10
373.038
 20
-148.743
 10
373.038
 20
-148.743
 10
374.058
 20
-147.899
 10
374.058
 20
-147.899
 10
375.169
 20
-147.114
 10
375.169
 20
-147.114
 10
376.363
 20
-146.393
 10
376.363
 20
-146.393
 10
377.6330000000001
 20
-145.74
 10
377.6330000000001
 20
-145.74
 10
378.972
 20
-145.16
 10
378.972
 20
-145.16
 10
380.371
 20
-144.656
 10
380.371
 20
-144.656
 10
381.822
 20
-144.231
 10
381.822
 20
-144.231
 10
383.316
 20
-143.887
 10
383.316
 20
-143.887
 10
384.843
 20
-143.628
 10
384.843
 20
-143.628
 10
386.394
 20
-143.455
 10
386.394
 20
-143.455
 10
387.959
 20
-143.367
 10
387.959
 20
-143.367
 10
389.53
 20
-143.367
 10
389.53
 20
-143.367
 10
391.095
 20
-143.455
 10
391.095
 20
-143.455
 10
392.646
 20
-143.628
 10
392.646
 20
-143.628
 10
394.173
 20
-143.887
 10
394.173
 20
-143.887
 10
395.667
 20
-144.231
 10
395.667
 20
-144.231
 10
397.1180000000001
 20
-144.656
 10
397.1180000000001
 20
-144.656
 10
398.517
 20
-145.16
 10
398.517
 20
-145.16
 10
399.856
 20
-145.74
 10
399.856
 20
-145.74
 10
401.1269999999999
 20
-146.393
 10
401.1269999999999
 20
-146.393
 10
402.3209999999999
 20
-147.114
 10
402.3209999999999
 20
-147.114
 10
403.4309999999999
 20
-147.899
 10
403.4309999999999
 20
-147.899
 10
404.4509999999999
 20
-148.743
 10
404.4509999999999
 20
-148.743
 10
405.374
 20
-149.642
 10
405.374
 20
-149.642
 10
406.195
 20
-150.589
 10
406.195
 20
-150.589
 10
406.908
 20
-151.578
 10
406.908
 20
-151.578
 10
407.509
 20
-152.604
 10
407.509
 20
-152.604
 10
407.7659999999999
 20
-153.129
 10
407.7659999999999
 20
-153.129
 10
407.994
 20
-153.66
 10
407.994
 20
-153.66
 10
408.1919999999999
 20
-154.197
 10
408.1919999999999
 20
-154.197
 10
408.36
 20
-154.74
 10
408.36
 20
-154.74
 10
408.498
 20
-155.287
 10
408.498
 20
-155.287
 10
408.6059999999999
 20
-155.837
 10
408.6059999999999
 20
-155.837
 10
408.683
 20
-156.389
 10
408.683
 20
-156.389
 10
408.729
 20
-156.944
 10
408.729
 20
-156.944
 10
408.745
 20
-157.499
 10
408.745
 20
-157.499
 10
408.729
 20
-158.054
 10
408.729
 20
-158.054
 10
408.683
 20
-158.608
 10
408.683
 20
-158.608
 10
408.6059999999999
 20
-159.161
 10
408.6059999999999
 20
-159.161
 10
408.498
 20
-159.711
 10
408.498
 20
-159.711
 10
408.36
 20
-160.258
 10
408.36
 20
-160.258
 10
408.1919999999999
 20
-160.8
 10
408.1919999999999
 20
-160.8
 10
407.994
 20
-161.338
 10
407.994
 20
-161.338
 10
407.7659999999999
 20
-161.869
 10
407.7659999999999
 20
-161.869
 10
407.509
 20
-162.394
 10
407.509
 20
-162.394
 10
406.908
 20
-163.42
 10
406.908
 20
-163.42
 10
406.195
 20
-164.409
 10
406.195
 20
-164.409
 10
405.374
 20
-165.356
 10
405.374
 20
-165.356
 10
404.4509999999999
 20
-166.254
 10
404.4509999999999
 20
-166.254
 10
403.4309999999999
 20
-167.099
 10
403.4309999999999
 20
-167.099
 10
402.3209999999999
 20
-167.884
 10
402.3209999999999
 20
-167.884
 10
401.1269999999999
 20
-168.605
 10
401.1269999999999
 20
-168.605
 10
399.856
 20
-169.2579999999999
 10
399.856
 20
-169.2579999999999
 10
398.517
 20
-169.838
 10
398.517
 20
-169.838
 10
397.1180000000001
 20
-170.342
 10
397.1180000000001
 20
-170.342
 10
395.667
 20
-170.767
 10
395.667
 20
-170.767
 10
394.173
 20
-171.11
 10
394.173
 20
-171.11
 10
392.646
 20
-171.369
 10
392.646
 20
-171.369
 10
391.095
 20
-171.543
 10
391.095
 20
-171.543
 10
389.922
 20
-171.617
 10
389.922
 20
-171.617
 10
388.745
 20
-171.641
  0
ENDBLK
  5
3AB
330
2E1
100
AcDbEntity
  8
0
100
AcDbBlockEnd
  0
BLOCK
  5
3AD
330
3AC
100
AcDbEntity
  8
0
100
AcDbBlockBegin
  2
_G_P_14
 70
     0
 10
0.0
 20
0.0
 30
0.0
  3
_G_P_14
  1

  0
LWPOLYLINE
  5
3AE
330
3AC
100
AcDbEntity
  8
1
  6
Continuous
 62
     1
100
AcDbPolyline
 90
       98
 70
     0
 43
0.0
 10
368.745
 20
-171.641
 10
368.76
 20
-172.196
 10
368.76
 20
-172.196
 10
368.806
 20
-172.75
 10
368.806
 20
-172.75
 10
368.883
 20
-173.303
 10
368.883
 20
-173.303
 10
368.991
 20
-173.853
 10
368.991
 20
-173.853
 10
369.129
 20
-174.4
 10
369.129
 20
-174.4
 10
369.297
 20
-174.942
 10
369.297
 20
-174.942
 10
369.496
 20
-175.48
 10
369.496
 20
-175.48
 10
369.724
 20
-176.011
 10
369.724
 20
-176.011
 10
369.981
 20
-176.536
 10
369.981
 20
-176.536
 10
370.582
 20
-177.562
 10
370.582
 20
-177.562
 10
371.295
 20
-178.551
 10
371.295
 20
-178.551
 10
372.115
 20
-179.498
 10
372.115
 20
-179.498
 10
373.038
 20
-180.396
 10
373.038
 20
-180.396
 10
374.058
 20
-181.241
 10
374.058
 20
-181.241
 10
375.169
 20
-182.026
 10
375.169
 20
-182.026
 10
376.363
 20
-182.747
 10
376.363
 20
-182.747
 10
377.6330000000001
 20
-183.4
 10
377.6330000000001
 20
-183.4
 10
378.972
 20
-183.98
 10
378.972
 20
-183.98
 10
380.371
 20
-184.484
 10
380.371
 20
-184.484
 10
381.822
 20
-184.909
 10
381.822
 20
-184.909
 10
383.316
 20
-185.252
 10
383.316
 20
-185.252
 10
384.843
 20
-185.511
 10
384.843
 20
-185.511
 10
386.394
 20
-185.685
 10
386.394
 20
-185.685
 10
387.959
 20
-185.772
 10
387.959
 20
-185.772
 10
389.53
 20
-185.772
 10
389.53
 20
-185.772
 10
391.095
 20
-185.685
 10
391.095
 20
-185.685
 10
392.646
 20
-185.511
 10
392.646
 20
-185.511
 10
394.173
 20
-185.252
 10
394.173
 20
-185.252
 10
395.667
 20
-184.909
 10
395.667
 20
-184.909
 10
397.1180000000001
 20
-184.484
 10
397.1180000000001
 20
-184.484
 10
398.517
 20
-183.98
 10
398.517
 20
-183.98
 10
399.856
 20
-183.4
 10
399.856
 20
-183.4
 10
401.1269999999999
 20
-182.747
 10
401.1269999999999
 20
-182.747
 10
402.3209999999999
 20
-182.026
 10
402.3209999999999
 20
-182.026
 10
403.4309999999999
 20
-181.241
 10
403.4309999999999
 20
-181.241
 10
404.4509999999999
 20
-180.396
 10
404.4509999999999
 20
-180.396
 10
405.374
 20
-179.498
 10
405.374
 20
-179.498
 10
406.195
 20
-178.551
 10
406.195
 20
-178.551
 10
406.908
 20
-177.562
 10
406.908
 20
-177.562
 10
407.509
 20
-176.536
 10
407.509
 20
-176.536
 10
407.7659999999999
 20
-176.011
 10
407.7659999999999
 20
-176.011
 10
407.994
 20
-175.48
 10
407.994
 20
-175.48
 10
408.1919999999999
 20
-174.942
 10
408.1919999999999
 20
-174.942
 10
408.36
 20
-174.4
 10
408.36
 20
-174.4
 10
408.498
 20
-173.853
 10
408.498
 20
-173.853
 10
408.6059999999999
 20
-173.303
 10
408.6059999999999
 20
-173.303
 10
408.683
 20
-172.75
 10
408.683
 20
-172.75
 10
408.729
 20
-172.196
 10
408.729
 20
-172.196
 10
408.745
 20
-171.641
  0
ENDBLK
  5
412
330
3AC
100
AcDbEntity
  8
0
100
AcDbBlockEnd
  0
BLOCK
  5
414
330
413
100
AcDbEntity
  8
0
100
AcDbBlockBegin
  2
_G_P_15
 70
     0
 10
0.0
 20
0.0
 30
0.0
  3
_G_P_15
  1

  0
LWPOLYLINE
  5
415
330
413
100
AcDbEntity
  8
1
  6
Continuous
 62
     1
100
AcDbPolyline
 90
      196
 70
     0
 43
0.0
 10
390.754
 20
-224.674
 10
390.769
 20
-225.229
 10
390.769
 20
-225.229
 10
390.815
 20
-225.784
 10
390.815
 20
-225.784
 10
390.892
 20
-226.336
 10
390.892
 20
-226.336
 10
391.0
 20
-226.886
 10
391.0
 20
-226.886
 10
391.138
 20
-227.433
 10
391.138
 20
-227.433
 10
391.306
 20
-227.975
 10
391.306
 20
-227.975
 10
391.505
 20
-228.513
 10
391.505
 20
-228.513
 10
391.733
 20
-229.044
 10
391.733
 20
-229.044
 10
391.99
 20
-229.569
 10
391.99
 20
-229.569
 10
392.591
 20
-230.595
 10
392.591
 20
-230.595
 10
393.304
 20
-231.584
 10
393.304
 20
-231.584
 10
394.124
 20
-232.531
 10
394.124
 20
-232.531
 10
395.047
 20
-233.429
 10
395.047
 20
-233.429
 10
396.067
 20
-234.274
 10
396.067
 20
-234.274
 10
397.1780000000001
 20
-235.059
 10
397.1780000000001
 20
-235.059
 10
398.3719999999999
 20
-235.78
 10
398.3719999999999
 20
-235.78
 10
399.642
 20
-236.433
 10
399.642
 20
-236.433
 10
400.9809999999999
 20
-237.013
 10
400.9809999999999
 20
-237.013
 10
402.381
 20
-237.517
 10
402.381
 20
-237.517
 10
403.831
 20
-237.942
 10
403.831
 20
-237.942
 10
405.325
 20
-238.285
 10
405.325
 20
-238.285
 10
406.8519999999999
 20
-238.545
 10
406.8519999999999
 20
-238.545
 10
408.403
 20
-238.718
 10
408.403
 20
-238.718
 10
409.968
 20
-238.805
 10
409.968
 20
-238.805
 10
411.5389999999999
 20
-238.805
 10
411.5389999999999
 20
-238.805
 10
413.104
 20
-238.718
 10
413.104
 20
-238.718
 10
414.6549999999999
 20
-238.545
 10
414.6549999999999
 20
-238.545
 10
416.1819999999999
 20
-238.285
 10
416.1819999999999
 20
-238.285
 10
417.6759999999999
 20
-237.942
 10
417.6759999999999
 20
-237.942
 10
419.1269999999999
 20
-237.517
 10
419.1269999999999
 20
-237.517
 10
420.5259999999999
 20
-237.013
 10
420.5259999999999
 20
-237.013
 10
421.865
 20
-236.433
 10
421.865
 20
-236.433
 10
423.1359999999999
 20
-235.78
 10
423.1359999999999
 20
-235.78
 10
424.3299999999999
 20
-235.059
 10
424.3299999999999
 20
-235.059
 10
425.44
 20
-234.274
 10
425.44
 20
-234.274
 10
426.4599999999999
 20
-233.429
 10
426.4599999999999
 20
-233.429
 10
427.383
 20
-232.531
 10
427.383
 20
-232.531
 10
428.204
 20
-231.584
 10
428.204
 20
-231.584
 10
428.9169999999999
 20
-230.595
 10
428.9169999999999
 20
-230.595
 10
429.5169999999999
 20
-229.569
 10
429.5169999999999
 20
-229.569
 10
429.7749999999999
 20
-229.044
 10
429.7749999999999
 20
-229.044
 10
430.003
 20
-228.513
 10
430.003
 20
-228.513
 10
430.201
 20
-227.975
 10
430.201
 20
-227.975
 10
430.369
 20
-227.433
 10
430.369
 20
-227.433
 10
430.5069999999999
 20
-226.886
 10
430.5069999999999
 20
-226.886
 10
430.615
 20
-226.336
 10
430.615
 20
-226.336
 10
430.6919999999999
 20
-225.784
 10
430.6919999999999
 20
-225.784
 10
430.7380000000001
 20
-225.229
 10
430.7380000000001
 20
-225.229
 10
430.754
 20
-224.674
 10
430.754
 20
-224.674
 10
430.7380000000001
 20
-224.119
 10
430.7380000000001
 20
-224.119
 10
430.6919999999999
 20
-223.564
 10
430.6919999999999
 20
-223.564
 10
430.615
 20
-223.012
 10
430.615
 20
-223.012
 10
430.5069999999999
 20
-222.462
 10
430.5069999999999
 20
-222.462
 10
430.369
 20
-221.915
 10
430.369
 20
-221.915
 10
430.201
 20
-221.372
 10
430.201
 20
-221.372
 10
430.003
 20
-220.835
 10
430.003
 20
-220.835
 10
429.7749999999999
 20
-220.304
 10
429.7749999999999
 20
-220.304
 10
429.5169999999999
 20
-219.779
 10
429.5169999999999
 20
-219.779
 10
428.9169999999999
 20
-218.753
 10
428.9169999999999
 20
-218.753
 10
428.204
 20
-217.764
 10
428.204
 20
-217.764
 10
427.383
 20
-216.817
 10
427.383
 20
-216.817
 10
426.4599999999999
 20
-215.918
 10
426.4599999999999
 20
-215.918
 10
425.44
 20
-215.074
 10
425.44
 20
-215.074
 10
424.3299999999999
 20
-214.289
 10
424.3299999999999
 20
-214.289
 10
423.1359999999999
 20
-213.568
 10
423.1359999999999
 20
-213.568
 10
421.865
 20
-212.915
 10
421.865
 20
-212.915
 10
420.5259999999999
 20
-212.335
 10
420.5259999999999
 20
-212.335
 10
419.1269999999999
 20
-211.831
 10
419.1269999999999
 20
-211.831
 10
417.6759999999999
 20
-211.406
 10
417.6759999999999
 20
-211.406
 10
416.1819999999999
 20
-211.063
 10
416.1819999999999
 20
-211.063
 10
414.6549999999999
 20
-210.803
 10
414.6549999999999
 20
-210.803
 10
413.104
 20
-210.63
 10
413.104
 20
-210.63
 10
411.5389999999999
 20
-210.542
 10
411.5389999999999
 20
-210.542
 10
409.968
 20
-210.542
 10
409.968
 20
-210.542
 10
408.403
 20
-210.63
 10
408.403
 20
-210.63
 10
406.8519999999999
 20
-210.803
 10
406.8519999999999
 20
-210.803
 10
405.325
 20
-211.063
 10
405.325
 20
-211.063
 10
403.831
 20
-211.406
 10
403.831
 20
-211.406
 10
402.381
 20
-211.831
 10
402.381
 20
-211.831
 10
400.9809999999999
 20
-212.335
 10
400.9809999999999
 20
-212.335
 10
399.642
 20
-212.915
 10
399.642
 20
-212.915
 10
398.3719999999999
 20
-213.568
 10
398.3719999999999
 20
-213.568
 10
397.1780000000001
 20
-214.289
 10
397.1780000000001
 20
-214.289
 10
396.067
 20
-215.074
 10
396.067
 20
-215.074
 10
395.047
 20
-215.918
 10
395.047
 20
-215.918
 10
394.124
 20
-216.817
 10
394.124
 20
-216.817
 10
393.304
 20
-217.764
 10
393.304
 20
-217.764
 10
392.591
 20
-218.753
 10
392.591
 20
-218.753
 10
391.99
 20
-219.779
 10
391.99
 20
-219.779
 10
391.733
 20
-220.304
 10
391.733
 20
-220.304
 10
391.505
 20
-220.835
 10
391.505
 20
-220.835
 10
391.306
 20
-221.372
 10
391.306
 20
-221.372
 10
391.138
 20
-221.915
 10
391.138
 20
-221.915
 10
391.0
 20
-222.462
 10
391.0
 20
-222.462
 10
390.892
 20
-223.012
 10
390.892
 20
-223.012
 10
390.815
 20
-223.564
 10
390.815
 20
-223.564
 10
390.769
 20
-224.119
 10
390.769
 20
-224.119
 10
390.754
 20
-224.674
  0
ENDBLK
  5
4DB
330
413
100
AcDbEntity
  8
0
100
AcDbBlockEnd
  0
BLOCK
  5
4DD
330
4DC
100
AcDbEntity
  8
0
100
AcDbBlockBegin
  2
_G_P_16
 70
     0
 10
0.0
 20
0.0
 30
0.0
  3
_G_P_16
  1

  0
LWPOLYLINE
  5
4DE
330
4DC
100
AcDbEntity
  8
1
  6
Continuous
 62
     1
100
AcDbPolyline
 90
       98
 70
     0
 43
0.0
 10
430.754
 20
-210.532
 10
430.7380000000001
 20
-209.977
 10
430.7380000000001
 20
-209.977
 10
430.6919999999999
 20
-209.422
 10
430.6919999999999
 20
-209.422
 10
430.615
 20
-208.87
 10
430.615
 20
-208.87
 10
430.5069999999999
 20
-208.32
 10
430.5069999999999
 20
-208.32
 10
430.369
 20
-207.773
 10
430.369
 20
-207.773
 10
430.201
 20
-207.231
 10
430.201
 20
-207.231
 10
430.003
 20
-206.693
 10
430.003
 20
-206.693
 10
429.7749999999999
 20
-206.162
 10
429.7749999999999
 20
-206.162
 10
429.5169999999999
 20
-205.637
 10
429.5169999999999
 20
-205.637
 10
428.9159999999999
 20
-204.611
 10
428.9159999999999
 20
-204.611
 10
428.204
 20
-203.622
 10
428.204
 20
-203.622
 10
427.383
 20
-202.675
 10
427.383
 20
-202.675
 10
426.4599999999999
 20
-201.777
 10
426.4599999999999
 20
-201.777
 10
425.44
 20
-200.932
 10
425.44
 20
-200.932
 10
424.3299999999999
 20
-200.147
 10
424.3299999999999
 20
-200.147
 10
423.1349999999999
 20
-199.426
 10
423.1349999999999
 20
-199.426
 10
421.865
 20
-198.773
 10
421.865
 20
-198.773
 10
420.5259999999999
 20
-198.193
 10
420.5259999999999
 20
-198.193
 10
419.1269999999999
 20
-197.689
 10
419.1269999999999
 20
-197.689
 10
417.6759999999999
 20
-197.264
 10
417.6759999999999
 20
-197.264
 10
416.1819999999999
 20
-196.921
 10
416.1819999999999
 20
-196.921
 10
414.6549999999999
 20
-196.661
 10
414.6549999999999
 20
-196.661
 10
413.104
 20
-196.488
 10
413.104
 20
-196.488
 10
411.5389999999999
 20
-196.401
 10
411.5389999999999
 20
-196.401
 10
409.968
 20
-196.401
 10
409.968
 20
-196.401
 10
408.403
 20
-196.488
 10
408.403
 20
-196.488
 10
406.8519999999999
 20
-196.661
 10
406.8519999999999
 20
-196.661
 10
405.325
 20
-196.921
 10
405.325
 20
-196.921
 10
403.831
 20
-197.264
 10
403.831
 20
-197.264
 10
402.381
 20
-197.689
 10
402.381
 20
-197.689
 10
400.9809999999999
 20
-198.193
 10
400.9809999999999
 20
-198.193
 10
399.642
 20
-198.773
 10
399.642
 20
-198.773
 10
398.3719999999999
 20
-199.426
 10
398.3719999999999
 20
-199.426
 10
397.1780000000001
 20
-200.147
 10
397.1780000000001
 20
-200.147
 10
396.067
 20
-200.932
 10
396.067
 20
-200.932
 10
395.047
 20
-201.777
 10
395.047
 20
-201.777
 10
394.124
 20
-202.675
 10
394.124
 20
-202.675
 10
393.304
 20
-203.622
 10
393.304
 20
-203.622
 10
392.591
 20
-204.611
 10
392.591
 20
-204.611
 10
391.99
 20
-205.637
 10
391.99
 20
-205.637
 10
391.733
 20
-206.162
 10
391.733
 20
-206.162
 10
391.505
 20
-206.693
 10
391.505
 20
-206.693
 10
391.306
 20
-207.231
 10
391.306
 20
-207.231
 10
391.138
 20
-207.773
 10
391.138
 20
-207.773
 10
391.0
 20
-208.32
 10
391.0
 20
-208.32
 10
390.892
 20
-208.87
 10
390.892
 20
-208.87
 10
390.815
 20
-209.422
 10
390.815
 20
-209.422
 10
390.769
 20
-209.977
 10
390.769
 20
-209.977
 10
390.754
 20
-210.532
  0
ENDBLK
  5
542
330
4DC
100
AcDbEntity
  8
0
100
AcDbBlockEnd
  0
BLOCK
  5
544
330
543
100
AcDbEntity
  8
0
100
AcDbBlockBegin
  2
_G_P_17
 70
     0
 10
0.0
 20
0.0
 30
0.0
  3
_G_P_17
  1

  0
LWPOLYLINE
  5
545
330
543
100
AcDbEntity
  8
1
  6
Continuous
 62
     1
100
AcDbPolyline
 90
      198
 70
     0
 43
0.0
 10
410.7509999999999
 20
22.0915
 10
409.1819999999999
 20
22.0479
 10
409.1819999999999
 20
22.0479
 10
407.623
 20
21.9174
 10
407.623
 20
21.9174
 10
406.083
 20
21.7007
 10
406.083
 20
21.7007
 10
404.5709999999999
 20
21.3993
 10
404.5709999999999
 20
21.3993
 10
403.098
 20
21.015
 10
403.098
 20
21.015
 10
401.6719999999999
 20
20.5501
 10
401.6719999999999
 20
20.5501
 10
400.3009999999999
 20
20.0075
 10
400.3009999999999
 20
20.0075
 10
398.996
 20
19.3906
 10
398.996
 20
19.3906
 10
397.7619999999999
 20
18.7031
 10
397.7619999999999
 20
18.7031
 10
396.609
 20
17.9494
 10
396.609
 20
17.9494
 10
395.543
 20
17.1339
 10
395.543
 20
17.1339
 10
394.571
 20
16.2619
 10
394.571
 20
16.2619
 10
393.699
 20
15.3386
 10
393.699
 20
15.3386
 10
392.931
 20
14.3698
 10
392.931
 20
14.3698
 10
392.274
 20
13.3613
 10
392.274
 20
13.3613
 10
391.988
 20
12.8442
 10
391.988
 20
12.8442
 10
391.73
 20
12.3195
 10
391.73
 20
12.3195
 10
391.502
 20
11.7881
 10
391.502
 20
11.7881
 10
391.304
 20
11.2508
 10
391.304
 20
11.2508
 10
391.136
 20
10.7084
 10
391.136
 20
10.7084
 10
390.998
 20
10.1617
 10
390.998
 20
10.1617
 10
390.89
 20
9.61162
 10
390.89
 20
9.61162
 10
390.813
 20
9.05898
 10
390.813
 20
9.05898
 10
390.767
 20
8.504619999999999
 10
390.767
 20
8.504619999999999
 10
390.751
 20
7.949399999999999
 10
390.751
 20
7.949399999999999
 10
390.767
 20
7.39418
 10
390.767
 20
7.39418
 10
390.813
 20
6.839819999999999
 10
390.813
 20
6.839819999999999
 10
390.89
 20
6.28718
 10
390.89
 20
6.28718
 10
390.998
 20
5.73709
 10
390.998
 20
5.73709
 10
391.136
 20
5.190419999999999
 10
391.136
 20
5.190419999999999
 10
391.304
 20
4.64799
 10
391.304
 20
4.64799
 10
391.502
 20
4.11066
 10
391.502
 20
4.11066
 10
391.73
 20
3.57925
 10
391.73
 20
3.57925
 10
391.988
 20
3.05458
 10
391.988
 20
3.05458
 10
392.589
 20
2.02868
 10
392.589
 20
2.02868
 10
393.301
 20
1.03927
 10
393.301
 20
1.03927
 10
394.1219999999999
 20
0.0924742
 10
394.1219999999999
 20
0.0924742
 10
395.045
 20
-0.805884
 10
395.045
 20
-0.805884
 10
396.065
 20
-1.650259999999999
 10
396.065
 20
-1.650259999999999
 10
397.175
 20
-2.435459999999999
 10
397.175
 20
-2.435459999999999
 10
398.37
 20
-3.156629999999999
 10
398.37
 20
-3.156629999999999
 10
399.64
 20
-3.809319999999999
 10
399.64
 20
-3.809319999999999
 10
400.979
 20
-4.38952
 10
400.979
 20
-4.38952
 10
402.378
 20
-4.89365
 10
402.378
 20
-4.89365
 10
403.8289999999999
 20
-5.31859
 10
403.8289999999999
 20
-5.31859
 10
405.323
 20
-5.661739999999999
 10
405.323
 20
-5.661739999999999
 10
406.85
 20
-5.92096
 10
406.85
 20
-5.92096
 10
408.401
 20
-6.094669999999999
 10
408.401
 20
-6.094669999999999
 10
409.966
 20
-6.181799999999999
 10
409.966
 20
-6.181799999999999
 10
411.5369999999999
 20
-6.181799999999999
 10
411.5369999999999
 20
-6.181799999999999
 10
413.1019999999999
 20
-6.09468
 10
413.1019999999999
 20
-6.09468
 10
414.653
 20
-5.920969999999999
 10
414.653
 20
-5.920969999999999
 10
416.18
 20
-5.661739999999999
 10
416.18
 20
-5.661739999999999
 10
417.674
 20
-5.318599999999999
 10
417.674
 20
-5.318599999999999
 10
419.125
 20
-4.893659999999999
 10
419.125
 20
-4.893659999999999
 10
420.5239999999999
 20
-4.38954
 10
420.5239999999999
 20
-4.38954
 10
421.863
 20
-3.80934
 10
421.863
 20
-3.80934
 10
423.133
 20
-3.15664
 10
423.133
 20
-3.15664
 10
424.3269999999999
 20
-2.43548
 10
424.3269999999999
 20
-2.43548
 10
425.438
 20
-1.650279999999999
 10
425.438
 20
-1.650279999999999
 10
426.458
 20
-0.805906
 10
426.458
 20
-0.805906
 10
427.381
 20
0.0924518
 10
427.381
 20
0.0924518
 10
428.2009999999999
 20
1.03925
 10
428.2009999999999
 20
1.03925
 10
428.9139999999999
 20
2.028649999999999
 10
428.9139999999999
 20
2.028649999999999
 10
429.5149999999999
 20
3.054559999999999
 10
429.5149999999999
 20
3.054559999999999
 10
429.773
 20
3.57923
 10
429.773
 20
3.57923
 10
430.0009999999999
 20
4.11064
 10
430.0009999999999
 20
4.11064
 10
430.1989999999999
 20
4.647969999999999
 10
430.1989999999999
 20
4.647969999999999
 10
430.3669999999999
 20
5.190389999999999
 10
430.3669999999999
 20
5.190389999999999
 10
430.505
 20
5.737059999999999
 10
430.505
 20
5.737059999999999
 10
430.613
 20
6.287149999999999
 10
430.613
 20
6.287149999999999
 10
430.6899999999999
 20
6.8398
 10
430.6899999999999
 20
6.8398
 10
430.736
 20
7.39416
 10
430.736
 20
7.39416
 10
430.7509999999999
 20
7.94937
 10
430.7509999999999
 20
7.94937
 10
430.736
 20
8.504589999999998
 10
430.736
 20
8.504589999999998
 10
430.6899999999999
 20
9.058949999999999
 10
430.6899999999999
 20
9.058949999999999
 10
430.613
 20
9.611599999999999
 10
430.613
 20
9.611599999999999
 10
430.505
 20
10.1617
 10
430.505
 20
10.1617
 10
430.3669999999999
 20
10.7084
 10
430.3669999999999
 20
10.7084
 10
430.1989999999999
 20
11.2508
 10
430.1989999999999
 20
11.2508
 10
430.0009999999999
 20
11.7881
 10
430.0009999999999
 20
11.7881
 10
429.773
 20
12.3195
 10
429.773
 20
12.3195
 10
429.5149999999999
 20
12.8442
 10
429.5149999999999
 20
12.8442
 10
428.9139999999999
 20
13.8701
 10
428.9139999999999
 20
13.8701
 10
428.2009999999999
 20
14.8595
 10
428.2009999999999
 20
14.8595
 10
427.381
 20
15.8063
 10
427.381
 20
15.8063
 10
426.458
 20
16.7047
 10
426.458
 20
16.7047
 10
425.438
 20
17.549
 10
425.438
 20
17.549
 10
424.3269999999999
 20
18.3342
 10
424.3269999999999
 20
18.3342
 10
423.133
 20
19.0554
 10
423.133
 20
19.0554
 10
421.863
 20
19.7081
 10
421.863
 20
19.7081
 10
420.5239999999999
 20
20.2883
 10
420.5239999999999
 20
20.2883
 10
419.125
 20
20.7924
 10
419.125
 20
20.7924
 10
417.674
 20
21.2174
 10
417.674
 20
21.2174
 10
416.18
 20
21.5605
 10
416.18
 20
21.5605
 10
414.653
 20
21.8197
 10
414.653
 20
21.8197
 10
413.1019999999999
 20
21.9934
 10
413.1019999999999
 20
21.9934
 10
411.929
 20
22.0669
 10
411.929
 20
22.0669
 10
410.7509999999999
 20
22.0915
  0
ENDBLK
  5
60D
330
543
100
AcDbEntity
  8
0
100
AcDbBlockEnd
  0
BLOCK
  5
60F
330
60E
100
AcDbEntity
  8
0
100
AcDbBlockBegin
  2
_G_P_18
 70
     0
 10
0.0
 20
0.0
 30
0.0
  3
_G_P_18
  1

  0
LWPOLYLINE
  5
610
330
60E
100
AcDbEntity
  8
1
  6
Continuous
 62
     1
100
AcDbPolyline
 90
       40
 70
     0
 43
0.0
 10
369.53
 20
-2.3033
 10
369.9419999999999
 20
-1.40027
 10
369.9419999999999
 20
-1.40027
 10
370.439
 20
-0.518817
 10
370.439
 20
-0.518817
 10
371.018
 20
0.337091
 10
371.018
 20
0.337091
 10
371.677
 20
1.163599999999999
 10
371.677
 20
1.163599999999999
 10
372.413
 20
1.95699
 10
372.413
 20
1.95699
 10
373.223
 20
2.713699999999999
 10
373.223
 20
2.713699999999999
 10
374.103
 20
3.430299999999999
 10
374.103
 20
3.430299999999999
 10
375.048
 20
4.10358
 10
375.048
 20
4.10358
 10
376.056
 20
4.730509999999999
 10
376.056
 20
4.730509999999999
 10
377.12
 20
5.308259999999999
 10
377.12
 20
5.308259999999999
 10
378.237
 20
5.83423
 10
378.237
 20
5.83423
 10
379.401
 20
6.306059999999999
 10
379.401
 20
6.306059999999999
 10
380.608
 20
6.72161
 10
380.608
 20
6.72161
 10
381.851
 20
7.07903
 10
381.851
 20
7.07903
 10
383.125
 20
7.376689999999999
 10
383.125
 20
7.376689999999999
 10
384.425
 20
7.613269999999999
 10
384.425
 20
7.613269999999999
 10
385.744
 20
7.787679999999999
 10
385.744
 20
7.787679999999999
 10
387.076
 20
7.89916
 10
387.076
 20
7.89916
 10
388.417
 20
7.947199999999999
 10
388.417
 20
7.947199999999999
 10
389.7580000000001
 20
7.93158
  0
ENDBLK
  5
63A
330
60E
100
AcDbEntity
  8
0
100
AcDbBlockEnd
  0
BLOCK
  5
63C
330
63B
100
AcDbEntity
  8
0
100
AcDbBlockBegin
  2
_G_P_19
 70
     0
 10
0.0
 20
0.0
 30
0.0
  3
_G_P_19
  1

  0
LWPOLYLINE
  5
63D
330
63B
100
AcDbEntity
  8
1
  6
Continuous
 62
     1
100
AcDbPolyline
 90
       80
 70
     0
 43
0.0
 10
399.2580000000001
 20
19.9857
 10
398.34
 20
20.3627
 10
398.34
 20
20.3627
 10
397.395
 20
20.7048
 10
397.395
 20
20.7048
 10
396.426
 20
21.0109
 10
396.426
 20
21.0109
 10
395.435
 20
21.2802
 10
395.435
 20
21.2802
 10
394.425
 20
21.5119
 10
394.425
 20
21.5119
 10
393.4
 20
21.7054
 10
393.4
 20
21.7054
 10
392.361
 20
21.8602
 10
392.361
 20
21.8602
 10
391.312
 20
21.9758
 10
391.312
 20
21.9758
 10
390.256
 20
22.0518
 10
390.256
 20
22.0518
 10
389.195
 20
22.0881
 10
389.195
 20
22.0881
 10
388.134
 20
22.0846
 10
388.134
 20
22.0846
 10
387.074
 20
22.0412
 10
387.074
 20
22.0412
 10
386.019
 20
21.9581
 10
386.019
 20
21.9581
 10
384.971
 20
21.8356
 10
384.971
 20
21.8356
 10
383.934
 20
21.6739
 10
383.934
 20
21.6739
 10
382.911
 20
21.4736
 10
382.911
 20
21.4736
 10
381.905
 20
21.2352
 10
381.905
 20
21.2352
 10
380.917
 20
20.9593
 10
380.917
 20
20.9593
 10
379.952
 20
20.6468
 10
379.952
 20
20.6468
 10
379.0119999999999
 20
20.2984
 10
379.0119999999999
 20
20.2984
 10
378.099
 20
19.9153
 10
378.099
 20
19.9153
 10
377.216
 20
19.4985
 10
377.216
 20
19.4985
 10
376.365
 20
19.0492
 10
376.365
 20
19.0492
 10
375.55
 20
18.5685
 10
375.55
 20
18.5685
 10
374.772
 20
18.058
 10
374.772
 20
18.058
 10
374.033
 20
17.5189
 10
374.033
 20
17.5189
 10
373.335
 20
16.9529
 10
373.335
 20
16.9529
 10
372.681
 20
16.3615
 10
372.681
 20
16.3615
 10
372.073
 20
15.7465
 10
372.073
 20
15.7465
 10
371.511
 20
15.1094
 10
371.511
 20
15.1094
 10
370.9980000000001
 20
14.4522
 10
370.9980000000001
 20
14.4522
 10
370.535
 20
13.7766
 10
370.535
 20
13.7766
 10
370.124
 20
13.0847
 10
370.124
 20
13.0847
 10
369.764
 20
12.3782
 10
369.764
 20
12.3782
 10
369.459
 20
11.6593
 10
369.459
 20
11.6593
 10
369.208
 20
10.93
 10
369.208
 20
10.93
 10
369.0119999999999
 20
10.1922
 10
369.0119999999999
 20
10.1922
 10
368.871
 20
9.448109999999999
 10
368.871
 20
9.448109999999999
 10
368.787
 20
8.699810000000001
 10
368.787
 20
8.699810000000001
 10
368.758
 20
7.949389999999999
  0
ENDBLK
  5
68F
330
63B
100
AcDbEntity
  8
0
100
AcDbBlockEnd
  0
BLOCK
  5
691
330
690
100
AcDbEntity
  8
0
100
AcDbBlockBegin
  2
_G_P_2
 70
     0
 10
0.0
 20
0.0
 30
0.0
  3
_G_P_2
  1

  0
LWPOLYLINE
  5
692
330
690
100
AcDbEntity
  8
1
  6
Continuous
 62
     1
100
AcDbPolyline
 90
       98
 70
     0
 43
0.0
 10
-91.2488
 20
158.148
 10
-91.26420000000001
 20
158.69
 10
-91.26420000000001
 20
158.69
 10
-91.3104
 20
159.231
 10
-91.3104
 20
159.231
 10
-91.3874
 20
159.771
 10
-91.3874
 20
159.771
 10
-91.49500000000001
 20
160.308
 10
-91.49500000000001
 20
160.308
 10
-91.6331
 20
160.841
 10
-91.6331
 20
160.841
 10
-91.80139999999999
 20
161.371
 10
-91.80139999999999
 20
161.371
 10
-91.9997
 20
161.895
 10
-91.9997
 20
161.895
 10
-92.2277
 20
162.414
 10
-92.2277
 20
162.414
 10
-92.48499999999999
 20
162.926
 10
-92.48499999999999
 20
162.926
 10
-93.0859
 20
163.927
 10
-93.0859
 20
163.927
 10
-93.79890000000001
 20
164.893
 10
-93.79890000000001
 20
164.893
 10
-94.6194
 20
165.817
 10
-94.6194
 20
165.817
 10
-95.5424
 20
166.694
 10
-95.5424
 20
166.694
 10
-96.5623
 20
167.519
 10
-96.5623
 20
167.519
 10
-97.67270000000001
 20
168.285
 10
-97.67270000000001
 20
168.285
 10
-98.86690000000001
 20
168.989
 10
-98.86690000000001
 20
168.989
 10
-100.137
 20
169.626
 10
-100.137
 20
169.626
 10
-101.476
 20
170.192
 10
-101.476
 20
170.192
 10
-102.876
 20
170.685
 10
-102.876
 20
170.685
 10
-104.326
 20
171.099
 10
-104.326
 20
171.099
 10
-105.82
 20
171.434
 10
-105.82
 20
171.434
 10
-107.347
 20
171.687
 10
-107.347
 20
171.687
 10
-108.898
 20
171.857
 10
-108.898
 20
171.857
 10
-110.464
 20
171.942
 10
-110.464
 20
171.942
 10
-112.034
 20
171.942
 10
-112.034
 20
171.942
 10
-113.599
 20
171.857
 10
-113.599
 20
171.857
 10
-115.151
 20
171.687
 10
-115.151
 20
171.687
 10
-116.678
 20
171.434
 10
-116.678
 20
171.434
 10
-118.171
 20
171.099
 10
-118.171
 20
171.099
 10
-119.622
 20
170.685
 10
-119.622
 20
170.685
 10
-121.021
 20
170.192
 10
-121.021
 20
170.192
 10
-122.36
 20
169.626
 10
-122.36
 20
169.626
 10
-123.631
 20
168.989
 10
-123.631
 20
168.989
 10
-124.825
 20
168.285
 10
-124.825
 20
168.285
 10
-125.935
 20
167.519
 10
-125.935
 20
167.519
 10
-126.955
 20
166.694
 10
-126.955
 20
166.694
 10
-127.878
 20
165.8179999999999
 10
-127.878
 20
165.8179999999999
 10
-128.699
 20
164.893
 10
-128.699
 20
164.893
 10
-129.412
 20
163.928
 10
-129.412
 20
163.928
 10
-130.013
 20
162.926
 10
-130.013
 20
162.926
 10
-130.27
 20
162.414
 10
-130.27
 20
162.414
 10
-130.498
 20
161.895
 10
-130.498
 20
161.895
 10
-130.696
 20
161.371
 10
-130.696
 20
161.371
 10
-130.864
 20
160.841
 10
-130.864
 20
160.841
 10
-131.003
 20
160.308
 10
-131.003
 20
160.308
 10
-131.11
 20
159.771
 10
-131.11
 20
159.771
 10
-131.187
 20
159.231
 10
-131.187
 20
159.231
 10
-131.233
 20
158.69
 10
-131.233
 20
158.69
 10
-131.249
 20
158.148
  0
ENDBLK
  5
6F6
330
690
100
AcDbEntity
  8
0
100
AcDbBlockEnd
  0
BLOCK
  5
6F8
330
6F7
100
AcDbEntity
  8
0
100
AcDbBlockBegin
  2
_G_P_20
 70
     0
 10
0.0
 20
0.0
 30
0.0
  3
_G_P_20
  1

  0
LWPOLYLINE
  5
6F9
330
6F7
100
AcDbEntity
  8
1
  6
Continuous
 62
     1
100
AcDbPolyline
 90
       98
 70
     0
 43
0.0
 10
390.751
 20
-5.854809999999999
 10
390.767
 20
-6.39677
 10
390.767
 20
-6.39677
 10
390.813
 20
-6.937889999999999
 10
390.813
 20
-6.937889999999999
 10
390.89
 20
-7.477339999999998
 10
390.89
 20
-7.477339999999998
 10
390.998
 20
-8.014289999999999
 10
390.998
 20
-8.014289999999999
 10
391.136
 20
-8.547919999999999
 10
391.136
 20
-8.547919999999999
 10
391.304
 20
-9.077379999999999
 10
391.304
 20
-9.077379999999999
 10
391.502
 20
-9.601879999999999
 10
391.502
 20
-9.601879999999999
 10
391.73
 20
-10.1206
 10
391.73
 20
-10.1206
 10
391.988
 20
-10.6328
 10
391.988
 20
-10.6328
 10
392.589
 20
-11.6342
 10
392.589
 20
-11.6342
 10
393.301
 20
-12.5999
 10
393.301
 20
-12.5999
 10
394.1219999999999
 20
-13.5241
 10
394.1219999999999
 20
-13.5241
 10
395.045
 20
-14.401
 10
395.045
 20
-14.401
 10
396.065
 20
-15.2253
 10
396.065
 20
-15.2253
 10
397.175
 20
-15.9917
 10
397.175
 20
-15.9917
 10
398.369
 20
-16.6957
 10
398.369
 20
-16.6957
 10
399.64
 20
-17.3328
 10
399.64
 20
-17.3328
 10
400.979
 20
-17.8991
 10
400.979
 20
-17.8991
 10
402.378
 20
-18.3912
 10
402.378
 20
-18.3912
 10
403.8289999999999
 20
-18.806
 10
403.8289999999999
 20
-18.806
 10
405.323
 20
-19.141
 10
405.323
 20
-19.141
 10
406.85
 20
-19.394
 10
406.85
 20
-19.394
 10
408.401
 20
-19.5636
 10
408.401
 20
-19.5636
 10
409.966
 20
-19.6486
 10
409.966
 20
-19.6486
 10
411.5369999999999
 20
-19.6486
 10
411.5369999999999
 20
-19.6486
 10
413.1019999999999
 20
-19.5636
 10
413.1019999999999
 20
-19.5636
 10
414.653
 20
-19.394
 10
414.653
 20
-19.394
 10
416.18
 20
-19.141
 10
416.18
 20
-19.141
 10
417.674
 20
-18.806
 10
417.674
 20
-18.806
 10
419.124
 20
-18.3913
 10
419.124
 20
-18.3913
 10
420.5239999999999
 20
-17.8992
 10
420.5239999999999
 20
-17.8992
 10
421.863
 20
-17.3328
 10
421.863
 20
-17.3328
 10
423.133
 20
-16.6957
 10
423.133
 20
-16.6957
 10
424.3269999999999
 20
-15.9918
 10
424.3269999999999
 20
-15.9918
 10
425.438
 20
-15.2253
 10
425.438
 20
-15.2253
 10
426.458
 20
-14.4011
 10
426.458
 20
-14.4011
 10
427.381
 20
-13.5242
 10
427.381
 20
-13.5242
 10
428.2009999999999
 20
-12.6
 10
428.2009999999999
 20
-12.6
 10
428.9139999999999
 20
-11.6343
 10
428.9139999999999
 20
-11.6343
 10
429.5149999999999
 20
-10.6329
 10
429.5149999999999
 20
-10.6329
 10
429.7719999999999
 20
-10.1207
 10
429.7719999999999
 20
-10.1207
 10
430.0
 20
-9.602009999999999
 10
430.0
 20
-9.602009999999999
 10
430.1989999999999
 20
-9.07751
 10
430.1989999999999
 20
-9.07751
 10
430.3669999999999
 20
-8.54804
 10
430.3669999999999
 20
-8.54804
 10
430.505
 20
-8.014419999999999
 10
430.505
 20
-8.014419999999999
 10
430.613
 20
-7.477469999999999
 10
430.613
 20
-7.477469999999999
 10
430.6899999999999
 20
-6.938019999999999
 10
430.6899999999999
 20
-6.938019999999999
 10
430.736
 20
-6.396889999999999
 10
430.736
 20
-6.396889999999999
 10
430.7509999999999
 20
-5.85494
  0
ENDBLK
  5
75D
330
6F7
100
AcDbEntity
  8
0
100
AcDbBlockEnd
  0
BLOCK
  5
75F
330
75E
100
AcDbEntity
  8
0
100
AcDbBlockBegin
  2
_G_P_21
 70
     0
 10
0.0
 20
0.0
 30
0.0
  3
_G_P_21
  1

  0
LWPOLYLINE
  5
760
330
75E
100
AcDbEntity
  8
1
  6
Continuous
 62
     1
100
AcDbPolyline
 90
      198
 70
     0
 43
0.0
 10
388.74
 20
130.202
 10
390.309
 20
130.245
 10
390.309
 20
130.245
 10
391.8680000000001
 20
130.376
 10
391.8680000000001
 20
130.376
 10
393.409
 20
130.593
 10
393.409
 20
130.593
 10
394.92
 20
130.894
 10
394.92
 20
130.894
 10
396.393
 20
131.278
 10
396.393
 20
131.278
 10
397.819
 20
131.743
 10
397.819
 20
131.743
 10
399.19
 20
132.286
 10
399.19
 20
132.286
 10
400.495
 20
132.903
 10
400.495
 20
132.903
 10
401.729
 20
133.59
 10
401.729
 20
133.59
 10
402.8819999999999
 20
134.344
 10
402.8819999999999
 20
134.344
 10
403.948
 20
135.159
 10
403.948
 20
135.159
 10
404.9199999999999
 20
136.031
 10
404.9199999999999
 20
136.031
 10
405.792
 20
136.955
 10
405.792
 20
136.955
 10
406.5599999999999
 20
137.924
 10
406.5599999999999
 20
137.924
 10
407.2169999999999
 20
138.932
 10
407.2169999999999
 20
138.932
 10
407.504
 20
139.449
 10
407.504
 20
139.449
 10
407.7609999999999
 20
139.974
 10
407.7609999999999
 20
139.974
 10
407.989
 20
140.505
 10
407.989
 20
140.505
 10
408.1869999999999
 20
141.043
 10
408.1869999999999
 20
141.043
 10
408.355
 20
141.585
 10
408.355
 20
141.585
 10
408.493
 20
142.132
 10
408.493
 20
142.132
 10
408.6009999999999
 20
142.682
 10
408.6009999999999
 20
142.682
 10
408.678
 20
143.234
 10
408.678
 20
143.234
 10
408.7239999999999
 20
143.789
 10
408.7239999999999
 20
143.789
 10
408.74
 20
144.344
 10
408.74
 20
144.344
 10
408.7239999999999
 20
144.899
 10
408.7239999999999
 20
144.899
 10
408.678
 20
145.453
 10
408.678
 20
145.453
 10
408.6009999999999
 20
146.006
 10
408.6009999999999
 20
146.006
 10
408.493
 20
146.556
 10
408.493
 20
146.556
 10
408.355
 20
147.103
 10
408.355
 20
147.103
 10
408.1869999999999
 20
147.645
 10
408.1869999999999
 20
147.645
 10
407.989
 20
148.183
 10
407.989
 20
148.183
 10
407.7609999999999
 20
148.714
 10
407.7609999999999
 20
148.714
 10
407.504
 20
149.239
 10
407.504
 20
149.239
 10
406.903
 20
150.265
 10
406.903
 20
150.265
 10
406.1899999999999
 20
151.254
 10
406.1899999999999
 20
151.254
 10
405.369
 20
152.201
 10
405.369
 20
152.201
 10
404.4459999999999
 20
153.099
 10
404.4459999999999
 20
153.099
 10
403.4259999999999
 20
153.944
 10
403.4259999999999
 20
153.944
 10
402.3159999999999
 20
154.729
 10
402.3159999999999
 20
154.729
 10
401.1219999999999
 20
155.45
 10
401.1219999999999
 20
155.45
 10
399.851
 20
156.103
 10
399.851
 20
156.103
 10
398.5119999999999
 20
156.683
 10
398.5119999999999
 20
156.683
 10
397.113
 20
157.187
 10
397.113
 20
157.187
 10
395.662
 20
157.612
 10
395.662
 20
157.612
 10
394.169
 20
157.955
 10
394.169
 20
157.955
 10
392.642
 20
158.214
 10
392.642
 20
158.214
 10
391.09
 20
158.388
 10
391.09
 20
158.388
 10
389.525
 20
158.475
 10
389.525
 20
158.475
 10
387.955
 20
158.475
 10
387.955
 20
158.475
 10
386.389
 20
158.388
 10
386.389
 20
158.388
 10
384.838
 20
158.214
 10
384.838
 20
158.214
 10
383.311
 20
157.955
 10
383.311
 20
157.955
 10
381.8169999999999
 20
157.612
 10
381.8169999999999
 20
157.612
 10
380.367
 20
157.187
 10
380.367
 20
157.187
 10
378.967
 20
156.683
 10
378.967
 20
156.683
 10
377.628
 20
156.103
 10
377.628
 20
156.103
 10
376.358
 20
155.45
 10
376.358
 20
155.45
 10
375.164
 20
154.729
 10
375.164
 20
154.729
 10
374.0530000000001
 20
153.944
 10
374.0530000000001
 20
153.944
 10
373.033
 20
153.099
 10
373.033
 20
153.099
 10
372.11
 20
152.201
 10
372.11
 20
152.201
 10
371.29
 20
151.254
 10
371.29
 20
151.254
 10
370.577
 20
150.265
 10
370.577
 20
150.265
 10
369.976
 20
149.239
 10
369.976
 20
149.239
 10
369.719
 20
148.714
 10
369.719
 20
148.714
 10
369.491
 20
148.183
 10
369.491
 20
148.183
 10
369.292
 20
147.645
 10
369.292
 20
147.645
 10
369.124
 20
147.103
 10
369.124
 20
147.103
 10
368.986
 20
146.556
 10
368.986
 20
146.556
 10
368.878
 20
146.006
 10
368.878
 20
146.006
 10
368.801
 20
145.454
 10
368.801
 20
145.454
 10
368.755
 20
144.899
 10
368.755
 20
144.899
 10
368.74
 20
144.344
 10
368.74
 20
144.344
 10
368.755
 20
143.789
 10
368.755
 20
143.789
 10
368.801
 20
143.234
 10
368.801
 20
143.234
 10
368.878
 20
142.682
 10
368.878
 20
142.682
 10
368.986
 20
142.132
 10
368.986
 20
142.132
 10
369.124
 20
141.585
 10
369.124
 20
141.585
 10
369.292
 20
141.043
 10
369.292
 20
141.043
 10
369.491
 20
140.505
 10
369.491
 20
140.505
 10
369.719
 20
139.974
 10
369.719
 20
139.974
 10
369.976
 20
139.449
 10
369.976
 20
139.449
 10
370.577
 20
138.423
 10
370.577
 20
138.423
 10
371.29
 20
137.434
 10
371.29
 20
137.434
 10
372.11
 20
136.487
 10
372.11
 20
136.487
 10
373.033
 20
135.589
 10
373.033
 20
135.589
 10
374.0530000000001
 20
134.744
 10
374.0530000000001
 20
134.744
 10
375.164
 20
133.959
 10
375.164
 20
133.959
 10
376.358
 20
133.238
 10
376.358
 20
133.238
 10
377.628
 20
132.585
 10
377.628
 20
132.585
 10
378.967
 20
132.005
 10
378.967
 20
132.005
 10
380.366
 20
131.501
 10
380.366
 20
131.501
 10
381.8169999999999
 20
131.076
 10
381.8169999999999
 20
131.076
 10
383.311
 20
130.733
 10
383.311
 20
130.733
 10
384.838
 20
130.474
 10
384.838
 20
130.474
 10
386.389
 20
130.3
 10
386.389
 20
130.3
 10
387.5619999999999
 20
130.226
 10
387.5619999999999
 20
130.226
 10
388.74
 20
130.202
  0
ENDBLK
  5
828
330
75E
100
AcDbEntity
  8
0
100
AcDbBlockEnd
  0
BLOCK
  5
82A
330
829
100
AcDbEntity
  8
0
100
AcDbBlockBegin
  2
_G_P_22
 70
     0
 10
0.0
 20
0.0
 30
0.0
  3
_G_P_22
  1

  0
LWPOLYLINE
  5
82B
330
829
100
AcDbEntity
  8
1
  6
Continuous
 62
     1
100
AcDbPolyline
 90
       98
 70
     0
 43
0.0
 10
408.74
 20
158.148
 10
408.7239999999999
 20
158.69
 10
408.7239999999999
 20
158.69
 10
408.678
 20
159.231
 10
408.678
 20
159.231
 10
408.6009999999999
 20
159.771
 10
408.6009999999999
 20
159.771
 10
408.493
 20
160.308
 10
408.493
 20
160.308
 10
408.355
 20
160.841
 10
408.355
 20
160.841
 10
408.1869999999999
 20
161.371
 10
408.1869999999999
 20
161.371
 10
407.989
 20
161.895
 10
407.989
 20
161.895
 10
407.7609999999999
 20
162.414
 10
407.7609999999999
 20
162.414
 10
407.504
 20
162.926
 10
407.504
 20
162.926
 10
406.903
 20
163.927
 10
406.903
 20
163.927
 10
406.1899999999999
 20
164.893
 10
406.1899999999999
 20
164.893
 10
405.369
 20
165.817
 10
405.369
 20
165.817
 10
404.4459999999999
 20
166.694
 10
404.4459999999999
 20
166.694
 10
403.4259999999999
 20
167.519
 10
403.4259999999999
 20
167.519
 10
402.3159999999999
 20
168.285
 10
402.3159999999999
 20
168.285
 10
401.1219999999999
 20
168.989
 10
401.1219999999999
 20
168.989
 10
399.851
 20
169.626
 10
399.851
 20
169.626
 10
398.5119999999999
 20
170.192
 10
398.5119999999999
 20
170.192
 10
397.113
 20
170.685
 10
397.113
 20
170.685
 10
395.662
 20
171.099
 10
395.662
 20
171.099
 10
394.169
 20
171.434
 10
394.169
 20
171.434
 10
392.642
 20
171.687
 10
392.642
 20
171.687
 10
391.091
 20
171.857
 10
391.091
 20
171.857
 10
389.525
 20
171.942
 10
389.525
 20
171.942
 10
387.955
 20
171.942
 10
387.955
 20
171.942
 10
386.389
 20
171.857
 10
386.389
 20
171.857
 10
384.838
 20
171.687
 10
384.838
 20
171.687
 10
383.311
 20
171.434
 10
383.311
 20
171.434
 10
381.8169999999999
 20
171.099
 10
381.8169999999999
 20
171.099
 10
380.367
 20
170.685
 10
380.367
 20
170.685
 10
378.967
 20
170.192
 10
378.967
 20
170.192
 10
377.628
 20
169.626
 10
377.628
 20
169.626
 10
376.358
 20
168.989
 10
376.358
 20
168.989
 10
375.164
 20
168.285
 10
375.164
 20
168.285
 10
374.0530000000001
 20
167.519
 10
374.0530000000001
 20
167.519
 10
373.033
 20
166.694
 10
373.033
 20
166.694
 10
372.11
 20
165.8179999999999
 10
372.11
 20
165.8179999999999
 10
371.29
 20
164.893
 10
371.29
 20
164.893
 10
370.577
 20
163.928
 10
370.577
 20
163.928
 10
369.976
 20
162.926
 10
369.976
 20
162.926
 10
369.719
 20
162.414
 10
369.719
 20
162.414
 10
369.491
 20
161.895
 10
369.491
 20
161.895
 10
369.292
 20
161.371
 10
369.292
 20
161.371
 10
369.124
 20
160.841
 10
369.124
 20
160.841
 10
368.986
 20
160.308
 10
368.986
 20
160.308
 10
368.878
 20
159.771
 10
368.878
 20
159.771
 10
368.801
 20
159.231
 10
368.801
 20
159.231
 10
368.755
 20
158.69
 10
368.755
 20
158.69
 10
368.74
 20
158.148
  0
ENDBLK
  5
88F
330
829
100
AcDbEntity
  8
0
100
AcDbBlockEnd
  0
BLOCK
  5
891
330
890
100
AcDbEntity
  8
0
100
AcDbBlockBegin
  2
_G_P_23
 70
     0
 10
0.0
 20
0.0
 30
0.0
  3
_G_P_23
  1

  0
LWPOLYLINE
  5
892
330
890
100
AcDbEntity
  8
1
  6
Continuous
 62
     1
100
AcDbPolyline
 90
       40
 70
     0
 43
0.0
 10
429.961
 20
154.597
 10
429.549
 20
153.694
 10
429.549
 20
153.694
 10
429.0519999999999
 20
152.812
 10
429.0519999999999
 20
152.812
 10
428.473
 20
151.956
 10
428.473
 20
151.956
 10
427.814
 20
151.13
 10
427.814
 20
151.13
 10
427.078
 20
150.336
 10
427.078
 20
150.336
 10
426.268
 20
149.58
 10
426.268
 20
149.58
 10
425.388
 20
148.863
 10
425.388
 20
148.863
 10
424.443
 20
148.19
 10
424.443
 20
148.19
 10
423.435
 20
147.563
 10
423.435
 20
147.563
 10
422.3709999999999
 20
146.985
 10
422.3709999999999
 20
146.985
 10
421.254
 20
146.459
 10
421.254
 20
146.459
 10
420.0899999999999
 20
145.987
 10
420.0899999999999
 20
145.987
 10
418.883
 20
145.572
 10
418.883
 20
145.572
 10
417.64
 20
145.214
 10
417.64
 20
145.214
 10
416.366
 20
144.917
 10
416.366
 20
144.917
 10
415.066
 20
144.68
 10
415.066
 20
144.68
 10
413.7469999999999
 20
144.506
 10
413.7469999999999
 20
144.506
 10
412.415
 20
144.394
 10
412.415
 20
144.394
 10
411.0739999999999
 20
144.346
 10
411.0739999999999
 20
144.346
 10
409.733
 20
144.362
  0
ENDBLK
  5
8BC
330
890
100
AcDbEntity
  8
0
100
AcDbBlockEnd
  0
BLOCK
  5
8BE
330
8BD
100
AcDbEntity
  8
0
100
AcDbBlockBegin
  2
_G_P_24
 70
     0
 10
0.0
 20
0.0
 30
0.0
  3
_G_P_24
  1

  0
LWPOLYLINE
  5
8BF
330
8BD
100
AcDbEntity
  8
1
  6
Continuous
 62
     1
100
AcDbPolyline
 90
       80
 70
     0
 43
0.0
 10
400.2329999999999
 20
132.308
 10
401.151
 20
131.931
 10
401.151
 20
131.931
 10
402.096
 20
131.589
 10
402.096
 20
131.589
 10
403.0649999999999
 20
131.282
 10
403.0649999999999
 20
131.282
 10
404.056
 20
131.013
 10
404.056
 20
131.013
 10
405.0659999999999
 20
130.781
 10
405.0659999999999
 20
130.781
 10
406.092
 20
130.588
 10
406.092
 20
130.588
 10
407.1299999999999
 20
130.433
 10
407.1299999999999
 20
130.433
 10
408.179
 20
130.318
 10
408.179
 20
130.318
 10
409.236
 20
130.242
 10
409.236
 20
130.242
 10
410.296
 20
130.205
 10
410.296
 20
130.205
 10
411.3579999999999
 20
130.209
 10
411.3579999999999
 20
130.209
 10
412.4169999999999
 20
130.252
 10
412.4169999999999
 20
130.252
 10
413.473
 20
130.335
 10
413.473
 20
130.335
 10
414.5199999999999
 20
130.458
 10
414.5199999999999
 20
130.458
 10
415.5569999999999
 20
130.619
 10
415.5569999999999
 20
130.619
 10
416.5799999999999
 20
130.82
 10
416.5799999999999
 20
130.82
 10
417.586
 20
131.058
 10
417.586
 20
131.058
 10
418.574
 20
131.334
 10
418.574
 20
131.334
 10
419.5389999999999
 20
131.647
 10
419.5389999999999
 20
131.647
 10
420.479
 20
131.995
 10
420.479
 20
131.995
 10
421.3919999999999
 20
132.378
 10
421.3919999999999
 20
132.378
 10
422.2749999999999
 20
132.795
 10
422.2749999999999
 20
132.795
 10
423.1259999999999
 20
133.244
 10
423.1259999999999
 20
133.244
 10
423.9409999999999
 20
133.725
 10
423.9409999999999
 20
133.725
 10
424.72
 20
134.235
 10
424.72
 20
134.235
 10
425.458
 20
134.774
 10
425.458
 20
134.774
 10
426.156
 20
135.34
 10
426.156
 20
135.34
 10
426.81
 20
135.932
 10
426.81
 20
135.932
 10
427.418
 20
136.547
 10
427.418
 20
136.547
 10
427.98
 20
137.184
 10
427.98
 20
137.184
 10
428.4930000000001
 20
137.841
 10
428.4930000000001
 20
137.841
 10
428.9559999999999
 20
138.517
 10
428.9559999999999
 20
138.517
 10
429.3680000000001
 20
139.209
 10
429.3680000000001
 20
139.209
 10
429.727
 20
139.915
 10
429.727
 20
139.915
 10
430.032
 20
140.634
 10
430.032
 20
140.634
 10
430.283
 20
141.363
 10
430.283
 20
141.363
 10
430.48
 20
142.101
 10
430.48
 20
142.101
 10
430.62
 20
142.845
 10
430.62
 20
142.845
 10
430.705
 20
143.593
 10
430.705
 20
143.593
 10
430.733
 20
144.344
  0
ENDBLK
  5
911
330
8BD
100
AcDbEntity
  8
0
100
AcDbBlockEnd
  0
BLOCK
  5
913
330
912
100
AcDbEntity
  8
0
100
AcDbBlockBegin
  2
_G_P_3
 70
     0
 10
0.0
 20
0.0
 30
0.0
  3
_G_P_3
  1

  0
LWPOLYLINE
  5
914
330
912
100
AcDbEntity
  8
1
  6
Continuous
 62
     1
100
AcDbPolyline
 90
       40
 70
     0
 43
0.0
 10
-70.0271
 20
154.597
 10
-70.43919999999999
 20
153.694
 10
-70.43919999999999
 20
153.694
 10
-70.93609999999999
 20
152.812
 10
-70.93609999999999
 20
152.812
 10
-71.5154
 20
151.956
 10
-71.5154
 20
151.956
 10
-72.17459999999999
 20
151.13
 10
-72.17459999999999
 20
151.13
 10
-72.91070000000001
 20
150.336
 10
-72.91070000000001
 20
150.336
 10
-73.7204
 20
149.58
 10
-73.7204
 20
149.58
 10
-74.59999999999999
 20
148.863
 10
-74.59999999999999
 20
148.863
 10
-75.5457
 20
148.19
 10
-75.5457
 20
148.19
 10
-76.553
 20
147.563
 10
-76.553
 20
147.563
 10
-77.61750000000001
 20
146.985
 10
-77.61750000000001
 20
146.985
 10
-78.73439999999999
 20
146.459
 10
-78.73439999999999
 20
146.459
 10
-79.8987
 20
145.987
 10
-79.8987
 20
145.987
 10
-81.10519999999999
 20
145.572
 10
-81.10519999999999
 20
145.572
 10
-82.3483
 20
145.214
 10
-82.3483
 20
145.214
 10
-83.62250000000001
 20
144.917
 10
-83.62250000000001
 20
144.917
 10
-84.92200000000002
 20
144.68
 10
-84.92200000000002
 20
144.68
 10
-86.24109999999999
 20
144.506
 10
-86.24109999999999
 20
144.506
 10
-87.57380000000001
 20
144.394
 10
-87.57380000000001
 20
144.394
 10
-88.914
 20
144.346
 10
-88.914
 20
144.346
 10
-90.25579999999999
 20
144.362
  0
ENDBLK
  5
93E
330
912
100
AcDbEntity
  8
0
100
AcDbBlockEnd
  0
BLOCK
  5
940
330
93F
100
AcDbEntity
  8
0
100
AcDbBlockBegin
  2
_G_P_4
 70
     0
 10
0.0
 20
0.0
 30
0.0
  3
_G_P_4
  1

  0
LWPOLYLINE
  5
941
330
93F
100
AcDbEntity
  8
1
  6
Continuous
 62
     1
100
AcDbPolyline
 90
       80
 70
     0
 43
0.0
 10
-99.7559
 20
132.308
 10
-98.83780000000001
 20
131.931
 10
-98.83780000000001
 20
131.931
 10
-97.89279999999999
 20
131.589
 10
-97.89279999999999
 20
131.589
 10
-96.92340000000001
 20
131.282
 10
-96.92340000000001
 20
131.282
 10
-95.93250000000001
 20
131.013
 10
-95.93250000000001
 20
131.013
 10
-94.92270000000001
 20
130.781
 10
-94.92270000000001
 20
130.781
 10
-93.89689999999999
 20
130.588
 10
-93.89689999999999
 20
130.588
 10
-92.85809999999999
 20
130.433
 10
-92.85809999999999
 20
130.433
 10
-91.8091
 20
130.318
 10
-91.8091
 20
130.318
 10
-90.75299999999998
 20
130.242
 10
-90.75299999999998
 20
130.242
 10
-89.6926
 20
130.205
 10
-89.6926
 20
130.205
 10
-88.63089999999999
 20
130.209
 10
-88.63089999999999
 20
130.209
 10
-87.5711
 20
130.252
 10
-87.5711
 20
130.252
 10
-86.516
 20
130.335
 10
-86.516
 20
130.335
 10
-85.4686
 20
130.458
 10
-85.4686
 20
130.458
 10
-84.43179999999999
 20
130.619
 10
-84.43179999999999
 20
130.619
 10
-83.4087
 20
130.82
 10
-83.4087
 20
130.82
 10
-82.40210000000001
 20
131.058
 10
-82.40210000000001
 20
131.058
 10
-81.41469999999999
 20
131.334
 10
-81.41469999999999
 20
131.334
 10
-80.4495
 20
131.647
 10
-80.4495
 20
131.647
 10
-79.509
 20
131.995
 10
-79.509
 20
131.995
 10
-78.5961
 20
132.378
 10
-78.5961
 20
132.378
 10
-77.71309999999999
 20
132.795
 10
-77.71309999999999
 20
132.795
 10
-76.8627
 20
133.244
 10
-76.8627
 20
133.244
 10
-76.0472
 20
133.725
 10
-76.0472
 20
133.725
 10
-75.2689
 20
134.235
 10
-75.2689
 20
134.235
 10
-74.5301
 20
134.774
 10
-74.5301
 20
134.774
 10
-73.8327
 20
135.34
 10
-73.8327
 20
135.34
 10
-73.17879999999999
 20
135.932
 10
-73.17879999999999
 20
135.932
 10
-72.5701
 20
136.547
 10
-72.5701
 20
136.547
 10
-72.00849999999999
 20
137.184
 10
-72.00849999999999
 20
137.184
 10
-71.49550000000001
 20
137.841
 10
-71.49550000000001
 20
137.841
 10
-71.0326
 20
138.517
 10
-71.0326
 20
138.517
 10
-70.62090000000001
 20
139.209
 10
-70.62090000000001
 20
139.209
 10
-70.2618
 20
139.915
 10
-70.2618
 20
139.915
 10
-69.95619999999999
 20
140.634
 10
-69.95619999999999
 20
140.634
 10
-69.705
 20
141.363
 10
-69.705
 20
141.363
 10
-69.5089
 20
142.101
 10
-69.5089
 20
142.101
 10
-69.3684
 20
142.845
 10
-69.3684
 20
142.845
 10
-69.28399999999999
 20
143.593
 10
-69.28399999999999
 20
143.593
 10
-69.2558
 20
144.344
  0
ENDBLK
  5
993
330
93F
100
AcDbEntity
  8
0
100
AcDbBlockEnd
  0
BLOCK
  5
995
330
994
100
AcDbEntity
  8
0
100
AcDbBlockBegin
  2
_G_P_5
 70
     0
 10
0.0
 20
0.0
 30
0.0
  3
_G_P_5
  1

  0
LWPOLYLINE
  5
996
330
994
100
AcDbEntity
  8
1
  6
Continuous
 62
     1
100
AcDbPolyline
 90
      198
 70
     0
 43
0.0
 10
-111.244
 20
-171.641
 10
-112.813
 20
-171.598
 10
-112.813
 20
-171.598
 10
-114.372
 20
-171.467
 10
-114.372
 20
-171.467
 10
-115.913
 20
-171.25
 10
-115.913
 20
-171.25
 10
-117.424
 20
-170.949
 10
-117.424
 20
-170.949
 10
-118.897
 20
-170.565
 10
-118.897
 20
-170.565
 10
-120.324
 20
-170.1
 10
-120.324
 20
-170.1
 10
-121.694
 20
-169.557
 10
-121.694
 20
-169.557
 10
-123.0
 20
-168.94
 10
-123.0
 20
-168.94
 10
-124.233
 20
-168.253
 10
-124.233
 20
-168.253
 10
-125.386
 20
-167.499
 10
-125.386
 20
-167.499
 10
-126.452
 20
-166.684
 10
-126.452
 20
-166.684
 10
-127.424
 20
-165.812
 10
-127.424
 20
-165.812
 10
-128.297
 20
-164.888
 10
-128.297
 20
-164.888
 10
-129.064
 20
-163.919
 10
-129.064
 20
-163.919
 10
-129.721
 20
-162.911
 10
-129.721
 20
-162.911
 10
-130.008
 20
-162.394
 10
-130.008
 20
-162.394
 10
-130.265
 20
-161.869
 10
-130.265
 20
-161.869
 10
-130.493
 20
-161.338
 10
-130.493
 20
-161.338
 10
-130.691
 20
-160.8
 10
-130.691
 20
-160.8
 10
-130.859
 20
-160.258
 10
-130.859
 20
-160.258
 10
-130.998
 20
-159.711
 10
-130.998
 20
-159.711
 10
-131.105
 20
-159.161
 10
-131.105
 20
-159.161
 10
-131.182
 20
-158.608
 10
-131.182
 20
-158.608
 10
-131.228
 20
-158.054
 10
-131.228
 20
-158.054
 10
-131.244
 20
-157.499
 10
-131.244
 20
-157.499
 10
-131.228
 20
-156.944
 10
-131.228
 20
-156.944
 10
-131.182
 20
-156.389
 10
-131.182
 20
-156.389
 10
-131.105
 20
-155.837
 10
-131.105
 20
-155.837
 10
-130.998
 20
-155.287
 10
-130.998
 20
-155.287
 10
-130.859
 20
-154.74
 10
-130.859
 20
-154.74
 10
-130.691
 20
-154.197
 10
-130.691
 20
-154.197
 10
-130.493
 20
-153.66
 10
-130.493
 20
-153.66
 10
-130.265
 20
-153.129
 10
-130.265
 20
-153.129
 10
-130.008
 20
-152.604
 10
-130.008
 20
-152.604
 10
-129.407
 20
-151.578
 10
-129.407
 20
-151.578
 10
-128.694
 20
-150.589
 10
-128.694
 20
-150.589
 10
-127.873
 20
-149.642
 10
-127.873
 20
-149.642
 10
-126.95
 20
-148.743
 10
-126.95
 20
-148.743
 10
-125.93
 20
-147.899
 10
-125.93
 20
-147.899
 10
-124.82
 20
-147.114
 10
-124.82
 20
-147.114
 10
-123.626
 20
-146.393
 10
-123.626
 20
-146.393
 10
-122.355
 20
-145.74
 10
-122.355
 20
-145.74
 10
-121.016
 20
-145.16
 10
-121.016
 20
-145.16
 10
-119.617
 20
-144.656
 10
-119.617
 20
-144.656
 10
-118.166
 20
-144.231
 10
-118.166
 20
-144.231
 10
-116.673
 20
-143.887
 10
-116.673
 20
-143.887
 10
-115.146
 20
-143.628
 10
-115.146
 20
-143.628
 10
-113.595
 20
-143.455
 10
-113.595
 20
-143.455
 10
-112.029
 20
-143.367
 10
-112.029
 20
-143.367
 10
-110.459
 20
-143.367
 10
-110.459
 20
-143.367
 10
-108.893
 20
-143.455
 10
-108.893
 20
-143.455
 10
-107.342
 20
-143.628
 10
-107.342
 20
-143.628
 10
-105.815
 20
-143.887
 10
-105.815
 20
-143.887
 10
-104.321
 20
-144.231
 10
-104.321
 20
-144.231
 10
-102.871
 20
-144.656
 10
-102.871
 20
-144.656
 10
-101.471
 20
-145.16
 10
-101.471
 20
-145.16
 10
-100.132
 20
-145.74
 10
-100.132
 20
-145.74
 10
-98.8619
 20
-146.393
 10
-98.8619
 20
-146.393
 10
-97.6678
 20
-147.114
 10
-97.6678
 20
-147.114
 10
-96.5573
 20
-147.899
 10
-96.5573
 20
-147.899
 10
-95.53749999999999
 20
-148.743
 10
-95.53749999999999
 20
-148.743
 10
-94.61440000000001
 20
-149.642
 10
-94.61440000000001
 20
-149.642
 10
-93.79389999999999
 20
-150.589
 10
-93.79389999999999
 20
-150.589
 10
-93.08089999999999
 20
-151.578
 10
-93.08089999999999
 20
-151.578
 10
-92.48000000000001
 20
-152.604
 10
-92.48000000000001
 20
-152.604
 10
-92.22269999999999
 20
-153.129
 10
-92.22269999999999
 20
-153.129
 10
-91.99469999999999
 20
-153.66
 10
-91.99469999999999
 20
-153.66
 10
-91.7964
 20
-154.197
 10
-91.7964
 20
-154.197
 10
-91.6281
 20
-154.74
 10
-91.6281
 20
-154.74
 10
-91.48999999999999
 20
-155.287
 10
-91.48999999999999
 20
-155.287
 10
-91.38240000000001
 20
-155.837
 10
-91.38240000000001
 20
-155.837
 10
-91.30540000000001
 20
-156.389
 10
-91.30540000000001
 20
-156.389
 10
-91.2592
 20
-156.944
 10
-91.2592
 20
-156.944
 10
-91.2438
 20
-157.499
 10
-91.2438
 20
-157.499
 10
-91.2592
 20
-158.054
 10
-91.2592
 20
-158.054
 10
-91.30540000000001
 20
-158.608
 10
-91.30540000000001
 20
-158.608
 10
-91.38240000000001
 20
-159.161
 10
-91.38240000000001
 20
-159.161
 10
-91.48999999999999
 20
-159.711
 10
-91.48999999999999
 20
-159.711
 10
-91.6281
 20
-160.258
 10
-91.6281
 20
-160.258
 10
-91.7964
 20
-160.8
 10
-91.7964
 20
-160.8
 10
-91.99469999999999
 20
-161.338
 10
-91.99469999999999
 20
-161.338
 10
-92.22269999999999
 20
-161.869
 10
-92.22269999999999
 20
-161.869
 10
-92.48000000000001
 20
-162.394
 10
-92.48000000000001
 20
-162.394
 10
-93.08089999999999
 20
-163.42
 10
-93.08089999999999
 20
-163.42
 10
-93.79389999999999
 20
-164.409
 10
-93.79389999999999
 20
-164.409
 10
-94.61440000000001
 20
-165.356
 10
-94.61440000000001
 20
-165.356
 10
-95.53749999999999
 20
-166.254
 10
-95.53749999999999
 20
-166.254
 10
-96.5573
 20
-167.099
 10
-96.5573
 20
-167.099
 10
-97.6678
 20
-167.884
 10
-97.6678
 20
-167.884
 10
-98.8619
 20
-168.605
 10
-98.8619
 20
-168.605
 10
-100.132
 20
-169.2579999999999
 10
-100.132
 20
-169.2579999999999
 10
-101.471
 20
-169.838
 10
-101.471
 20
-169.838
 10
-102.871
 20
-170.342
 10
-102.871
 20
-170.342
 10
-104.321
 20
-170.767
 10
-104.321
 20
-170.767
 10
-105.815
 20
-171.11
 10
-105.815
 20
-171.11
 10
-107.342
 20
-171.369
 10
-107.342
 20
-171.369
 10
-108.893
 20
-171.543
 10
-108.893
 20
-171.543
 10
-110.066
 20
-171.617
 10
-110.066
 20
-171.617
 10
-111.244
 20
-171.641
  0
ENDBLK
  5
A5E
330
994
100
AcDbEntity
  8
0
100
AcDbBlockEnd
  0
BLOCK
  5
A60
330
A5F
100
AcDbEntity
  8
0
100
AcDbBlockBegin
  2
_G_P_6
 70
     0
 10
0.0
 20
0.0
 30
0.0
  3
_G_P_6
  1

  0
LWPOLYLINE
  5
A61
330
A5F
100
AcDbEntity
  8
1
  6
Continuous
 62
     1
100
AcDbPolyline
 90
       98
 70
     0
 43
0.0
 10
-131.244
 20
-171.641
 10
-131.228
 20
-172.196
 10
-131.228
 20
-172.196
 10
-131.182
 20
-172.75
 10
-131.182
 20
-172.75
 10
-131.105
 20
-173.303
 10
-131.105
 20
-173.303
 10
-130.998
 20
-173.853
 10
-130.998
 20
-173.853
 10
-130.859
 20
-174.4
 10
-130.859
 20
-174.4
 10
-130.691
 20
-174.942
 10
-130.691
 20
-174.942
 10
-130.493
 20
-175.48
 10
-130.493
 20
-175.48
 10
-130.265
 20
-176.011
 10
-130.265
 20
-176.011
 10
-130.008
 20
-176.536
 10
-130.008
 20
-176.536
 10
-129.407
 20
-177.562
 10
-129.407
 20
-177.562
 10
-128.694
 20
-178.551
 10
-128.694
 20
-178.551
 10
-127.873
 20
-179.498
 10
-127.873
 20
-179.498
 10
-126.95
 20
-180.396
 10
-126.95
 20
-180.396
 10
-125.93
 20
-181.241
 10
-125.93
 20
-181.241
 10
-124.82
 20
-182.026
 10
-124.82
 20
-182.026
 10
-123.626
 20
-182.747
 10
-123.626
 20
-182.747
 10
-122.355
 20
-183.4
 10
-122.355
 20
-183.4
 10
-121.016
 20
-183.98
 10
-121.016
 20
-183.98
 10
-119.617
 20
-184.484
 10
-119.617
 20
-184.484
 10
-118.166
 20
-184.909
 10
-118.166
 20
-184.909
 10
-116.673
 20
-185.252
 10
-116.673
 20
-185.252
 10
-115.146
 20
-185.511
 10
-115.146
 20
-185.511
 10
-113.595
 20
-185.685
 10
-113.595
 20
-185.685
 10
-112.029
 20
-185.772
 10
-112.029
 20
-185.772
 10
-110.459
 20
-185.772
 10
-110.459
 20
-185.772
 10
-108.893
 20
-185.685
 10
-108.893
 20
-185.685
 10
-107.342
 20
-185.511
 10
-107.342
 20
-185.511
 10
-105.815
 20
-185.252
 10
-105.815
 20
-185.252
 10
-104.321
 20
-184.909
 10
-104.321
 20
-184.909
 10
-102.871
 20
-184.484
 10
-102.871
 20
-184.484
 10
-101.471
 20
-183.98
 10
-101.471
 20
-183.98
 10
-100.132
 20
-183.4
 10
-100.132
 20
-183.4
 10
-98.8619
 20
-182.747
 10
-98.8619
 20
-182.747
 10
-97.6678
 20
-182.026
 10
-97.6678
 20
-182.026
 10
-96.5573
 20
-181.241
 10
-96.5573
 20
-181.241
 10
-95.53749999999999
 20
-180.396
 10
-95.53749999999999
 20
-180.396
 10
-94.61440000000001
 20
-179.498
 10
-94.61440000000001
 20
-179.498
 10
-93.79389999999999
 20
-178.551
 10
-93.79389999999999
 20
-178.551
 10
-93.08089999999999
 20
-177.562
 10
-93.08089999999999
 20
-177.562
 10
-92.48000000000001
 20
-176.536
 10
-92.48000000000001
 20
-176.536
 10
-92.22269999999999
 20
-176.011
 10
-92.22269999999999
 20
-176.011
 10
-91.99469999999999
 20
-175.48
 10
-91.99469999999999
 20
-175.48
 10
-91.7964
 20
-174.942
 10
-91.7964
 20
-174.942
 10
-91.6281
 20
-174.4
 10
-91.6281
 20
-174.4
 10
-91.48999999999999
 20
-173.853
 10
-91.48999999999999
 20
-173.853
 10
-91.38240000000001
 20
-173.303
 10
-91.38240000000001
 20
-173.303
 10
-91.30540000000001
 20
-172.75
 10
-91.30540000000001
 20
-172.75
 10
-91.2592
 20
-172.196
 10
-91.2592
 20
-172.196
 10
-91.2438
 20
-171.641
  0
ENDBLK
  5
AC5
330
A5F
100
AcDbEntity
  8
0
100
AcDbBlockEnd
  0
BLOCK
  5
AC7
330
AC6
100
AcDbEntity
  8
0
100
AcDbBlockBegin
  2
_G_P_7
 70
     0
 10
0.0
 20
0.0
 30
0.0
  3
_G_P_7
  1

  0
LWPOLYLINE
  5
AC8
330
AC6
100
AcDbEntity
  8
1
  6
Continuous
 62
     1
100
AcDbPolyline
 90
      196
 70
     0
 43
0.0
 10
-109.235
 20
-224.674
 10
-109.219
 20
-225.229
 10
-109.219
 20
-225.229
 10
-109.173
 20
-225.784
 10
-109.173
 20
-225.784
 10
-109.096
 20
-226.336
 10
-109.096
 20
-226.336
 10
-108.989
 20
-226.886
 10
-108.989
 20
-226.886
 10
-108.85
 20
-227.433
 10
-108.85
 20
-227.433
 10
-108.682
 20
-227.975
 10
-108.682
 20
-227.975
 10
-108.484
 20
-228.513
 10
-108.484
 20
-228.513
 10
-108.256
 20
-229.044
 10
-108.256
 20
-229.044
 10
-107.999
 20
-229.569
 10
-107.999
 20
-229.569
 10
-107.398
 20
-230.595
 10
-107.398
 20
-230.595
 10
-106.685
 20
-231.584
 10
-106.685
 20
-231.584
 10
-105.864
 20
-232.531
 10
-105.864
 20
-232.531
 10
-104.941
 20
-233.429
 10
-104.941
 20
-233.429
 10
-103.921
 20
-234.274
 10
-103.921
 20
-234.274
 10
-102.811
 20
-235.059
 10
-102.811
 20
-235.059
 10
-101.617
 20
-235.78
 10
-101.617
 20
-235.78
 10
-100.346
 20
-236.433
 10
-100.346
 20
-236.433
 10
-99.00719999999999
 20
-237.013
 10
-99.00719999999999
 20
-237.013
 10
-97.60799999999999
 20
-237.517
 10
-97.60799999999999
 20
-237.517
 10
-96.15709999999999
 20
-237.942
 10
-96.15709999999999
 20
-237.942
 10
-94.66359999999999
 20
-238.285
 10
-94.66359999999999
 20
-238.285
 10
-93.1366
 20
-238.545
 10
-93.1366
 20
-238.545
 10
-91.58549999999999
 20
-238.718
 10
-91.58549999999999
 20
-238.718
 10
-90.02
 20
-238.805
 10
-90.02
 20
-238.805
 10
-88.4496
 20
-238.805
 10
-88.4496
 20
-238.805
 10
-86.88410000000001
 20
-238.718
 10
-86.88410000000001
 20
-238.718
 10
-85.333
 20
-238.545
 10
-85.333
 20
-238.545
 10
-83.80599999999999
 20
-238.285
 10
-83.80599999999999
 20
-238.285
 10
-82.31250000000001
 20
-237.942
 10
-82.31250000000001
 20
-237.942
 10
-80.86159999999999
 20
-237.517
 10
-80.86159999999999
 20
-237.517
 10
-79.4624
 20
-237.013
 10
-79.4624
 20
-237.013
 10
-78.1234
 20
-236.433
 10
-78.1234
 20
-236.433
 10
-76.85290000000001
 20
-235.78
 10
-76.85290000000001
 20
-235.78
 10
-75.65879999999999
 20
-235.059
 10
-75.65879999999999
 20
-235.059
 10
-74.5484
 20
-234.274
 10
-74.5484
 20
-234.274
 10
-73.5285
 20
-233.429
 10
-73.5285
 20
-233.429
 10
-72.6054
 20
-232.531
 10
-72.6054
 20
-232.531
 10
-71.7849
 20
-231.584
 10
-71.7849
 20
-231.584
 10
-71.072
 20
-230.595
 10
-71.072
 20
-230.595
 10
-70.471
 20
-229.569
 10
-70.471
 20
-229.569
 10
-70.2137
 20
-229.044
 10
-70.2137
 20
-229.044
 10
-69.98569999999999
 20
-228.513
 10
-69.98569999999999
 20
-228.513
 10
-69.78740000000001
 20
-227.975
 10
-69.78740000000001
 20
-227.975
 10
-69.6191
 20
-227.433
 10
-69.6191
 20
-227.433
 10
-69.48109999999999
 20
-226.886
 10
-69.48109999999999
 20
-226.886
 10
-69.37350000000001
 20
-226.336
 10
-69.37350000000001
 20
-226.336
 10
-69.29649999999999
 20
-225.784
 10
-69.29649999999999
 20
-225.784
 10
-69.25029999999999
 20
-225.229
 10
-69.25029999999999
 20
-225.229
 10
-69.23480000000001
 20
-224.674
 10
-69.23480000000001
 20
-224.674
 10
-69.25029999999999
 20
-224.119
 10
-69.25029999999999
 20
-224.119
 10
-69.29649999999999
 20
-223.564
 10
-69.29649999999999
 20
-223.564
 10
-69.37350000000001
 20
-223.012
 10
-69.37350000000001
 20
-223.012
 10
-69.48109999999999
 20
-222.462
 10
-69.48109999999999
 20
-222.462
 10
-69.6191
 20
-221.915
 10
-69.6191
 20
-221.915
 10
-69.78740000000001
 20
-221.372
 10
-69.78740000000001
 20
-221.372
 10
-69.98569999999999
 20
-220.835
 10
-69.98569999999999
 20
-220.835
 10
-70.2137
 20
-220.304
 10
-70.2137
 20
-220.304
 10
-70.471
 20
-219.779
 10
-70.471
 20
-219.779
 10
-71.072
 20
-218.753
 10
-71.072
 20
-218.753
 10
-71.7849
 20
-217.764
 10
-71.7849
 20
-217.764
 10
-72.6054
 20
-216.817
 10
-72.6054
 20
-216.817
 10
-73.5285
 20
-215.918
 10
-73.5285
 20
-215.918
 10
-74.5484
 20
-215.074
 10
-74.5484
 20
-215.074
 10
-75.65879999999999
 20
-214.289
 10
-75.65879999999999
 20
-214.289
 10
-76.85290000000001
 20
-213.568
 10
-76.85290000000001
 20
-213.568
 10
-78.1234
 20
-212.915
 10
-78.1234
 20
-212.915
 10
-79.4624
 20
-212.335
 10
-79.4624
 20
-212.335
 10
-80.86159999999999
 20
-211.831
 10
-80.86159999999999
 20
-211.831
 10
-82.31250000000001
 20
-211.406
 10
-82.31250000000001
 20
-211.406
 10
-83.80599999999999
 20
-211.063
 10
-83.80599999999999
 20
-211.063
 10
-85.333
 20
-210.803
 10
-85.333
 20
-210.803
 10
-86.88410000000001
 20
-210.63
 10
-86.88410000000001
 20
-210.63
 10
-88.4496
 20
-210.542
 10
-88.4496
 20
-210.542
 10
-90.02
 20
-210.542
 10
-90.02
 20
-210.542
 10
-91.58549999999999
 20
-210.63
 10
-91.58549999999999
 20
-210.63
 10
-93.1366
 20
-210.803
 10
-93.1366
 20
-210.803
 10
-94.66359999999999
 20
-211.063
 10
-94.66359999999999
 20
-211.063
 10
-96.15709999999999
 20
-211.406
 10
-96.15709999999999
 20
-211.406
 10
-97.60799999999999
 20
-211.831
 10
-97.60799999999999
 20
-211.831
 10
-99.00719999999999
 20
-212.335
 10
-99.00719999999999
 20
-212.335
 10
-100.346
 20
-212.915
 10
-100.346
 20
-212.915
 10
-101.617
 20
-213.568
 10
-101.617
 20
-213.568
 10
-102.811
 20
-214.289
 10
-102.811
 20
-214.289
 10
-103.921
 20
-215.074
 10
-103.921
 20
-215.074
 10
-104.941
 20
-215.918
 10
-104.941
 20
-215.918
 10
-105.864
 20
-216.817
 10
-105.864
 20
-216.817
 10
-106.685
 20
-217.764
 10
-106.685
 20
-217.764
 10
-107.398
 20
-218.753
 10
-107.398
 20
-218.753
 10
-107.999
 20
-219.779
 10
-107.999
 20
-219.779
 10
-108.256
 20
-220.304
 10
-108.256
 20
-220.304
 10
-108.484
 20
-220.835
 10
-108.484
 20
-220.835
 10
-108.682
 20
-221.372
 10
-108.682
 20
-221.372
 10
-108.85
 20
-221.915
 10
-108.85
 20
-221.915
 10
-108.989
 20
-222.462
 10
-108.989
 20
-222.462
 10
-109.096
 20
-223.012
 10
-109.096
 20
-223.012
 10
-109.173
 20
-223.564
 10
-109.173
 20
-223.564
 10
-109.219
 20
-224.119
 10
-109.219
 20
-224.119
 10
-109.235
 20
-224.674
  0
ENDBLK
  5
B8E
330
AC6
100
AcDbEntity
  8
0
100
AcDbBlockEnd
  0
BLOCK
  5
B90
330
B8F
100
AcDbEntity
  8
0
100
AcDbBlockBegin
  2
_G_P_8
 70
     0
 10
0.0
 20
0.0
 30
0.0
  3
_G_P_8
  1

  0
LWPOLYLINE
  5
B91
330
B8F
100
AcDbEntity
  8
1
  6
Continuous
 62
     1
100
AcDbPolyline
 90
       98
 70
     0
 43
0.0
 10
-69.23480000000001
 20
-210.532
 10
-69.25029999999999
 20
-209.977
 10
-69.25029999999999
 20
-209.977
 10
-69.29649999999999
 20
-209.422
 10
-69.29649999999999
 20
-209.422
 10
-69.37350000000001
 20
-208.87
 10
-69.37350000000001
 20
-208.87
 10
-69.48109999999999
 20
-208.32
 10
-69.48109999999999
 20
-208.32
 10
-69.6192
 20
-207.773
 10
-69.6192
 20
-207.773
 10
-69.78749999999999
 20
-207.231
 10
-69.78749999999999
 20
-207.231
 10
-69.9858
 20
-206.693
 10
-69.9858
 20
-206.693
 10
-70.2137
 20
-206.162
 10
-70.2137
 20
-206.162
 10
-70.471
 20
-205.637
 10
-70.471
 20
-205.637
 10
-71.072
 20
-204.611
 10
-71.072
 20
-204.611
 10
-71.78499999999999
 20
-203.622
 10
-71.78499999999999
 20
-203.622
 10
-72.60550000000001
 20
-202.675
 10
-72.60550000000001
 20
-202.675
 10
-73.5285
 20
-201.777
 10
-73.5285
 20
-201.777
 10
-74.5484
 20
-200.932
 10
-74.5484
 20
-200.932
 10
-75.6589
 20
-200.147
 10
-75.6589
 20
-200.147
 10
-76.85300000000001
 20
-199.426
 10
-76.85300000000001
 20
-199.426
 10
-78.12350000000001
 20
-198.773
 10
-78.12350000000001
 20
-198.773
 10
-79.4624
 20
-198.193
 10
-79.4624
 20
-198.193
 10
-80.8617
 20
-197.689
 10
-80.8617
 20
-197.689
 10
-82.31250000000001
 20
-197.264
 10
-82.31250000000001
 20
-197.264
 10
-83.80599999999999
 20
-196.921
 10
-83.80599999999999
 20
-196.921
 10
-85.333
 20
-196.661
 10
-85.333
 20
-196.661
 10
-86.88410000000001
 20
-196.488
 10
-86.88410000000001
 20
-196.488
 10
-88.4496
 20
-196.401
 10
-88.4496
 20
-196.401
 10
-90.02
 20
-196.401
 10
-90.02
 20
-196.401
 10
-91.58549999999999
 20
-196.488
 10
-91.58549999999999
 20
-196.488
 10
-93.1366
 20
-196.661
 10
-93.1366
 20
-196.661
 10
-94.66359999999999
 20
-196.921
 10
-94.66359999999999
 20
-196.921
 10
-96.15709999999999
 20
-197.264
 10
-96.15709999999999
 20
-197.264
 10
-97.6079
 20
-197.689
 10
-97.6079
 20
-197.689
 10
-99.00719999999999
 20
-198.193
 10
-99.00719999999999
 20
-198.193
 10
-100.346
 20
-198.773
 10
-100.346
 20
-198.773
 10
-101.617
 20
-199.426
 10
-101.617
 20
-199.426
 10
-102.811
 20
-200.147
 10
-102.811
 20
-200.147
 10
-103.921
 20
-200.932
 10
-103.921
 20
-200.932
 10
-104.941
 20
-201.777
 10
-104.941
 20
-201.777
 10
-105.864
 20
-202.675
 10
-105.864
 20
-202.675
 10
-106.685
 20
-203.622
 10
-106.685
 20
-203.622
 10
-107.398
 20
-204.611
 10
-107.398
 20
-204.611
 10
-107.999
 20
-205.637
 10
-107.999
 20
-205.637
 10
-108.256
 20
-206.162
 10
-108.256
 20
-206.162
 10
-108.484
 20
-206.693
 10
-108.484
 20
-206.693
 10
-108.682
 20
-207.231
 10
-108.682
 20
-207.231
 10
-108.85
 20
-207.773
 10
-108.85
 20
-207.773
 10
-108.988
 20
-208.32
 10
-108.988
 20
-208.32
 10
-109.096
 20
-208.87
 10
-109.096
 20
-208.87
 10
-109.173
 20
-209.422
 10
-109.173
 20
-209.422
 10
-109.219
 20
-209.977
 10
-109.219
 20
-209.977
 10
-109.235
 20
-210.532
  0
ENDBLK
  5
BF5
330
B8F
100
AcDbEntity
  8
0
100
AcDbBlockEnd
  0
BLOCK
  5
BF7
330
BF6
100
AcDbEntity
  8
0
100
AcDbBlockBegin
  2
_G_P_9
 70
     0
 10
0.0
 20
0.0
 30
0.0
  3
_G_P_9
  1

  0
LWPOLYLINE
  5
BF8
330
BF6
100
AcDbEntity
  8
1
  6
Continuous
 62
     1
100
AcDbPolyline
 90
      198
 70
     0
 43
0.0
 10
-89.23709999999999
 20
22.0915
 10
-90.80629999999999
 20
22.0479
 10
-90.80629999999999
 20
22.0479
 10
-92.3658
 20
21.9174
 10
-92.3658
 20
21.9174
 10
-93.906
 20
21.7007
 10
-93.906
 20
21.7007
 10
-95.4174
 20
21.3993
 10
-95.4174
 20
21.3993
 10
-96.8907
 20
21.015
 10
-96.8907
 20
21.015
 10
-98.31690000000001
 20
20.5501
 10
-98.31690000000001
 20
20.5501
 10
-99.68700000000001
 20
20.0075
 10
-99.68700000000001
 20
20.0075
 10
-100.993
 20
19.3906
 10
-100.993
 20
19.3906
 10
-102.226
 20
18.7031
 10
-102.226
 20
18.7031
 10
-103.379
 20
17.9494
 10
-103.379
 20
17.9494
 10
-104.445
 20
17.1339
 10
-104.445
 20
17.1339
 10
-105.417
 20
16.2619
 10
-105.417
 20
16.2619
 10
-106.29
 20
15.3386
 10
-106.29
 20
15.3386
 10
-107.057
 20
14.3698
 10
-107.057
 20
14.3698
 10
-107.715
 20
13.3613
 10
-107.715
 20
13.3613
 10
-108.001
 20
12.8442
 10
-108.001
 20
12.8442
 10
-108.258
 20
12.3195
 10
-108.258
 20
12.3195
 10
-108.486
 20
11.7881
 10
-108.486
 20
11.7881
 10
-108.684
 20
11.2508
 10
-108.684
 20
11.2508
 10
-108.853
 20
10.7084
 10
-108.853
 20
10.7084
 10
-108.991
 20
10.1617
 10
-108.991
 20
10.1617
 10
-109.098
 20
9.61162
 10
-109.098
 20
9.61162
 10
-109.175
 20
9.05898
 10
-109.175
 20
9.05898
 10
-109.222
 20
8.504619999999999
 10
-109.222
 20
8.504619999999999
 10
-109.237
 20
7.949399999999999
 10
-109.237
 20
7.949399999999999
 10
-109.222
 20
7.39418
 10
-109.222
 20
7.39418
 10
-109.175
 20
6.839819999999999
 10
-109.175
 20
6.839819999999999
 10
-109.098
 20
6.28718
 10
-109.098
 20
6.28718
 10
-108.991
 20
5.73709
 10
-108.991
 20
5.73709
 10
-108.853
 20
5.190419999999999
 10
-108.853
 20
5.190419999999999
 10
-108.684
 20
4.64799
 10
-108.684
 20
4.64799
 10
-108.486
 20
4.11066
 10
-108.486
 20
4.11066
 10
-108.258
 20
3.57925
 10
-108.258
 20
3.57925
 10
-108.001
 20
3.05458
 10
-108.001
 20
3.05458
 10
-107.4
 20
2.02868
 10
-107.4
 20
2.02868
 10
-106.687
 20
1.03927
 10
-106.687
 20
1.03927
 10
-105.866
 20
0.0924742
 10
-105.866
 20
0.0924742
 10
-104.943
 20
-0.805884
 10
-104.943
 20
-0.805884
 10
-103.924
 20
-1.650259999999999
 10
-103.924
 20
-1.650259999999999
 10
-102.813
 20
-2.435459999999999
 10
-102.813
 20
-2.435459999999999
 10
-101.619
 20
-3.156629999999999
 10
-101.619
 20
-3.156629999999999
 10
-100.348
 20
-3.809319999999999
 10
-100.348
 20
-3.809319999999999
 10
-99.00950000000001
 20
-4.38952
 10
-99.00950000000001
 20
-4.38952
 10
-97.61029999999999
 20
-4.89365
 10
-97.61029999999999
 20
-4.89365
 10
-96.15940000000001
 20
-5.31859
 10
-96.15940000000001
 20
-5.31859
 10
-94.6659
 20
-5.661739999999999
 10
-94.6659
 20
-5.661739999999999
 10
-93.1389
 20
-5.92096
 10
-93.1389
 20
-5.92096
 10
-91.5878
 20
-6.094669999999999
 10
-91.5878
 20
-6.094669999999999
 10
-90.0223
 20
-6.181799999999999
 10
-90.0223
 20
-6.181799999999999
 10
-88.4519
 20
-6.181799999999999
 10
-88.4519
 20
-6.181799999999999
 10
-86.88630000000001
 20
-6.09468
 10
-86.88630000000001
 20
-6.09468
 10
-85.3353
 20
-5.920969999999999
 10
-85.3353
 20
-5.920969999999999
 10
-83.80830000000001
 20
-5.661739999999999
 10
-83.80830000000001
 20
-5.661739999999999
 10
-82.31469999999999
 20
-5.318599999999999
 10
-82.31469999999999
 20
-5.318599999999999
 10
-80.86389999999999
 20
-4.893659999999999
 10
-80.86389999999999
 20
-4.893659999999999
 10
-79.46469999999999
 20
-4.38954
 10
-79.46469999999999
 20
-4.38954
 10
-78.1257
 20
-3.80934
 10
-78.1257
 20
-3.80934
 10
-76.8552
 20
-3.15664
 10
-76.8552
 20
-3.15664
 10
-75.66110000000001
 20
-2.43548
 10
-75.66110000000001
 20
-2.43548
 10
-74.5506
 20
-1.650279999999999
 10
-74.5506
 20
-1.650279999999999
 10
-73.53069999999999
 20
-0.805906
 10
-73.53069999999999
 20
-0.805906
 10
-72.60769999999999
 20
0.0924518
 10
-72.60769999999999
 20
0.0924518
 10
-71.7872
 20
1.03925
 10
-71.7872
 20
1.03925
 10
-71.07420000000001
 20
2.028649999999999
 10
-71.07420000000001
 20
2.028649999999999
 10
-70.47329999999999
 20
3.054559999999999
 10
-70.47329999999999
 20
3.054559999999999
 10
-70.21600000000001
 20
3.57923
 10
-70.21600000000001
 20
3.57923
 10
-69.988
 20
4.11064
 10
-69.988
 20
4.11064
 10
-69.7897
 20
4.647969999999999
 10
-69.7897
 20
4.647969999999999
 10
-69.62139999999999
 20
5.190389999999999
 10
-69.62139999999999
 20
5.190389999999999
 10
-69.4833
 20
5.737059999999999
 10
-69.4833
 20
5.737059999999999
 10
-69.3757
 20
6.287149999999999
 10
-69.3757
 20
6.287149999999999
 10
-69.2987
 20
6.8398
 10
-69.2987
 20
6.8398
 10
-69.2525
 20
7.39416
 10
-69.2525
 20
7.39416
 10
-69.23709999999999
 20
7.94937
 10
-69.23709999999999
 20
7.94937
 10
-69.2525
 20
8.504589999999998
 10
-69.2525
 20
8.504589999999998
 10
-69.2987
 20
9.058949999999999
 10
-69.2987
 20
9.058949999999999
 10
-69.3757
 20
9.611599999999999
 10
-69.3757
 20
9.611599999999999
 10
-69.4833
 20
10.1617
 10
-69.4833
 20
10.1617
 10
-69.62139999999999
 20
10.7084
 10
-69.62139999999999
 20
10.7084
 10
-69.7897
 20
11.2508
 10
-69.7897
 20
11.2508
 10
-69.988
 20
11.7881
 10
-69.988
 20
11.7881
 10
-70.2159
 20
12.3195
 10
-70.2159
 20
12.3195
 10
-70.47329999999999
 20
12.8442
 10
-70.47329999999999
 20
12.8442
 10
-71.07420000000001
 20
13.8701
 10
-71.07420000000001
 20
13.8701
 10
-71.7872
 20
14.8595
 10
-71.7872
 20
14.8595
 10
-72.60769999999999
 20
15.8063
 10
-72.60769999999999
 20
15.8063
 10
-73.53069999999999
 20
16.7047
 10
-73.53069999999999
 20
16.7047
 10
-74.5506
 20
17.549
 10
-74.5506
 20
17.549
 10
-75.66110000000001
 20
18.3342
 10
-75.66110000000001
 20
18.3342
 10
-76.8552
 20
19.0554
 10
-76.8552
 20
19.0554
 10
-78.1257
 20
19.7081
 10
-78.1257
 20
19.7081
 10
-79.4646
 20
20.2883
 10
-79.4646
 20
20.2883
 10
-80.86389999999999
 20
20.7924
 10
-80.86389999999999
 20
20.7924
 10
-82.31469999999999
 20
21.2174
 10
-82.31469999999999
 20
21.2174
 10
-83.80830000000001
 20
21.5605
 10
-83.80830000000001
 20
21.5605
 10
-85.3353
 20
21.8197
 10
-85.3353
 20
21.8197
 10
-86.88630000000001
 20
21.9934
 10
-86.88630000000001
 20
21.9934
 10
-88.0597
 20
22.0669
 10
-88.0597
 20
22.0669
 10
-89.23709999999999
 20
22.0915
  0
ENDBLK
  5
CC0
330
BF6
100
AcDbEntity
  8
0
100
AcDbBlockEnd
  0
ENDSEC
  0
SECTION
  2
ENTITIES
  0
LINE
  5
CC1
330
18
100
AcDbEntity
  8
1
  6
Continuous
 62
     1
100
AcDbLine
 10
-170.256
 20
145.931
 30
0.0
 11
-153.241
 21
145.931
 31
0.0
  0
LINE
  5
CC2
330
18
100
AcDbEntity
  8
1
  6
Continuous
 62
     1
100
AcDbLine
 10
-149.256
 20
145.931
 30
0.0
 11
-143.256
 21
145.931
 31
0.0
  0
LINE
  5
CC3
330
18
100
AcDbEntity
  8
1
  6
Continuous
 62
     1
100
AcDbLine
 10
-57.2558
 20
145.931
 30
0.0
 11
-51.2558
 21
145.931
 31
0.0
  0
LINE
  5
CC4
330
18
100
AcDbEntity
  8
1
  6
Continuous
 62
     1
100
AcDbLine
 10
-47.25579999999999
 20
145.931
 30
0.0
 11
-30.2558
 21
145.931
 31
0.0
  0
LINE
  5
CC5
330
18
100
AcDbEntity
  8
1
  6
Continuous
 62
     1
100
AcDbLine
 10
-30.2558
 20
145.931
 30
0.0
 11
-30.2558
 21
205.931
 31
0.0
  0
LINE
  5
CC6
330
18
100
AcDbEntity
  8
1
  6
Continuous
 62
     1
100
AcDbLine
 10
-30.2558
 20
205.931
 30
0.0
 11
-57.2558
 21
205.931
 31
0.0
  0
LINE
  5
CC7
330
18
100
AcDbEntity
  8
1
  6
Continuous
 62
     1
100
AcDbLine
 10
-143.256
 20
205.931
 30
0.0
 11
-170.256
 21
205.931
 31
0.0
  0
LINE
  5
CC8
330
18
100
AcDbEntity
  8
1
  6
Continuous
 62
     1
100
AcDbLine
 10
-170.256
 20
205.931
 30
0.0
 11
-170.256
 21
145.931
 31
0.0
  0
LINE
  5
CC9
330
18
100
AcDbEntity
  8
1
  6
Continuous
 62
     1
100
AcDbLine
 10
-143.256
 20
205.931
 30
0.0
 11
-143.256
 21
202.766
 31
0.0
  0
ARC
  5
CCA
330
18
100
AcDbEntity
  8
1
  6
Continuous
 62
     1
100
AcDbCircle
 10
-141.756
 20
202.766
 30
0.0
 40
1.5
100
AcDbArc
 50
180.0
 51
270.0
  0
LINE
  5
CCB
330
18
100
AcDbEntity
  8
1
  6
Continuous
 62
     1
100
AcDbLine
 10
-57.2558
 20
202.766
 30
0.0
 11
-57.2558
 21
205.931
 31
0.0
  0
ARC
  5
CCC
330
18
100
AcDbEntity
  8
1
  6
Continuous
 62
     1
100
AcDbCircle
 10
-58.7558
 20
202.766
 30
0.0
 40
1.5
100
AcDbArc
 50
270.0
 51
0.0
  0
LINE
  5
CCD
330
18
100
AcDbEntity
  8
1
  6
Continuous
 62
     1
100
AcDbLine
 10
-30.2558
 20
199.931
 30
0.0
 11
-49.7558
 21
199.931
 31
0.0
  0
LINE
  5
CCE
330
18
100
AcDbEntity
  8
1
  6
Continuous
 62
     1
100
AcDbLine
 10
-150.756
 20
199.931
 30
0.0
 11
-170.256
 21
199.931
 31
0.0
  0
ARC
  5
CCF
330
18
100
AcDbEntity
  8
1
  6
Continuous
 62
     1
100
AcDbCircle
 10
-150.756
 20
198.4309999999999
 30
0.0
 40
1.5
100
AcDbArc
 50
0.0
 51
90.0
  0
LINE
  5
CD0
330
18
100
AcDbEntity
  8
1
  6
Continuous
 62
     1
100
AcDbLine
 10
-149.256
 20
131.608
 30
0.0
 11
-149.256
 21
198.4309999999999
 31
0.0
  0
LINE
  5
CD1
330
18
100
AcDbEntity
  8
1
  6
Continuous
 62
     1
100
AcDbLine
 10
-51.2558
 20
198.4309999999999
 30
0.0
 11
-51.2558
 21
131.616
 31
0.0
  0
ARC
  5
CD2
330
18
100
AcDbEntity
  8
1
  6
Continuous
 62
     1
100
AcDbCircle
 10
-49.7558
 20
198.4309999999999
 30
0.0
 40
1.5
100
AcDbArc
 50
90.0
 51
180.0
  0
LINE
  5
CD3
330
18
100
AcDbEntity
  8
1
  6
CENTER
 62
     2
100
AcDbLine
 10
-30.2558
 20
170.931
 30
0.0
 11
-47.1584
 21
170.931
 31
0.0
  0
LINE
  5
CD4
330
18
100
AcDbEntity
  8
1
  6
CENTER
 62
     2
100
AcDbLine
 10
-151.898
 20
170.931
 30
0.0
 11
-174.851
 21
170.931
 31
0.0
  0
LINE
  5
CD5
330
18
100
AcDbEntity
  8
1
  6
CENTER
 62
     2
100
AcDbLine
 10
-167.012
 20
185.9309999999999
 30
0.0
 11
-152.105
 21
185.9309999999999
 31
0.0
  0
LINE
  5
CD6
330
18
100
AcDbEntity
  8
1
  6
CENTER
 62
     2
100
AcDbLine
 10
-48.8876
 20
185.9309999999999
 30
0.0
 11
-32.3544
 21
185.9309999999999
 31
0.0
  0
LINE
  5
CD7
330
18
100
AcDbEntity
  8
1
  6
CENTER
 62
     2
100
AcDbLine
 10
-32.5744
 20
155.931
 30
0.0
 11
-48.27239999999999
 21
155.931
 31
0.0
  0
LINE
  5
CD8
330
18
100
AcDbEntity
  8
1
  6
CENTER
 62
     2
100
AcDbLine
 10
-152.982
 20
155.931
 30
0.0
 11
-168.014
 21
155.931
 31
0.0
  0
LINE
  5
CD9
330
18
100
AcDbEntity
  8
1
  6
CENTER
 62
     2
100
AcDbLine
 10
-160.255
 20
211.684
 30
0.0
 11
-160.25
 21
145.931
 31
0.0
  0
LINE
  5
CDA
330
18
100
AcDbEntity
  8
1
  6
CENTER
 62
     2
100
AcDbLine
 10
-160.238
 20
6.36247
 30
0.0
 11
-160.233
 21
-53.6375
 31
0.0
  0
LINE
  5
CDB
330
18
100
AcDbEntity
  8
1
  6
CENTER
 62
     2
100
AcDbLine
 10
-160.225
 20
-147.086
 30
0.0
 11
-160.22
 21
-201.087
 31
0.0
  0
LINE
  5
CDC
330
18
100
AcDbEntity
  8
1
  6
CENTER
 62
     2
100
AcDbLine
 10
-40.2193
 20
-201.087
 30
0.0
 11
-40.224
 21
-147.086
 31
0.0
  0
LINE
  5
CDD
330
18
100
AcDbEntity
  8
1
  6
CENTER
 62
     2
100
AcDbLine
 10
-40.2321
 20
-53.6375
 30
0.0
 11
-40.2374
 21
6.36247
 31
0.0
  0
LINE
  5
CDE
330
18
100
AcDbEntity
  8
1
  6
CENTER
 62
     2
100
AcDbLine
 10
-40.2496
 20
145.931
 30
0.0
 11
-40.2554
 21
212.999
 31
0.0
  0
ARC
  5
CDF
330
18
100
AcDbEntity
  8
1
  6
Continuous
 62
     1
100
AcDbCircle
 10
-160.256
 20
187.431
 30
0.0
 40
4.25
100
AcDbArc
 50
0.0
 51
180.0
  0
ARC
  5
CE0
330
18
100
AcDbEntity
  8
1
  6
Continuous
 62
     1
100
AcDbCircle
 10
-160.256
 20
184.431
 30
0.0
 40
4.25
100
AcDbArc
 50
180.0
 51
0.0
  0
LINE
  5
CE1
330
18
100
AcDbEntity
  8
1
  6
Continuous
 62
     1
100
AcDbLine
 10
-164.5059999999999
 20
187.431
 30
0.0
 11
-164.5059999999999
 21
184.431
 31
0.0
  0
LINE
  5
CE2
330
18
100
AcDbEntity
  8
1
  6
Continuous
 62
     1
100
AcDbLine
 10
-156.006
 20
187.431
 30
0.0
 11
-156.006
 21
184.431
 31
0.0
  0
LINE
  5
CE3
330
18
100
AcDbEntity
  8
1
  6
Continuous
 62
     1
100
AcDbLine
 10
-164.5059999999999
 20
157.431
 30
0.0
 11
-164.5059999999999
 21
154.431
 31
0.0
  0
LINE
  5
CE4
330
18
100
AcDbEntity
  8
1
  6
Continuous
 62
     1
100
AcDbLine
 10
-156.006
 20
157.431
 30
0.0
 11
-156.006
 21
154.431
 31
0.0
  0
ARC
  5
CE5
330
18
100
AcDbEntity
  8
1
  6
Continuous
 62
     1
100
AcDbCircle
 10
-160.256
 20
154.431
 30
0.0
 40
4.25
100
AcDbArc
 50
180.0
 51
0.0
  0
ARC
  5
CE6
330
18
100
AcDbEntity
  8
1
  6
Continuous
 62
     1
100
AcDbCircle
 10
-160.256
 20
157.431
 30
0.0
 40
4.25
100
AcDbArc
 50
0.0
 51
180.0
  0
LINE
  5
CE7
330
18
100
AcDbEntity
  8
1
  6
Continuous
 62
     1
100
AcDbLine
 10
-44.5058
 20
187.431
 30
0.0
 11
-44.5058
 21
184.431
 31
0.0
  0
LINE
  5
CE8
330
18
100
AcDbEntity
  8
1
  6
Continuous
 62
     1
100
AcDbLine
 10
-36.0058
 20
187.431
 30
0.0
 11
-36.0058
 21
184.431
 31
0.0
  0
ARC
  5
CE9
330
18
100
AcDbEntity
  8
1
  6
Continuous
 62
     1
100
AcDbCircle
 10
-40.2558
 20
184.431
 30
0.0
 40
4.25
100
AcDbArc
 50
180.0
 51
0.0
  0
ARC
  5
CEA
330
18
100
AcDbEntity
  8
1
  6
Continuous
 62
     1
100
AcDbCircle
 10
-40.2558
 20
187.431
 30
0.0
 40
4.25
100
AcDbArc
 50
0.0
 51
180.0
  0
LINE
  5
CEB
330
18
100
AcDbEntity
  8
1
  6
Continuous
 62
     1
100
AcDbLine
 10
-44.5058
 20
157.431
 30
0.0
 11
-44.5058
 21
154.431
 31
0.0
  0
LINE
  5
CEC
330
18
100
AcDbEntity
  8
1
  6
Continuous
 62
     1
100
AcDbLine
 10
-36.0058
 20
157.431
 30
0.0
 11
-36.0058
 21
154.431
 31
0.0
  0
ARC
  5
CED
330
18
100
AcDbEntity
  8
1
  6
Continuous
 62
     1
100
AcDbCircle
 10
-40.2558
 20
154.431
 30
0.0
 40
4.25
100
AcDbArc
 50
180.0
 51
0.0
  0
ARC
  5
CEE
330
18
100
AcDbEntity
  8
1
  6
Continuous
 62
     1
100
AcDbCircle
 10
-40.2558
 20
157.431
 30
0.0
 40
4.25
100
AcDbArc
 50
0.0
 51
180.0
  0
CIRCLE
  5
CEF
330
18
100
AcDbEntity
  8
1
  6
Continuous
 62
     1
100
AcDbCircle
 10
-160.217
 20
170.931
 30
0.0
 40
3.0
  0
LINE
  5
CF0
330
18
100
AcDbEntity
  8
1
  6
Continuous
 62
     1
100
AcDbLine
 10
-163.217
 20
170.931
 30
0.0
 11
-157.217
 21
170.931
 31
0.0
  0
LINE
  5
CF1
330
18
100
AcDbEntity
  8
1
  6
Continuous
 62
     1
100
AcDbLine
 10
-160.256
 20
173.931
 30
0.0
 11
-160.256
 21
167.931
 31
0.0
  0
LINE
  5
CF2
330
18
100
AcDbEntity
  8
1
  6
Continuous
 62
     1
100
AcDbLine
 10
-157.277
 20
171.528
 30
0.0
 11
-157.873
 21
170.931
 31
0.0
  0
LINE
  5
CF3
330
18
100
AcDbEntity
  8
1
  6
Continuous
 62
     1
100
AcDbLine
 10
-158.58
 20
170.931
 30
0.0
 11
-157.442
 21
172.07
 31
0.0
  0
LINE
  5
CF4
330
18
100
AcDbEntity
  8
1
  6
Continuous
 62
     1
100
AcDbLine
 10
-157.683
 20
172.536
 30
0.0
 11
-159.288
 21
170.931
 31
0.0
  0
LINE
  5
CF5
330
18
100
AcDbEntity
  8
1
  6
Continuous
 62
     1
100
AcDbLine
 10
-159.995
 20
170.931
 30
0.0
 11
-157.988
 21
172.938
 31
0.0
  0
LINE
  5
CF6
330
18
100
AcDbEntity
  8
1
  6
Continuous
 62
     1
100
AcDbLine
 10
-158.352
 20
173.2809999999999
 30
0.0
 11
-160.256
 21
171.377
 31
0.0
  0
LINE
  5
CF7
330
18
100
AcDbEntity
  8
1
  6
Continuous
 62
     1
100
AcDbLine
 10
-160.256
 20
172.084
 30
0.0
 11
-158.777
 21
173.563
 31
0.0
  0
LINE
  5
CF8
330
18
100
AcDbEntity
  8
1
  6
Continuous
 62
     1
100
AcDbLine
 10
-159.27
 20
173.778
 30
0.0
 11
-160.256
 21
172.792
 31
0.0
  0
LINE
  5
CF9
330
18
100
AcDbEntity
  8
1
  6
Continuous
 62
     1
100
AcDbLine
 10
-160.256
 20
173.499
 30
0.0
 11
-159.846
 21
173.908
 31
0.0
  0
LINE
  5
CFA
330
18
100
AcDbEntity
  8
1
  6
Continuous
 62
     1
100
AcDbLine
 10
-160.256
 20
168.549
 30
0.0
 11
-160.813
 21
167.991
 31
0.0
  0
LINE
  5
CFB
330
18
100
AcDbEntity
  8
1
  6
Continuous
 62
     1
100
AcDbLine
 10
-161.356
 20
168.1559999999999
 30
0.0
 11
-160.256
 21
169.256
 31
0.0
  0
LINE
  5
CFC
330
18
100
AcDbEntity
  8
1
  6
Continuous
 62
     1
100
AcDbLine
 10
-160.256
 20
169.963
 30
0.0
 11
-161.822
 21
168.397
 31
0.0
  0
LINE
  5
CFD
330
18
100
AcDbEntity
  8
1
  6
Continuous
 62
     1
100
AcDbLine
 10
-162.224
 20
168.702
 30
0.0
 11
-160.256
 21
170.67
 31
0.0
  0
LINE
  5
CFE
330
18
100
AcDbEntity
  8
1
  6
Continuous
 62
     1
100
AcDbLine
 10
-160.702
 20
170.931
 30
0.0
 11
-162.567
 21
169.066
 31
0.0
  0
LINE
  5
CFF
330
18
100
AcDbEntity
  8
1
  6
Continuous
 62
     1
100
AcDbLine
 10
-162.849
 20
169.491
 30
0.0
 11
-161.409
 21
170.931
 31
0.0
  0
LINE
  5
D00
330
18
100
AcDbEntity
  8
1
  6
Continuous
 62
     1
100
AcDbLine
 10
-162.116
 20
170.931
 30
0.0
 11
-163.064
 21
169.984
 31
0.0
  0
LINE
  5
D01
330
18
100
AcDbEntity
  8
1
  6
Continuous
 62
     1
100
AcDbLine
 10
-163.194
 20
170.56
 30
0.0
 11
-162.823
 21
170.931
 31
0.0
  0
CIRCLE
  5
D02
330
18
100
AcDbEntity
  8
1
  6
Continuous
 62
     1
100
AcDbCircle
 10
-40.2172
 20
170.931
 30
0.0
 40
3.0
  0
LINE
  5
D03
330
18
100
AcDbEntity
  8
1
  6
Continuous
 62
     1
100
AcDbLine
 10
-43.2172
 20
170.931
 30
0.0
 11
-37.2172
 21
170.931
 31
0.0
  0
LINE
  5
D04
330
18
100
AcDbEntity
  8
1
  6
Continuous
 62
     1
100
AcDbLine
 10
-40.2558
 20
173.931
 30
0.0
 11
-40.2558
 21
167.931
 31
0.0
  0
LINE
  5
D05
330
18
100
AcDbEntity
  8
1
  6
Continuous
 62
     1
100
AcDbLine
 10
-37.2466
 20
171.35
 30
0.0
 11
-37.6652
 21
170.931
 31
0.0
  0
LINE
  5
D06
330
18
100
AcDbEntity
  8
1
  6
Continuous
 62
     1
100
AcDbLine
 10
-38.3723
 20
170.931
 30
0.0
 11
-37.3845
 21
171.919
 31
0.0
  0
LINE
  5
D07
330
18
100
AcDbEntity
  8
1
  6
Continuous
 62
     1
100
AcDbLine
 10
-37.6047
 20
172.4059999999999
 30
0.0
 11
-39.0794
 21
170.931
 31
0.0
  0
LINE
  5
D08
330
18
100
AcDbEntity
  8
1
  6
Continuous
 62
     1
100
AcDbLine
 10
-39.7865
 20
170.931
 30
0.0
 11
-37.8915
 21
172.826
 31
0.0
  0
LINE
  5
D09
330
18
100
AcDbEntity
  8
1
  6
Continuous
 62
     1
100
AcDbLine
 10
-38.2386
 20
173.1859999999999
 30
0.0
 11
-40.2558
 21
171.169
 31
0.0
  0
LINE
  5
D0A
330
18
100
AcDbEntity
  8
1
  6
Continuous
 62
     1
100
AcDbLine
 10
-40.2558
 20
171.876
 30
0.0
 11
-38.6454
 21
173.487
 31
0.0
  0
LINE
  5
D0B
330
18
100
AcDbEntity
  8
1
  6
Continuous
 62
     1
100
AcDbLine
 10
-39.1169
 20
173.722
 30
0.0
 11
-40.2558
 21
172.583
 31
0.0
  0
LINE
  5
D0C
330
18
100
AcDbEntity
  8
1
  6
Continuous
 62
     1
100
AcDbLine
 10
-40.2558
 20
173.29
 30
0.0
 11
-39.666
 21
173.88
 31
0.0
  0
LINE
  5
D0D
330
18
100
AcDbEntity
  8
1
  6
Continuous
 62
     1
100
AcDbLine
 10
-40.2558
 20
168.341
 30
0.0
 11
-40.6358
 21
167.961
 31
0.0
  0
LINE
  5
D0E
330
18
100
AcDbEntity
  8
1
  6
Continuous
 62
     1
100
AcDbLine
 10
-41.20499999999999
 20
168.099
 30
0.0
 11
-40.2558
 21
169.048
 31
0.0
  0
LINE
  5
D0F
330
18
100
AcDbEntity
  8
1
  6
Continuous
 62
     1
100
AcDbLine
 10
-40.2558
 20
169.755
 30
0.0
 11
-41.69189999999999
 21
168.319
 31
0.0
  0
LINE
  5
D10
330
18
100
AcDbEntity
  8
1
  6
Continuous
 62
     1
100
AcDbLine
 10
-42.11219999999999
 20
168.606
 30
0.0
 11
-40.2558
 21
170.462
 31
0.0
  0
LINE
  5
D11
330
18
100
AcDbEntity
  8
1
  6
Continuous
 62
     1
100
AcDbLine
 10
-40.4936
 20
170.931
 30
0.0
 11
-42.4722
 21
168.953
 31
0.0
  0
LINE
  5
D12
330
18
100
AcDbEntity
  8
1
  6
Continuous
 62
     1
100
AcDbLine
 10
-42.7725
 20
169.36
 30
0.0
 11
-41.2007
 21
170.931
 31
0.0
  0
LINE
  5
D13
330
18
100
AcDbEntity
  8
1
  6
Continuous
 62
     1
100
AcDbLine
 10
-41.9078
 20
170.931
 30
0.0
 11
-43.0081
 21
169.831
 31
0.0
  0
LINE
  5
D14
330
18
100
AcDbEntity
  8
1
  6
Continuous
 62
     1
100
AcDbLine
 10
-43.16609999999999
 20
170.38
 30
0.0
 11
-42.6149
 21
170.931
 31
0.0
  0
LINE
  5
D15
330
18
100
AcDbEntity
  8
1
  6
Continuous
 62
     1
100
AcDbLine
 10
-148.756
 20
178.931
 30
0.0
 11
-51.7558
 21
178.931
 31
0.0
  0
LINE
  5
D16
330
18
100
AcDbEntity
  8
1
  6
Continuous
 62
     1
100
AcDbLine
 10
-51.7558
 20
176.931
 30
0.0
 11
-148.756
 21
176.931
 31
0.0
  0
ARC
  5
D17
330
18
100
AcDbEntity
  8
1
  6
Continuous
 62
     1
100
AcDbCircle
 10
-148.756
 20
179.431
 30
0.0
 40
0.5
100
AcDbArc
 50
180.0
 51
270.0
  0
ARC
  5
D18
330
18
100
AcDbEntity
  8
1
  6
Continuous
 62
     1
100
AcDbCircle
 10
-148.756
 20
176.431
 30
0.0
 40
0.5
100
AcDbArc
 50
90.0
 51
180.0
  0
ARC
  5
D19
330
18
100
AcDbEntity
  8
1
  6
Continuous
 62
     1
100
AcDbCircle
 10
-51.7558
 20
179.431
 30
0.0
 40
0.5
100
AcDbArc
 50
270.0
 51
0.0
  0
ARC
  5
D1A
330
18
100
AcDbEntity
  8
1
  6
Continuous
 62
     1
100
AcDbCircle
 10
-51.7558
 20
176.431
 30
0.0
 40
0.5
100
AcDbArc
 50
0.0
 51
90.0
  0
LINE
  5
D1B
330
18
100
AcDbEntity
  8
1
  6
CENTER
 62
     2
100
AcDbLine
 10
-100.254
 20
219.839
 30
0.0
 11
-100.247
 21
132.534
 31
0.0
  0
LINE
  5
D1C
330
18
100
AcDbEntity
  8
1
  6
CENTER
 62
     2
100
AcDbLine
 10
-111.249
 20
152.087
 30
0.0
 11
-111.249
 21
135.77
 31
0.0
  0
LINE
  5
D1D
330
18
100
AcDbEntity
  8
1
  6
Continuous
 62
     1
100
AcDbLine
 10
-149.256
 20
154.597
 30
0.0
 11
-131.249
 21
154.597
 31
0.0
  0
LINE
  5
D1E
330
18
100
AcDbEntity
  8
1
  6
Continuous
 62
     1
100
AcDbLine
 10
-91.2488
 20
154.597
 30
0.0
 11
-51.2558
 21
154.597
 31
0.0
  0
LINE
  5
D1F
330
18
100
AcDbEntity
  8
1
  6
Continuous
 62
     1
100
AcDbLine
 10
-141.756
 20
201.266
 30
0.0
 11
-58.7558
 21
201.266
 31
0.0
  0
LINE
  5
D20
330
18
100
AcDbEntity
  8
1
  6
DASHED
 62
     1
100
AcDbLine
 10
-143.256
 20
202.766
 30
0.0
 11
-143.256
 21
154.597
 31
0.0
  0
LINE
  5
D21
330
18
100
AcDbEntity
  8
1
  6
DASHED
 62
     1
100
AcDbLine
 10
-57.2558
 20
202.766
 30
0.0
 11
-57.2558
 21
154.597
 31
0.0
  0
LINE
  5
D22
330
18
100
AcDbEntity
  8
1
  6
Continuous
 62
     1
100
AcDbLine
 10
-143.256
 20
154.597
 30
0.0
 11
-143.256
 21
145.931
 31
0.0
  0
LINE
  5
D23
330
18
100
AcDbEntity
  8
1
  6
Continuous
 62
     1
100
AcDbLine
 10
-57.2558
 20
154.597
 30
0.0
 11
-57.2558
 21
145.931
 31
0.0
  0
ARC
  5
D24
330
18
100
AcDbEntity
  8
1
  6
Continuous
 62
     1
100
AcDbCircle
 10
-49.7558
 20
198.4309999999999
 30
0.0
 40
1.5
100
AcDbArc
 50
89.9953
 51
179.995
  0
LINE
  5
D25
330
18
100
AcDbEntity
  8
1
  6
DIVIDE
 62
     2
100
AcDbLine
 10
53.11749999999999
 20
9.371260000000001
 30
0.0
 11
53.11749999999999
 21
6.371259999999999
 31
0.0
  0
LINE
  5
D26
330
18
100
AcDbEntity
  8
1
  6
CENTER
 62
     2
100
AcDbLine
 10
60.8355
 20
-25.6375
 30
0.0
 11
128.917
 21
-25.6375
 31
0.0
  0
LINE
  5
D27
330
18
100
AcDbEntity
  8
1
  6
CENTER
 62
     2
100
AcDbLine
 10
124.535
 20
-47.0551
 30
0.0
 11
65.3794
 21
12.1004
 31
0.0
  0
LINE
  5
D28
330
18
100
AcDbEntity
  8
1
  6
DASHED
 62
     1
100
AcDbLine
 10
100.369
 20
-47.6375
 30
0.0
 11
80.11750000000001
 21
-27.3861
 31
0.0
  0
LINE
  5
D29
330
18
100
AcDbEntity
  8
1
  6
Continuous
 62
     1
100
AcDbLine
 10
104.866
 20
-2.637529999999999
 30
0.0
 11
126.118
 21
-23.889
 31
0.0
  0
LINE
  5
D2A
330
18
100
AcDbEntity
  8
1
  6
CENTER
 62
     2
100
AcDbLine
 10
89.72050000000001
 20
-39.0344
 30
0.0
 11
141.043
 21
12.2879
 31
0.0
  0
ARC
  5
D2B
330
18
100
AcDbEntity
  8
1
  6
Continuous
 62
     1
100
AcDbCircle
 10
60.61749999999999
 20
-46.1375
 30
0.0
 40
1.5
100
AcDbArc
 50
180.0
 51
270.0
  0
ARC
  5
D2C
330
18
100
AcDbEntity
  8
1
  6
Continuous
 62
     1
100
AcDbCircle
 10
58.6175
 20
5.86247
 30
0.0
 40
0.5
100
AcDbArc
 50
0.0
 51
90.0
  0
ARC
  5
D2D
330
18
100
AcDbEntity
  8
1
  6
Continuous
 62
     1
100
AcDbCircle
 10
112.618
 20
-53.1375
 30
0.0
 40
0.5
100
AcDbArc
 50
270.0
 51
0.0
  0
ARC
  5
D2E
330
18
100
AcDbEntity
  8
1
  6
Continuous
 62
     1
100
AcDbCircle
 10
53.6175
 20
-53.1375
 30
0.0
 40
0.5
100
AcDbArc
 50
180.0
 51
270.0
  0
LINE
  5
D2F
330
18
100
AcDbEntity
  8
1
  6
DASHED
 62
     1
100
AcDbLine
 10
85.43980000000001
 20
-18.5665
 30
0.0
 11
110.189
 21
-43.315
 31
0.0
  0
LINE
  5
D30
330
18
100
AcDbEntity
  8
1
  6
DASHED
 62
     1
100
AcDbLine
 10
120.795
 20
-32.7085
 30
0.0
 11
96.0466
 21
-7.959929999999999
 31
0.0
  0
LINE
  5
D31
330
18
100
AcDbEntity
  8
1
  6
DASHED
 62
     1
100
AcDbLine
 10
80.11750000000001
 20
-23.8887
 30
0.0
 11
80.11750000000001
 21
-27.3861
 31
0.0
  0
LINE
  5
D32
330
18
100
AcDbEntity
  8
1
  6
Continuous
 62
     1
100
AcDbLine
 10
126.118
 20
-27.3861
 30
0.0
 11
126.118
 21
-23.889
 31
0.0
  0
LINE
  5
D33
330
18
100
AcDbEntity
  8
1
  6
Continuous
 62
     1
100
AcDbLine
 10
104.866
 20
-2.637529999999999
 30
0.0
 11
101.369
 21
-2.637529999999999
 31
0.0
  0
LINE
  5
D34
330
18
100
AcDbEntity
  8
1
  6
DASHED
 62
     1
100
AcDbLine
 10
105.866
 20
-47.6375
 30
0.0
 11
115.492
 21
-38.0116
 31
0.0
  0
LINE
  5
D35
330
18
100
AcDbEntity
  8
1
  6
Continuous
 62
     1
100
AcDbLine
 10
115.492
 20
-38.0116
 30
0.0
 11
126.118
 21
-27.3861
 31
0.0
  0
LINE
  5
D36
330
18
100
AcDbEntity
  8
1
  6
DASHED
 62
     1
100
AcDbLine
 10
56.8018
 20
-7.606339999999999
 30
0.0
 11
68.1155
 21
-18.92
 31
0.0
  0
LINE
  5
D37
330
18
100
AcDbEntity
  8
1
  6
Continuous
 62
     1
100
AcDbLine
 10
98.1681
 20
7.596089999999999
 30
0.0
 11
85.0861
 21
20.6778
 31
0.0
  0
LINE
  5
D38
330
18
100
AcDbEntity
  8
1
  6
Continuous
 62
     1
100
AcDbLine
 10
-47.25579999999999
 20
198.4309999999999
 30
0.0
 11
-47.25579999999999
 21
131.616
 31
0.0
  0
LINE
  5
D39
330
18
100
AcDbEntity
  8
1
  6
Continuous
 62
     1
100
AcDbLine
 10
85.0861
 20
20.6778
 30
0.0
 11
69.83039999999999
 21
5.422139999999999
 31
0.0
  0
LINE
  5
D3A
330
18
100
AcDbEntity
  8
1
  6
DASHED
 62
     1
100
AcDbLine
 10
69.83039999999999
 20
5.422139999999999
 30
0.0
 11
56.8018
 21
-7.606339999999999
 31
0.0
  0
LINE
  5
D3B
330
18
100
AcDbEntity
  8
1
  6
DASHED
 62
     1
100
AcDbLine
 10
68.1155
 20
-18.92
 30
0.0
 11
87.8523
 21
0.8166109999999999
 31
0.0
  0
LINE
  5
D3C
330
18
100
AcDbEntity
  8
1
  6
Continuous
 62
     1
100
AcDbLine
 10
87.8523
 20
0.8166109999999999
 30
0.0
 11
96.4
 21
9.36415
 31
0.0
  0
LINE
  5
D3D
330
18
100
AcDbEntity
  8
1
  6
Continuous
 62
     1
100
AcDbLine
 10
77.30809999999999
 20
19.2638
 30
0.0
 11
64.7616
 21
6.717469999999999
 31
0.0
  0
LINE
  5
D3E
330
18
100
AcDbEntity
  8
1
  6
DASHED
 62
     1
100
AcDbLine
 10
64.4154
 20
6.371259999999999
 30
0.0
 11
58.21609999999999
 21
0.171982
 31
0.0
  0
LINE
  5
D3F
330
18
100
AcDbEntity
  8
1
  6
Continuous
 62
     1
100
AcDbLine
 10
80.4901
 20
16.0819
 30
0.0
 11
77.30809999999999
 21
19.2638
 31
0.0
  0
LINE
  5
D40
330
18
100
AcDbEntity
  8
1
  6
DASHED
 62
     1
100
AcDbLine
 10
58.21609999999999
 20
0.171982
 30
0.0
 11
61.3981
 21
-3.010149999999999
 31
0.0
  0
LINE
  5
D41
330
18
100
AcDbEntity
  8
1
  6
DASHED
 62
     1
100
AcDbLine
 10
75.1866
 20
-11.8487
 30
0.0
 11
83.6721
 21
-20.3342
 31
0.0
  0
LINE
  5
D42
330
18
100
AcDbEntity
  8
1
  6
DASHED
 62
     1
100
AcDbLine
 10
97.8143
 20
-6.192219999999999
 30
0.0
 11
91.81919999999999
 21
-0.197116
 31
0.0
  0
LINE
  5
D43
330
18
100
AcDbEntity
  8
1
  6
Continuous
 62
     1
100
AcDbLine
 10
91.81919999999999
 20
-0.197116
 30
0.0
 11
89.32869999999999
 21
2.29335
 31
0.0
  0
LINE
  5
D44
330
18
100
AcDbEntity
  8
1
  6
Continuous
 62
     1
100
AcDbLine
 10
53.11749999999999
 20
6.371259999999999
 30
0.0
 11
66.1164
 21
6.371259999999999
 31
0.0
  0
LINE
  5
D45
330
18
100
AcDbEntity
  8
1
  6
Continuous
 62
     1
100
AcDbLine
 10
66.1164
 20
6.371259999999999
 30
0.0
 11
101.369
 21
-2.637529999999999
 31
0.0
  0
LINE
  5
D46
330
18
100
AcDbEntity
  8
1
  6
DASHED
 62
     1
100
AcDbLine
 10
80.11750000000001
 20
-23.8887
 30
0.0
 11
101.369
 21
-2.637529999999999
 31
0.0
  0
LINE
  5
D47
330
18
100
AcDbEntity
  8
1
  6
Continuous
 62
     1
100
AcDbLine
 10
121.856
 20
-33.0618
 30
0.0
 11
121.149
 21
-32.3548
 31
0.0
  0
LINE
  5
D48
330
18
100
AcDbEntity
  8
1
  6
Continuous
 62
     1
100
AcDbLine
 10
115.029
 20
-39.8889
 30
0.0
 11
121.404
 21
-33.514
 31
0.0
  0
LINE
  5
D49
330
18
100
AcDbEntity
  8
1
  6
Continuous
 62
     1
100
AcDbLine
 10
115.237
 20
-48.1666
 30
0.0
 11
125.647
 21
-37.7567
 31
0.0
  0
ARC
  5
D4A
330
18
100
AcDbEntity
  8
1
  6
Continuous
 62
     1
100
AcDbCircle
 10
126.609
 20
-49.129
 30
0.0
 40
14.722
100
AcDbArc
 50
115.511
 51
142.207
  0
ARC
  5
D4B
330
18
100
AcDbEntity
  8
1
  6
Continuous
 62
     1
100
AcDbCircle
 10
124.217
 20
-36.327
 30
0.0
 40
3.978
100
AcDbArc
 50
97.02010000000001
 51
173.004
  0
ARC
  5
D4C
330
18
100
AcDbEntity
  8
1
  6
Continuous
 62
     1
100
AcDbCircle
 10
112.424
 20
-45.35379999999999
 30
0.0
 40
3.978
100
AcDbArc
 50
280.045
 51
353.004
  0
ARC
  5
D4D
330
18
100
AcDbEntity
  8
1
  6
Continuous
 62
     1
100
AcDbCircle
 10
110.031
 20
-32.5516
 30
0.0
 40
14.722
100
AcDbArc
 50
295.511
 51
334.489
  0
ARC
  5
D4E
330
18
100
AcDbEntity
  8
1
  6
Continuous
 62
     1
100
AcDbCircle
 10
122.834
 20
-34.9437
 30
0.0
 40
3.978
100
AcDbArc
 50
276.995
 51
352.98
  0
LINE
  5
D4F
330
18
100
AcDbEntity
  8
1
  6
Continuous
 62
     1
100
AcDbLine
 10
114.117
 20
-43.5853
 30
0.0
 11
116.366
 21
-45.8345
 31
0.0
  0
LINE
  5
D50
330
18
100
AcDbEntity
  8
1
  6
Continuous
 62
     1
100
AcDbLine
 10
120.274
 20
-35.846
 30
0.0
 11
123.314
 21
-38.8866
 31
0.0
  0
LINE
  5
D51
330
18
100
AcDbEntity
  8
1
  6
Continuous
 62
     1
100
AcDbLine
 10
123.736
 20
-32.3841
 30
0.0
 11
126.776
 21
-35.4246
 31
0.0
  0
LINE
  5
D52
330
18
100
AcDbEntity
  8
1
  6
Continuous
 62
     1
100
AcDbLine
 10
113.118
 20
-48.1375
 30
0.0
 11
113.118
 21
-53.1375
 31
0.0
  0
ARC
  5
D53
330
18
100
AcDbEntity
  8
1
  6
Continuous
 62
     1
100
AcDbCircle
 10
112.618
 20
-48.1375
 30
0.0
 40
0.5
100
AcDbArc
 50
0.00000000484136
 51
90.0
  0
LINE
  5
D54
330
18
100
AcDbEntity
  8
1
  6
Continuous
 62
     1
100
AcDbLine
 10
60.61749999999999
 20
-47.6375
 30
0.0
 11
112.618
 21
-47.6375
 31
0.0
  0
LINE
  5
D55
330
18
100
AcDbEntity
  8
1
  6
Continuous
 62
     1
100
AcDbLine
 10
117.967
 20
-46.1439
 30
0.0
 11
123.624
 21
-40.48689999999999
 31
0.0
  0
LINE
  5
D56
330
18
100
AcDbEntity
  8
1
  6
Continuous
 62
     1
100
AcDbLine
 10
117.259
 20
-46.1436
 30
0.0
 11
117.967
 21
-46.1439
 31
0.0
  0
LINE
  5
D57
330
18
100
AcDbEntity
  8
1
  6
Continuous
 62
     1
100
AcDbLine
 10
123.624
 20
-40.48689999999999
 30
0.0
 11
123.624
 21
-39.7794
 31
0.0
  0
LINE
  5
D58
330
18
100
AcDbEntity
  8
1
  6
Continuous
 62
     1
100
AcDbLine
 10
117.967
 20
-46.1439
 30
0.0
 11
117.613
 21
-45.7901
 31
0.0
  0
LINE
  5
D59
330
18
100
AcDbEntity
  8
1
  6
Continuous
 62
     1
100
AcDbLine
 10
123.624
 20
-40.48689999999999
 30
0.0
 11
123.27
 21
-40.13309999999999
 31
0.0
  0
LINE
  5
D5A
330
18
100
AcDbEntity
  8
1
  6
Continuous
 62
     1
100
AcDbLine
 10
59.1175
 20
5.86247
 30
0.0
 11
59.1175
 21
-46.1375
 31
0.0
  0
LINE
  5
D5B
330
18
100
AcDbEntity
  8
1
  6
Continuous
 62
     1
100
AcDbLine
 10
125.745
 20
16.0819
 30
0.0
 11
128.927
 21
19.2638
 31
0.0
  0
LINE
  5
D5C
330
18
100
AcDbEntity
  8
1
  6
Continuous
 62
     1
100
AcDbLine
 10
128.927
 20
19.2638
 30
0.0
 11
148.019
 21
0.172012
 31
0.0
  0
LINE
  5
D5D
330
18
100
AcDbEntity
  8
1
  6
Continuous
 62
     1
100
AcDbLine
 10
148.019
 20
0.172012
 30
0.0
 11
144.837
 21
-3.01012
 31
0.0
  0
LINE
  5
D5E
330
18
100
AcDbEntity
  8
1
  6
Continuous
 62
     1
100
AcDbLine
 10
121.149
 20
20.6779
 30
0.0
 11
149.433
 21
-7.60631
 31
0.0
  0
LINE
  5
D5F
330
18
100
AcDbEntity
  8
1
  6
Continuous
 62
     1
100
AcDbLine
 10
149.433
 20
-7.60631
 30
0.0
 11
138.12
 21
-18.92
 31
0.0
  0
LINE
  5
D60
330
18
100
AcDbEntity
  8
1
  6
Continuous
 62
     1
100
AcDbLine
 10
138.12
 20
-18.92
 30
0.0
 11
109.835
 21
9.364180000000001
 31
0.0
  0
LINE
  5
D61
330
18
100
AcDbEntity
  8
1
  6
Continuous
 62
     1
100
AcDbLine
 10
108.067
 20
7.596089999999999
 30
0.0
 11
121.149
 21
20.6779
 31
0.0
  0
LINE
  5
D62
330
18
100
AcDbEntity
  8
1
  6
Continuous
 62
     1
100
AcDbLine
 10
108.421
 20
-6.19204
 30
0.0
 11
116.906
 21
2.293379999999999
 31
0.0
  0
LINE
  5
D63
330
18
100
AcDbEntity
  8
1
  6
Continuous
 62
     1
100
AcDbLine
 10
131.048
 20
-11.8487
 30
0.0
 11
122.563
 21
-20.3342
 31
0.0
  0
LINE
  5
D64
330
18
100
AcDbEntity
  8
1
  6
DIVIDE
 62
     2
100
AcDbLine
 10
53.11749999999999
 20
9.371260000000001
 30
0.0
 11
55.1175
 21
9.371260000000001
 31
0.0
  0
LINE
  5
D65
330
18
100
AcDbEntity
  8
1
  6
CENTER
 62
     2
100
AcDbLine
 10
35.4128
 20
-3.63753
 30
0.0
 11
59.1175
 21
-3.63753
 31
0.0
  0
LINE
  5
D66
330
18
100
AcDbEntity
  8
1
  6
CENTER
 62
     2
100
AcDbLine
 10
35.4128
 20
-18.6375
 30
0.0
 11
61.1551
 21
-18.6375
 31
0.0
  0
LINE
  5
D67
330
18
100
AcDbEntity
  8
1
  6
CENTER
 62
     2
100
AcDbLine
 10
35.4128
 20
-33.6375
 30
0.0
 11
61.6879
 21
-33.6375
 31
0.0
  0
LINE
  5
D68
330
18
100
AcDbEntity
  8
1
  6
CENTER
 62
     2
100
AcDbLine
 10
-104.848
 20
144.344
 30
0.0
 11
-117.698
 21
144.344
 31
0.0
  0
LINE
  5
D69
330
18
100
AcDbEntity
  8
1
  6
Continuous
 62
     1
100
AcDbLine
 10
-131.249
 20
144.344
 30
0.0
 11
-131.249
 21
158.148
 31
0.0
  0
LINE
  5
D6A
330
18
100
AcDbEntity
  8
1
  6
Continuous
 62
     1
100
AcDbLine
 10
-91.2488
 20
158.148
 30
0.0
 11
-91.2488
 21
144.344
 31
0.0
  0
INSERT
  5
D6B
330
18
100
AcDbEntity
  8
0
100
AcDbBlockReference
  2
_G_P_1
 10
0.0
 20
0.0
 30
0.0
  0
INSERT
  5
D6C
330
18
100
AcDbEntity
  8
0
100
AcDbBlockReference
  2
_G_P_2
 10
0.0
 20
0.0
 30
0.0
  0
LINE
  5
D6D
330
18
100
AcDbEntity
  8
1
  6
Continuous
 62
     2
100
AcDbLine
 10
-118.749
 20
157.454
 30
0.0
 11
-118.749
 21
170.945
 31
0.0
  0
LINE
  5
D6E
330
18
100
AcDbEntity
  8
1
  6
Continuous
 62
     2
100
AcDbLine
 10
-103.749
 20
170.945
 30
0.0
 11
-103.749
 21
157.454
 31
0.0
  0
LINE
  5
D6F
330
18
100
AcDbEntity
  8
1
  6
Continuous
 62
     2
100
AcDbLine
 10
-125.749
 20
154.084
 30
0.0
 11
-125.749
 21
167.656
 31
0.0
  0
LINE
  5
D70
330
18
100
AcDbEntity
  8
1
  6
Continuous
 62
     2
100
AcDbLine
 10
-96.74880000000001
 20
167.656
 30
0.0
 11
-96.74880000000001
 21
154.084
 31
0.0
  0
LINE
  5
D71
330
18
100
AcDbEntity
  8
1
  6
Continuous
 62
     2
100
AcDbLine
 10
-129.749
 20
149.717
 30
0.0
 11
-129.749
 21
163.393
 31
0.0
  0
LINE
  5
D72
330
18
100
AcDbEntity
  8
1
  6
Continuous
 62
     2
100
AcDbLine
 10
-92.74880000000001
 20
163.393
 30
0.0
 11
-92.74880000000001
 21
149.717
 31
0.0
  0
INSERT
  5
D73
330
18
100
AcDbEntity
  8
0
100
AcDbBlockReference
  2
_G_P_3
 10
0.0
 20
0.0
 30
0.0
  0
INSERT
  5
D74
330
18
100
AcDbEntity
  8
0
100
AcDbBlockReference
  2
_G_P_4
 10
0.0
 20
0.0
 30
0.0
  0
LINE
  5
D75
330
18
100
AcDbEntity
  8
1
  6
Continuous
 62
     1
100
AcDbLine
 10
-170.256
 20
6.36247
 30
0.0
 11
-143.256
 21
6.36247
 31
0.0
  0
LINE
  5
D76
330
18
100
AcDbEntity
  8
1
  6
Continuous
 62
     1
100
AcDbLine
 10
-57.2558
 20
6.36247
 30
0.0
 11
-30.2558
 21
6.36247
 31
0.0
  0
LINE
  5
D77
330
18
100
AcDbEntity
  8
1
  6
Continuous
 62
     1
100
AcDbLine
 10
-30.2558
 20
-53.6375
 30
0.0
 11
-57.2558
 21
-53.6375
 31
0.0
  0
LINE
  5
D78
330
18
100
AcDbEntity
  8
1
  6
Continuous
 62
     1
100
AcDbLine
 10
-143.256
 20
-53.6375
 30
0.0
 11
-170.256
 21
-53.6375
 31
0.0
  0
LINE
  5
D79
330
18
100
AcDbEntity
  8
1
  6
Continuous
 62
     1
100
AcDbLine
 10
-143.256
 20
-53.6375
 30
0.0
 11
-143.256
 21
-50.472
 31
0.0
  0
ARC
  5
D7A
330
18
100
AcDbEntity
  8
1
  6
Continuous
 62
     1
100
AcDbCircle
 10
-141.756
 20
-50.472
 30
0.0
 40
1.5
100
AcDbArc
 50
90.0
 51
180.0
  0
LINE
  5
D7B
330
18
100
AcDbEntity
  8
1
  6
Continuous
 62
     1
100
AcDbLine
 10
-57.2558
 20
-50.472
 30
0.0
 11
-57.2558
 21
-53.6375
 31
0.0
  0
ARC
  5
D7C
330
18
100
AcDbEntity
  8
1
  6
Continuous
 62
     1
100
AcDbCircle
 10
-58.7558
 20
-50.472
 30
0.0
 40
1.5
100
AcDbArc
 50
0.0
 51
90.0
  0
LINE
  5
D7D
330
18
100
AcDbEntity
  8
1
  6
Continuous
 62
     1
100
AcDbLine
 10
-30.2558
 20
-47.6375
 30
0.0
 11
-49.7558
 21
-47.6375
 31
0.0
  0
LINE
  5
D7E
330
18
100
AcDbEntity
  8
1
  6
Continuous
 62
     1
100
AcDbLine
 10
-150.756
 20
-47.6375
 30
0.0
 11
-170.256
 21
-47.6375
 31
0.0
  0
ARC
  5
D7F
330
18
100
AcDbEntity
  8
1
  6
Continuous
 62
     1
100
AcDbCircle
 10
-150.756
 20
-46.1375
 30
0.0
 40
1.5
100
AcDbArc
 50
270.0
 51
0.0
  0
LINE
  5
D80
330
18
100
AcDbEntity
  8
1
  6
Continuous
 62
     1
100
AcDbLine
 10
-149.256
 20
6.36247
 30
0.0
 11
-149.256
 21
-46.1375
 31
0.0
  0
LINE
  5
D81
330
18
100
AcDbEntity
  8
1
  6
Continuous
 62
     1
100
AcDbLine
 10
-51.2558
 20
-46.1375
 30
0.0
 11
-51.2558
 21
6.36247
 31
0.0
  0
ARC
  5
D82
330
18
100
AcDbEntity
  8
1
  6
Continuous
 62
     1
100
AcDbCircle
 10
-49.7558
 20
-46.1375
 30
0.0
 40
1.5
100
AcDbArc
 50
180.0
 51
270.0
  0
LINE
  5
D83
330
18
100
AcDbEntity
  8
1
  6
CENTER
 62
     2
100
AcDbLine
 10
-34.1948
 20
-18.6375
 30
0.0
 11
-47.1584
 21
-18.6375
 31
0.0
  0
LINE
  5
D84
330
18
100
AcDbEntity
  8
1
  6
CENTER
 62
     2
100
AcDbLine
 10
-151.898
 20
-18.6375
 30
0.0
 11
-167.852
 21
-18.6375
 31
0.0
  0
LINE
  5
D85
330
18
100
AcDbEntity
  8
1
  6
CENTER
 62
     2
100
AcDbLine
 10
-167.968
 20
-33.6375
 30
0.0
 11
-151.651
 21
-33.6375
 31
0.0
  0
LINE
  5
D86
330
18
100
AcDbEntity
  8
1
  6
CENTER
 62
     2
100
AcDbLine
 10
-48.8876
 20
-33.6375
 30
0.0
 11
-32.3544
 21
-33.6375
 31
0.0
  0
LINE
  5
D87
330
18
100
AcDbEntity
  8
1
  6
CENTER
 62
     2
100
AcDbLine
 10
-32.5744
 20
-3.63753
 30
0.0
 11
-48.27239999999999
 21
-3.63753
 31
0.0
  0
LINE
  5
D88
330
18
100
AcDbEntity
  8
1
  6
CENTER
 62
     2
100
AcDbLine
 10
-151.906
 20
-3.63753
 30
0.0
 11
-167.8409999999999
 21
-3.63753
 31
0.0
  0
ARC
  5
D89
330
18
100
AcDbEntity
  8
1
  6
Continuous
 62
     1
100
AcDbCircle
 10
-160.256
 20
-35.1375
 30
0.0
 40
4.25
100
AcDbArc
 50
180.0
 51
0.0
  0
ARC
  5
D8A
330
18
100
AcDbEntity
  8
1
  6
Continuous
 62
     1
100
AcDbCircle
 10
-160.256
 20
-32.1375
 30
0.0
 40
4.25
100
AcDbArc
 50
0.0
 51
180.0
  0
LINE
  5
D8B
330
18
100
AcDbEntity
  8
1
  6
Continuous
 62
     1
100
AcDbLine
 10
-164.5059999999999
 20
-35.1375
 30
0.0
 11
-164.5059999999999
 21
-32.1375
 31
0.0
  0
LINE
  5
D8C
330
18
100
AcDbEntity
  8
1
  6
Continuous
 62
     1
100
AcDbLine
 10
-156.006
 20
-35.1375
 30
0.0
 11
-156.006
 21
-32.1375
 31
0.0
  0
LINE
  5
D8D
330
18
100
AcDbEntity
  8
1
  6
Continuous
 62
     1
100
AcDbLine
 10
-164.5059999999999
 20
-5.137529999999999
 30
0.0
 11
-164.5059999999999
 21
-2.137529999999999
 31
0.0
  0
LINE
  5
D8E
330
18
100
AcDbEntity
  8
1
  6
Continuous
 62
     1
100
AcDbLine
 10
-156.006
 20
-5.137529999999999
 30
0.0
 11
-156.006
 21
-2.137529999999999
 31
0.0
  0
ARC
  5
D8F
330
18
100
AcDbEntity
  8
1
  6
Continuous
 62
     1
100
AcDbCircle
 10
-160.256
 20
-2.137529999999999
 30
0.0
 40
4.25
100
AcDbArc
 50
0.0
 51
180.0
  0
ARC
  5
D90
330
18
100
AcDbEntity
  8
1
  6
Continuous
 62
     1
100
AcDbCircle
 10
-160.256
 20
-5.137529999999999
 30
0.0
 40
4.25
100
AcDbArc
 50
180.0
 51
0.0
  0
LINE
  5
D91
330
18
100
AcDbEntity
  8
1
  6
Continuous
 62
     1
100
AcDbLine
 10
-44.5058
 20
-35.1375
 30
0.0
 11
-44.5058
 21
-32.1375
 31
0.0
  0
LINE
  5
D92
330
18
100
AcDbEntity
  8
1
  6
Continuous
 62
     1
100
AcDbLine
 10
-36.0058
 20
-35.1375
 30
0.0
 11
-36.0058
 21
-32.1375
 31
0.0
  0
ARC
  5
D93
330
18
100
AcDbEntity
  8
1
  6
Continuous
 62
     1
100
AcDbCircle
 10
-40.2558
 20
-32.1375
 30
0.0
 40
4.25
100
AcDbArc
 50
0.0
 51
180.0
  0
ARC
  5
D94
330
18
100
AcDbEntity
  8
1
  6
Continuous
 62
     1
100
AcDbCircle
 10
-40.2558
 20
-35.1375
 30
0.0
 40
4.25
100
AcDbArc
 50
180.0
 51
0.0
  0
LINE
  5
D95
330
18
100
AcDbEntity
  8
1
  6
Continuous
 62
     1
100
AcDbLine
 10
-44.5058
 20
-5.137529999999999
 30
0.0
 11
-44.5058
 21
-2.137529999999999
 31
0.0
  0
LINE
  5
D96
330
18
100
AcDbEntity
  8
1
  6
Continuous
 62
     1
100
AcDbLine
 10
-36.0058
 20
-5.137529999999999
 30
0.0
 11
-36.0058
 21
-2.137529999999999
 31
0.0
  0
ARC
  5
D97
330
18
100
AcDbEntity
  8
1
  6
Continuous
 62
     1
100
AcDbCircle
 10
-40.2558
 20
-2.137529999999999
 30
0.0
 40
4.25
100
AcDbArc
 50
0.0
 51
180.0
  0
ARC
  5
D98
330
18
100
AcDbEntity
  8
1
  6
Continuous
 62
     1
100
AcDbCircle
 10
-40.2558
 20
-5.137529999999999
 30
0.0
 40
4.25
100
AcDbArc
 50
180.0
 51
0.0
  0
CIRCLE
  5
D99
330
18
100
AcDbEntity
  8
1
  6
Continuous
 62
     1
100
AcDbCircle
 10
-160.217
 20
-18.6375
 30
0.0
 40
3.0
  0
LINE
  5
D9A
330
18
100
AcDbEntity
  8
1
  6
Continuous
 62
     1
100
AcDbLine
 10
-163.217
 20
-18.6375
 30
0.0
 11
-157.217
 21
-18.6375
 31
0.0
  0
LINE
  5
D9B
330
18
100
AcDbEntity
  8
1
  6
Continuous
 62
     1
100
AcDbLine
 10
-160.256
 20
-21.637
 30
0.0
 11
-160.256
 21
-15.6375
 31
0.0
  0
LINE
  5
D9C
330
18
100
AcDbEntity
  8
1
  6
Continuous
 62
     1
100
AcDbLine
 10
-157.327
 20
-19.441
 30
0.0
 11
-159.414
 21
-21.5279
 31
0.0
  0
LINE
  5
D9D
330
18
100
AcDbEntity
  8
1
  6
Continuous
 62
     1
100
AcDbLine
 10
-160.23
 20
-21.6375
 30
0.0
 11
-157.23
 21
-18.6375
 31
0.0
  0
LINE
  5
D9E
330
18
100
AcDbEntity
  8
1
  6
Continuous
 62
     1
100
AcDbLine
 10
-157.938
 20
-18.6375
 30
0.0
 11
-160.256
 21
-20.9558
 31
0.0
  0
LINE
  5
D9F
330
18
100
AcDbEntity
  8
1
  6
Continuous
 62
     1
100
AcDbLine
 10
-160.256
 20
-20.2486
 30
0.0
 11
-158.645
 21
-18.6375
 31
0.0
  0
LINE
  5
DA0
330
18
100
AcDbEntity
  8
1
  6
Continuous
 62
     1
100
AcDbLine
 10
-159.352
 20
-18.6375
 30
0.0
 11
-160.256
 21
-19.5415
 31
0.0
  0
LINE
  5
DA1
330
18
100
AcDbEntity
  8
1
  6
Continuous
 62
     1
100
AcDbLine
 10
-160.256
 20
-18.8344
 30
0.0
 11
-160.059
 21
-18.6375
 31
0.0
  0
LINE
  5
DA2
330
18
100
AcDbEntity
  8
1
  6
Continuous
 62
     1
100
AcDbLine
 10
-160.256
 20
-18.1273
 30
0.0
 11
-160.766
 21
-18.6375
 31
0.0
  0
LINE
  5
DA3
330
18
100
AcDbEntity
  8
1
  6
Continuous
 62
     1
100
AcDbLine
 10
-161.4729999999999
 20
-18.6375
 30
0.0
 11
-160.256
 21
-17.4202
 31
0.0
  0
LINE
  5
DA4
330
18
100
AcDbEntity
  8
1
  6
Continuous
 62
     1
100
AcDbLine
 10
-160.256
 20
-16.7131
 30
0.0
 11
-162.18
 21
-18.6375
 31
0.0
  0
LINE
  5
DA5
330
18
100
AcDbEntity
  8
1
  6
Continuous
 62
     1
100
AcDbLine
 10
-162.887
 20
-18.6375
 30
0.0
 11
-160.256
 21
-16.006
 31
0.0
  0
LINE
  5
DA6
330
18
100
AcDbEntity
  8
1
  6
Continuous
 62
     1
100
AcDbLine
 10
-160.622
 20
-15.6649
 30
0.0
 11
-163.19
 21
-18.2329
 31
0.0
  0
LINE
  5
DA7
330
18
100
AcDbEntity
  8
1
  6
Continuous
 62
     1
100
AcDbLine
 10
-162.833
 20
-17.1695
 30
0.0
 11
-161.685
 21
-16.0213
 31
0.0
  0
CIRCLE
  5
DA8
330
18
100
AcDbEntity
  8
1
  6
Continuous
 62
     1
100
AcDbCircle
 10
-40.2172
 20
-18.6375
 30
0.0
 40
3.0
  0
LINE
  5
DA9
330
18
100
AcDbEntity
  8
1
  6
Continuous
 62
     1
100
AcDbLine
 10
-43.2172
 20
-18.6375
 30
0.0
 11
-37.2172
 21
-18.6375
 31
0.0
  0
LINE
  5
DAA
330
18
100
AcDbEntity
  8
1
  6
Continuous
 62
     1
100
AcDbLine
 10
-40.2558
 20
-21.637
 30
0.0
 11
-40.2558
 21
-15.6375
 31
0.0
  0
LINE
  5
DAB
330
18
100
AcDbEntity
  8
1
  6
Continuous
 62
     1
100
AcDbLine
 10
-37.4334
 20
-19.7557
 30
0.0
 11
-39.099
 21
-21.4213
 31
0.0
  0
LINE
  5
DAC
330
18
100
AcDbEntity
  8
1
  6
Continuous
 62
     1
100
AcDbLine
 10
-40.0155
 20
-21.6307
 30
0.0
 11
-37.224
 21
-18.8392
 31
0.0
  0
LINE
  5
DAD
330
18
100
AcDbEntity
  8
1
  6
Continuous
 62
     1
100
AcDbLine
 10
-37.7294
 20
-18.6375
 30
0.0
 11
-40.2558
 21
-21.1639
 31
0.0
  0
LINE
  5
DAE
330
18
100
AcDbEntity
  8
1
  6
Continuous
 62
     1
100
AcDbLine
 10
-40.2558
 20
-20.4568
 30
0.0
 11
-38.4365
 21
-18.6375
 31
0.0
  0
LINE
  5
DAF
330
18
100
AcDbEntity
  8
1
  6
Continuous
 62
     1
100
AcDbLine
 10
-39.1436
 20
-18.6375
 30
0.0
 11
-40.2558
 21
-19.7497
 31
0.0
  0
LINE
  5
DB0
330
18
100
AcDbEntity
  8
1
  6
Continuous
 62
     1
100
AcDbLine
 10
-40.2558
 20
-19.0426
 30
0.0
 11
-39.8507
 21
-18.6375
 31
0.0
  0
LINE
  5
DB1
330
18
100
AcDbEntity
  8
1
  6
Continuous
 62
     1
100
AcDbLine
 10
-40.2558
 20
-18.3355
 30
0.0
 11
-40.5578
 21
-18.6375
 31
0.0
  0
LINE
  5
DB2
330
18
100
AcDbEntity
  8
1
  6
Continuous
 62
     1
100
AcDbLine
 10
-41.26489999999999
 20
-18.6375
 30
0.0
 11
-40.2558
 21
-17.6284
 31
0.0
  0
LINE
  5
DB3
330
18
100
AcDbEntity
  8
1
  6
Continuous
 62
     1
100
AcDbLine
 10
-40.2558
 20
-16.9213
 30
0.0
 11
-41.9721
 21
-18.6375
 31
0.0
  0
LINE
  5
DB4
330
18
100
AcDbEntity
  8
1
  6
Continuous
 62
     1
100
AcDbLine
 10
-42.6792
 20
-18.6375
 30
0.0
 11
-40.2558
 21
-16.2142
 31
0.0
  0
LINE
  5
DB5
330
18
100
AcDbEntity
  8
1
  6
Continuous
 62
     1
100
AcDbLine
 10
-40.3913
 20
-15.6426
 30
0.0
 11
-43.2122
 21
-18.4634
 31
0.0
  0
LINE
  5
DB6
330
18
100
AcDbEntity
  8
1
  6
Continuous
 62
     1
100
AcDbLine
 10
-43.01779999999999
 20
-17.5619
 30
0.0
 11
-41.2928
 21
-15.837
 31
0.0
  0
LINE
  5
DB7
330
18
100
AcDbEntity
  8
1
  6
Continuous
 62
     1
100
AcDbLine
 10
-148.756
 20
-26.6375
 30
0.0
 11
-51.7558
 21
-26.6375
 31
0.0
  0
LINE
  5
DB8
330
18
100
AcDbEntity
  8
1
  6
Continuous
 62
     1
100
AcDbLine
 10
-51.7558
 20
-24.6375
 30
0.0
 11
-148.756
 21
-24.6375
 31
0.0
  0
ARC
  5
DB9
330
18
100
AcDbEntity
  8
1
  6
Continuous
 62
     1
100
AcDbCircle
 10
-148.756
 20
-27.1375
 30
0.0
 40
0.5
100
AcDbArc
 50
90.0
 51
180.0
  0
ARC
  5
DBA
330
18
100
AcDbEntity
  8
1
  6
Continuous
 62
     1
100
AcDbCircle
 10
-148.756
 20
-24.1375
 30
0.0
 40
0.5
100
AcDbArc
 50
180.0
 51
270.0
  0
ARC
  5
DBB
330
18
100
AcDbEntity
  8
1
  6
Continuous
 62
     1
100
AcDbCircle
 10
-51.7558
 20
-27.1375
 30
0.0
 40
0.5
100
AcDbArc
 50
0.0
 51
90.0
  0
ARC
  5
DBC
330
18
100
AcDbEntity
  8
1
  6
Continuous
 62
     1
100
AcDbCircle
 10
-51.7558
 20
-24.1375
 30
0.0
 40
0.5
100
AcDbArc
 50
270.0
 51
0.0
  0
LINE
  5
DBD
330
18
100
AcDbEntity
  8
1
  6
Continuous
 62
     1
100
AcDbLine
 10
-141.756
 20
-48.972
 30
0.0
 11
-58.7558
 21
-48.972
 31
0.0
  0
LINE
  5
DBE
330
18
100
AcDbEntity
  8
1
  6
DASHED
 62
     1
100
AcDbLine
 10
-143.256
 20
-50.472
 30
0.0
 11
-143.256
 21
-2.30281
 31
0.0
  0
LINE
  5
DBF
330
18
100
AcDbEntity
  8
1
  6
DASHED
 62
     1
100
AcDbLine
 10
-57.2558
 20
-50.472
 30
0.0
 11
-57.2558
 21
-2.30281
 31
0.0
  0
ARC
  5
DC0
330
18
100
AcDbEntity
  8
1
  6
Continuous
 62
     1
100
AcDbCircle
 10
-49.7558
 20
-46.1375
 30
0.0
 40
1.5
100
AcDbArc
 50
180.005
 51
270.005
  0
LINE
  5
DC1
330
18
100
AcDbEntity
  8
1
  6
Continuous
 62
     2
100
AcDbLine
 10
-111.249
 20
158.486
 30
0.0
 11
-111.249
 21
171.929
 31
0.0
  0
LINE
  5
DC2
330
18
100
AcDbEntity
  8
1
  6
CENTER
 62
     2
100
AcDbLine
 10
73.1175
 20
-44.347
 30
0.0
 11
73.1175
 21
-60.3186
 31
0.0
  0
LINE
  5
DC3
330
18
100
AcDbEntity
  8
1
  6
CENTER
 62
     2
100
AcDbLine
 10
88.11750000000001
 20
-45.1062
 30
0.0
 11
88.11750000000001
 21
-60.3186
 31
0.0
  0
LINE
  5
DC4
330
18
100
AcDbEntity
  8
1
  6
CENTER
 62
     2
100
AcDbLine
 10
-81.1898
 20
190.306
 30
0.0
 11
-96.5703
 21
190.306
 31
0.0
  0
LINE
  5
DC5
330
18
100
AcDbEntity
  8
1
  6
Continuous
 62
     1
100
AcDbLine
 10
-30.2558
 20
6.36247
 30
0.0
 11
-30.2558
 21
-53.3452
 31
0.0
  0
LINE
  5
DC6
330
18
100
AcDbEntity
  8
1
  6
Continuous
 62
     1
100
AcDbLine
 10
-170.497
 20
6.40678
 30
0.0
 11
-170.497
 21
-53.7141
 31
0.0
  0
LINE
  5
DC7
330
18
100
AcDbEntity
  8
1
  6
Continuous
 62
     1
100
AcDbLine
 10
53.11749999999999
 20
6.371259999999999
 30
0.0
 11
53.11749999999999
 21
-53.1375
 31
0.0
  0
LINE
  5
DC8
330
18
100
AcDbEntity
  8
1
  6
Continuous
 62
     1
100
AcDbLine
 10
53.6175
 20
-53.6375
 30
0.0
 11
112.618
 21
-53.6375
 31
0.0
  0
LINE
  5
DC9
330
18
100
AcDbEntity
  8
1
  6
CENTER
 62
     2
100
AcDbLine
 10
-100.256
 20
16.1084
 30
0.0
 11
-100.256
 21
-52.1273
 31
0.0
  0
LINE
  5
DCA
330
18
100
AcDbEntity
  8
1
  6
DASHED
 62
     1
100
AcDbLine
 10
59.1175
 20
-27.8876
 30
0.0
 11
53.11749999999999
 21
-27.8876
 31
0.0
  0
LINE
  5
DCB
330
18
100
AcDbEntity
  8
1
  6
DASHED
 62
     1
100
AcDbLine
 10
59.1175
 20
-39.3875
 30
0.0
 11
53.11749999999999
 21
-39.3875
 31
0.0
  0
LINE
  5
DCC
330
18
100
AcDbEntity
  8
1
  6
DASHED
 62
     1
100
AcDbLine
 10
59.1175
 20
-15.6376
 30
0.0
 11
53.11749999999999
 21
-15.6376
 31
0.0
  0
LINE
  5
DCD
330
18
100
AcDbEntity
  8
1
  6
DASHED
 62
     1
100
AcDbLine
 10
59.1175
 20
-21.6375
 30
0.0
 11
53.11749999999999
 21
-21.6375
 31
0.0
  0
LINE
  5
DCE
330
18
100
AcDbEntity
  8
1
  6
DASHED
 62
     1
100
AcDbLine
 10
59.1175
 20
2.11244
 30
0.0
 11
53.11749999999999
 21
2.11244
 31
0.0
  0
LINE
  5
DCF
330
18
100
AcDbEntity
  8
1
  6
DASHED
 62
     1
100
AcDbLine
 10
59.1175
 20
-9.387499999999999
 30
0.0
 11
53.11749999999999
 21
-9.387499999999999
 31
0.0
  0
LINE
  5
DD0
330
18
100
AcDbEntity
  8
1
  6
DASHED
 62
     1
100
AcDbLine
 10
108.867
 20
-47.6375
 30
0.0
 11
108.867
 21
-53.6375
 31
0.0
  0
LINE
  5
DD1
330
18
100
AcDbEntity
  8
1
  6
DASHED
 62
     1
100
AcDbLine
 10
97.3675
 20
-47.6375
 30
0.0
 11
97.3675
 21
-53.6375
 31
0.0
  0
LINE
  5
DD2
330
18
100
AcDbEntity
  8
1
  6
DASHED
 62
     1
100
AcDbLine
 10
91.11740000000001
 20
-47.6375
 30
0.0
 11
91.11740000000001
 21
-53.6375
 31
0.0
  0
LINE
  5
DD3
330
18
100
AcDbEntity
  8
1
  6
DASHED
 62
     1
100
AcDbLine
 10
85.11750000000001
 20
-47.6375
 30
0.0
 11
85.11750000000001
 21
-53.6375
 31
0.0
  0
LINE
  5
DD4
330
18
100
AcDbEntity
  8
1
  6
DASHED
 62
     1
100
AcDbLine
 10
78.8674
 20
-47.6375
 30
0.0
 11
78.8674
 21
-53.6375
 31
0.0
  0
LINE
  5
DD5
330
18
100
AcDbEntity
  8
1
  6
DASHED
 62
     1
100
AcDbLine
 10
67.3675
 20
-47.6375
 30
0.0
 11
67.3675
 21
-53.6375
 31
0.0
  0
ARC
  5
DD6
330
18
100
AcDbEntity
  8
1
  6
Continuous
 62
     1
100
AcDbCircle
 10
-160.235
 20
-159.586
 30
0.0
 40
4.25
100
AcDbArc
 50
0.0
 51
180.0
  0
ARC
  5
DD7
330
18
100
AcDbEntity
  8
1
  6
Continuous
 62
     1
100
AcDbCircle
 10
-160.235
 20
-162.586
 30
0.0
 40
4.25
100
AcDbArc
 50
180.0
 51
0.0
  0
LINE
  5
DD8
330
18
100
AcDbEntity
  8
1
  6
Continuous
 62
     1
100
AcDbLine
 10
-164.485
 20
-159.586
 30
0.0
 11
-164.485
 21
-162.586
 31
0.0
  0
LINE
  5
DD9
330
18
100
AcDbEntity
  8
1
  6
Continuous
 62
     1
100
AcDbLine
 10
-155.985
 20
-159.586
 30
0.0
 11
-155.985
 21
-162.586
 31
0.0
  0
LINE
  5
DDA
330
18
100
AcDbEntity
  8
1
  6
Continuous
 62
     1
100
AcDbLine
 10
-164.485
 20
-189.586
 30
0.0
 11
-164.485
 21
-192.586
 31
0.0
  0
LINE
  5
DDB
330
18
100
AcDbEntity
  8
1
  6
Continuous
 62
     1
100
AcDbLine
 10
-155.985
 20
-189.586
 30
0.0
 11
-155.985
 21
-192.586
 31
0.0
  0
ARC
  5
DDC
330
18
100
AcDbEntity
  8
1
  6
Continuous
 62
     1
100
AcDbCircle
 10
-160.235
 20
-192.586
 30
0.0
 40
4.25
100
AcDbArc
 50
180.0
 51
0.0
  0
ARC
  5
DDD
330
18
100
AcDbEntity
  8
1
  6
Continuous
 62
     1
100
AcDbCircle
 10
-160.235
 20
-189.586
 30
0.0
 40
4.25
100
AcDbArc
 50
0.0
 51
180.0
  0
CIRCLE
  5
DDE
330
18
100
AcDbEntity
  8
1
  6
Continuous
 62
     1
100
AcDbCircle
 10
-160.196
 20
-176.086
 30
0.0
 40
3.0
  0
LINE
  5
DDF
330
18
100
AcDbEntity
  8
1
  6
Continuous
 62
     1
100
AcDbLine
 10
-163.196
 20
-176.086
 30
0.0
 11
-157.196
 21
-176.086
 31
0.0
  0
LINE
  5
DE0
330
18
100
AcDbEntity
  8
1
  6
Continuous
 62
     1
100
AcDbLine
 10
-160.235
 20
-173.087
 30
0.0
 11
-160.235
 21
-179.086
 31
0.0
  0
LINE
  5
DE1
330
18
100
AcDbEntity
  8
1
  6
Continuous
 62
     1
100
AcDbLine
 10
-157.204
 20
-175.8709999999999
 30
0.0
 11
-157.4189999999999
 21
-176.086
 31
0.0
  0
LINE
  5
DE2
330
18
100
AcDbEntity
  8
1
  6
Continuous
 62
     1
100
AcDbLine
 10
-157.701
 20
-176.086
 30
0.0
 11
-157.233
 21
-175.618
 31
0.0
  0
LINE
  5
DE3
330
18
100
AcDbEntity
  8
1
  6
Continuous
 62
     1
100
AcDbLine
 10
-157.28
 20
-175.382
 30
0.0
 11
-157.984
 21
-176.086
 31
0.0
  0
LINE
  5
DE4
330
18
100
AcDbEntity
  8
1
  6
Continuous
 62
     1
100
AcDbLine
 10
-158.267
 20
-176.086
 30
0.0
 11
-157.342
 21
-175.1609999999999
 31
0.0
  0
LINE
  5
DE5
330
18
100
AcDbEntity
  8
1
  6
Continuous
 62
     1
100
AcDbLine
 10
-157.418
 20
-174.954
 30
0.0
 11
-158.55
 21
-176.086
 31
0.0
  0
LINE
  5
DE6
330
18
100
AcDbEntity
  8
1
  6
Continuous
 62
     1
100
AcDbLine
 10
-158.833
 20
-176.086
 30
0.0
 11
-157.506
 21
-174.759
 31
0.0
  0
LINE
  5
DE7
330
18
100
AcDbEntity
  8
1
  6
Continuous
 62
     1
100
AcDbLine
 10
-157.605
 20
-174.575
 30
0.0
 11
-159.116
 21
-176.086
 31
0.0
  0
LINE
  5
DE8
330
18
100
AcDbEntity
  8
1
  6
Continuous
 62
     1
100
AcDbLine
 10
-159.399
 20
-176.086
 30
0.0
 11
-157.714
 21
-174.402
 31
0.0
  0
LINE
  5
DE9
330
18
100
AcDbEntity
  8
1
  6
Continuous
 62
     1
100
AcDbLine
 10
-157.833
 20
-174.238
 30
0.0
 11
-159.681
 21
-176.086
 31
0.0
  0
LINE
  5
DEA
330
18
100
AcDbEntity
  8
1
  6
Continuous
 62
     1
100
AcDbLine
 10
-159.964
 20
-176.086
 30
0.0
 11
-157.962
 21
-174.084
 31
0.0
  0
LINE
  5
DEB
330
18
100
AcDbEntity
  8
1
  6
Continuous
 62
     1
100
AcDbLine
 10
-158.1
 20
-173.94
 30
0.0
 11
-160.235
 21
-176.074
 31
0.0
  0
LINE
  5
DEC
330
18
100
AcDbEntity
  8
1
  6
Continuous
 62
     1
100
AcDbLine
 10
-160.235
 20
-175.791
 30
0.0
 11
-158.248
 21
-173.805
 31
0.0
  0
LINE
  5
DED
330
18
100
AcDbEntity
  8
1
  6
Continuous
 62
     1
100
AcDbLine
 10
-158.406
 20
-173.679
 30
0.0
 11
-160.235
 21
-175.5079999999999
 31
0.0
  0
LINE
  5
DEE
330
18
100
AcDbEntity
  8
1
  6
Continuous
 62
     1
100
AcDbLine
 10
-160.235
 20
-175.225
 30
0.0
 11
-158.573
 21
-173.563
 31
0.0
  0
LINE
  5
DEF
330
18
100
AcDbEntity
  8
1
  6
Continuous
 62
     1
100
AcDbLine
 10
-158.75
 20
-173.458
 30
0.0
 11
-160.235
 21
-174.943
 31
0.0
  0
LINE
  5
DF0
330
18
100
AcDbEntity
  8
1
  6
Continuous
 62
     1
100
AcDbLine
 10
-160.235
 20
-174.66
 30
0.0
 11
-158.938
 21
-173.363
 31
0.0
  0
LINE
  5
DF1
330
18
100
AcDbEntity
  8
1
  6
Continuous
 62
     1
100
AcDbLine
 10
-159.137
 20
-173.279
 30
0.0
 11
-160.235
 21
-174.377
 31
0.0
  0
LINE
  5
DF2
330
18
100
AcDbEntity
  8
1
  6
Continuous
 62
     1
100
AcDbLine
 10
-160.235
 20
-174.094
 30
0.0
 11
-159.349
 21
-173.208
 31
0.0
  0
LINE
  5
DF3
330
18
100
AcDbEntity
  8
1
  6
Continuous
 62
     1
100
AcDbLine
 10
-159.575
 20
-173.151
 30
0.0
 11
-160.235
 21
-173.8109999999999
 31
0.0
  0
LINE
  5
DF4
330
18
100
AcDbEntity
  8
1
  6
Continuous
 62
     1
100
AcDbLine
 10
-160.235
 20
-173.528
 30
0.0
 11
-159.817
 21
-173.11
 31
0.0
  0
LINE
  5
DF5
330
18
100
AcDbEntity
  8
1
  6
Continuous
 62
     1
100
AcDbLine
 10
-160.078
 20
-173.089
 30
0.0
 11
-160.235
 21
-173.246
 31
0.0
  0
LINE
  5
DF6
330
18
100
AcDbEntity
  8
1
  6
Continuous
 62
     1
100
AcDbLine
 10
-160.235
 20
-178.902
 30
0.0
 11
-160.411
 21
-179.079
 31
0.0
  0
LINE
  5
DF7
330
18
100
AcDbEntity
  8
1
  6
Continuous
 62
     1
100
AcDbLine
 10
-160.665
 20
-179.049
 30
0.0
 11
-160.235
 21
-178.62
 31
0.0
  0
LINE
  5
DF8
330
18
100
AcDbEntity
  8
1
  6
Continuous
 62
     1
100
AcDbLine
 10
-160.235
 20
-178.337
 30
0.0
 11
-160.9
 21
-179.002
 31
0.0
  0
LINE
  5
DF9
330
18
100
AcDbEntity
  8
1
  6
Continuous
 62
     1
100
AcDbLine
 10
-161.121
 20
-178.94
 30
0.0
 11
-160.235
 21
-178.054
 31
0.0
  0
LINE
  5
DFA
330
18
100
AcDbEntity
  8
1
  6
Continuous
 62
     1
100
AcDbLine
 10
-160.235
 20
-177.771
 30
0.0
 11
-161.328
 21
-178.864
 31
0.0
  0
LINE
  5
DFB
330
18
100
AcDbEntity
  8
1
  6
Continuous
 62
     1
100
AcDbLine
 10
-161.523
 20
-178.777
 30
0.0
 11
-160.235
 21
-177.488
 31
0.0
  0
LINE
  5
DFC
330
18
100
AcDbEntity
  8
1
  6
Continuous
 62
     1
100
AcDbLine
 10
-160.235
 20
-177.205
 30
0.0
 11
-161.707
 21
-178.678
 31
0.0
  0
LINE
  5
DFD
330
18
100
AcDbEntity
  8
1
  6
Continuous
 62
     1
100
AcDbLine
 10
-161.881
 20
-178.569
 30
0.0
 11
-160.235
 21
-176.923
 31
0.0
  0
LINE
  5
DFE
330
18
100
AcDbEntity
  8
1
  6
Continuous
 62
     1
100
AcDbLine
 10
-160.235
 20
-176.64
 30
0.0
 11
-162.044
 21
-178.449
 31
0.0
  0
LINE
  5
DFF
330
18
100
AcDbEntity
  8
1
  6
Continuous
 62
     1
100
AcDbLine
 10
-162.1979999999999
 20
-178.32
 30
0.0
 11
-160.235
 21
-176.357
 31
0.0
  0
LINE
  5
E00
330
18
100
AcDbEntity
  8
1
  6
Continuous
 62
     1
100
AcDbLine
 10
-160.247
 20
-176.086
 30
0.0
 11
-162.343
 21
-178.182
 31
0.0
  0
LINE
  5
E01
330
18
100
AcDbEntity
  8
1
  6
Continuous
 62
     1
100
AcDbLine
 10
-162.478
 20
-178.034
 30
0.0
 11
-160.53
 21
-176.086
 31
0.0
  0
LINE
  5
E02
330
18
100
AcDbEntity
  8
1
  6
Continuous
 62
     1
100
AcDbLine
 10
-160.813
 20
-176.086
 30
0.0
 11
-162.603
 21
-177.877
 31
0.0
  0
LINE
  5
E03
330
18
100
AcDbEntity
  8
1
  6
Continuous
 62
     1
100
AcDbLine
 10
-162.719
 20
-177.71
 30
0.0
 11
-161.096
 21
-176.086
 31
0.0
  0
LINE
  5
E04
330
18
100
AcDbEntity
  8
1
  6
Continuous
 62
     1
100
AcDbLine
 10
-161.378
 20
-176.086
 30
0.0
 11
-162.825
 21
-177.532
 31
0.0
  0
LINE
  5
E05
330
18
100
AcDbEntity
  8
1
  6
Continuous
 62
     1
100
AcDbLine
 10
-162.919
 20
-177.344
 30
0.0
 11
-161.661
 21
-176.086
 31
0.0
  0
LINE
  5
E06
330
18
100
AcDbEntity
  8
1
  6
Continuous
 62
     1
100
AcDbLine
 10
-161.944
 20
-176.086
 30
0.0
 11
-163.003
 21
-177.145
 31
0.0
  0
LINE
  5
E07
330
18
100
AcDbEntity
  8
1
  6
Continuous
 62
     1
100
AcDbLine
 10
-163.074
 20
-176.933
 30
0.0
 11
-162.227
 21
-176.086
 31
0.0
  0
LINE
  5
E08
330
18
100
AcDbEntity
  8
1
  6
Continuous
 62
     1
100
AcDbLine
 10
-162.51
 20
-176.086
 30
0.0
 11
-163.131
 21
-176.708
 31
0.0
  0
LINE
  5
E09
330
18
100
AcDbEntity
  8
1
  6
Continuous
 62
     1
100
AcDbLine
 10
-163.172
 20
-176.466
 30
0.0
 11
-162.793
 21
-176.086
 31
0.0
  0
LINE
  5
E0A
330
18
100
AcDbEntity
  8
1
  6
Continuous
 62
     1
100
AcDbLine
 10
-163.075
 20
-176.086
 30
0.0
 11
-163.194
 21
-176.205
 31
0.0
  0
LINE
  5
E0B
330
18
100
AcDbEntity
  8
1
  6
CENTER
 62
     2
100
AcDbLine
 10
-34.19
 20
-176.086
 30
0.0
 11
-46.3304
 21
-176.086
 31
0.0
  0
LINE
  5
E0C
330
18
100
AcDbEntity
  8
1
  6
CENTER
 62
     2
100
AcDbLine
 10
-149.86
 20
-176.086
 30
0.0
 11
-167.384
 21
-176.086
 31
0.0
  0
LINE
  5
E0D
330
18
100
AcDbEntity
  8
1
  6
CENTER
 62
     2
100
AcDbLine
 10
-176.348
 20
-161.086
 30
0.0
 11
-145.82
 21
-161.086
 31
0.0
  0
LINE
  5
E0E
330
18
100
AcDbEntity
  8
1
  6
CENTER
 62
     2
100
AcDbLine
 10
-24.7687
 20
-191.0859999999999
 30
0.0
 11
-175.404
 21
-191.0859999999999
 31
0.0
  0
LINE
  5
E0F
330
18
100
AcDbEntity
  8
1
  6
Continuous
 62
     1
100
AcDbLine
 10
-44.48479999999999
 20
-159.586
 30
0.0
 11
-44.48479999999999
 21
-162.586
 31
0.0
  0
LINE
  5
E10
330
18
100
AcDbEntity
  8
1
  6
Continuous
 62
     1
100
AcDbLine
 10
-35.9848
 20
-159.586
 30
0.0
 11
-35.9848
 21
-162.586
 31
0.0
  0
ARC
  5
E11
330
18
100
AcDbEntity
  8
1
  6
Continuous
 62
     1
100
AcDbCircle
 10
-40.2348
 20
-162.586
 30
0.0
 40
4.25
100
AcDbArc
 50
180.0
 51
0.0
  0
ARC
  5
E12
330
18
100
AcDbEntity
  8
1
  6
Continuous
 62
     1
100
AcDbCircle
 10
-40.2348
 20
-159.586
 30
0.0
 40
4.25
100
AcDbArc
 50
0.0
 51
180.0
  0
LINE
  5
E13
330
18
100
AcDbEntity
  8
1
  6
Continuous
 62
     1
100
AcDbLine
 10
-44.48479999999999
 20
-189.586
 30
0.0
 11
-44.48479999999999
 21
-192.586
 31
0.0
  0
LINE
  5
E14
330
18
100
AcDbEntity
  8
1
  6
Continuous
 62
     1
100
AcDbLine
 10
-35.9848
 20
-189.586
 30
0.0
 11
-35.9848
 21
-192.586
 31
0.0
  0
ARC
  5
E15
330
18
100
AcDbEntity
  8
1
  6
Continuous
 62
     1
100
AcDbCircle
 10
-40.2348
 20
-192.586
 30
0.0
 40
4.25
100
AcDbArc
 50
180.0
 51
0.0
  0
ARC
  5
E16
330
18
100
AcDbEntity
  8
1
  6
Continuous
 62
     1
100
AcDbCircle
 10
-40.2348
 20
-189.586
 30
0.0
 40
4.25
100
AcDbArc
 50
0.0
 51
180.0
  0
CIRCLE
  5
E17
330
18
100
AcDbEntity
  8
1
  6
Continuous
 62
     1
100
AcDbCircle
 10
-40.1961
 20
-176.086
 30
0.0
 40
3.0
  0
LINE
  5
E18
330
18
100
AcDbEntity
  8
1
  6
Continuous
 62
     1
100
AcDbLine
 10
-43.19609999999999
 20
-176.086
 30
0.0
 11
-37.1961
 21
-176.086
 31
0.0
  0
LINE
  5
E19
330
18
100
AcDbEntity
  8
1
  6
Continuous
 62
     1
100
AcDbLine
 10
-40.2348
 20
-173.087
 30
0.0
 11
-40.2348
 21
-179.086
 31
0.0
  0
LINE
  5
E1A
330
18
100
AcDbEntity
  8
1
  6
Continuous
 62
     1
100
AcDbLine
 10
-37.1961
 20
-176.072
 30
0.0
 11
-37.2105
 21
-176.086
 31
0.0
  0
LINE
  5
E1B
330
18
100
AcDbEntity
  8
1
  6
Continuous
 62
     1
100
AcDbLine
 10
-37.4933
 20
-176.086
 30
0.0
 11
-37.2096
 21
-175.802
 31
0.0
  0
LINE
  5
E1C
330
18
100
AcDbEntity
  8
1
  6
Continuous
 62
     1
100
AcDbLine
 10
-37.2437
 20
-175.554
 30
0.0
 11
-37.77620000000001
 21
-176.086
 31
0.0
  0
LINE
  5
E1D
330
18
100
AcDbEntity
  8
1
  6
Continuous
 62
     1
100
AcDbLine
 10
-38.059
 20
-176.086
 30
0.0
 11
-37.295
 21
-175.322
 31
0.0
  0
LINE
  5
E1E
330
18
100
AcDbEntity
  8
1
  6
Continuous
 62
     1
100
AcDbLine
 10
-37.361
 20
-175.105
 30
0.0
 11
-38.3419
 21
-176.086
 31
0.0
  0
LINE
  5
E1F
330
18
100
AcDbEntity
  8
1
  6
Continuous
 62
     1
100
AcDbLine
 10
-38.6247
 20
-176.086
 30
0.0
 11
-37.4399
 21
-174.902
 31
0.0
  0
LINE
  5
E20
330
18
100
AcDbEntity
  8
1
  6
Continuous
 62
     1
100
AcDbLine
 10
-37.53070000000001
 20
-174.709
 30
0.0
 11
-38.9075
 21
-176.086
 31
0.0
  0
LINE
  5
E21
330
18
100
AcDbEntity
  8
1
  6
Continuous
 62
     1
100
AcDbLine
 10
-39.1904
 20
-176.086
 30
0.0
 11
-37.6324
 21
-174.528
 31
0.0
  0
LINE
  5
E22
330
18
100
AcDbEntity
  8
1
  6
Continuous
 62
     1
100
AcDbLine
 10
-37.7444
 20
-174.357
 30
0.0
 11
-39.4732
 21
-176.086
 31
0.0
  0
LINE
  5
E23
330
18
100
AcDbEntity
  8
1
  6
Continuous
 62
     1
100
AcDbLine
 10
-39.75610000000001
 20
-176.086
 30
0.0
 11
-37.8662
 21
-174.196
 31
0.0
  0
LINE
  5
E24
330
18
100
AcDbEntity
  8
1
  6
Continuous
 62
     1
100
AcDbLine
 10
-37.9976
 20
-174.045
 30
0.0
 11
-40.0389
 21
-176.086
 31
0.0
  0
LINE
  5
E25
330
18
100
AcDbEntity
  8
1
  6
Continuous
 62
     1
100
AcDbLine
 10
-40.2348
 20
-175.999
 30
0.0
 11
-38.1385
 21
-173.903
 31
0.0
  0
LINE
  5
E26
330
18
100
AcDbEntity
  8
1
  6
Continuous
 62
     1
100
AcDbLine
 10
-38.2889
 20
-173.771
 30
0.0
 11
-40.2348
 21
-175.716
 31
0.0
  0
LINE
  5
E27
330
18
100
AcDbEntity
  8
1
  6
Continuous
 62
     1
100
AcDbLine
 10
-40.2348
 20
-175.434
 30
0.0
 11
-38.4488
 21
-173.648
 31
0.0
  0
LINE
  5
E28
330
18
100
AcDbEntity
  8
1
  6
Continuous
 62
     1
100
AcDbLine
 10
-38.6185
 20
-173.535
 30
0.0
 11
-40.2348
 21
-175.151
 31
0.0
  0
LINE
  5
E29
330
18
100
AcDbEntity
  8
1
  6
Continuous
 62
     1
100
AcDbLine
 10
-40.2348
 20
-174.868
 30
0.0
 11
-38.7985
 21
-173.432
 31
0.0
  0
LINE
  5
E2A
330
18
100
AcDbEntity
  8
1
  6
Continuous
 62
     1
100
AcDbLine
 10
-38.98940000000001
 20
-173.34
 30
0.0
 11
-40.2348
 21
-174.585
 31
0.0
  0
LINE
  5
E2B
330
18
100
AcDbEntity
  8
1
  6
Continuous
 62
     1
100
AcDbLine
 10
-40.2348
 20
-174.302
 30
0.0
 11
-39.1919
 21
-173.259
 31
0.0
  0
LINE
  5
E2C
330
18
100
AcDbEntity
  8
1
  6
Continuous
 62
     1
100
AcDbLine
 10
-39.40720000000001
 20
-173.192
 30
0.0
 11
-40.2348
 21
-174.019
 31
0.0
  0
LINE
  5
E2D
330
18
100
AcDbEntity
  8
1
  6
Continuous
 62
     1
100
AcDbLine
 10
-40.2348
 20
-173.737
 30
0.0
 11
-39.637
 21
-173.139
 31
0.0
  0
LINE
  5
E2E
330
18
100
AcDbEntity
  8
1
  6
Continuous
 62
     1
100
AcDbLine
 10
-39.8837
 20
-173.103
 30
0.0
 11
-40.2348
 21
-173.454
 31
0.0
  0
LINE
  5
E2F
330
18
100
AcDbEntity
  8
1
  6
Continuous
 62
     1
100
AcDbLine
 10
-40.2348
 20
-173.171
 30
0.0
 11
-40.1505
 21
-173.087
 31
0.0
  0
LINE
  5
E30
330
18
100
AcDbEntity
  8
1
  6
Continuous
 62
     1
100
AcDbLine
 10
-40.2348
 20
-178.828
 30
0.0
 11
-40.4799
 21
-179.073
 31
0.0
  0
LINE
  5
E31
330
18
100
AcDbEntity
  8
1
  6
Continuous
 62
     1
100
AcDbLine
 10
-40.72849999999999
 20
-179.039
 30
0.0
 11
-40.2348
 21
-178.545
 31
0.0
  0
LINE
  5
E32
330
18
100
AcDbEntity
  8
1
  6
Continuous
 62
     1
100
AcDbLine
 10
-40.2348
 20
-178.262
 30
0.0
 11
-40.96009999999999
 21
-178.987
 31
0.0
  0
LINE
  5
E33
330
18
100
AcDbEntity
  8
1
  6
Continuous
 62
     1
100
AcDbLine
 10
-41.177
 20
-178.921
 30
0.0
 11
-40.2348
 21
-177.979
 31
0.0
  0
LINE
  5
E34
330
18
100
AcDbEntity
  8
1
  6
Continuous
 62
     1
100
AcDbLine
 10
-40.2348
 20
-177.696
 30
0.0
 11
-41.3808
 21
-178.842
 31
0.0
  0
LINE
  5
E35
330
18
100
AcDbEntity
  8
1
  6
Continuous
 62
     1
100
AcDbLine
 10
-41.57289999999999
 20
-178.752
 30
0.0
 11
-40.2348
 21
-177.414
 31
0.0
  0
LINE
  5
E36
330
18
100
AcDbEntity
  8
1
  6
Continuous
 62
     1
100
AcDbLine
 10
-40.2348
 20
-177.1309999999999
 30
0.0
 11
-41.7541
 21
-178.65
 31
0.0
  0
LINE
  5
E37
330
18
100
AcDbEntity
  8
1
  6
Continuous
 62
     1
100
AcDbLine
 10
-41.92499999999999
 20
-178.538
 30
0.0
 11
-40.2348
 21
-176.848
 31
0.0
  0
LINE
  5
E38
330
18
100
AcDbEntity
  8
1
  6
Continuous
 62
     1
100
AcDbLine
 10
-40.2348
 20
-176.565
 30
0.0
 11
-42.086
 21
-178.416
 31
0.0
  0
LINE
  5
E39
330
18
100
AcDbEntity
  8
1
  6
Continuous
 62
     1
100
AcDbLine
 10
-42.2374
 20
-178.285
 30
0.0
 11
-40.2348
 21
-176.282
 31
0.0
  0
LINE
  5
E3A
330
18
100
AcDbEntity
  8
1
  6
Continuous
 62
     1
100
AcDbLine
 10
-40.3218
 20
-176.086
 30
0.0
 11
-42.3793
 21
-178.144
 31
0.0
  0
LINE
  5
E3B
330
18
100
AcDbEntity
  8
1
  6
Continuous
 62
     1
100
AcDbLine
 10
-42.5118
 20
-177.993
 30
0.0
 11
-40.60459999999999
 21
-176.086
 31
0.0
  0
LINE
  5
E3C
330
18
100
AcDbEntity
  8
1
  6
Continuous
 62
     1
100
AcDbLine
 10
-40.8874
 20
-176.086
 30
0.0
 11
-42.6347
 21
-177.834
 31
0.0
  0
LINE
  5
E3D
330
18
100
AcDbEntity
  8
1
  6
Continuous
 62
     1
100
AcDbLine
 10
-42.74779999999999
 20
-177.664
 30
0.0
 11
-41.17029999999999
 21
-176.086
 31
0.0
  0
LINE
  5
E3E
330
18
100
AcDbEntity
  8
1
  6
Continuous
 62
     1
100
AcDbLine
 10
-41.4531
 20
-176.086
 30
0.0
 11
-42.8507
 21
-177.484
 31
0.0
  0
LINE
  5
E3F
330
18
100
AcDbEntity
  8
1
  6
Continuous
 62
     1
100
AcDbLine
 10
-42.9427
 20
-177.293
 30
0.0
 11
-41.736
 21
-176.086
 31
0.0
  0
LINE
  5
E40
330
18
100
AcDbEntity
  8
1
  6
Continuous
 62
     1
100
AcDbLine
 10
-42.0188
 20
-176.086
 30
0.0
 11
-43.023
 21
-177.09
 31
0.0
  0
LINE
  5
E41
330
18
100
AcDbEntity
  8
1
  6
Continuous
 62
     1
100
AcDbLine
 10
-43.0905
 20
-176.875
 30
0.0
 11
-42.3017
 21
-176.086
 31
0.0
  0
LINE
  5
E42
330
18
100
AcDbEntity
  8
1
  6
Continuous
 62
     1
100
AcDbLine
 10
-42.58449999999999
 20
-176.086
 30
0.0
 11
-43.1435
 21
-176.645
 31
0.0
  0
LINE
  5
E43
330
18
100
AcDbEntity
  8
1
  6
Continuous
 62
     1
100
AcDbLine
 10
-43.1798
 20
-176.399
 30
0.0
 11
-42.8673
 21
-176.086
 31
0.0
  0
LINE
  5
E44
330
18
100
AcDbEntity
  8
1
  6
Continuous
 62
     1
100
AcDbLine
 10
-43.15019999999999
 20
-176.086
 30
0.0
 11
-43.1958
 21
-176.132
 31
0.0
  0
LINE
  5
E45
330
18
100
AcDbEntity
  8
1
  6
CENTER
 62
     2
100
AcDbLine
 10
-52.2732
 20
-161.086
 30
0.0
 11
-21.9897
 21
-161.086
 31
0.0
  0
LINE
  5
E46
330
18
100
AcDbEntity
  8
1
  6
Continuous
 62
     1
100
AcDbLine
 10
-170.235
 20
-141.086
 30
0.0
 11
-143.235
 21
-141.086
 31
0.0
  0
LINE
  5
E47
330
18
100
AcDbEntity
  8
1
  6
Continuous
 62
     1
100
AcDbLine
 10
-149.235
 20
-201.086
 30
0.0
 11
-170.235
 21
-201.086
 31
0.0
  0
LINE
  5
E48
330
18
100
AcDbEntity
  8
1
  6
Continuous
 62
     1
100
AcDbLine
 10
-170.235
 20
-141.086
 30
0.0
 11
-170.235
 21
-201.086
 31
0.0
  0
LINE
  5
E49
330
18
100
AcDbEntity
  8
1
  6
Continuous
 62
     1
100
AcDbLine
 10
-143.235
 20
-141.086
 30
0.0
 11
-143.235
 21
-192.586
 31
0.0
  0
LINE
  5
E4A
330
18
100
AcDbEntity
  8
1
  6
Continuous
 62
     1
100
AcDbLine
 10
-30.2348
 20
-141.086
 30
0.0
 11
-30.2348
 21
-201.086
 31
0.0
  0
LINE
  5
E4B
330
18
100
AcDbEntity
  8
1
  6
Continuous
 62
     1
100
AcDbLine
 10
-30.2348
 20
-201.086
 30
0.0
 11
-51.2348
 21
-201.086
 31
0.0
  0
LINE
  5
E4C
330
18
100
AcDbEntity
  8
1
  6
Continuous
 62
     1
100
AcDbLine
 10
-57.2348
 20
-141.086
 30
0.0
 11
-57.2348
 21
-192.586
 31
0.0
  0
LINE
  5
E4D
330
18
100
AcDbEntity
  8
1
  6
Continuous
 62
     1
100
AcDbLine
 10
-57.2348
 20
-141.086
 30
0.0
 11
-30.2348
 21
-141.086
 31
0.0
  0
LINE
  5
E4E
330
18
100
AcDbEntity
  8
1
  6
Continuous
 62
     1
100
AcDbLine
 10
-141.744
 20
-168.086
 30
0.0
 11
-131.244
 21
-168.086
 31
0.0
  0
ARC
  5
E4F
330
18
100
AcDbEntity
  8
1
  6
Continuous
 62
     1
100
AcDbCircle
 10
-141.735
 20
-166.586
 30
0.0
 40
1.5
100
AcDbArc
 50
180.0
 51
270.0
  0
ARC
  5
E50
330
18
100
AcDbEntity
  8
1
  6
Continuous
 62
     1
100
AcDbCircle
 10
-58.7348
 20
-166.586
 30
0.0
 40
1.5
100
AcDbArc
 50
270.0
 51
0.0
  0
LINE
  5
E51
330
18
100
AcDbEntity
  8
1
  6
Continuous
 62
     1
100
AcDbLine
 10
-142.735
 20
-190.0859999999999
 30
0.0
 11
-57.7348
 21
-190.0859999999999
 31
0.0
  0
LINE
  5
E52
330
18
100
AcDbEntity
  8
1
  6
Continuous
 62
     1
100
AcDbLine
 10
-57.7348
 20
-192.086
 30
0.0
 11
-142.735
 21
-192.086
 31
0.0
  0
ARC
  5
E53
330
18
100
AcDbEntity
  8
1
  6
Continuous
 62
     1
100
AcDbCircle
 10
-142.735
 20
-189.586
 30
0.0
 40
0.5
100
AcDbArc
 50
180.0
 51
270.0
  0
ARC
  5
E54
330
18
100
AcDbEntity
  8
1
  6
Continuous
 62
     1
100
AcDbCircle
 10
-142.735
 20
-192.586
 30
0.0
 40
0.5
100
AcDbArc
 50
90.0
 51
180.0
  0
ARC
  5
E55
330
18
100
AcDbEntity
  8
1
  6
Continuous
 62
     1
100
AcDbCircle
 10
-57.7348
 20
-192.586
 30
0.0
 40
0.5
100
AcDbArc
 50
0.0
 51
90.0
  0
ARC
  5
E56
330
18
100
AcDbEntity
  8
1
  6
Continuous
 62
     1
100
AcDbCircle
 10
-57.7348
 20
-189.586
 30
0.0
 40
0.5
100
AcDbArc
 50
270.0
 51
0.0
  0
LINE
  5
E57
330
18
100
AcDbEntity
  8
1
  6
Continuous
 62
     1
100
AcDbLine
 10
-149.235
 20
-214.086
 30
0.0
 11
-109.235
 21
-214.086
 31
0.0
  0
LINE
  5
E58
330
18
100
AcDbEntity
  8
1
  6
Continuous
 62
     1
100
AcDbLine
 10
-69.23480000000001
 20
-214.086
 30
0.0
 11
-51.2348
 21
-214.086
 31
0.0
  0
LINE
  5
E59
330
18
100
AcDbEntity
  8
1
  6
Continuous
 62
     1
100
AcDbLine
 10
-150.735
 20
-147.086
 30
0.0
 11
-170.235
 21
-147.086
 31
0.0
  0
ARC
  5
E5A
330
18
100
AcDbEntity
  8
1
  6
Continuous
 62
     1
100
AcDbCircle
 10
-150.735
 20
-148.586
 30
0.0
 40
1.5
100
AcDbArc
 50
0.0
 51
90.0
  0
LINE
  5
E5B
330
18
100
AcDbEntity
  8
1
  6
Continuous
 62
     1
100
AcDbLine
 10
-30.2348
 20
-147.086
 30
0.0
 11
-49.7348
 21
-147.086
 31
0.0
  0
ARC
  5
E5C
330
18
100
AcDbEntity
  8
1
  6
Continuous
 62
     1
100
AcDbCircle
 10
-49.7348
 20
-148.586
 30
0.0
 40
1.5
100
AcDbArc
 50
90.0
 51
180.0
  0
LINE
  5
E5D
330
18
100
AcDbEntity
  8
1
  6
Continuous
 62
     1
100
AcDbLine
 10
-149.235
 20
-148.586
 30
0.0
 11
-149.235
 21
-214.086
 31
0.0
  0
LINE
  5
E5E
330
18
100
AcDbEntity
  8
1
  6
Continuous
 62
     1
100
AcDbLine
 10
-51.2348
 20
-148.586
 30
0.0
 11
-51.2348
 21
-214.086
 31
0.0
  0
LINE
  5
E5F
330
18
100
AcDbEntity
  8
1
  6
DASHED
 62
     1
100
AcDbLine
 10
-143.235
 20
-192.586
 30
0.0
 11
-143.235
 21
-201.086
 31
0.0
  0
LINE
  5
E60
330
18
100
AcDbEntity
  8
1
  6
DASHED
 62
     1
100
AcDbLine
 10
-57.2348
 20
-192.586
 30
0.0
 11
-57.2348
 21
-201.086
 31
0.0
  0
LINE
  5
E61
330
18
100
AcDbEntity
  8
1
  6
DASHED
 62
     1
100
AcDbLine
 10
-51.2348
 20
-201.086
 30
0.0
 11
-57.2348
 21
-201.086
 31
0.0
  0
LINE
  5
E62
330
18
100
AcDbEntity
  8
1
  6
DASHED
 62
     1
100
AcDbLine
 10
-149.235
 20
-201.086
 30
0.0
 11
-143.235
 21
-201.086
 31
0.0
  0
LINE
  5
E63
330
18
100
AcDbEntity
  8
1
  6
Continuous
 62
     1
100
AcDbLine
 10
-131.244
 20
-171.641
 30
0.0
 11
-131.244
 21
-157.499
 31
0.0
  0
LINE
  5
E64
330
18
100
AcDbEntity
  8
1
  6
Continuous
 62
     1
100
AcDbLine
 10
-91.2438
 20
-157.499
 30
0.0
 11
-91.2438
 21
-171.641
 31
0.0
  0
INSERT
  5
E65
330
18
100
AcDbEntity
  8
0
100
AcDbBlockReference
  2
_G_P_5
 10
0.0
 20
0.0
 30
0.0
  0
INSERT
  5
E66
330
18
100
AcDbEntity
  8
0
100
AcDbBlockReference
  2
_G_P_6
 10
0.0
 20
0.0
 30
0.0
  0
LINE
  5
E67
330
18
100
AcDbEntity
  8
1
  6
Continuous
 62
     2
100
AcDbLine
 10
-116.244
 20
-185.334
 30
0.0
 11
-116.244
 21
-171.192
 31
0.0
  0
LINE
  5
E68
330
18
100
AcDbEntity
  8
1
  6
Continuous
 62
     2
100
AcDbLine
 10
-106.244
 20
-171.192
 30
0.0
 11
-106.244
 21
-185.334
 31
0.0
  0
LINE
  5
E69
330
18
100
AcDbEntity
  8
1
  6
Continuous
 62
     2
100
AcDbLine
 10
-123.244
 20
-182.954
 30
0.0
 11
-123.244
 21
-168.813
 31
0.0
  0
LINE
  5
E6A
330
18
100
AcDbEntity
  8
1
  6
Continuous
 62
     2
100
AcDbLine
 10
-99.24379999999999
 20
-168.813
 30
0.0
 11
-99.24379999999999
 21
-182.954
 31
0.0
  0
LINE
  5
E6B
330
18
100
AcDbEntity
  8
1
  6
Continuous
 62
     2
100
AcDbLine
 10
-128.244
 20
-179.09
 30
0.0
 11
-128.244
 21
-164.949
 31
0.0
  0
LINE
  5
E6C
330
18
100
AcDbEntity
  8
1
  6
Continuous
 62
     2
100
AcDbLine
 10
-94.24379999999999
 20
-164.949
 30
0.0
 11
-94.24379999999999
 21
-179.09
 31
0.0
  0
LINE
  5
E6D
330
18
100
AcDbEntity
  8
1
  6
Continuous
 62
     1
100
AcDbLine
 10
-109.235
 20
-210.532
 30
0.0
 11
-109.235
 21
-224.674
 31
0.0
  0
INSERT
  5
E6E
330
18
100
AcDbEntity
  8
0
100
AcDbBlockReference
  2
_G_P_7
 10
0.0
 20
0.0
 30
0.0
  0
LINE
  5
E6F
330
18
100
AcDbEntity
  8
1
  6
Continuous
 62
     2
100
AcDbLine
 10
-106.235
 20
-203.082
 30
0.0
 11
-106.235
 21
-217.224
 31
0.0
  0
LINE
  5
E70
330
18
100
AcDbEntity
  8
1
  6
Continuous
 62
     2
100
AcDbLine
 10
-101.235
 20
-199.218
 30
0.0
 11
-101.235
 21
-213.36
 31
0.0
  0
LINE
  5
E71
330
18
100
AcDbEntity
  8
1
  6
Continuous
 62
     2
100
AcDbLine
 10
-94.23480000000001
 20
-196.839
 30
0.0
 11
-94.23480000000001
 21
-210.981
 31
0.0
  0
LINE
  5
E72
330
18
100
AcDbEntity
  8
1
  6
Continuous
 62
     2
100
AcDbLine
 10
-84.23480000000001
 20
-210.981
 30
0.0
 11
-84.23480000000001
 21
-196.839
 31
0.0
  0
LINE
  5
E73
330
18
100
AcDbEntity
  8
1
  6
Continuous
 62
     2
100
AcDbLine
 10
-77.23480000000001
 20
-213.36
 30
0.0
 11
-77.23480000000001
 21
-199.218
 31
0.0
  0
LINE
  5
E74
330
18
100
AcDbEntity
  8
1
  6
Continuous
 62
     2
100
AcDbLine
 10
-72.23480000000001
 20
-217.224
 30
0.0
 11
-72.23480000000001
 21
-203.082
 31
0.0
  0
LINE
  5
E75
330
18
100
AcDbEntity
  8
1
  6
Continuous
 62
     1
100
AcDbLine
 10
-69.23480000000001
 20
-224.674
 30
0.0
 11
-69.23480000000001
 21
-210.532
 31
0.0
  0
INSERT
  5
E76
330
18
100
AcDbEntity
  8
0
100
AcDbBlockReference
  2
_G_P_8
 10
0.0
 20
0.0
 30
0.0
  0
LINE
  5
E77
330
18
100
AcDbEntity
  8
1
  6
Continuous
 62
     1
100
AcDbLine
 10
-58.7348
 20
-168.086
 30
0.0
 11
-91.2438
 21
-168.086
 31
0.0
  0
LINE
  5
E78
330
18
100
AcDbEntity
  8
1
  6
CENTER
 62
     2
100
AcDbLine
 10
-111.244
 20
-163.818
 30
0.0
 11
-111.244
 21
-151.732
 31
0.0
  0
LINE
  5
E79
330
18
100
AcDbEntity
  8
1
  6
CENTER
 62
     2
100
AcDbLine
 10
-117.107
 20
-157.499
 30
0.0
 11
-105.338
 21
-157.499
 31
0.0
  0
LINE
  5
E7A
330
18
100
AcDbEntity
  8
1
  6
CENTER
 62
     2
100
AcDbLine
 10
-96.88670000000001
 20
-224.674
 30
0.0
 11
-81.13660000000001
 21
-224.674
 31
0.0
  0
LINE
  5
E7B
330
18
100
AcDbEntity
  8
1
  6
CENTER
 62
     2
100
AcDbLine
 10
-100.244
 20
-138.158
 30
0.0
 11
-100.237
 21
-238.8
 31
0.0
  0
TEXT
  5
E7C
330
18
100
AcDbEntity
  8
1
  6
Continuous
 62
     1
100
AcDbText
 10
-93.10729999999999
 20
-105.2
 30
0.0
 40
8.0
  1
TECLINE  204.2072  (C0NC)
 41
0.99
100
AcDbText
  0
LINE
  5
E7D
330
18
100
AcDbEntity
  8
1
  6
Continuous
 62
     1
100
AcDbLine
 10
113.118
 20
-47.638
 30
0.0
 11
115.492
 21
-38.0123
 31
0.0
  0
LINE
  5
E7E
330
18
100
AcDbEntity
  8
1
  6
Continuous
 62
     1
100
AcDbLine
 10
-51.2558
 20
131.616
 30
0.0
 11
-47.25579999999999
 21
131.616
 31
0.0
  0
LINE
  5
E7F
330
18
100
AcDbEntity
  8
1
  6
Continuous
 62
     2
100
AcDbLine
 10
83.11750000000001
 20
20.6774
 30
0.0
 11
83.11750000000001
 21
6.208569999999999
 31
0.0
  0
LINE
  5
E80
330
18
100
AcDbEntity
  8
1
  6
Continuous
 62
     2
100
AcDbLine
 10
121.149
 20
20.6774
 30
0.0
 11
123.117
 21
20.6774
 31
0.0
  0
LINE
  5
E81
330
18
100
AcDbEntity
  8
1
  6
Continuous
 62
     2
100
AcDbLine
 10
83.11750000000001
 20
20.6774
 30
0.0
 11
85.0863
 21
20.6774
 31
0.0
  0
LINE
  5
E82
330
18
100
AcDbEntity
  8
1
  6
Continuous
 62
     2
100
AcDbLine
 10
123.117
 20
3.81913
 30
0.0
 11
123.117
 21
20.6774
 31
0.0
  0
CIRCLE
  5
E83
330
18
100
AcDbEntity
  8
1
  6
Continuous
 62
     1
100
AcDbCircle
 10
103.117
 20
-17.63799999999999
 30
0.0
 40
2.5
  0
CIRCLE
  5
E84
330
18
100
AcDbEntity
  8
1
  6
Continuous
 62
     1
100
AcDbCircle
 10
103.117
 20
-33.63800000000001
 30
0.0
 40
2.5
  0
LINE
  5
E85
330
18
100
AcDbEntity
  8
1
  6
CENTER
 62
     2
100
AcDbLine
 10
97.8142
 20
-33.63800000000001
 30
0.0
 11
111.117
 21
-33.63800000000001
 31
0.0
  0
LINE
  5
E86
330
18
100
AcDbEntity
  8
1
  6
CENTER
 62
     2
100
AcDbLine
 10
95.11750000000001
 20
-17.63799999999999
 30
0.0
 11
107.958
 21
-17.63799999999999
 31
0.0
  0
ARC
  5
E87
330
18
100
AcDbEntity
  8
1
  6
DASHED
 62
     2
100
AcDbCircle
 10
103.118
 20
12.5456
 30
0.0
 40
7.0
100
AcDbArc
 50
225.0
 51
315.0
  0
LINE
  5
E88
330
18
100
AcDbEntity
  8
1
  6
Continuous
 62
     1
100
AcDbLine
 10
-47.25579999999999
 20
198.4309999999999
 30
0.0
 11
-51.2558
 21
198.4309999999999
 31
0.0
  0
LINE
  5
E89
330
18
100
AcDbEntity
  8
1
  6
Continuous
 62
     1
100
AcDbLine
 10
-149.256
 20
131.608
 30
0.0
 11
-153.239
 21
131.608
 31
0.0
  0
LINE
  5
E8A
330
18
100
AcDbEntity
  8
1
  6
Continuous
 62
     1
100
AcDbLine
 10
-153.249
 20
198.423
 30
0.0
 11
-153.239
 21
131.608
 31
0.0
  0
LINE
  5
E8B
330
18
100
AcDbEntity
  8
1
  6
Continuous
 62
     1
100
AcDbLine
 10
-153.249
 20
198.423
 30
0.0
 11
-149.249
 21
198.424
 31
0.0
  0
LINE
  5
E8C
330
18
100
AcDbEntity
  8
1
  6
DIVIDE
 62
     2
100
AcDbLine
 10
553.118
 20
9.371260000000001
 30
0.0
 11
553.118
 21
6.371259999999999
 31
0.0
  0
LINE
  5
E8D
330
18
100
AcDbEntity
  8
1
  6
CENTER
 62
     2
100
AcDbLine
 10
560.836
 20
-25.6375
 30
0.0
 11
628.9169999999999
 21
-25.6375
 31
0.0
  0
LINE
  5
E8E
330
18
100
AcDbEntity
  8
1
  6
CENTER
 62
     2
100
AcDbLine
 10
624.535
 20
-47.0551
 30
0.0
 11
565.3789999999999
 21
12.1004
 31
0.0
  0
LINE
  5
E8F
330
18
100
AcDbEntity
  8
1
  6
DASHED
 62
     1
100
AcDbLine
 10
600.369
 20
-47.6375
 30
0.0
 11
580.118
 21
-27.3861
 31
0.0
  0
LINE
  5
E90
330
18
100
AcDbEntity
  8
1
  6
Continuous
 62
     1
100
AcDbLine
 10
604.8659999999999
 20
-2.637529999999999
 30
0.0
 11
626.118
 21
-23.889
 31
0.0
  0
LINE
  5
E91
330
18
100
AcDbEntity
  8
1
  6
CENTER
 62
     2
100
AcDbLine
 10
589.721
 20
-39.0344
 30
0.0
 11
641.0429999999999
 21
12.2879
 31
0.0
  0
ARC
  5
E92
330
18
100
AcDbEntity
  8
1
  6
Continuous
 62
     1
100
AcDbCircle
 10
560.6180000000001
 20
-46.1375
 30
0.0
 40
1.5
100
AcDbArc
 50
180.0
 51
270.0
  0
ARC
  5
E93
330
18
100
AcDbEntity
  8
1
  6
Continuous
 62
     1
100
AcDbCircle
 10
558.618
 20
5.86247
 30
0.0
 40
0.5
100
AcDbArc
 50
0.0
 51
90.0
  0
ARC
  5
E94
330
18
100
AcDbEntity
  8
1
  6
Continuous
 62
     1
100
AcDbCircle
 10
612.618
 20
-53.1375
 30
0.0
 40
0.5
100
AcDbArc
 50
270.0
 51
0.0
  0
ARC
  5
E95
330
18
100
AcDbEntity
  8
1
  6
Continuous
 62
     1
100
AcDbCircle
 10
553.618
 20
-53.1375
 30
0.0
 40
0.5
100
AcDbArc
 50
180.0
 51
270.0
  0
LINE
  5
E96
330
18
100
AcDbEntity
  8
1
  6
DASHED
 62
     1
100
AcDbLine
 10
585.44
 20
-18.5665
 30
0.0
 11
610.189
 21
-43.315
 31
0.0
  0
LINE
  5
E97
330
18
100
AcDbEntity
  8
1
  6
DASHED
 62
     1
100
AcDbLine
 10
620.7949999999999
 20
-32.7085
 30
0.0
 11
596.0469999999999
 21
-7.959929999999999
 31
0.0
  0
LINE
  5
E98
330
18
100
AcDbEntity
  8
1
  6
DASHED
 62
     1
100
AcDbLine
 10
580.118
 20
-23.8887
 30
0.0
 11
580.118
 21
-27.3861
 31
0.0
  0
LINE
  5
E99
330
18
100
AcDbEntity
  8
1
  6
Continuous
 62
     1
100
AcDbLine
 10
626.118
 20
-27.3861
 30
0.0
 11
626.118
 21
-23.889
 31
0.0
  0
LINE
  5
E9A
330
18
100
AcDbEntity
  8
1
  6
Continuous
 62
     1
100
AcDbLine
 10
604.8659999999999
 20
-2.637529999999999
 30
0.0
 11
601.369
 21
-2.637529999999999
 31
0.0
  0
LINE
  5
E9B
330
18
100
AcDbEntity
  8
1
  6
DASHED
 62
     1
100
AcDbLine
 10
605.8659999999999
 20
-47.6375
 30
0.0
 11
615.4919999999999
 21
-38.0116
 31
0.0
  0
LINE
  5
E9C
330
18
100
AcDbEntity
  8
1
  6
Continuous
 62
     1
100
AcDbLine
 10
615.4919999999999
 20
-38.0116
 30
0.0
 11
626.118
 21
-27.3861
 31
0.0
  0
LINE
  5
E9D
330
18
100
AcDbEntity
  8
1
  6
DASHED
 62
     1
100
AcDbLine
 10
556.802
 20
-7.606339999999999
 30
0.0
 11
568.115
 21
-18.92
 31
0.0
  0
LINE
  5
E9E
330
18
100
AcDbEntity
  8
1
  6
Continuous
 62
     1
100
AcDbLine
 10
598.1679999999999
 20
7.596089999999999
 30
0.0
 11
585.0859999999999
 21
20.6778
 31
0.0
  0
LINE
  5
E9F
330
18
100
AcDbEntity
  8
1
  6
Continuous
 62
     1
100
AcDbLine
 10
585.0859999999999
 20
20.6778
 30
0.0
 11
569.83
 21
5.422139999999999
 31
0.0
  0
LINE
  5
EA0
330
18
100
AcDbEntity
  8
1
  6
DASHED
 62
     1
100
AcDbLine
 10
569.83
 20
5.422139999999999
 30
0.0
 11
556.802
 21
-7.606339999999999
 31
0.0
  0
LINE
  5
EA1
330
18
100
AcDbEntity
  8
1
  6
DASHED
 62
     1
100
AcDbLine
 10
568.115
 20
-18.92
 30
0.0
 11
587.8519999999999
 21
0.8166109999999999
 31
0.0
  0
LINE
  5
EA2
330
18
100
AcDbEntity
  8
1
  6
Continuous
 62
     1
100
AcDbLine
 10
587.8519999999999
 20
0.8166109999999999
 30
0.0
 11
596.3999999999999
 21
9.36415
 31
0.0
  0
LINE
  5
EA3
330
18
100
AcDbEntity
  8
1
  6
Continuous
 62
     1
100
AcDbLine
 10
577.308
 20
19.2638
 30
0.0
 11
564.7619999999999
 21
6.717469999999999
 31
0.0
  0
LINE
  5
EA4
330
18
100
AcDbEntity
  8
1
  6
DASHED
 62
     1
100
AcDbLine
 10
564.4149999999999
 20
6.371259999999999
 30
0.0
 11
558.216
 21
0.171982
 31
0.0
  0
LINE
  5
EA5
330
18
100
AcDbEntity
  8
1
  6
Continuous
 62
     1
100
AcDbLine
 10
580.4899999999999
 20
16.0819
 30
0.0
 11
577.308
 21
19.2638
 31
0.0
  0
LINE
  5
EA6
330
18
100
AcDbEntity
  8
1
  6
DASHED
 62
     1
100
AcDbLine
 10
558.216
 20
0.171982
 30
0.0
 11
561.398
 21
-3.010149999999999
 31
0.0
  0
LINE
  5
EA7
330
18
100
AcDbEntity
  8
1
  6
DASHED
 62
     1
100
AcDbLine
 10
575.187
 20
-11.8487
 30
0.0
 11
583.672
 21
-20.3342
 31
0.0
  0
LINE
  5
EA8
330
18
100
AcDbEntity
  8
1
  6
DASHED
 62
     1
100
AcDbLine
 10
597.8139999999999
 20
-6.192219999999999
 30
0.0
 11
591.819
 21
-0.197116
 31
0.0
  0
LINE
  5
EA9
330
18
100
AcDbEntity
  8
1
  6
Continuous
 62
     1
100
AcDbLine
 10
591.819
 20
-0.197116
 30
0.0
 11
589.329
 21
2.29335
 31
0.0
  0
LINE
  5
EAA
330
18
100
AcDbEntity
  8
1
  6
Continuous
 62
     1
100
AcDbLine
 10
553.118
 20
6.371259999999999
 30
0.0
 11
566.1159999999999
 21
6.371259999999999
 31
0.0
  0
LINE
  5
EAB
330
18
100
AcDbEntity
  8
1
  6
Continuous
 62
     1
100
AcDbLine
 10
566.1159999999999
 20
6.371259999999999
 30
0.0
 11
601.369
 21
-2.637529999999999
 31
0.0
  0
LINE
  5
EAC
330
18
100
AcDbEntity
  8
1
  6
DASHED
 62
     1
100
AcDbLine
 10
580.118
 20
-23.8887
 30
0.0
 11
601.369
 21
-2.637529999999999
 31
0.0
  0
LINE
  5
EAD
330
18
100
AcDbEntity
  8
1
  6
Continuous
 62
     1
100
AcDbLine
 10
621.856
 20
-33.0618
 30
0.0
 11
621.149
 21
-32.3548
 31
0.0
  0
LINE
  5
EAE
330
18
100
AcDbEntity
  8
1
  6
Continuous
 62
     1
100
AcDbLine
 10
615.029
 20
-39.8889
 30
0.0
 11
621.4039999999999
 21
-33.514
 31
0.0
  0
LINE
  5
EAF
330
18
100
AcDbEntity
  8
1
  6
Continuous
 62
     1
100
AcDbLine
 10
615.2369999999999
 20
-48.1666
 30
0.0
 11
625.6469999999999
 21
-37.7567
 31
0.0
  0
ARC
  5
EB0
330
18
100
AcDbEntity
  8
1
  6
Continuous
 62
     1
100
AcDbCircle
 10
626.609
 20
-49.129
 30
0.0
 40
14.722
100
AcDbArc
 50
115.511
 51
142.207
  0
ARC
  5
EB1
330
18
100
AcDbEntity
  8
1
  6
Continuous
 62
     1
100
AcDbCircle
 10
624.2169999999999
 20
-36.327
 30
0.0
 40
3.978
100
AcDbArc
 50
97.02010000000001
 51
173.004
  0
ARC
  5
EB2
330
18
100
AcDbEntity
  8
1
  6
Continuous
 62
     1
100
AcDbCircle
 10
612.424
 20
-45.35379999999999
 30
0.0
 40
3.978
100
AcDbArc
 50
280.045
 51
353.004
  0
ARC
  5
EB3
330
18
100
AcDbEntity
  8
1
  6
Continuous
 62
     1
100
AcDbCircle
 10
610.0309999999999
 20
-32.5516
 30
0.0
 40
14.722
100
AcDbArc
 50
295.511
 51
334.489
  0
ARC
  5
EB4
330
18
100
AcDbEntity
  8
1
  6
Continuous
 62
     1
100
AcDbCircle
 10
622.8340000000001
 20
-34.9437
 30
0.0
 40
3.978
100
AcDbArc
 50
276.995
 51
352.98
  0
LINE
  5
EB5
330
18
100
AcDbEntity
  8
1
  6
Continuous
 62
     1
100
AcDbLine
 10
614.1169999999999
 20
-43.5853
 30
0.0
 11
616.366
 21
-45.8345
 31
0.0
  0
LINE
  5
EB6
330
18
100
AcDbEntity
  8
1
  6
Continuous
 62
     1
100
AcDbLine
 10
620.274
 20
-35.846
 30
0.0
 11
623.3139999999999
 21
-38.8866
 31
0.0
  0
LINE
  5
EB7
330
18
100
AcDbEntity
  8
1
  6
Continuous
 62
     1
100
AcDbLine
 10
623.7359999999999
 20
-32.3841
 30
0.0
 11
626.7759999999999
 21
-35.4246
 31
0.0
  0
LINE
  5
EB8
330
18
100
AcDbEntity
  8
1
  6
Continuous
 62
     1
100
AcDbLine
 10
613.118
 20
-48.1375
 30
0.0
 11
613.118
 21
-53.1375
 31
0.0
  0
ARC
  5
EB9
330
18
100
AcDbEntity
  8
1
  6
Continuous
 62
     1
100
AcDbCircle
 10
612.618
 20
-48.1375
 30
0.0
 40
0.5
100
AcDbArc
 50
0.00000000484136
 51
90.0
  0
LINE
  5
EBA
330
18
100
AcDbEntity
  8
1
  6
Continuous
 62
     1
100
AcDbLine
 10
560.6180000000001
 20
-47.6375
 30
0.0
 11
612.618
 21
-47.6375
 31
0.0
  0
LINE
  5
EBB
330
18
100
AcDbEntity
  8
1
  6
Continuous
 62
     1
100
AcDbLine
 10
617.9669999999999
 20
-46.1439
 30
0.0
 11
623.624
 21
-40.48689999999999
 31
0.0
  0
LINE
  5
EBC
330
18
100
AcDbEntity
  8
1
  6
Continuous
 62
     1
100
AcDbLine
 10
617.259
 20
-46.1436
 30
0.0
 11
617.9669999999999
 21
-46.1439
 31
0.0
  0
LINE
  5
EBD
330
18
100
AcDbEntity
  8
1
  6
Continuous
 62
     1
100
AcDbLine
 10
623.624
 20
-40.48689999999999
 30
0.0
 11
623.624
 21
-39.7794
 31
0.0
  0
LINE
  5
EBE
330
18
100
AcDbEntity
  8
1
  6
Continuous
 62
     1
100
AcDbLine
 10
617.9669999999999
 20
-46.1439
 30
0.0
 11
617.613
 21
-45.7901
 31
0.0
  0
LINE
  5
EBF
330
18
100
AcDbEntity
  8
1
  6
Continuous
 62
     1
100
AcDbLine
 10
623.624
 20
-40.48689999999999
 30
0.0
 11
623.27
 21
-40.13309999999999
 31
0.0
  0
LINE
  5
EC0
330
18
100
AcDbEntity
  8
1
  6
Continuous
 62
     1
100
AcDbLine
 10
559.118
 20
5.86247
 30
0.0
 11
559.118
 21
-46.1375
 31
0.0
  0
LINE
  5
EC1
330
18
100
AcDbEntity
  8
1
  6
Continuous
 62
     1
100
AcDbLine
 10
625.745
 20
16.0819
 30
0.0
 11
628.927
 21
19.2638
 31
0.0
  0
LINE
  5
EC2
330
18
100
AcDbEntity
  8
1
  6
Continuous
 62
     1
100
AcDbLine
 10
628.927
 20
19.2638
 30
0.0
 11
648.019
 21
0.172012
 31
0.0
  0
LINE
  5
EC3
330
18
100
AcDbEntity
  8
1
  6
Continuous
 62
     1
100
AcDbLine
 10
648.019
 20
0.172012
 30
0.0
 11
644.8369999999999
 21
-3.01012
 31
0.0
  0
LINE
  5
EC4
330
18
100
AcDbEntity
  8
1
  6
Continuous
 62
     1
100
AcDbLine
 10
621.149
 20
20.6779
 30
0.0
 11
649.4329999999999
 21
-7.60631
 31
0.0
  0
LINE
  5
EC5
330
18
100
AcDbEntity
  8
1
  6
Continuous
 62
     1
100
AcDbLine
 10
649.4329999999999
 20
-7.60631
 30
0.0
 11
638.1199999999999
 21
-18.92
 31
0.0
  0
LINE
  5
EC6
330
18
100
AcDbEntity
  8
1
  6
Continuous
 62
     1
100
AcDbLine
 10
638.1199999999999
 20
-18.92
 30
0.0
 11
609.835
 21
9.364180000000001
 31
0.0
  0
LINE
  5
EC7
330
18
100
AcDbEntity
  8
1
  6
Continuous
 62
     1
100
AcDbLine
 10
608.067
 20
7.596089999999999
 30
0.0
 11
621.149
 21
20.6779
 31
0.0
  0
LINE
  5
EC8
330
18
100
AcDbEntity
  8
1
  6
Continuous
 62
     1
100
AcDbLine
 10
608.4209999999999
 20
-6.19204
 30
0.0
 11
616.9059999999999
 21
2.293379999999999
 31
0.0
  0
LINE
  5
EC9
330
18
100
AcDbEntity
  8
1
  6
Continuous
 62
     1
100
AcDbLine
 10
631.048
 20
-11.8487
 30
0.0
 11
622.5629999999999
 21
-20.3342
 31
0.0
  0
LINE
  5
ECA
330
18
100
AcDbEntity
  8
1
  6
DIVIDE
 62
     2
100
AcDbLine
 10
553.118
 20
9.371260000000001
 30
0.0
 11
555.118
 21
9.371260000000001
 31
0.0
  0
LINE
  5
ECB
330
18
100
AcDbEntity
  8
1
  6
CENTER
 62
     2
100
AcDbLine
 10
545.4819999999999
 20
-3.63753
 30
0.0
 11
559.118
 21
-3.63753
 31
0.0
  0
LINE
  5
ECC
330
18
100
AcDbEntity
  8
1
  6
CENTER
 62
     2
100
AcDbLine
 10
545.619
 20
-18.6375
 30
0.0
 11
561.155
 21
-18.6375
 31
0.0
  0
LINE
  5
ECD
330
18
100
AcDbEntity
  8
1
  6
CENTER
 62
     2
100
AcDbLine
 10
545.7559999999999
 20
-33.6375
 30
0.0
 11
561.688
 21
-33.6375
 31
0.0
  0
LINE
  5
ECE
330
18
100
AcDbEntity
  8
1
  6
CENTER
 62
     2
100
AcDbLine
 10
573.1180000000001
 20
-44.347
 30
0.0
 11
573.1180000000001
 21
-60.3186
 31
0.0
  0
LINE
  5
ECF
330
18
100
AcDbEntity
  8
1
  6
CENTER
 62
     2
100
AcDbLine
 10
588.118
 20
-45.1062
 30
0.0
 11
588.118
 21
-60.3186
 31
0.0
  0
LINE
  5
ED0
330
18
100
AcDbEntity
  8
1
  6
Continuous
 62
     1
100
AcDbLine
 10
553.118
 20
6.371259999999999
 30
0.0
 11
553.118
 21
-53.1375
 31
0.0
  0
LINE
  5
ED1
330
18
100
AcDbEntity
  8
1
  6
Continuous
 62
     1
100
AcDbLine
 10
553.618
 20
-53.6375
 30
0.0
 11
612.618
 21
-53.6375
 31
0.0
  0
LINE
  5
ED2
330
18
100
AcDbEntity
  8
1
  6
DASHED
 62
     1
100
AcDbLine
 10
559.118
 20
-27.8876
 30
0.0
 11
553.118
 21
-27.8876
 31
0.0
  0
LINE
  5
ED3
330
18
100
AcDbEntity
  8
1
  6
DASHED
 62
     1
100
AcDbLine
 10
559.118
 20
-39.3875
 30
0.0
 11
553.118
 21
-39.3875
 31
0.0
  0
LINE
  5
ED4
330
18
100
AcDbEntity
  8
1
  6
DASHED
 62
     1
100
AcDbLine
 10
559.118
 20
-15.6376
 30
0.0
 11
553.118
 21
-15.6376
 31
0.0
  0
LINE
  5
ED5
330
18
100
AcDbEntity
  8
1
  6
DASHED
 62
     1
100
AcDbLine
 10
559.118
 20
-21.6375
 30
0.0
 11
553.118
 21
-21.6375
 31
0.0
  0
LINE
  5
ED6
330
18
100
AcDbEntity
  8
1
  6
DASHED
 62
     1
100
AcDbLine
 10
559.118
 20
2.11244
 30
0.0
 11
553.118
 21
2.11244
 31
0.0
  0
LINE
  5
ED7
330
18
100
AcDbEntity
  8
1
  6
DASHED
 62
     1
100
AcDbLine
 10
559.118
 20
-9.387499999999999
 30
0.0
 11
553.118
 21
-9.387499999999999
 31
0.0
  0
LINE
  5
ED8
330
18
100
AcDbEntity
  8
1
  6
DASHED
 62
     1
100
AcDbLine
 10
608.8669999999999
 20
-47.6375
 30
0.0
 11
608.8669999999999
 21
-53.6375
 31
0.0
  0
LINE
  5
ED9
330
18
100
AcDbEntity
  8
1
  6
DASHED
 62
     1
100
AcDbLine
 10
597.368
 20
-47.6375
 30
0.0
 11
597.368
 21
-53.6375
 31
0.0
  0
LINE
  5
EDA
330
18
100
AcDbEntity
  8
1
  6
DASHED
 62
     1
100
AcDbLine
 10
591.1169999999999
 20
-47.6375
 30
0.0
 11
591.1169999999999
 21
-53.6375
 31
0.0
  0
LINE
  5
EDB
330
18
100
AcDbEntity
  8
1
  6
DASHED
 62
     1
100
AcDbLine
 10
585.118
 20
-47.6375
 30
0.0
 11
585.118
 21
-53.6375
 31
0.0
  0
LINE
  5
EDC
330
18
100
AcDbEntity
  8
1
  6
DASHED
 62
     1
100
AcDbLine
 10
578.8669999999999
 20
-47.6375
 30
0.0
 11
578.8669999999999
 21
-53.6375
 31
0.0
  0
LINE
  5
EDD
330
18
100
AcDbEntity
  8
1
  6
DASHED
 62
     1
100
AcDbLine
 10
567.368
 20
-47.6375
 30
0.0
 11
567.368
 21
-53.6375
 31
0.0
  0
LINE
  5
EDE
330
18
100
AcDbEntity
  8
1
  6
Continuous
 62
     1
100
AcDbLine
 10
613.118
 20
-47.638
 30
0.0
 11
615.4919999999999
 21
-38.0123
 31
0.0
  0
LINE
  5
EDF
330
18
100
AcDbEntity
  8
1
  6
Continuous
 62
     2
100
AcDbLine
 10
583.1169999999999
 20
20.6774
 30
0.0
 11
583.1169999999999
 21
6.208569999999999
 31
0.0
  0
LINE
  5
EE0
330
18
100
AcDbEntity
  8
1
  6
Continuous
 62
     2
100
AcDbLine
 10
621.149
 20
20.6774
 30
0.0
 11
623.1169999999999
 21
20.6774
 31
0.0
  0
LINE
  5
EE1
330
18
100
AcDbEntity
  8
1
  6
Continuous
 62
     2
100
AcDbLine
 10
583.1169999999999
 20
20.6774
 30
0.0
 11
585.0859999999999
 21
20.6774
 31
0.0
  0
LINE
  5
EE2
330
18
100
AcDbEntity
  8
1
  6
Continuous
 62
     2
100
AcDbLine
 10
623.1169999999999
 20
3.81913
 30
0.0
 11
623.1169999999999
 21
20.6774
 31
0.0
  0
CIRCLE
  5
EE3
330
18
100
AcDbEntity
  8
1
  6
Continuous
 62
     1
100
AcDbCircle
 10
603.1169999999999
 20
-17.63799999999999
 30
0.0
 40
2.5
  0
CIRCLE
  5
EE4
330
18
100
AcDbEntity
  8
1
  6
Continuous
 62
     1
100
AcDbCircle
 10
603.1169999999999
 20
-33.63800000000001
 30
0.0
 40
2.5
  0
LINE
  5
EE5
330
18
100
AcDbEntity
  8
1
  6
CENTER
 62
     2
100
AcDbLine
 10
597.8139999999999
 20
-33.63800000000001
 30
0.0
 11
611.1169999999999
 21
-33.63800000000001
 31
0.0
  0
LINE
  5
EE6
330
18
100
AcDbEntity
  8
1
  6
CENTER
 62
     2
100
AcDbLine
 10
595.118
 20
-17.63799999999999
 30
0.0
 11
607.958
 21
-17.63799999999999
 31
0.0
  0
ARC
  5
EE7
330
18
100
AcDbEntity
  8
1
  6
DASHED
 62
     2
100
AcDbCircle
 10
603.118
 20
12.5456
 30
0.0
 40
7.0
100
AcDbArc
 50
225.0
 51
315.0
  0
LINE
  5
EE8
330
18
100
AcDbEntity
  8
1
  6
CENTER
 62
     2
100
AcDbLine
 10
-89.2523
 20
196.0
 30
0.0
 11
-89.2472
 21
130.202
 31
0.0
  0
LINE
  5
EE9
330
18
100
AcDbEntity
  8
1
  6
Continuous
 62
     1
100
AcDbLine
 10
-69.2558
 20
154.597
 30
0.0
 11
-69.2558
 21
144.344
 31
0.0
  0
LINE
  5
EEA
330
18
100
AcDbEntity
  8
1
  6
Continuous
 62
     2
100
AcDbLine
 10
-70.7483
 20
138.983
 30
0.0
 11
-70.7483
 21
153.126
 31
0.0
  0
LINE
  5
EEB
330
18
100
AcDbEntity
  8
1
  6
Continuous
 62
     2
100
AcDbLine
 10
-74.7483
 20
134.609
 30
0.0
 11
-74.7483
 21
148.751
 31
0.0
  0
LINE
  5
EEC
330
18
100
AcDbEntity
  8
1
  6
Continuous
 62
     2
100
AcDbLine
 10
-81.7483
 20
131.236
 30
0.0
 11
-81.7483
 21
145.378
 31
0.0
  0
LINE
  5
EED
330
18
100
AcDbEntity
  8
1
  6
Continuous
 62
     2
100
AcDbLine
 10
-96.7483
 20
134.604
 30
0.0
 11
-96.7483
 21
131.232
 31
0.0
  0
LINE
  5
EEE
330
18
100
AcDbEntity
  8
1
  6
CENTER
 62
     2
100
AcDbLine
 10
-89.23709999999999
 20
0.206711
 30
0.0
 11
-89.23709999999999
 21
16.5231
 31
0.0
  0
LINE
  5
EEF
330
18
100
AcDbEntity
  8
1
  6
Continuous
 62
     1
100
AcDbLine
 10
-57.2301
 20
-2.3033
 30
0.0
 11
-57.2301
 21
6.361979999999999
 31
0.0
  0
LINE
  5
EF0
330
18
100
AcDbEntity
  8
1
  6
Continuous
 62
     1
100
AcDbLine
 10
-143.23
 20
-2.3033
 30
0.0
 11
-143.23
 21
6.361979999999999
 31
0.0
  0
LINE
  5
EF1
330
18
100
AcDbEntity
  8
1
  6
CENTER
 62
     2
100
AcDbLine
 10
-95.63799999999998
 20
7.949389999999999
 30
0.0
 11
-82.7881
 21
7.949389999999999
 31
0.0
  0
LINE
  5
EF2
330
18
100
AcDbEntity
  8
1
  6
Continuous
 62
     1
100
AcDbLine
 10
-69.23709999999999
 20
7.949389999999999
 30
0.0
 11
-69.23709999999999
 21
-5.855059999999999
 31
0.0
  0
LINE
  5
EF3
330
18
100
AcDbEntity
  8
1
  6
Continuous
 62
     1
100
AcDbLine
 10
-109.237
 20
-5.854809999999999
 30
0.0
 11
-109.237
 21
7.949389999999999
 31
0.0
  0
INSERT
  5
EF4
330
18
100
AcDbEntity
  8
0
100
AcDbBlockReference
  2
_G_P_9
 10
0.0
 20
0.0
 30
0.0
  0
LINE
  5
EF5
330
18
100
AcDbEntity
  8
1
  6
Continuous
 62
     2
100
AcDbLine
 10
-70.7371
 20
2.575849999999999
 30
0.0
 11
-70.7371
 21
-11.1002
 31
0.0
  0
LINE
  5
EF6
330
18
100
AcDbEntity
  8
1
  6
Continuous
 62
     2
100
AcDbLine
 10
-107.737
 20
-11.1002
 30
0.0
 11
-107.737
 21
2.575849999999999
 31
0.0
  0
INSERT
  5
EF7
330
18
100
AcDbEntity
  8
0
100
AcDbBlockReference
  2
_G_P_10
 10
0.0
 20
0.0
 30
0.0
  0
INSERT
  5
EF8
330
18
100
AcDbEntity
  8
0
100
AcDbBlockReference
  2
_G_P_11
 10
0.0
 20
0.0
 30
0.0
  0
LINE
  5
EF9
330
18
100
AcDbEntity
  8
1
  6
Continuous
 62
     1
100
AcDbLine
 10
-131.23
 20
-2.3033
 30
0.0
 11
-131.23
 21
7.949389999999999
 31
0.0
  0
LINE
  5
EFA
330
18
100
AcDbEntity
  8
1
  6
Continuous
 62
     2
100
AcDbLine
 10
-129.738
 20
13.3099
 30
0.0
 11
-129.738
 21
-0.8321979999999999
 31
0.0
  0
LINE
  5
EFB
330
18
100
AcDbEntity
  8
1
  6
Continuous
 62
     2
100
AcDbLine
 10
-125.738
 20
17.6841
 30
0.0
 11
-125.738
 21
3.541949999999999
 31
0.0
  0
LINE
  5
EFC
330
18
100
AcDbEntity
  8
1
  6
Continuous
 62
     2
100
AcDbLine
 10
-118.738
 20
21.0573
 30
0.0
 11
-118.738
 21
6.915099999999999
 31
0.0
  0
LINE
  5
EFD
330
18
100
AcDbEntity
  8
1
  6
Continuous
 62
     2
100
AcDbLine
 10
-103.738
 20
17.6893
 30
0.0
 11
-103.738
 21
21.0616
 31
0.0
  0
INSERT
  5
EFE
330
18
100
AcDbEntity
  8
0
100
AcDbBlockReference
  2
_G_P_12
 10
0.0
 20
0.0
 30
0.0
  0
LINE
  5
EFF
330
18
100
AcDbEntity
  8
1
  6
Continuous
 62
     2
100
AcDbLine
 10
-81.73709999999999
 20
-5.16048
 30
0.0
 11
-81.73709999999999
 21
-18.6522
 31
0.0
  0
LINE
  5
F00
330
18
100
AcDbEntity
  8
1
  6
Continuous
 62
     2
100
AcDbLine
 10
-96.73709999999999
 20
-18.6522
 30
0.0
 11
-96.73709999999999
 21
-5.16048
 31
0.0
  0
LINE
  5
F01
330
18
100
AcDbEntity
  8
1
  6
Continuous
 62
     2
100
AcDbLine
 10
-74.7371
 20
-1.79085
 30
0.0
 11
-74.7371
 21
-15.3626
 31
0.0
  0
LINE
  5
F02
330
18
100
AcDbEntity
  8
1
  6
Continuous
 62
     2
100
AcDbLine
 10
-103.737
 20
-15.3626
 30
0.0
 11
-103.737
 21
-1.79085
 31
0.0
  0
LINE
  5
F03
330
18
100
AcDbEntity
  8
1
  6
Continuous
 62
     2
100
AcDbLine
 10
-89.23709999999999
 20
-6.1927
 30
0.0
 11
-89.23709999999999
 21
-19.6361
 31
0.0
  0
LINE
  5
F04
330
18
100
AcDbEntity
  8
1
  6
CENTER
 62
     2
100
AcDbLine
 10
-111.234
 20
-43.70709999999999
 30
0.0
 11
-111.239
 21
22.0915
 31
0.0
  0
LINE
  5
F05
330
18
100
AcDbEntity
  8
1
  6
CENTER
 62
     2
100
AcDbLine
 10
-119.296
 20
-38.0123
 30
0.0
 11
-103.916
 21
-38.0123
 31
0.0
  0
LINE
  5
F06
330
18
100
AcDbEntity
  8
1
  6
Continuous
 62
     1
100
AcDbLine
 10
-109.237
 20
-2.3033
 30
0.0
 11
-149.23
 21
-2.3033
 31
0.0
  0
LINE
  5
F07
330
18
100
AcDbEntity
  8
1
  6
Continuous
 62
     1
100
AcDbLine
 10
-51.2301
 20
-2.3033
 30
0.0
 11
-69.23709999999999
 21
-2.3033
 31
0.0
  0
LINE
  5
F08
330
18
100
AcDbEntity
  8
1
  6
CENTER
 62
     2
100
AcDbLine
 10
-89.2383
 20
-219.086
 30
0.0
 11
-89.23720000000001
 21
-232.828
 31
0.0
  0
LINE
  5
F09
330
18
100
AcDbEntity
  8
1
  6
CENTER
 62
     2
100
AcDbLine
 10
339.764
 20
-147.086
 30
0.0
 11
339.769
 21
-201.087
 31
0.0
  0
LINE
  5
F0A
330
18
100
AcDbEntity
  8
1
  6
CENTER
 62
     2
100
AcDbLine
 10
459.769
 20
-201.087
 30
0.0
 11
459.7649999999999
 21
-147.086
 31
0.0
  0
LINE
  5
F0B
330
18
100
AcDbEntity
  8
1
  6
Continuous
 62
     1
100
AcDbLine
 10
329.733
 20
6.36247
 30
0.0
 11
356.733
 21
6.36247
 31
0.0
  0
LINE
  5
F0C
330
18
100
AcDbEntity
  8
1
  6
Continuous
 62
     1
100
AcDbLine
 10
442.733
 20
6.36247
 30
0.0
 11
469.733
 21
6.36247
 31
0.0
  0
LINE
  5
F0D
330
18
100
AcDbEntity
  8
1
  6
Continuous
 62
     1
100
AcDbLine
 10
469.733
 20
-53.6375
 30
0.0
 11
442.733
 21
-53.6375
 31
0.0
  0
LINE
  5
F0E
330
18
100
AcDbEntity
  8
1
  6
Continuous
 62
     1
100
AcDbLine
 10
356.733
 20
-53.6375
 30
0.0
 11
329.733
 21
-53.6375
 31
0.0
  0
LINE
  5
F0F
330
18
100
AcDbEntity
  8
1
  6
Continuous
 62
     1
100
AcDbLine
 10
356.733
 20
-53.6375
 30
0.0
 11
356.733
 21
-50.472
 31
0.0
  0
ARC
  5
F10
330
18
100
AcDbEntity
  8
1
  6
Continuous
 62
     1
100
AcDbCircle
 10
358.233
 20
-50.472
 30
0.0
 40
1.5
100
AcDbArc
 50
90.0
 51
180.0
  0
LINE
  5
F11
330
18
100
AcDbEntity
  8
1
  6
Continuous
 62
     1
100
AcDbLine
 10
442.733
 20
-50.472
 30
0.0
 11
442.733
 21
-53.6375
 31
0.0
  0
ARC
  5
F12
330
18
100
AcDbEntity
  8
1
  6
Continuous
 62
     1
100
AcDbCircle
 10
441.2329999999999
 20
-50.472
 30
0.0
 40
1.5
100
AcDbArc
 50
0.0
 51
90.0
  0
LINE
  5
F13
330
18
100
AcDbEntity
  8
1
  6
Continuous
 62
     1
100
AcDbLine
 10
469.733
 20
-47.6375
 30
0.0
 11
450.2329999999999
 21
-47.6375
 31
0.0
  0
LINE
  5
F14
330
18
100
AcDbEntity
  8
1
  6
Continuous
 62
     1
100
AcDbLine
 10
349.233
 20
-47.6375
 30
0.0
 11
329.733
 21
-47.6375
 31
0.0
  0
ARC
  5
F15
330
18
100
AcDbEntity
  8
1
  6
Continuous
 62
     1
100
AcDbCircle
 10
349.233
 20
-46.1375
 30
0.0
 40
1.5
100
AcDbArc
 50
270.0
 51
0.0
  0
LINE
  5
F16
330
18
100
AcDbEntity
  8
1
  6
Continuous
 62
     1
100
AcDbLine
 10
350.733
 20
6.36247
 30
0.0
 11
350.733
 21
-46.1375
 31
0.0
  0
LINE
  5
F17
330
18
100
AcDbEntity
  8
1
  6
Continuous
 62
     1
100
AcDbLine
 10
448.733
 20
-46.1375
 30
0.0
 11
448.733
 21
6.36247
 31
0.0
  0
ARC
  5
F18
330
18
100
AcDbEntity
  8
1
  6
Continuous
 62
     1
100
AcDbCircle
 10
450.2329999999999
 20
-46.1375
 30
0.0
 40
1.5
100
AcDbArc
 50
180.0
 51
270.0
  0
LINE
  5
F19
330
18
100
AcDbEntity
  8
1
  6
CENTER
 62
     2
100
AcDbLine
 10
465.794
 20
-18.6375
 30
0.0
 11
452.8299999999999
 21
-18.6375
 31
0.0
  0
LINE
  5
F1A
330
18
100
AcDbEntity
  8
1
  6
CENTER
 62
     2
100
AcDbLine
 10
348.091
 20
-18.6375
 30
0.0
 11
332.136
 21
-18.6375
 31
0.0
  0
LINE
  5
F1B
330
18
100
AcDbEntity
  8
1
  6
CENTER
 62
     2
100
AcDbLine
 10
332.0209999999999
 20
-33.6375
 30
0.0
 11
348.337
 21
-33.6375
 31
0.0
  0
LINE
  5
F1C
330
18
100
AcDbEntity
  8
1
  6
CENTER
 62
     2
100
AcDbLine
 10
451.1009999999999
 20
-33.6375
 30
0.0
 11
467.634
 21
-33.6375
 31
0.0
  0
LINE
  5
F1D
330
18
100
AcDbEntity
  8
1
  6
CENTER
 62
     2
100
AcDbLine
 10
467.414
 20
-3.63753
 30
0.0
 11
451.716
 21
-3.63753
 31
0.0
  0
LINE
  5
F1E
330
18
100
AcDbEntity
  8
1
  6
CENTER
 62
     2
100
AcDbLine
 10
348.082
 20
-3.63753
 30
0.0
 11
332.148
 21
-3.63753
 31
0.0
  0
ARC
  5
F1F
330
18
100
AcDbEntity
  8
1
  6
Continuous
 62
     1
100
AcDbCircle
 10
339.733
 20
-35.1375
 30
0.0
 40
4.25
100
AcDbArc
 50
180.0
 51
0.0
  0
ARC
  5
F20
330
18
100
AcDbEntity
  8
1
  6
Continuous
 62
     1
100
AcDbCircle
 10
339.733
 20
-32.1375
 30
0.0
 40
4.25
100
AcDbArc
 50
0.0
 51
180.0
  0
LINE
  5
F21
330
18
100
AcDbEntity
  8
1
  6
Continuous
 62
     1
100
AcDbLine
 10
335.483
 20
-35.1375
 30
0.0
 11
335.483
 21
-32.1375
 31
0.0
  0
LINE
  5
F22
330
18
100
AcDbEntity
  8
1
  6
Continuous
 62
     1
100
AcDbLine
 10
343.983
 20
-35.1375
 30
0.0
 11
343.983
 21
-32.1375
 31
0.0
  0
LINE
  5
F23
330
18
100
AcDbEntity
  8
1
  6
Continuous
 62
     1
100
AcDbLine
 10
335.483
 20
-5.137529999999999
 30
0.0
 11
335.483
 21
-2.137529999999999
 31
0.0
  0
LINE
  5
F24
330
18
100
AcDbEntity
  8
1
  6
Continuous
 62
     1
100
AcDbLine
 10
343.983
 20
-5.137529999999999
 30
0.0
 11
343.983
 21
-2.137529999999999
 31
0.0
  0
ARC
  5
F25
330
18
100
AcDbEntity
  8
1
  6
Continuous
 62
     1
100
AcDbCircle
 10
339.733
 20
-2.137529999999999
 30
0.0
 40
4.25
100
AcDbArc
 50
0.0
 51
180.0
  0
ARC
  5
F26
330
18
100
AcDbEntity
  8
1
  6
Continuous
 62
     1
100
AcDbCircle
 10
339.733
 20
-5.137529999999999
 30
0.0
 40
4.25
100
AcDbArc
 50
180.0
 51
0.0
  0
LINE
  5
F27
330
18
100
AcDbEntity
  8
1
  6
Continuous
 62
     1
100
AcDbLine
 10
455.4829999999999
 20
-35.1375
 30
0.0
 11
455.4829999999999
 21
-32.1375
 31
0.0
  0
LINE
  5
F28
330
18
100
AcDbEntity
  8
1
  6
Continuous
 62
     1
100
AcDbLine
 10
463.9829999999999
 20
-35.1375
 30
0.0
 11
463.9829999999999
 21
-32.1375
 31
0.0
  0
ARC
  5
F29
330
18
100
AcDbEntity
  8
1
  6
Continuous
 62
     1
100
AcDbCircle
 10
459.733
 20
-32.1375
 30
0.0
 40
4.25
100
AcDbArc
 50
0.0
 51
180.0
  0
ARC
  5
F2A
330
18
100
AcDbEntity
  8
1
  6
Continuous
 62
     1
100
AcDbCircle
 10
459.733
 20
-35.1375
 30
0.0
 40
4.25
100
AcDbArc
 50
180.0
 51
0.0
  0
LINE
  5
F2B
330
18
100
AcDbEntity
  8
1
  6
Continuous
 62
     1
100
AcDbLine
 10
455.4829999999999
 20
-5.137529999999999
 30
0.0
 11
455.4829999999999
 21
-2.137529999999999
 31
0.0
  0
LINE
  5
F2C
330
18
100
AcDbEntity
  8
1
  6
Continuous
 62
     1
100
AcDbLine
 10
463.9829999999999
 20
-5.137529999999999
 30
0.0
 11
463.9829999999999
 21
-2.137529999999999
 31
0.0
  0
ARC
  5
F2D
330
18
100
AcDbEntity
  8
1
  6
Continuous
 62
     1
100
AcDbCircle
 10
459.733
 20
-2.137529999999999
 30
0.0
 40
4.25
100
AcDbArc
 50
0.0
 51
180.0
  0
ARC
  5
F2E
330
18
100
AcDbEntity
  8
1
  6
Continuous
 62
     1
100
AcDbCircle
 10
459.733
 20
-5.137529999999999
 30
0.0
 40
4.25
100
AcDbArc
 50
180.0
 51
0.0
  0
CIRCLE
  5
F2F
330
18
100
AcDbEntity
  8
1
  6
Continuous
 62
     1
100
AcDbCircle
 10
339.771
 20
-18.6375
 30
0.0
 40
3.0
  0
LINE
  5
F30
330
18
100
AcDbEntity
  8
1
  6
Continuous
 62
     1
100
AcDbLine
 10
336.771
 20
-18.6375
 30
0.0
 11
342.771
 21
-18.6375
 31
0.0
  0
LINE
  5
F31
330
18
100
AcDbEntity
  8
1
  6
Continuous
 62
     1
100
AcDbLine
 10
339.733
 20
-21.637
 30
0.0
 11
339.733
 21
-15.6375
 31
0.0
  0
LINE
  5
F32
330
18
100
AcDbEntity
  8
1
  6
Continuous
 62
     1
100
AcDbLine
 10
342.684
 20
-19.3543
 30
0.0
 11
340.4880000000001
 21
-21.5506
 31
0.0
  0
LINE
  5
F33
330
18
100
AcDbEntity
  8
1
  6
Continuous
 62
     1
100
AcDbLine
 10
339.733
 20
-21.5989
 30
0.0
 11
342.694
 21
-18.6375
 31
0.0
  0
LINE
  5
F34
330
18
100
AcDbEntity
  8
1
  6
Continuous
 62
     1
100
AcDbLine
 10
341.9869999999999
 20
-18.6375
 30
0.0
 11
339.733
 21
-20.8918
 31
0.0
  0
LINE
  5
F35
330
18
100
AcDbEntity
  8
1
  6
Continuous
 62
     1
100
AcDbLine
 10
339.733
 20
-20.1847
 30
0.0
 11
341.28
 21
-18.6375
 31
0.0
  0
LINE
  5
F36
330
18
100
AcDbEntity
  8
1
  6
Continuous
 62
     1
100
AcDbLine
 10
340.5730000000001
 20
-18.6375
 30
0.0
 11
339.733
 21
-19.4776
 31
0.0
  0
LINE
  5
F37
330
18
100
AcDbEntity
  8
1
  6
Continuous
 62
     1
100
AcDbLine
 10
339.733
 20
-18.7704
 30
0.0
 11
339.866
 21
-18.6375
 31
0.0
  0
LINE
  5
F38
330
18
100
AcDbEntity
  8
1
  6
Continuous
 62
     1
100
AcDbLine
 10
339.733
 20
-18.0633
 30
0.0
 11
339.159
 21
-18.6375
 31
0.0
  0
LINE
  5
F39
330
18
100
AcDbEntity
  8
1
  6
Continuous
 62
     1
100
AcDbLine
 10
338.451
 20
-18.6375
 30
0.0
 11
339.733
 21
-17.3562
 31
0.0
  0
LINE
  5
F3A
330
18
100
AcDbEntity
  8
1
  6
Continuous
 62
     1
100
AcDbLine
 10
339.733
 20
-16.6491
 30
0.0
 11
337.744
 21
-18.6375
 31
0.0
  0
LINE
  5
F3B
330
18
100
AcDbEntity
  8
1
  6
Continuous
 62
     1
100
AcDbLine
 10
337.037
 20
-18.6375
 30
0.0
 11
339.733
 21
-15.942
 31
0.0
  0
LINE
  5
F3C
330
18
100
AcDbEntity
  8
1
  6
Continuous
 62
     1
100
AcDbLine
 10
339.291
 20
-15.6761
 30
0.0
 11
336.81
 21
-18.1577
 31
0.0
  0
LINE
  5
F3D
330
18
100
AcDbEntity
  8
1
  6
Continuous
 62
     1
100
AcDbLine
 10
337.252
 20
-17.0083
 30
0.0
 11
338.142
 21
-16.1185
 31
0.0
  0
CIRCLE
  5
F3E
330
18
100
AcDbEntity
  8
1
  6
Continuous
 62
     1
100
AcDbCircle
 10
459.7709999999999
 20
-18.6375
 30
0.0
 40
3.0
  0
LINE
  5
F3F
330
18
100
AcDbEntity
  8
1
  6
Continuous
 62
     1
100
AcDbLine
 10
456.7709999999999
 20
-18.6375
 30
0.0
 11
462.7709999999999
 21
-18.6375
 31
0.0
  0
LINE
  5
F40
330
18
100
AcDbEntity
  8
1
  6
Continuous
 62
     1
100
AcDbLine
 10
459.733
 20
-21.637
 30
0.0
 11
459.733
 21
-15.6375
 31
0.0
  0
LINE
  5
F41
330
18
100
AcDbEntity
  8
1
  6
Continuous
 62
     1
100
AcDbLine
 10
462.5939999999999
 20
-19.6525
 30
0.0
 11
460.786
 21
-21.4606
 31
0.0
  0
LINE
  5
F42
330
18
100
AcDbEntity
  8
1
  6
Continuous
 62
     1
100
AcDbLine
 10
459.905
 20
-21.6345
 30
0.0
 11
462.768
 21
-18.7714
 31
0.0
  0
LINE
  5
F43
330
18
100
AcDbEntity
  8
1
  6
Continuous
 62
     1
100
AcDbLine
 10
462.195
 20
-18.6375
 30
0.0
 11
459.733
 21
-21.0999
 31
0.0
  0
LINE
  5
F44
330
18
100
AcDbEntity
  8
1
  6
Continuous
 62
     1
100
AcDbLine
 10
459.733
 20
-20.3928
 30
0.0
 11
461.488
 21
-18.6375
 31
0.0
  0
LINE
  5
F45
330
18
100
AcDbEntity
  8
1
  6
Continuous
 62
     1
100
AcDbLine
 10
460.7809999999999
 20
-18.6375
 30
0.0
 11
459.733
 21
-19.6857
 31
0.0
  0
LINE
  5
F46
330
18
100
AcDbEntity
  8
1
  6
Continuous
 62
     1
100
AcDbLine
 10
459.733
 20
-18.9786
 30
0.0
 11
460.074
 21
-18.6375
 31
0.0
  0
LINE
  5
F47
330
18
100
AcDbEntity
  8
1
  6
Continuous
 62
     1
100
AcDbLine
 10
459.733
 20
-18.2715
 30
0.0
 11
459.3669999999999
 21
-18.6375
 31
0.0
  0
LINE
  5
F48
330
18
100
AcDbEntity
  8
1
  6
Continuous
 62
     1
100
AcDbLine
 10
458.66
 20
-18.6375
 30
0.0
 11
459.733
 21
-17.5644
 31
0.0
  0
LINE
  5
F49
330
18
100
AcDbEntity
  8
1
  6
Continuous
 62
     1
100
AcDbLine
 10
459.733
 20
-16.8573
 30
0.0
 11
457.952
 21
-18.6375
 31
0.0
  0
LINE
  5
F4A
330
18
100
AcDbEntity
  8
1
  6
Continuous
 62
     1
100
AcDbLine
 10
457.2449999999999
 20
-18.6375
 30
0.0
 11
459.733
 21
-16.1502
 31
0.0
  0
LINE
  5
F4B
330
18
100
AcDbEntity
  8
1
  6
Continuous
 62
     1
100
AcDbLine
 10
459.528
 20
-15.6474
 30
0.0
 11
456.781
 21
-18.3946
 31
0.0
  0
LINE
  5
F4C
330
18
100
AcDbEntity
  8
1
  6
Continuous
 62
     1
100
AcDbLine
 10
457.0149999999999
 20
-17.4541
 30
0.0
 11
458.588
 21
-15.8808
 31
0.0
  0
LINE
  5
F4D
330
18
100
AcDbEntity
  8
1
  6
Continuous
 62
     1
100
AcDbLine
 10
351.233
 20
-26.6375
 30
0.0
 11
448.233
 21
-26.6375
 31
0.0
  0
LINE
  5
F4E
330
18
100
AcDbEntity
  8
1
  6
Continuous
 62
     1
100
AcDbLine
 10
448.233
 20
-24.6375
 30
0.0
 11
351.233
 21
-24.6375
 31
0.0
  0
ARC
  5
F4F
330
18
100
AcDbEntity
  8
1
  6
Continuous
 62
     1
100
AcDbCircle
 10
351.233
 20
-27.1375
 30
0.0
 40
0.5
100
AcDbArc
 50
90.0
 51
180.0
  0
ARC
  5
F50
330
18
100
AcDbEntity
  8
1
  6
Continuous
 62
     1
100
AcDbCircle
 10
351.233
 20
-24.1375
 30
0.0
 40
0.5
100
AcDbArc
 50
180.0
 51
270.0
  0
ARC
  5
F51
330
18
100
AcDbEntity
  8
1
  6
Continuous
 62
     1
100
AcDbCircle
 10
448.233
 20
-27.1375
 30
0.0
 40
0.5
100
AcDbArc
 50
0.0
 51
90.0
  0
ARC
  5
F52
330
18
100
AcDbEntity
  8
1
  6
Continuous
 62
     1
100
AcDbCircle
 10
448.233
 20
-24.1375
 30
0.0
 40
0.5
100
AcDbArc
 50
270.0
 51
0.0
  0
LINE
  5
F53
330
18
100
AcDbEntity
  8
1
  6
Continuous
 62
     1
100
AcDbLine
 10
358.233
 20
-48.972
 30
0.0
 11
441.2329999999999
 21
-48.972
 31
0.0
  0
LINE
  5
F54
330
18
100
AcDbEntity
  8
1
  6
DASHED
 62
     1
100
AcDbLine
 10
356.733
 20
-50.472
 30
0.0
 11
356.733
 21
-2.30281
 31
0.0
  0
LINE
  5
F55
330
18
100
AcDbEntity
  8
1
  6
DASHED
 62
     1
100
AcDbLine
 10
442.733
 20
-50.472
 30
0.0
 11
442.733
 21
-2.30281
 31
0.0
  0
ARC
  5
F56
330
18
100
AcDbEntity
  8
1
  6
Continuous
 62
     1
100
AcDbCircle
 10
450.2329999999999
 20
-46.1375
 30
0.0
 40
1.5
100
AcDbArc
 50
180.005
 51
270.005
  0
LINE
  5
F57
330
18
100
AcDbEntity
  8
1
  6
Continuous
 62
     1
100
AcDbLine
 10
469.733
 20
6.36247
 30
0.0
 11
469.733
 21
-53.3452
 31
0.0
  0
LINE
  5
F58
330
18
100
AcDbEntity
  8
1
  6
Continuous
 62
     1
100
AcDbLine
 10
329.491
 20
6.40678
 30
0.0
 11
329.491
 21
-53.7141
 31
0.0
  0
LINE
  5
F59
330
18
100
AcDbEntity
  8
1
  6
CENTER
 62
     2
100
AcDbLine
 10
399.733
 20
16.1084
 30
0.0
 11
399.733
 21
-52.1273
 31
0.0
  0
ARC
  5
F5A
330
18
100
AcDbEntity
  8
1
  6
Continuous
 62
     1
100
AcDbCircle
 10
339.754
 20
-159.586
 30
0.0
 40
4.25
100
AcDbArc
 50
0.0
 51
180.0
  0
ARC
  5
F5B
330
18
100
AcDbEntity
  8
1
  6
Continuous
 62
     1
100
AcDbCircle
 10
339.754
 20
-162.586
 30
0.0
 40
4.25
100
AcDbArc
 50
180.0
 51
0.0
  0
LINE
  5
F5C
330
18
100
AcDbEntity
  8
1
  6
Continuous
 62
     1
100
AcDbLine
 10
335.504
 20
-159.586
 30
0.0
 11
335.504
 21
-162.586
 31
0.0
  0
LINE
  5
F5D
330
18
100
AcDbEntity
  8
1
  6
Continuous
 62
     1
100
AcDbLine
 10
344.004
 20
-159.586
 30
0.0
 11
344.004
 21
-162.586
 31
0.0
  0
LINE
  5
F5E
330
18
100
AcDbEntity
  8
1
  6
Continuous
 62
     1
100
AcDbLine
 10
335.504
 20
-189.586
 30
0.0
 11
335.504
 21
-192.586
 31
0.0
  0
LINE
  5
F5F
330
18
100
AcDbEntity
  8
1
  6
Continuous
 62
     1
100
AcDbLine
 10
344.004
 20
-189.586
 30
0.0
 11
344.004
 21
-192.586
 31
0.0
  0
ARC
  5
F60
330
18
100
AcDbEntity
  8
1
  6
Continuous
 62
     1
100
AcDbCircle
 10
339.754
 20
-192.586
 30
0.0
 40
4.25
100
AcDbArc
 50
180.0
 51
0.0
  0
ARC
  5
F61
330
18
100
AcDbEntity
  8
1
  6
Continuous
 62
     1
100
AcDbCircle
 10
339.754
 20
-189.586
 30
0.0
 40
4.25
100
AcDbArc
 50
0.0
 51
180.0
  0
CIRCLE
  5
F62
330
18
100
AcDbEntity
  8
1
  6
Continuous
 62
     1
100
AcDbCircle
 10
339.792
 20
-176.086
 30
0.0
 40
3.0
  0
LINE
  5
F63
330
18
100
AcDbEntity
  8
1
  6
Continuous
 62
     1
100
AcDbLine
 10
336.792
 20
-176.086
 30
0.0
 11
342.792
 21
-176.086
 31
0.0
  0
LINE
  5
F64
330
18
100
AcDbEntity
  8
1
  6
Continuous
 62
     1
100
AcDbLine
 10
339.754
 20
-173.087
 30
0.0
 11
339.754
 21
-179.086
 31
0.0
  0
LINE
  5
F65
330
18
100
AcDbEntity
  8
1
  6
Continuous
 62
     1
100
AcDbLine
 10
342.789
 20
-175.945
 30
0.0
 11
342.647
 21
-176.086
 31
0.0
  0
LINE
  5
F66
330
18
100
AcDbEntity
  8
1
  6
Continuous
 62
     1
100
AcDbLine
 10
342.364
 20
-176.086
 30
0.0
 11
342.765
 21
-175.685
 31
0.0
  0
LINE
  5
F67
330
18
100
AcDbEntity
  8
1
  6
Continuous
 62
     1
100
AcDbLine
 10
342.723
 20
-175.445
 30
0.0
 11
342.082
 21
-176.086
 31
0.0
  0
LINE
  5
F68
330
18
100
AcDbEntity
  8
1
  6
Continuous
 62
     1
100
AcDbLine
 10
341.799
 20
-176.086
 30
0.0
 11
342.665
 21
-175.22
 31
0.0
  0
LINE
  5
F69
330
18
100
AcDbEntity
  8
1
  6
Continuous
 62
     1
100
AcDbLine
 10
342.593
 20
-175.01
 30
0.0
 11
341.516
 21
-176.086
 31
0.0
  0
LINE
  5
F6A
330
18
100
AcDbEntity
  8
1
  6
Continuous
 62
     1
100
AcDbLine
 10
341.233
 20
-176.086
 30
0.0
 11
342.508
 21
-174.811
 31
0.0
  0
LINE
  5
F6B
330
18
100
AcDbEntity
  8
1
  6
Continuous
 62
     1
100
AcDbLine
 10
342.412
 20
-174.624
 30
0.0
 11
340.95
 21
-176.086
 31
0.0
  0
LINE
  5
F6C
330
18
100
AcDbEntity
  8
1
  6
Continuous
 62
     1
100
AcDbLine
 10
340.667
 20
-176.086
 30
0.0
 11
342.306
 21
-174.448
 31
0.0
  0
LINE
  5
F6D
330
18
100
AcDbEntity
  8
1
  6
Continuous
 62
     1
100
AcDbLine
 10
342.189
 20
-174.282
 30
0.0
 11
340.385
 21
-176.086
 31
0.0
  0
LINE
  5
F6E
330
18
100
AcDbEntity
  8
1
  6
Continuous
 62
     1
100
AcDbLine
 10
340.102
 20
-176.086
 30
0.0
 11
342.063
 21
-174.125
 31
0.0
  0
LINE
  5
F6F
330
18
100
AcDbEntity
  8
1
  6
Continuous
 62
     1
100
AcDbLine
 10
341.927
 20
-173.978
 30
0.0
 11
339.819
 21
-176.086
 31
0.0
  0
LINE
  5
F70
330
18
100
AcDbEntity
  8
1
  6
Continuous
 62
     1
100
AcDbLine
 10
339.754
 20
-175.869
 30
0.0
 11
341.782
 21
-173.841
 31
0.0
  0
LINE
  5
F71
330
18
100
AcDbEntity
  8
1
  6
Continuous
 62
     1
100
AcDbLine
 10
341.6269999999999
 20
-173.713
 30
0.0
 11
339.754
 21
-175.586
 31
0.0
  0
LINE
  5
F72
330
18
100
AcDbEntity
  8
1
  6
Continuous
 62
     1
100
AcDbLine
 10
339.754
 20
-175.303
 30
0.0
 11
341.462
 21
-173.594
 31
0.0
  0
LINE
  5
F73
330
18
100
AcDbEntity
  8
1
  6
Continuous
 62
     1
100
AcDbLine
 10
341.288
 20
-173.486
 30
0.0
 11
339.754
 21
-175.02
 31
0.0
  0
LINE
  5
F74
330
18
100
AcDbEntity
  8
1
  6
Continuous
 62
     1
100
AcDbLine
 10
339.754
 20
-174.737
 30
0.0
 11
341.103
 21
-173.388
 31
0.0
  0
LINE
  5
F75
330
18
100
AcDbEntity
  8
1
  6
Continuous
 62
     1
100
AcDbLine
 10
340.907
 20
-173.301
 30
0.0
 11
339.754
 21
-174.454
 31
0.0
  0
LINE
  5
F76
330
18
100
AcDbEntity
  8
1
  6
Continuous
 62
     1
100
AcDbLine
 10
339.754
 20
-174.172
 30
0.0
 11
340.699
 21
-173.226
 31
0.0
  0
LINE
  5
F77
330
18
100
AcDbEntity
  8
1
  6
Continuous
 62
     1
100
AcDbLine
 10
340.477
 20
-173.165
 30
0.0
 11
339.754
 21
-173.889
 31
0.0
  0
LINE
  5
F78
330
18
100
AcDbEntity
  8
1
  6
Continuous
 62
     1
100
AcDbLine
 10
339.754
 20
-173.606
 30
0.0
 11
340.24
 21
-173.12
 31
0.0
  0
LINE
  5
F79
330
18
100
AcDbEntity
  8
1
  6
Continuous
 62
     1
100
AcDbLine
 10
339.9840000000001
 20
-173.092
 30
0.0
 11
339.754
 21
-173.323
 31
0.0
  0
LINE
  5
F7A
330
18
100
AcDbEntity
  8
1
  6
Continuous
 62
     1
100
AcDbLine
 10
339.754
 20
-178.98
 30
0.0
 11
339.651
 21
-179.083
 31
0.0
  0
LINE
  5
F7B
330
18
100
AcDbEntity
  8
1
  6
Continuous
 62
     1
100
AcDbLine
 10
339.3909999999999
 20
-179.059
 30
0.0
 11
339.754
 21
-178.697
 31
0.0
  0
LINE
  5
F7C
330
18
100
AcDbEntity
  8
1
  6
Continuous
 62
     1
100
AcDbLine
 10
339.754
 20
-178.414
 30
0.0
 11
339.151
 21
-179.017
 31
0.0
  0
LINE
  5
F7D
330
18
100
AcDbEntity
  8
1
  6
Continuous
 62
     1
100
AcDbLine
 10
338.926
 20
-178.959
 30
0.0
 11
339.754
 21
-178.1309999999999
 31
0.0
  0
LINE
  5
F7E
330
18
100
AcDbEntity
  8
1
  6
Continuous
 62
     1
100
AcDbLine
 10
339.754
 20
-177.848
 30
0.0
 11
338.716
 21
-178.886
 31
0.0
  0
LINE
  5
F7F
330
18
100
AcDbEntity
  8
1
  6
Continuous
 62
     1
100
AcDbLine
 10
338.517
 20
-178.802
 30
0.0
 11
339.754
 21
-177.566
 31
0.0
  0
LINE
  5
F80
330
18
100
AcDbEntity
  8
1
  6
Continuous
 62
     1
100
AcDbLine
 10
339.754
 20
-177.283
 30
0.0
 11
338.331
 21
-178.706
 31
0.0
  0
LINE
  5
F81
330
18
100
AcDbEntity
  8
1
  6
Continuous
 62
     1
100
AcDbLine
 10
338.154
 20
-178.599
 30
0.0
 11
339.754
 21
-177.0
 31
0.0
  0
LINE
  5
F82
330
18
100
AcDbEntity
  8
1
  6
Continuous
 62
     1
100
AcDbLine
 10
339.754
 20
-176.717
 30
0.0
 11
337.988
 21
-178.483
 31
0.0
  0
LINE
  5
F83
330
18
100
AcDbEntity
  8
1
  6
Continuous
 62
     1
100
AcDbLine
 10
337.8309999999999
 20
-178.357
 30
0.0
 11
339.754
 21
-176.434
 31
0.0
  0
LINE
  5
F84
330
18
100
AcDbEntity
  8
1
  6
Continuous
 62
     1
100
AcDbLine
 10
339.754
 20
-176.151
 30
0.0
 11
337.684
 21
-178.221
 31
0.0
  0
LINE
  5
F85
330
18
100
AcDbEntity
  8
1
  6
Continuous
 62
     1
100
AcDbLine
 10
337.547
 20
-178.076
 30
0.0
 11
339.536
 21
-176.086
 31
0.0
  0
LINE
  5
F86
330
18
100
AcDbEntity
  8
1
  6
Continuous
 62
     1
100
AcDbLine
 10
339.2530000000001
 20
-176.086
 30
0.0
 11
337.419
 21
-177.921
 31
0.0
  0
LINE
  5
F87
330
18
100
AcDbEntity
  8
1
  6
Continuous
 62
     1
100
AcDbLine
 10
337.3
 20
-177.756
 30
0.0
 11
338.97
 21
-176.086
 31
0.0
  0
LINE
  5
F88
330
18
100
AcDbEntity
  8
1
  6
Continuous
 62
     1
100
AcDbLine
 10
338.687
 20
-176.086
 30
0.0
 11
337.1919999999999
 21
-177.582
 31
0.0
  0
LINE
  5
F89
330
18
100
AcDbEntity
  8
1
  6
Continuous
 62
     1
100
AcDbLine
 10
337.094
 20
-177.397
 30
0.0
 11
338.405
 21
-176.086
 31
0.0
  0
LINE
  5
F8A
330
18
100
AcDbEntity
  8
1
  6
Continuous
 62
     1
100
AcDbLine
 10
338.1219999999999
 20
-176.086
 30
0.0
 11
337.007
 21
-177.201
 31
0.0
  0
LINE
  5
F8B
330
18
100
AcDbEntity
  8
1
  6
Continuous
 62
     1
100
AcDbLine
 10
336.9330000000001
 20
-176.993
 30
0.0
 11
337.839
 21
-176.086
 31
0.0
  0
LINE
  5
F8C
330
18
100
AcDbEntity
  8
1
  6
Continuous
 62
     1
100
AcDbLine
 10
337.556
 20
-176.086
 30
0.0
 11
336.872
 21
-176.771
 31
0.0
  0
LINE
  5
F8D
330
18
100
AcDbEntity
  8
1
  6
Continuous
 62
     1
100
AcDbLine
 10
336.826
 20
-176.534
 30
0.0
 11
337.273
 21
-176.086
 31
0.0
  0
LINE
  5
F8E
330
18
100
AcDbEntity
  8
1
  6
Continuous
 62
     1
100
AcDbLine
 10
336.99
 20
-176.086
 30
0.0
 11
336.799
 21
-176.278
 31
0.0
  0
LINE
  5
F8F
330
18
100
AcDbEntity
  8
1
  6
CENTER
 62
     2
100
AcDbLine
 10
465.798
 20
-176.086
 30
0.0
 11
453.6579999999999
 21
-176.086
 31
0.0
  0
LINE
  5
F90
330
18
100
AcDbEntity
  8
1
  6
CENTER
 62
     2
100
AcDbLine
 10
350.129
 20
-176.086
 30
0.0
 11
332.604
 21
-176.086
 31
0.0
  0
LINE
  5
F91
330
18
100
AcDbEntity
  8
1
  6
CENTER
 62
     2
100
AcDbLine
 10
323.64
 20
-161.086
 30
0.0
 11
354.169
 21
-161.086
 31
0.0
  0
LINE
  5
F92
330
18
100
AcDbEntity
  8
1
  6
CENTER
 62
     2
100
AcDbLine
 10
475.22
 20
-191.0859999999999
 30
0.0
 11
324.584
 21
-191.0859999999999
 31
0.0
  0
LINE
  5
F93
330
18
100
AcDbEntity
  8
1
  6
Continuous
 62
     1
100
AcDbLine
 10
455.5039999999999
 20
-159.586
 30
0.0
 11
455.5039999999999
 21
-162.586
 31
0.0
  0
LINE
  5
F94
330
18
100
AcDbEntity
  8
1
  6
Continuous
 62
     1
100
AcDbLine
 10
464.0039999999999
 20
-159.586
 30
0.0
 11
464.0039999999999
 21
-162.586
 31
0.0
  0
ARC
  5
F95
330
18
100
AcDbEntity
  8
1
  6
Continuous
 62
     1
100
AcDbCircle
 10
459.754
 20
-162.586
 30
0.0
 40
4.25
100
AcDbArc
 50
180.0
 51
0.0
  0
ARC
  5
F96
330
18
100
AcDbEntity
  8
1
  6
Continuous
 62
     1
100
AcDbCircle
 10
459.754
 20
-159.586
 30
0.0
 40
4.25
100
AcDbArc
 50
0.0
 51
180.0
  0
LINE
  5
F97
330
18
100
AcDbEntity
  8
1
  6
Continuous
 62
     1
100
AcDbLine
 10
455.5039999999999
 20
-189.586
 30
0.0
 11
455.5039999999999
 21
-192.586
 31
0.0
  0
LINE
  5
F98
330
18
100
AcDbEntity
  8
1
  6
Continuous
 62
     1
100
AcDbLine
 10
464.0039999999999
 20
-189.586
 30
0.0
 11
464.0039999999999
 21
-192.586
 31
0.0
  0
ARC
  5
F99
330
18
100
AcDbEntity
  8
1
  6
Continuous
 62
     1
100
AcDbCircle
 10
459.754
 20
-192.586
 30
0.0
 40
4.25
100
AcDbArc
 50
180.0
 51
0.0
  0
ARC
  5
F9A
330
18
100
AcDbEntity
  8
1
  6
Continuous
 62
     1
100
AcDbCircle
 10
459.754
 20
-189.586
 30
0.0
 40
4.25
100
AcDbArc
 50
0.0
 51
180.0
  0
CIRCLE
  5
F9B
330
18
100
AcDbEntity
  8
1
  6
Continuous
 62
     1
100
AcDbCircle
 10
459.792
 20
-176.086
 30
0.0
 40
3.0
  0
LINE
  5
F9C
330
18
100
AcDbEntity
  8
1
  6
Continuous
 62
     1
100
AcDbLine
 10
456.7919999999999
 20
-176.086
 30
0.0
 11
462.7919999999999
 21
-176.086
 31
0.0
  0
LINE
  5
F9D
330
18
100
AcDbEntity
  8
1
  6
Continuous
 62
     1
100
AcDbLine
 10
459.754
 20
-173.087
 30
0.0
 11
459.754
 21
-179.086
 31
0.0
  0
LINE
  5
F9E
330
18
100
AcDbEntity
  8
1
  6
Continuous
 62
     1
100
AcDbLine
 10
462.785
 20
-175.874
 30
0.0
 11
462.573
 21
-176.086
 31
0.0
  0
LINE
  5
F9F
330
18
100
AcDbEntity
  8
1
  6
Continuous
 62
     1
100
AcDbLine
 10
462.29
 20
-176.086
 30
0.0
 11
462.7559999999999
 21
-175.62
 31
0.0
  0
LINE
  5
FA0
330
18
100
AcDbEntity
  8
1
  6
Continuous
 62
     1
100
AcDbLine
 10
462.7089999999999
 20
-175.384
 30
0.0
 11
462.0069999999999
 21
-176.086
 31
0.0
  0
LINE
  5
FA1
330
18
100
AcDbEntity
  8
1
  6
Continuous
 62
     1
100
AcDbLine
 10
461.7239999999999
 20
-176.086
 30
0.0
 11
462.647
 21
-175.163
 31
0.0
  0
LINE
  5
FA2
330
18
100
AcDbEntity
  8
1
  6
Continuous
 62
     1
100
AcDbLine
 10
462.5709999999999
 20
-174.956
 30
0.0
 11
461.4409999999999
 21
-176.086
 31
0.0
  0
LINE
  5
FA3
330
18
100
AcDbEntity
  8
1
  6
Continuous
 62
     1
100
AcDbLine
 10
461.158
 20
-176.086
 30
0.0
 11
462.484
 21
-174.761
 31
0.0
  0
LINE
  5
FA4
330
18
100
AcDbEntity
  8
1
  6
Continuous
 62
     1
100
AcDbLine
 10
462.385
 20
-174.577
 30
0.0
 11
460.876
 21
-176.086
 31
0.0
  0
LINE
  5
FA5
330
18
100
AcDbEntity
  8
1
  6
Continuous
 62
     1
100
AcDbLine
 10
460.5929999999999
 20
-176.086
 30
0.0
 11
462.276
 21
-174.403
 31
0.0
  0
LINE
  5
FA6
330
18
100
AcDbEntity
  8
1
  6
Continuous
 62
     1
100
AcDbLine
 10
462.157
 20
-174.24
 30
0.0
 11
460.31
 21
-176.086
 31
0.0
  0
LINE
  5
FA7
330
18
100
AcDbEntity
  8
1
  6
Continuous
 62
     1
100
AcDbLine
 10
460.027
 20
-176.086
 30
0.0
 11
462.028
 21
-174.085
 31
0.0
  0
LINE
  5
FA8
330
18
100
AcDbEntity
  8
1
  6
Continuous
 62
     1
100
AcDbLine
 10
461.889
 20
-173.9409999999999
 30
0.0
 11
459.754
 21
-176.077
 31
0.0
  0
LINE
  5
FA9
330
18
100
AcDbEntity
  8
1
  6
Continuous
 62
     1
100
AcDbLine
 10
459.754
 20
-175.794
 30
0.0
 11
461.742
 21
-173.806
 31
0.0
  0
LINE
  5
FAA
330
18
100
AcDbEntity
  8
1
  6
Continuous
 62
     1
100
AcDbLine
 10
461.584
 20
-173.68
 30
0.0
 11
459.754
 21
-175.511
 31
0.0
  0
LINE
  5
FAB
330
18
100
AcDbEntity
  8
1
  6
Continuous
 62
     1
100
AcDbLine
 10
459.754
 20
-175.228
 30
0.0
 11
461.4169999999999
 21
-173.564
 31
0.0
  0
LINE
  5
FAC
330
18
100
AcDbEntity
  8
1
  6
Continuous
 62
     1
100
AcDbLine
 10
461.24
 20
-173.459
 30
0.0
 11
459.754
 21
-174.945
 31
0.0
  0
LINE
  5
FAD
330
18
100
AcDbEntity
  8
1
  6
Continuous
 62
     1
100
AcDbLine
 10
459.754
 20
-174.663
 30
0.0
 11
461.052
 21
-173.364
 31
0.0
  0
LINE
  5
FAE
330
18
100
AcDbEntity
  8
1
  6
Continuous
 62
     1
100
AcDbLine
 10
460.853
 20
-173.28
 30
0.0
 11
459.754
 21
-174.38
 31
0.0
  0
LINE
  5
FAF
330
18
100
AcDbEntity
  8
1
  6
Continuous
 62
     1
100
AcDbLine
 10
459.754
 20
-174.097
 30
0.0
 11
460.6419999999999
 21
-173.209
 31
0.0
  0
LINE
  5
FB0
330
18
100
AcDbEntity
  8
1
  6
Continuous
 62
     1
100
AcDbLine
 10
460.416
 20
-173.152
 30
0.0
 11
459.754
 21
-173.814
 31
0.0
  0
LINE
  5
FB1
330
18
100
AcDbEntity
  8
1
  6
Continuous
 62
     1
100
AcDbLine
 10
459.754
 20
-173.531
 30
0.0
 11
460.174
 21
-173.111
 31
0.0
  0
LINE
  5
FB2
330
18
100
AcDbEntity
  8
1
  6
Continuous
 62
     1
100
AcDbLine
 10
459.913
 20
-173.089
 30
0.0
 11
459.754
 21
-173.248
 31
0.0
  0
LINE
  5
FB3
330
18
100
AcDbEntity
  8
1
  6
Continuous
 62
     1
100
AcDbLine
 10
459.754
 20
-178.905
 30
0.0
 11
459.5799999999999
 21
-179.079
 31
0.0
  0
LINE
  5
FB4
330
18
100
AcDbEntity
  8
1
  6
Continuous
 62
     1
100
AcDbLine
 10
459.3259999999999
 20
-179.05
 30
0.0
 11
459.754
 21
-178.622
 31
0.0
  0
LINE
  5
FB5
330
18
100
AcDbEntity
  8
1
  6
Continuous
 62
     1
100
AcDbLine
 10
459.754
 20
-178.339
 30
0.0
 11
459.0899999999999
 21
-179.0029999999999
 31
0.0
  0
LINE
  5
FB6
330
18
100
AcDbEntity
  8
1
  6
Continuous
 62
     1
100
AcDbLine
 10
458.87
 20
-178.9409999999999
 30
0.0
 11
459.754
 21
-178.057
 31
0.0
  0
LINE
  5
FB7
330
18
100
AcDbEntity
  8
1
  6
Continuous
 62
     1
100
AcDbLine
 10
459.754
 20
-177.774
 30
0.0
 11
458.6619999999999
 21
-178.865
 31
0.0
  0
LINE
  5
FB8
330
18
100
AcDbEntity
  8
1
  6
Continuous
 62
     1
100
AcDbLine
 10
458.467
 20
-178.778
 30
0.0
 11
459.754
 21
-177.491
 31
0.0
  0
LINE
  5
FB9
330
18
100
AcDbEntity
  8
1
  6
Continuous
 62
     1
100
AcDbLine
 10
459.754
 20
-177.208
 30
0.0
 11
458.283
 21
-178.679
 31
0.0
  0
LINE
  5
FBA
330
18
100
AcDbEntity
  8
1
  6
Continuous
 62
     1
100
AcDbLine
 10
458.109
 20
-178.57
 30
0.0
 11
459.754
 21
-176.925
 31
0.0
  0
LINE
  5
FBB
330
18
100
AcDbEntity
  8
1
  6
Continuous
 62
     1
100
AcDbLine
 10
459.754
 20
-176.642
 30
0.0
 11
457.946
 21
-178.45
 31
0.0
  0
LINE
  5
FBC
330
18
100
AcDbEntity
  8
1
  6
Continuous
 62
     1
100
AcDbLine
 10
457.7919999999999
 20
-178.322
 30
0.0
 11
459.754
 21
-176.36
 31
0.0
  0
LINE
  5
FBD
330
18
100
AcDbEntity
  8
1
  6
Continuous
 62
     1
100
AcDbLine
 10
459.744
 20
-176.086
 30
0.0
 11
457.6469999999999
 21
-178.183
 31
0.0
  0
LINE
  5
FBE
330
18
100
AcDbEntity
  8
1
  6
Continuous
 62
     1
100
AcDbLine
 10
457.5119999999999
 20
-178.0359999999999
 30
0.0
 11
459.461
 21
-176.086
 31
0.0
  0
LINE
  5
FBF
330
18
100
AcDbEntity
  8
1
  6
Continuous
 62
     1
100
AcDbLine
 10
459.178
 20
-176.086
 30
0.0
 11
457.3859999999999
 21
-177.878
 31
0.0
  0
LINE
  5
FC0
330
18
100
AcDbEntity
  8
1
  6
Continuous
 62
     1
100
AcDbLine
 10
457.2709999999999
 20
-177.711
 30
0.0
 11
458.8959999999999
 21
-176.086
 31
0.0
  0
LINE
  5
FC1
330
18
100
AcDbEntity
  8
1
  6
Continuous
 62
     1
100
AcDbLine
 10
458.613
 20
-176.086
 30
0.0
 11
457.1649999999999
 21
-177.534
 31
0.0
  0
LINE
  5
FC2
330
18
100
AcDbEntity
  8
1
  6
Continuous
 62
     1
100
AcDbLine
 10
457.07
 20
-177.346
 30
0.0
 11
458.33
 21
-176.086
 31
0.0
  0
LINE
  5
FC3
330
18
100
AcDbEntity
  8
1
  6
Continuous
 62
     1
100
AcDbLine
 10
458.047
 20
-176.086
 30
0.0
 11
456.986
 21
-177.147
 31
0.0
  0
LINE
  5
FC4
330
18
100
AcDbEntity
  8
1
  6
Continuous
 62
     1
100
AcDbLine
 10
456.915
 20
-176.935
 30
0.0
 11
457.764
 21
-176.086
 31
0.0
  0
LINE
  5
FC5
330
18
100
AcDbEntity
  8
1
  6
Continuous
 62
     1
100
AcDbLine
 10
457.481
 20
-176.086
 30
0.0
 11
456.8579999999999
 21
-176.71
 31
0.0
  0
LINE
  5
FC6
330
18
100
AcDbEntity
  8
1
  6
Continuous
 62
     1
100
AcDbLine
 10
456.8169999999999
 20
-176.468
 30
0.0
 11
457.199
 21
-176.086
 31
0.0
  0
LINE
  5
FC7
330
18
100
AcDbEntity
  8
1
  6
Continuous
 62
     1
100
AcDbLine
 10
456.916
 20
-176.086
 30
0.0
 11
456.795
 21
-176.207
 31
0.0
  0
LINE
  5
FC8
330
18
100
AcDbEntity
  8
1
  6
CENTER
 62
     2
100
AcDbLine
 10
447.7149999999999
 20
-161.086
 30
0.0
 11
477.999
 21
-161.086
 31
0.0
  0
LINE
  5
FC9
330
18
100
AcDbEntity
  8
1
  6
Continuous
 62
     1
100
AcDbLine
 10
329.754
 20
-141.086
 30
0.0
 11
356.754
 21
-141.086
 31
0.0
  0
LINE
  5
FCA
330
18
100
AcDbEntity
  8
1
  6
Continuous
 62
     1
100
AcDbLine
 10
350.754
 20
-201.086
 30
0.0
 11
329.754
 21
-201.086
 31
0.0
  0
LINE
  5
FCB
330
18
100
AcDbEntity
  8
1
  6
Continuous
 62
     1
100
AcDbLine
 10
329.754
 20
-141.086
 30
0.0
 11
329.754
 21
-201.086
 31
0.0
  0
LINE
  5
FCC
330
18
100
AcDbEntity
  8
1
  6
Continuous
 62
     1
100
AcDbLine
 10
356.754
 20
-141.086
 30
0.0
 11
356.754
 21
-192.586
 31
0.0
  0
LINE
  5
FCD
330
18
100
AcDbEntity
  8
1
  6
Continuous
 62
     1
100
AcDbLine
 10
469.754
 20
-141.086
 30
0.0
 11
469.754
 21
-201.086
 31
0.0
  0
LINE
  5
FCE
330
18
100
AcDbEntity
  8
1
  6
Continuous
 62
     1
100
AcDbLine
 10
469.754
 20
-201.086
 30
0.0
 11
448.754
 21
-201.086
 31
0.0
  0
LINE
  5
FCF
330
18
100
AcDbEntity
  8
1
  6
Continuous
 62
     1
100
AcDbLine
 10
442.754
 20
-141.086
 30
0.0
 11
442.754
 21
-192.586
 31
0.0
  0
LINE
  5
FD0
330
18
100
AcDbEntity
  8
1
  6
Continuous
 62
     1
100
AcDbLine
 10
442.754
 20
-141.086
 30
0.0
 11
469.754
 21
-141.086
 31
0.0
  0
LINE
  5
FD1
330
18
100
AcDbEntity
  8
1
  6
Continuous
 62
     1
100
AcDbLine
 10
358.245
 20
-168.086
 30
0.0
 11
368.745
 21
-168.086
 31
0.0
  0
ARC
  5
FD2
330
18
100
AcDbEntity
  8
1
  6
Continuous
 62
     1
100
AcDbCircle
 10
358.254
 20
-166.586
 30
0.0
 40
1.5
100
AcDbArc
 50
180.0
 51
270.0
  0
ARC
  5
FD3
330
18
100
AcDbEntity
  8
1
  6
Continuous
 62
     1
100
AcDbCircle
 10
441.2539999999999
 20
-166.586
 30
0.0
 40
1.5
100
AcDbArc
 50
270.0
 51
0.0
  0
LINE
  5
FD4
330
18
100
AcDbEntity
  8
1
  6
Continuous
 62
     1
100
AcDbLine
 10
357.254
 20
-190.0859999999999
 30
0.0
 11
442.254
 21
-190.0859999999999
 31
0.0
  0
LINE
  5
FD5
330
18
100
AcDbEntity
  8
1
  6
Continuous
 62
     1
100
AcDbLine
 10
442.254
 20
-192.086
 30
0.0
 11
357.254
 21
-192.086
 31
0.0
  0
ARC
  5
FD6
330
18
100
AcDbEntity
  8
1
  6
Continuous
 62
     1
100
AcDbCircle
 10
357.254
 20
-189.586
 30
0.0
 40
0.5
100
AcDbArc
 50
180.0
 51
270.0
  0
ARC
  5
FD7
330
18
100
AcDbEntity
  8
1
  6
Continuous
 62
     1
100
AcDbCircle
 10
357.254
 20
-192.586
 30
0.0
 40
0.5
100
AcDbArc
 50
90.0
 51
180.0
  0
ARC
  5
FD8
330
18
100
AcDbEntity
  8
1
  6
Continuous
 62
     1
100
AcDbCircle
 10
442.254
 20
-192.586
 30
0.0
 40
0.5
100
AcDbArc
 50
0.0
 51
90.0
  0
ARC
  5
FD9
330
18
100
AcDbEntity
  8
1
  6
Continuous
 62
     1
100
AcDbCircle
 10
442.254
 20
-189.586
 30
0.0
 40
0.5
100
AcDbArc
 50
270.0
 51
0.0
  0
LINE
  5
FDA
330
18
100
AcDbEntity
  8
1
  6
Continuous
 62
     1
100
AcDbLine
 10
350.754
 20
-214.086
 30
0.0
 11
390.754
 21
-214.086
 31
0.0
  0
LINE
  5
FDB
330
18
100
AcDbEntity
  8
1
  6
Continuous
 62
     1
100
AcDbLine
 10
430.754
 20
-214.086
 30
0.0
 11
448.754
 21
-214.086
 31
0.0
  0
LINE
  5
FDC
330
18
100
AcDbEntity
  8
1
  6
Continuous
 62
     1
100
AcDbLine
 10
349.254
 20
-147.086
 30
0.0
 11
329.754
 21
-147.086
 31
0.0
  0
ARC
  5
FDD
330
18
100
AcDbEntity
  8
1
  6
Continuous
 62
     1
100
AcDbCircle
 10
349.254
 20
-148.586
 30
0.0
 40
1.5
100
AcDbArc
 50
0.0
 51
90.0
  0
LINE
  5
FDE
330
18
100
AcDbEntity
  8
1
  6
Continuous
 62
     1
100
AcDbLine
 10
469.754
 20
-147.086
 30
0.0
 11
450.254
 21
-147.086
 31
0.0
  0
ARC
  5
FDF
330
18
100
AcDbEntity
  8
1
  6
Continuous
 62
     1
100
AcDbCircle
 10
450.254
 20
-148.586
 30
0.0
 40
1.5
100
AcDbArc
 50
90.0
 51
180.0
  0
LINE
  5
FE0
330
18
100
AcDbEntity
  8
1
  6
Continuous
 62
     1
100
AcDbLine
 10
350.754
 20
-148.586
 30
0.0
 11
350.754
 21
-214.086
 31
0.0
  0
LINE
  5
FE1
330
18
100
AcDbEntity
  8
1
  6
Continuous
 62
     1
100
AcDbLine
 10
448.754
 20
-148.586
 30
0.0
 11
448.754
 21
-214.086
 31
0.0
  0
LINE
  5
FE2
330
18
100
AcDbEntity
  8
1
  6
DASHED
 62
     1
100
AcDbLine
 10
356.754
 20
-192.586
 30
0.0
 11
356.754
 21
-201.086
 31
0.0
  0
LINE
  5
FE3
330
18
100
AcDbEntity
  8
1
  6
DASHED
 62
     1
100
AcDbLine
 10
442.754
 20
-192.586
 30
0.0
 11
442.754
 21
-201.086
 31
0.0
  0
LINE
  5
FE4
330
18
100
AcDbEntity
  8
1
  6
DASHED
 62
     1
100
AcDbLine
 10
448.754
 20
-201.086
 30
0.0
 11
442.754
 21
-201.086
 31
0.0
  0
LINE
  5
FE5
330
18
100
AcDbEntity
  8
1
  6
DASHED
 62
     1
100
AcDbLine
 10
350.754
 20
-201.086
 30
0.0
 11
356.754
 21
-201.086
 31
0.0
  0
LINE
  5
FE6
330
18
100
AcDbEntity
  8
1
  6
Continuous
 62
     1
100
AcDbLine
 10
368.745
 20
-171.641
 30
0.0
 11
368.745
 21
-157.499
 31
0.0
  0
LINE
  5
FE7
330
18
100
AcDbEntity
  8
1
  6
Continuous
 62
     1
100
AcDbLine
 10
408.745
 20
-157.499
 30
0.0
 11
408.745
 21
-171.641
 31
0.0
  0
INSERT
  5
FE8
330
18
100
AcDbEntity
  8
0
100
AcDbBlockReference
  2
_G_P_13
 10
0.0
 20
0.0
 30
0.0
  0
INSERT
  5
FE9
330
18
100
AcDbEntity
  8
0
100
AcDbBlockReference
  2
_G_P_14
 10
0.0
 20
0.0
 30
0.0
  0
LINE
  5
FEA
330
18
100
AcDbEntity
  8
1
  6
Continuous
 62
     2
100
AcDbLine
 10
383.745
 20
-185.334
 30
0.0
 11
383.745
 21
-171.192
 31
0.0
  0
LINE
  5
FEB
330
18
100
AcDbEntity
  8
1
  6
Continuous
 62
     2
100
AcDbLine
 10
393.745
 20
-171.192
 30
0.0
 11
393.745
 21
-185.334
 31
0.0
  0
LINE
  5
FEC
330
18
100
AcDbEntity
  8
1
  6
Continuous
 62
     2
100
AcDbLine
 10
376.745
 20
-182.954
 30
0.0
 11
376.745
 21
-168.813
 31
0.0
  0
LINE
  5
FED
330
18
100
AcDbEntity
  8
1
  6
Continuous
 62
     2
100
AcDbLine
 10
400.745
 20
-168.813
 30
0.0
 11
400.745
 21
-182.954
 31
0.0
  0
LINE
  5
FEE
330
18
100
AcDbEntity
  8
1
  6
Continuous
 62
     2
100
AcDbLine
 10
371.745
 20
-179.09
 30
0.0
 11
371.745
 21
-164.949
 31
0.0
  0
LINE
  5
FEF
330
18
100
AcDbEntity
  8
1
  6
Continuous
 62
     2
100
AcDbLine
 10
405.745
 20
-164.949
 30
0.0
 11
405.745
 21
-179.09
 31
0.0
  0
LINE
  5
FF0
330
18
100
AcDbEntity
  8
1
  6
Continuous
 62
     1
100
AcDbLine
 10
390.754
 20
-210.532
 30
0.0
 11
390.754
 21
-224.674
 31
0.0
  0
INSERT
  5
FF1
330
18
100
AcDbEntity
  8
0
100
AcDbBlockReference
  2
_G_P_15
 10
0.0
 20
0.0
 30
0.0
  0
LINE
  5
FF2
330
18
100
AcDbEntity
  8
1
  6
Continuous
 62
     2
100
AcDbLine
 10
393.754
 20
-203.082
 30
0.0
 11
393.754
 21
-217.224
 31
0.0
  0
LINE
  5
FF3
330
18
100
AcDbEntity
  8
1
  6
Continuous
 62
     2
100
AcDbLine
 10
398.754
 20
-199.218
 30
0.0
 11
398.754
 21
-213.36
 31
0.0
  0
LINE
  5
FF4
330
18
100
AcDbEntity
  8
1
  6
Continuous
 62
     2
100
AcDbLine
 10
405.754
 20
-196.839
 30
0.0
 11
405.754
 21
-210.981
 31
0.0
  0
LINE
  5
FF5
330
18
100
AcDbEntity
  8
1
  6
Continuous
 62
     2
100
AcDbLine
 10
415.754
 20
-210.981
 30
0.0
 11
415.754
 21
-196.839
 31
0.0
  0
LINE
  5
FF6
330
18
100
AcDbEntity
  8
1
  6
Continuous
 62
     2
100
AcDbLine
 10
422.754
 20
-213.36
 30
0.0
 11
422.754
 21
-199.218
 31
0.0
  0
LINE
  5
FF7
330
18
100
AcDbEntity
  8
1
  6
Continuous
 62
     2
100
AcDbLine
 10
427.754
 20
-217.224
 30
0.0
 11
427.754
 21
-203.082
 31
0.0
  0
LINE
  5
FF8
330
18
100
AcDbEntity
  8
1
  6
Continuous
 62
     1
100
AcDbLine
 10
430.754
 20
-224.674
 30
0.0
 11
430.754
 21
-210.532
 31
0.0
  0
INSERT
  5
FF9
330
18
100
AcDbEntity
  8
0
100
AcDbBlockReference
  2
_G_P_16
 10
0.0
 20
0.0
 30
0.0
  0
LINE
  5
FFA
330
18
100
AcDbEntity
  8
1
  6
Continuous
 62
     1
100
AcDbLine
 10
441.2539999999999
 20
-168.086
 30
0.0
 11
408.745
 21
-168.086
 31
0.0
  0
LINE
  5
FFB
330
18
100
AcDbEntity
  8
1
  6
CENTER
 62
     2
100
AcDbLine
 10
388.745
 20
-163.818
 30
0.0
 11
388.745
 21
-151.732
 31
0.0
  0
LINE
  5
FFC
330
18
100
AcDbEntity
  8
1
  6
CENTER
 62
     2
100
AcDbLine
 10
382.881
 20
-157.499
 30
0.0
 11
394.651
 21
-157.499
 31
0.0
  0
LINE
  5
FFD
330
18
100
AcDbEntity
  8
1
  6
CENTER
 62
     2
100
AcDbLine
 10
403.1019999999999
 20
-224.674
 30
0.0
 11
418.8519999999999
 21
-224.674
 31
0.0
  0
LINE
  5
FFE
330
18
100
AcDbEntity
  8
1
  6
CENTER
 62
     2
100
AcDbLine
 10
418.8519999999999
 20
-226.074
 30
0.0
 11
403.1019999999999
 21
-226.074
 31
0.0
  0
LINE
  5
FFF
330
18
100
AcDbEntity
  8
1
  6
CENTER
 62
     2
100
AcDbLine
 10
399.744
 20
-143.362
 30
0.0
 11
399.752
 21
-238.8
 31
0.0
  0
LINE
  5
1000
330
18
100
AcDbEntity
  8
1
  6
CENTER
 62
     2
100
AcDbLine
 10
410.7509999999999
 20
0.206711
 30
0.0
 11
410.7509999999999
 21
16.5231
 31
0.0
  0
LINE
  5
1001
330
18
100
AcDbEntity
  8
1
  6
Continuous
 62
     1
100
AcDbLine
 10
442.758
 20
-2.3033
 30
0.0
 11
442.758
 21
6.361979999999999
 31
0.0
  0
LINE
  5
1002
330
18
100
AcDbEntity
  8
1
  6
Continuous
 62
     1
100
AcDbLine
 10
356.758
 20
-2.3033
 30
0.0
 11
356.758
 21
6.361979999999999
 31
0.0
  0
LINE
  5
1003
330
18
100
AcDbEntity
  8
1
  6
CENTER
 62
     2
100
AcDbLine
 10
404.351
 20
7.949389999999999
 30
0.0
 11
417.1999999999999
 21
7.949389999999999
 31
0.0
  0
LINE
  5
1004
330
18
100
AcDbEntity
  8
1
  6
Continuous
 62
     1
100
AcDbLine
 10
430.7509999999999
 20
7.949389999999999
 30
0.0
 11
430.7509999999999
 21
-5.855059999999999
 31
0.0
  0
LINE
  5
1005
330
18
100
AcDbEntity
  8
1
  6
Continuous
 62
     1
100
AcDbLine
 10
390.751
 20
-5.854809999999999
 30
0.0
 11
390.751
 21
7.949389999999999
 31
0.0
  0
INSERT
  5
1006
330
18
100
AcDbEntity
  8
0
100
AcDbBlockReference
  2
_G_P_17
 10
0.0
 20
0.0
 30
0.0
  0
LINE
  5
1007
330
18
100
AcDbEntity
  8
1
  6
Continuous
 62
     2
100
AcDbLine
 10
429.251
 20
2.575849999999999
 30
0.0
 11
429.251
 21
-11.1002
 31
0.0
  0
LINE
  5
1008
330
18
100
AcDbEntity
  8
1
  6
Continuous
 62
     2
100
AcDbLine
 10
392.251
 20
-11.1002
 30
0.0
 11
392.251
 21
2.575849999999999
 31
0.0
  0
INSERT
  5
1009
330
18
100
AcDbEntity
  8
0
100
AcDbBlockReference
  2
_G_P_18
 10
0.0
 20
0.0
 30
0.0
  0
INSERT
  5
100A
330
18
100
AcDbEntity
  8
0
100
AcDbBlockReference
  2
_G_P_19
 10
0.0
 20
0.0
 30
0.0
  0
LINE
  5
100B
330
18
100
AcDbEntity
  8
1
  6
Continuous
 62
     1
100
AcDbLine
 10
368.758
 20
-2.3033
 30
0.0
 11
368.758
 21
7.949389999999999
 31
0.0
  0
LINE
  5
100C
330
18
100
AcDbEntity
  8
1
  6
Continuous
 62
     2
100
AcDbLine
 10
370.251
 20
13.3099
 30
0.0
 11
370.251
 21
-0.8321979999999999
 31
0.0
  0
LINE
  5
100D
330
18
100
AcDbEntity
  8
1
  6
Continuous
 62
     2
100
AcDbLine
 10
374.251
 20
17.6841
 30
0.0
 11
374.251
 21
3.541949999999999
 31
0.0
  0
LINE
  5
100E
330
18
100
AcDbEntity
  8
1
  6
Continuous
 62
     2
100
AcDbLine
 10
381.2509999999999
 20
21.0573
 30
0.0
 11
381.2509999999999
 21
6.915099999999999
 31
0.0
  0
LINE
  5
100F
330
18
100
AcDbEntity
  8
1
  6
Continuous
 62
     2
100
AcDbLine
 10
396.251
 20
17.6893
 30
0.0
 11
396.251
 21
21.0616
 31
0.0
  0
INSERT
  5
1010
330
18
100
AcDbEntity
  8
0
100
AcDbBlockReference
  2
_G_P_20
 10
0.0
 20
0.0
 30
0.0
  0
LINE
  5
1011
330
18
100
AcDbEntity
  8
1
  6
Continuous
 62
     2
100
AcDbLine
 10
418.2509999999999
 20
-5.16048
 30
0.0
 11
418.2509999999999
 21
-18.6522
 31
0.0
  0
LINE
  5
1012
330
18
100
AcDbEntity
  8
1
  6
Continuous
 62
     2
100
AcDbLine
 10
403.251
 20
-18.6522
 30
0.0
 11
403.251
 21
-5.16048
 31
0.0
  0
LINE
  5
1013
330
18
100
AcDbEntity
  8
1
  6
Continuous
 62
     2
100
AcDbLine
 10
425.251
 20
-1.79085
 30
0.0
 11
425.251
 21
-15.3626
 31
0.0
  0
LINE
  5
1014
330
18
100
AcDbEntity
  8
1
  6
Continuous
 62
     2
100
AcDbLine
 10
396.251
 20
-15.3626
 30
0.0
 11
396.251
 21
-1.79085
 31
0.0
  0
LINE
  5
1015
330
18
100
AcDbEntity
  8
1
  6
Continuous
 62
     2
100
AcDbLine
 10
410.7509999999999
 20
-6.1927
 30
0.0
 11
410.7509999999999
 21
-19.6361
 31
0.0
  0
LINE
  5
1016
330
18
100
AcDbEntity
  8
1
  6
CENTER
 62
     2
100
AcDbLine
 10
388.755
 20
-43.70709999999999
 30
0.0
 11
388.75
 21
22.0915
 31
0.0
  0
LINE
  5
1017
330
18
100
AcDbEntity
  8
1
  6
CENTER
 62
     2
100
AcDbLine
 10
380.6919999999999
 20
-38.0123
 30
0.0
 11
396.073
 21
-38.0123
 31
0.0
  0
LINE
  5
1018
330
18
100
AcDbEntity
  8
1
  6
Continuous
 62
     1
100
AcDbLine
 10
390.751
 20
-2.3033
 30
0.0
 11
350.758
 21
-2.3033
 31
0.0
  0
LINE
  5
1019
330
18
100
AcDbEntity
  8
1
  6
Continuous
 62
     1
100
AcDbLine
 10
448.758
 20
-2.3033
 30
0.0
 11
430.7509999999999
 21
-2.3033
 31
0.0
  0
LINE
  5
101A
330
18
100
AcDbEntity
  8
1
  6
CENTER
 62
     2
100
AcDbLine
 10
410.7499999999999
 20
-219.086
 30
0.0
 11
410.7509999999999
 21
-232.828
 31
0.0
  0
LINE
  5
101B
330
18
100
AcDbEntity
  8
1
  6
CENTER
 62
     2
100
AcDbLine
 10
459.7559999999999
 20
-53.6375
 30
0.0
 11
459.7509999999999
 21
6.36247
 31
0.0
  0
LINE
  5
101C
330
18
100
AcDbEntity
  8
1
  6
CENTER
 62
     2
100
AcDbLine
 10
339.751
 20
6.36247
 30
0.0
 11
339.756
 21
-53.6375
 31
0.0
  0
LINE
  5
101D
330
18
100
AcDbEntity
  8
1
  6
Continuous
 62
     1
100
AcDbLine
 10
329.733
 20
145.931
 30
0.0
 11
346.747
 21
145.931
 31
0.0
  0
LINE
  5
101E
330
18
100
AcDbEntity
  8
1
  6
Continuous
 62
     1
100
AcDbLine
 10
350.733
 20
145.931
 30
0.0
 11
356.733
 21
145.931
 31
0.0
  0
LINE
  5
101F
330
18
100
AcDbEntity
  8
1
  6
Continuous
 62
     1
100
AcDbLine
 10
469.733
 20
145.931
 30
0.0
 11
469.733
 21
205.931
 31
0.0
  0
LINE
  5
1020
330
18
100
AcDbEntity
  8
1
  6
Continuous
 62
     1
100
AcDbLine
 10
469.733
 20
205.931
 30
0.0
 11
442.733
 21
205.931
 31
0.0
  0
LINE
  5
1021
330
18
100
AcDbEntity
  8
1
  6
Continuous
 62
     1
100
AcDbLine
 10
356.733
 20
205.931
 30
0.0
 11
329.733
 21
205.931
 31
0.0
  0
LINE
  5
1022
330
18
100
AcDbEntity
  8
1
  6
Continuous
 62
     1
100
AcDbLine
 10
329.733
 20
205.931
 30
0.0
 11
329.733
 21
145.931
 31
0.0
  0
LINE
  5
1023
330
18
100
AcDbEntity
  8
1
  6
Continuous
 62
     1
100
AcDbLine
 10
356.733
 20
205.931
 30
0.0
 11
356.733
 21
202.766
 31
0.0
  0
ARC
  5
1024
330
18
100
AcDbEntity
  8
1
  6
Continuous
 62
     1
100
AcDbCircle
 10
358.233
 20
202.766
 30
0.0
 40
1.5
100
AcDbArc
 50
180.0
 51
270.0
  0
LINE
  5
1025
330
18
100
AcDbEntity
  8
1
  6
Continuous
 62
     1
100
AcDbLine
 10
442.733
 20
202.766
 30
0.0
 11
442.733
 21
205.931
 31
0.0
  0
ARC
  5
1026
330
18
100
AcDbEntity
  8
1
  6
Continuous
 62
     1
100
AcDbCircle
 10
441.2329999999999
 20
202.766
 30
0.0
 40
1.5
100
AcDbArc
 50
270.0
 51
0.0
  0
LINE
  5
1027
330
18
100
AcDbEntity
  8
1
  6
Continuous
 62
     1
100
AcDbLine
 10
469.733
 20
199.931
 30
0.0
 11
450.2329999999999
 21
199.931
 31
0.0
  0
LINE
  5
1028
330
18
100
AcDbEntity
  8
1
  6
Continuous
 62
     1
100
AcDbLine
 10
349.233
 20
199.931
 30
0.0
 11
329.733
 21
199.931
 31
0.0
  0
ARC
  5
1029
330
18
100
AcDbEntity
  8
1
  6
Continuous
 62
     1
100
AcDbCircle
 10
349.233
 20
198.4309999999999
 30
0.0
 40
1.5
100
AcDbArc
 50
0.0
 51
90.0
  0
LINE
  5
102A
330
18
100
AcDbEntity
  8
1
  6
Continuous
 62
     1
100
AcDbLine
 10
350.733
 20
131.608
 30
0.0
 11
350.733
 21
198.4309999999999
 31
0.0
  0
LINE
  5
102B
330
18
100
AcDbEntity
  8
1
  6
Continuous
 62
     1
100
AcDbLine
 10
448.733
 20
198.4309999999999
 30
0.0
 11
448.733
 21
131.616
 31
0.0
  0
ARC
  5
102C
330
18
100
AcDbEntity
  8
1
  6
Continuous
 62
     1
100
AcDbCircle
 10
450.2329999999999
 20
198.4309999999999
 30
0.0
 40
1.5
100
AcDbArc
 50
90.0
 51
180.0
  0
LINE
  5
102D
330
18
100
AcDbEntity
  8
1
  6
CENTER
 62
     2
100
AcDbLine
 10
469.733
 20
170.931
 30
0.0
 11
452.8299999999999
 21
170.931
 31
0.0
  0
LINE
  5
102E
330
18
100
AcDbEntity
  8
1
  6
CENTER
 62
     2
100
AcDbLine
 10
332.977
 20
185.9309999999999
 30
0.0
 11
347.884
 21
185.9309999999999
 31
0.0
  0
LINE
  5
102F
330
18
100
AcDbEntity
  8
1
  6
CENTER
 62
     2
100
AcDbLine
 10
451.1009999999999
 20
185.9309999999999
 30
0.0
 11
467.634
 21
185.9309999999999
 31
0.0
  0
LINE
  5
1030
330
18
100
AcDbEntity
  8
1
  6
CENTER
 62
     2
100
AcDbLine
 10
467.414
 20
155.931
 30
0.0
 11
451.716
 21
155.931
 31
0.0
  0
LINE
  5
1031
330
18
100
AcDbEntity
  8
1
  6
CENTER
 62
     2
100
AcDbLine
 10
347.007
 20
155.931
 30
0.0
 11
331.975
 21
155.931
 31
0.0
  0
ARC
  5
1032
330
18
100
AcDbEntity
  8
1
  6
Continuous
 62
     1
100
AcDbCircle
 10
339.733
 20
187.431
 30
0.0
 40
4.25
100
AcDbArc
 50
0.0
 51
180.0
  0
ARC
  5
1033
330
18
100
AcDbEntity
  8
1
  6
Continuous
 62
     1
100
AcDbCircle
 10
339.733
 20
184.431
 30
0.0
 40
4.25
100
AcDbArc
 50
180.0
 51
0.0
  0
LINE
  5
1034
330
18
100
AcDbEntity
  8
1
  6
Continuous
 62
     1
100
AcDbLine
 10
335.483
 20
187.431
 30
0.0
 11
335.483
 21
184.431
 31
0.0
  0
LINE
  5
1035
330
18
100
AcDbEntity
  8
1
  6
Continuous
 62
     1
100
AcDbLine
 10
343.983
 20
187.431
 30
0.0
 11
343.983
 21
184.431
 31
0.0
  0
LINE
  5
1036
330
18
100
AcDbEntity
  8
1
  6
Continuous
 62
     1
100
AcDbLine
 10
335.483
 20
157.431
 30
0.0
 11
335.483
 21
154.431
 31
0.0
  0
LINE
  5
1037
330
18
100
AcDbEntity
  8
1
  6
Continuous
 62
     1
100
AcDbLine
 10
343.983
 20
157.431
 30
0.0
 11
343.983
 21
154.431
 31
0.0
  0
ARC
  5
1038
330
18
100
AcDbEntity
  8
1
  6
Continuous
 62
     1
100
AcDbCircle
 10
339.733
 20
154.431
 30
0.0
 40
4.25
100
AcDbArc
 50
180.0
 51
0.0
  0
ARC
  5
1039
330
18
100
AcDbEntity
  8
1
  6
Continuous
 62
     1
100
AcDbCircle
 10
339.733
 20
157.431
 30
0.0
 40
4.25
100
AcDbArc
 50
0.0
 51
180.0
  0
LINE
  5
103A
330
18
100
AcDbEntity
  8
1
  6
Continuous
 62
     1
100
AcDbLine
 10
455.4829999999999
 20
187.431
 30
0.0
 11
455.4829999999999
 21
184.431
 31
0.0
  0
LINE
  5
103B
330
18
100
AcDbEntity
  8
1
  6
Continuous
 62
     1
100
AcDbLine
 10
463.9829999999999
 20
187.431
 30
0.0
 11
463.9829999999999
 21
184.431
 31
0.0
  0
ARC
  5
103C
330
18
100
AcDbEntity
  8
1
  6
Continuous
 62
     1
100
AcDbCircle
 10
459.733
 20
184.431
 30
0.0
 40
4.25
100
AcDbArc
 50
180.0
 51
0.0
  0
ARC
  5
103D
330
18
100
AcDbEntity
  8
1
  6
Continuous
 62
     1
100
AcDbCircle
 10
459.733
 20
187.431
 30
0.0
 40
4.25
100
AcDbArc
 50
0.0
 51
180.0
  0
LINE
  5
103E
330
18
100
AcDbEntity
  8
1
  6
Continuous
 62
     1
100
AcDbLine
 10
455.4829999999999
 20
157.431
 30
0.0
 11
455.4829999999999
 21
154.431
 31
0.0
  0
LINE
  5
103F
330
18
100
AcDbEntity
  8
1
  6
Continuous
 62
     1
100
AcDbLine
 10
463.9829999999999
 20
157.431
 30
0.0
 11
463.9829999999999
 21
154.431
 31
0.0
  0
ARC
  5
1040
330
18
100
AcDbEntity
  8
1
  6
Continuous
 62
     1
100
AcDbCircle
 10
459.733
 20
154.431
 30
0.0
 40
4.25
100
AcDbArc
 50
180.0
 51
0.0
  0
ARC
  5
1041
330
18
100
AcDbEntity
  8
1
  6
Continuous
 62
     1
100
AcDbCircle
 10
459.733
 20
157.431
 30
0.0
 40
4.25
100
AcDbArc
 50
0.0
 51
180.0
  0
CIRCLE
  5
1042
330
18
100
AcDbEntity
  8
1
  6
Continuous
 62
     1
100
AcDbCircle
 10
339.771
 20
170.931
 30
0.0
 40
3.0
  0
LINE
  5
1043
330
18
100
AcDbEntity
  8
1
  6
Continuous
 62
     1
100
AcDbLine
 10
336.771
 20
170.931
 30
0.0
 11
342.771
 21
170.931
 31
0.0
  0
LINE
  5
1044
330
18
100
AcDbEntity
  8
1
  6
Continuous
 62
     1
100
AcDbLine
 10
339.733
 20
173.931
 30
0.0
 11
339.733
 21
167.931
 31
0.0
  0
LINE
  5
1045
330
18
100
AcDbEntity
  8
1
  6
Continuous
 62
     1
100
AcDbLine
 10
342.771
 20
170.944
 30
0.0
 11
342.758
 21
170.931
 31
0.0
  0
LINE
  5
1046
330
18
100
AcDbEntity
  8
1
  6
Continuous
 62
     1
100
AcDbLine
 10
342.051
 20
170.931
 30
0.0
 11
342.7
 21
171.58
 31
0.0
  0
LINE
  5
1047
330
18
100
AcDbEntity
  8
1
  6
Continuous
 62
     1
100
AcDbLine
 10
342.528
 20
172.115
 30
0.0
 11
341.344
 21
170.931
 31
0.0
  0
LINE
  5
1048
330
18
100
AcDbEntity
  8
1
  6
Continuous
 62
     1
100
AcDbLine
 10
340.6369999999999
 20
170.931
 30
0.0
 11
342.281
 21
172.575
 31
0.0
  0
LINE
  5
1049
330
18
100
AcDbEntity
  8
1
  6
Continuous
 62
     1
100
AcDbLine
 10
341.97
 20
172.972
 30
0.0
 11
339.93
 21
170.931
 31
0.0
  0
LINE
  5
104A
330
18
100
AcDbEntity
  8
1
  6
Continuous
 62
     1
100
AcDbLine
 10
339.733
 20
171.4409999999999
 30
0.0
 11
341.601
 21
173.309
 31
0.0
  0
LINE
  5
104B
330
18
100
AcDbEntity
  8
1
  6
Continuous
 62
     1
100
AcDbLine
 10
341.17
 20
173.585
 30
0.0
 11
339.733
 21
172.148
 31
0.0
  0
LINE
  5
104C
330
18
100
AcDbEntity
  8
1
  6
Continuous
 62
     1
100
AcDbLine
 10
339.733
 20
172.855
 30
0.0
 11
340.671
 21
173.793
 31
0.0
  0
LINE
  5
104D
330
18
100
AcDbEntity
  8
1
  6
Continuous
 62
     1
100
AcDbLine
 10
340.085
 20
173.915
 30
0.0
 11
339.733
 21
173.563
 31
0.0
  0
LINE
  5
104E
330
18
100
AcDbEntity
  8
1
  6
Continuous
 62
     1
100
AcDbLine
 10
339.733
 20
168.613
 30
0.0
 11
339.122
 21
168.002
 31
0.0
  0
LINE
  5
104F
330
18
100
AcDbEntity
  8
1
  6
Continuous
 62
     1
100
AcDbLine
 10
338.587
 20
168.175
 30
0.0
 11
339.733
 21
169.32
 31
0.0
  0
LINE
  5
1050
330
18
100
AcDbEntity
  8
1
  6
Continuous
 62
     1
100
AcDbLine
 10
339.733
 20
170.027
 30
0.0
 11
338.127
 21
168.422
 31
0.0
  0
LINE
  5
1051
330
18
100
AcDbEntity
  8
1
  6
Continuous
 62
     1
100
AcDbLine
 10
337.731
 20
168.732
 30
0.0
 11
339.733
 21
170.734
 31
0.0
  0
LINE
  5
1052
330
18
100
AcDbEntity
  8
1
  6
Continuous
 62
     1
100
AcDbLine
 10
339.223
 20
170.931
 30
0.0
 11
337.393
 21
169.102
 31
0.0
  0
LINE
  5
1053
330
18
100
AcDbEntity
  8
1
  6
Continuous
 62
     1
100
AcDbLine
 10
337.117
 20
169.533
 30
0.0
 11
338.5159999999999
 21
170.931
 31
0.0
  0
LINE
  5
1054
330
18
100
AcDbEntity
  8
1
  6
Continuous
 62
     1
100
AcDbLine
 10
337.809
 20
170.931
 30
0.0
 11
336.909
 21
170.032
 31
0.0
  0
LINE
  5
1055
330
18
100
AcDbEntity
  8
1
  6
Continuous
 62
     1
100
AcDbLine
 10
336.788
 20
170.618
 30
0.0
 11
337.101
 21
170.931
 31
0.0
  0
CIRCLE
  5
1056
330
18
100
AcDbEntity
  8
1
  6
Continuous
 62
     1
100
AcDbCircle
 10
459.7709999999999
 20
170.931
 30
0.0
 40
3.0
  0
LINE
  5
1057
330
18
100
AcDbEntity
  8
1
  6
Continuous
 62
     1
100
AcDbLine
 10
456.7709999999999
 20
170.931
 30
0.0
 11
462.7709999999999
 21
170.931
 31
0.0
  0
LINE
  5
1058
330
18
100
AcDbEntity
  8
1
  6
Continuous
 62
     1
100
AcDbLine
 10
459.733
 20
173.931
 30
0.0
 11
459.733
 21
167.931
 31
0.0
  0
LINE
  5
1059
330
18
100
AcDbEntity
  8
1
  6
Continuous
 62
     1
100
AcDbLine
 10
462.734
 20
171.406
 30
0.0
 11
462.259
 21
170.931
 31
0.0
  0
LINE
  5
105A
330
18
100
AcDbEntity
  8
1
  6
Continuous
 62
     1
100
AcDbLine
 10
461.552
 20
170.931
 30
0.0
 11
462.5869999999999
 21
171.966
 31
0.0
  0
LINE
  5
105B
330
18
100
AcDbEntity
  8
1
  6
Continuous
 62
     1
100
AcDbLine
 10
462.36
 20
172.447
 30
0.0
 11
460.845
 21
170.931
 31
0.0
  0
LINE
  5
105C
330
18
100
AcDbEntity
  8
1
  6
Continuous
 62
     1
100
AcDbLine
 10
460.138
 20
170.931
 30
0.0
 11
462.068
 21
172.861
 31
0.0
  0
LINE
  5
105D
330
18
100
AcDbEntity
  8
1
  6
Continuous
 62
     1
100
AcDbLine
 10
461.716
 20
173.216
 30
0.0
 11
459.733
 21
171.233
 31
0.0
  0
LINE
  5
105E
330
18
100
AcDbEntity
  8
1
  6
Continuous
 62
     1
100
AcDbLine
 10
459.733
 20
171.94
 30
0.0
 11
461.3030000000001
 21
173.511
 31
0.0
  0
LINE
  5
105F
330
18
100
AcDbEntity
  8
1
  6
Continuous
 62
     1
100
AcDbLine
 10
460.8249999999999
 20
173.74
 30
0.0
 11
459.733
 21
172.647
 31
0.0
  0
LINE
  5
1060
330
18
100
AcDbEntity
  8
1
  6
Continuous
 62
     1
100
AcDbLine
 10
459.733
 20
173.354
 30
0.0
 11
460.268
 21
173.89
 31
0.0
  0
LINE
  5
1061
330
18
100
AcDbEntity
  8
1
  6
Continuous
 62
     1
100
AcDbLine
 10
459.733
 20
168.405
 30
0.0
 11
459.297
 21
167.969
 31
0.0
  0
LINE
  5
1062
330
18
100
AcDbEntity
  8
1
  6
Continuous
 62
     1
100
AcDbLine
 10
458.736
 20
168.115
 30
0.0
 11
459.733
 21
169.112
 31
0.0
  0
LINE
  5
1063
330
18
100
AcDbEntity
  8
1
  6
Continuous
 62
     1
100
AcDbLine
 10
459.733
 20
169.819
 30
0.0
 11
458.2559999999999
 21
168.342
 31
0.0
  0
LINE
  5
1064
330
18
100
AcDbEntity
  8
1
  6
Continuous
 62
     1
100
AcDbLine
 10
457.8409999999999
 20
168.635
 30
0.0
 11
459.733
 21
170.5259999999999
 31
0.0
  0
LINE
  5
1065
330
18
100
AcDbEntity
  8
1
  6
Continuous
 62
     1
100
AcDbLine
 10
459.431
 20
170.931
 30
0.0
 11
457.4869999999999
 21
168.987
 31
0.0
  0
LINE
  5
1066
330
18
100
AcDbEntity
  8
1
  6
Continuous
 62
     1
100
AcDbLine
 10
457.1919999999999
 20
169.399
 30
0.0
 11
458.724
 21
170.931
 31
0.0
  0
LINE
  5
1067
330
18
100
AcDbEntity
  8
1
  6
Continuous
 62
     1
100
AcDbLine
 10
458.0169999999999
 20
170.931
 30
0.0
 11
456.963
 21
169.877
 31
0.0
  0
LINE
  5
1068
330
18
100
AcDbEntity
  8
1
  6
Continuous
 62
     1
100
AcDbLine
 10
456.813
 20
170.434
 30
0.0
 11
457.31
 21
170.931
 31
0.0
  0
LINE
  5
1069
330
18
100
AcDbEntity
  8
1
  6
Continuous
 62
     1
100
AcDbLine
 10
351.233
 20
178.931
 30
0.0
 11
448.233
 21
178.931
 31
0.0
  0
LINE
  5
106A
330
18
100
AcDbEntity
  8
1
  6
Continuous
 62
     1
100
AcDbLine
 10
448.233
 20
176.931
 30
0.0
 11
351.233
 21
176.931
 31
0.0
  0
ARC
  5
106B
330
18
100
AcDbEntity
  8
1
  6
Continuous
 62
     1
100
AcDbCircle
 10
351.233
 20
179.431
 30
0.0
 40
0.5
100
AcDbArc
 50
180.0
 51
270.0
  0
ARC
  5
106C
330
18
100
AcDbEntity
  8
1
  6
Continuous
 62
     1
100
AcDbCircle
 10
351.233
 20
176.431
 30
0.0
 40
0.5
100
AcDbArc
 50
90.0
 51
180.0
  0
ARC
  5
106D
330
18
100
AcDbEntity
  8
1
  6
Continuous
 62
     1
100
AcDbCircle
 10
448.233
 20
179.431
 30
0.0
 40
0.5
100
AcDbArc
 50
270.0
 51
0.0
  0
ARC
  5
106E
330
18
100
AcDbEntity
  8
1
  6
Continuous
 62
     1
100
AcDbCircle
 10
448.233
 20
176.431
 30
0.0
 40
0.5
100
AcDbArc
 50
0.0
 51
90.0
  0
LINE
  5
106F
330
18
100
AcDbEntity
  8
1
  6
CENTER
 62
     2
100
AcDbLine
 10
388.74
 20
152.087
 30
0.0
 11
388.74
 21
135.77
 31
0.0
  0
LINE
  5
1070
330
18
100
AcDbEntity
  8
1
  6
DASHED
 62
     2
100
AcDbLine
 10
553.106
 20
145.923
 30
0.0
 11
553.106
 21
146.155
 31
0.0
  0
LINE
  5
1071
330
18
100
AcDbEntity
  8
1
  6
CENTER
 62
     2
100
AcDbLine
 10
553.106
 20
177.931
 30
0.0
 11
629.4179999999999
 21
177.931
 31
0.0
  0
LINE
  5
1072
330
18
100
AcDbEntity
  8
1
  6
DASHED
 62
     1
100
AcDbLine
 10
600.3569999999999
 20
199.931
 30
0.0
 11
590.7319999999999
 21
190.306
 31
0.0
  0
LINE
  5
1073
330
18
100
AcDbEntity
  8
1
  6
CENTER
 62
     2
100
AcDbLine
 10
596.035
 20
195.609
 30
0.0
 11
583.1059999999999
 21
182.68
 31
0.0
  0
LINE
  5
1074
330
18
100
AcDbEntity
  8
1
  6
DASHED
 62
     1
100
AcDbLine
 10
583.1059999999999
 20
182.68
 30
0.0
 11
580.1059999999999
 21
179.68
 31
0.0
  0
LINE
  5
1075
330
18
100
AcDbEntity
  8
1
  6
Continuous
 62
     1
100
AcDbLine
 10
604.855
 20
154.931
 30
0.0
 11
626.106
 21
176.183
 31
0.0
  0
LINE
  5
1076
330
18
100
AcDbEntity
  8
1
  6
DASHED
 62
     1
100
AcDbLine
 10
580.1059999999999
 20
176.183
 30
0.0
 11
601.3580000000001
 21
154.931
 31
0.0
  0
LINE
  5
1077
330
18
100
AcDbEntity
  8
1
  6
Continuous
 62
     1
100
AcDbLine
 10
613.1059999999999
 20
200.431
 30
0.0
 11
613.1059999999999
 21
205.431
 31
0.0
  0
ARC
  5
1078
330
18
100
AcDbEntity
  8
1
  6
Continuous
 62
     1
100
AcDbCircle
 10
612.6059999999999
 20
200.431
 30
0.0
 40
0.5
100
AcDbArc
 50
270.0
 51
0.0
  0
LINE
  5
1079
330
18
100
AcDbEntity
  8
1
  6
Continuous
 62
     1
100
AcDbLine
 10
559.1059999999999
 20
146.431
 30
0.0
 11
559.1059999999999
 21
198.4309999999999
 31
0.0
  0
ARC
  5
107A
330
18
100
AcDbEntity
  8
1
  6
Continuous
 62
     1
100
AcDbCircle
 10
560.606
 20
198.4309999999999
 30
0.0
 40
1.5
100
AcDbArc
 50
90.0
 51
180.0
  0
LINE
  5
107B
330
18
100
AcDbEntity
  8
1
  6
Continuous
 62
     1
100
AcDbLine
 10
560.606
 20
199.931
 30
0.0
 11
613.1059999999999
 21
199.931
 31
0.0
  0
ARC
  5
107C
330
18
100
AcDbEntity
  8
1
  6
Continuous
 62
     1
100
AcDbCircle
 10
558.6059999999999
 20
146.431
 30
0.0
 40
0.5
100
AcDbArc
 50
270.0
 51
0.0
  0
ARC
  5
107D
330
18
100
AcDbEntity
  8
1
  6
Continuous
 62
     1
100
AcDbCircle
 10
612.6059999999999
 20
205.431
 30
0.0
 40
0.5
100
AcDbArc
 50
0.0
 51
90.0
  0
ARC
  5
107E
330
18
100
AcDbEntity
  8
1
  6
Continuous
 62
     1
100
AcDbCircle
 10
553.6059999999999
 20
205.431
 30
0.0
 40
0.5
100
AcDbArc
 50
90.0
 51
180.0
  0
LINE
  5
107F
330
18
100
AcDbEntity
  8
1
  6
DASHED
 62
     1
100
AcDbLine
 10
608.763
 20
194.195
 30
0.0
 11
586.843
 21
172.275
 31
0.0
  0
LINE
  5
1080
330
18
100
AcDbEntity
  8
1
  6
Continuous
 62
     1
100
AcDbLine
 10
350.733
 20
154.597
 30
0.0
 11
368.74
 21
154.597
 31
0.0
  0
LINE
  5
1081
330
18
100
AcDbEntity
  8
1
  6
Continuous
 62
     1
100
AcDbLine
 10
408.74
 20
154.597
 30
0.0
 11
448.733
 21
154.597
 31
0.0
  0
LINE
  5
1082
330
18
100
AcDbEntity
  8
1
  6
Continuous
 62
     1
100
AcDbLine
 10
358.233
 20
201.266
 30
0.0
 11
441.2329999999999
 21
201.266
 31
0.0
  0
LINE
  5
1083
330
18
100
AcDbEntity
  8
1
  6
DASHED
 62
     1
100
AcDbLine
 10
356.733
 20
202.766
 30
0.0
 11
356.733
 21
154.597
 31
0.0
  0
LINE
  5
1084
330
18
100
AcDbEntity
  8
1
  6
DASHED
 62
     1
100
AcDbLine
 10
442.733
 20
202.766
 30
0.0
 11
442.733
 21
154.597
 31
0.0
  0
LINE
  5
1085
330
18
100
AcDbEntity
  8
1
  6
Continuous
 62
     1
100
AcDbLine
 10
356.733
 20
154.597
 30
0.0
 11
356.733
 21
145.931
 31
0.0
  0
LINE
  5
1086
330
18
100
AcDbEntity
  8
1
  6
Continuous
 62
     1
100
AcDbLine
 10
442.733
 20
154.597
 30
0.0
 11
442.733
 21
145.931
 31
0.0
  0
ARC
  5
1087
330
18
100
AcDbEntity
  8
1
  6
Continuous
 62
     1
100
AcDbCircle
 10
450.2329999999999
 20
198.4309999999999
 30
0.0
 40
1.5
100
AcDbArc
 50
89.9953
 51
179.995
  0
LINE
  5
1088
330
18
100
AcDbEntity
  8
1
  6
DASHED
 62
     1
100
AcDbLine
 10
580.1059999999999
 20
176.183
 30
0.0
 11
580.1059999999999
 21
179.68
 31
0.0
  0
LINE
  5
1089
330
18
100
AcDbEntity
  8
1
  6
Continuous
 62
     1
100
AcDbLine
 10
626.106
 20
179.68
 30
0.0
 11
626.106
 21
176.183
 31
0.0
  0
LINE
  5
108A
330
18
100
AcDbEntity
  8
1
  6
Continuous
 62
     1
100
AcDbLine
 10
604.855
 20
154.931
 30
0.0
 11
601.3580000000001
 21
154.931
 31
0.0
  0
LINE
  5
108B
330
18
100
AcDbEntity
  8
1
  6
Continuous
 62
     1
100
AcDbLine
 10
553.106
 20
145.923
 30
0.0
 11
566.105
 21
145.923
 31
0.0
  0
LINE
  5
108C
330
18
100
AcDbEntity
  8
1
  6
Continuous
 62
     1
100
AcDbLine
 10
566.105
 20
145.923
 30
0.0
 11
601.3569999999999
 21
154.931
 31
0.0
  0
LINE
  5
108D
330
18
100
AcDbEntity
  8
1
  6
DASHED
 62
     1
100
AcDbLine
 10
606.945
 20
198.841
 30
0.0
 11
612.0689999999999
 21
193.717
 31
0.0
  0
LINE
  5
108E
330
18
100
AcDbEntity
  8
1
  6
Continuous
 62
     1
100
AcDbLine
 10
610.177
 20
195.609
 30
0.0
 11
626.106
 21
179.68
 31
0.0
  0
LINE
  5
108F
330
18
100
AcDbEntity
  8
1
  6
DASHED
 62
     1
100
AcDbLine
 10
556.7899999999999
 20
159.9
 30
0.0
 11
568.104
 21
171.214
 31
0.0
  0
LINE
  5
1090
330
18
100
AcDbEntity
  8
1
  6
Continuous
 62
     2
100
AcDbLine
 10
598.1559999999999
 20
144.697
 30
0.0
 11
585.075
 21
131.616
 31
0.0
  0
ARC
  5
1091
330
18
100
AcDbEntity
  8
1
  6
Continuous
 62
     2
100
AcDbCircle
 10
603.106
 20
139.748
 30
0.0
 40
7.0
100
AcDbArc
 50
45.0002
 51
135.0
  0
LINE
  5
1092
330
18
100
AcDbEntity
  8
1
  6
Continuous
 62
     1
100
AcDbLine
 10
585.075
 20
131.616
 30
0.0
 11
569.8189999999999
 21
146.872
 31
0.0
  0
LINE
  5
1093
330
18
100
AcDbEntity
  8
1
  6
DASHED
 62
     1
100
AcDbLine
 10
569.8189999999999
 20
146.872
 30
0.0
 11
556.7899999999999
 21
159.9
 31
0.0
  0
LINE
  5
1094
330
18
100
AcDbEntity
  8
1
  6
DASHED
 62
     1
100
AcDbLine
 10
568.104
 20
171.214
 30
0.0
 11
587.841
 21
151.477
 31
0.0
  0
LINE
  5
1095
330
18
100
AcDbEntity
  8
1
  6
Continuous
 62
     1
100
AcDbLine
 10
587.841
 20
151.477
 30
0.0
 11
596.388
 21
142.93
 31
0.0
  0
LINE
  5
1096
330
18
100
AcDbEntity
  8
1
  6
Continuous
 62
     1
100
AcDbLine
 10
577.2969999999999
 20
133.03
 30
0.0
 11
564.7499999999999
 21
145.576
 31
0.0
  0
LINE
  5
1097
330
18
100
AcDbEntity
  8
1
  6
DASHED
 62
     1
100
AcDbLine
 10
564.404
 20
145.923
 30
0.0
 11
558.205
 21
152.122
 31
0.0
  0
LINE
  5
1098
330
18
100
AcDbEntity
  8
1
  6
DASHED
 62
     1
100
AcDbLine
 10
558.205
 20
152.122
 30
0.0
 11
561.3869999999999
 21
155.304
 31
0.0
  0
LINE
  5
1099
330
18
100
AcDbEntity
  8
1
  6
Continuous
 62
     1
100
AcDbLine
 10
580.479
 20
136.212
 30
0.0
 11
577.2969999999999
 21
133.03
 31
0.0
  0
LINE
  5
109A
330
18
100
AcDbEntity
  8
1
  6
DASHED
 62
     1
100
AcDbLine
 10
575.1749999999999
 20
164.143
 30
0.0
 11
583.6609999999999
 21
172.628
 31
0.0
  0
LINE
  5
109B
330
18
100
AcDbEntity
  8
1
  6
DASHED
 62
     1
100
AcDbLine
 10
597.803
 20
158.486
 30
0.0
 11
591.8079999999999
 21
152.491
 31
0.0
  0
LINE
  5
109C
330
18
100
AcDbEntity
  8
1
  6
Continuous
 62
     1
100
AcDbLine
 10
591.8079999999999
 20
152.491
 30
0.0
 11
589.317
 21
150.001
 31
0.0
  0
LINE
  5
109D
330
18
100
AcDbEntity
  8
1
  6
Continuous
 62
     1
100
AcDbLine
 10
621.8440000000001
 20
185.356
 30
0.0
 11
621.1369999999999
 21
184.649
 31
0.0
  0
LINE
  5
109E
330
18
100
AcDbEntity
  8
1
  6
Continuous
 62
     1
100
AcDbLine
 10
615.0169999999999
 20
192.183
 30
0.0
 11
621.3919999999999
 21
185.808
 31
0.0
  0
LINE
  5
109F
330
18
100
AcDbEntity
  8
1
  6
Continuous
 62
     1
100
AcDbLine
 10
615.225
 20
200.46
 30
0.0
 11
625.635
 21
190.05
 31
0.0
  0
ARC
  5
10A0
330
18
100
AcDbEntity
  8
1
  6
Continuous
 62
     1
100
AcDbCircle
 10
626.597
 20
201.423
 30
0.0
 40
14.722
100
AcDbArc
 50
217.792
 51
244.489
  0
ARC
  5
10A1
330
18
100
AcDbEntity
  8
1
  6
Continuous
 62
     1
100
AcDbCircle
 10
624.205
 20
188.621
 30
0.0
 40
3.978
100
AcDbArc
 50
186.995
 51
262.98
  0
ARC
  5
10A2
330
18
100
AcDbEntity
  8
1
  6
Continuous
 62
     1
100
AcDbCircle
 10
612.4119999999999
 20
197.648
 30
0.0
 40
3.978
100
AcDbArc
 50
6.995539999999999
 51
82.98
  0
ARC
  5
10A3
330
18
100
AcDbEntity
  8
1
  6
Continuous
 62
     1
100
AcDbCircle
 10
610.02
 20
184.845
 30
0.0
 40
14.722
100
AcDbArc
 50
25.511
 51
64.48909999999999
  0
ARC
  5
10A4
330
18
100
AcDbEntity
  8
1
  6
Continuous
 62
     1
100
AcDbCircle
 10
622.822
 20
187.237
 30
0.0
 40
3.978
100
AcDbArc
 50
7.02026
 51
83.0047
  0
LINE
  5
10A5
330
18
100
AcDbEntity
  8
1
  6
Continuous
 62
     1
100
AcDbLine
 10
614.106
 20
195.879
 30
0.0
 11
616.355
 21
198.128
 31
0.0
  0
LINE
  5
10A6
330
18
100
AcDbEntity
  8
1
  6
Continuous
 62
     1
100
AcDbLine
 10
620.2619999999999
 20
188.14
 30
0.0
 11
623.303
 21
191.18
 31
0.0
  0
LINE
  5
10A7
330
18
100
AcDbEntity
  8
1
  6
Continuous
 62
     1
100
AcDbLine
 10
623.724
 20
184.678
 30
0.0
 11
626.7649999999999
 21
187.718
 31
0.0
  0
LINE
  5
10A8
330
18
100
AcDbEntity
  8
1
  6
Continuous
 62
     1
100
AcDbLine
 10
617.955
 20
198.438
 30
0.0
 11
623.6119999999999
 21
192.781
 31
0.0
  0
LINE
  5
10A9
330
18
100
AcDbEntity
  8
1
  6
Continuous
 62
     1
100
AcDbLine
 10
623.6119999999999
 20
192.781
 30
0.0
 11
623.6119999999999
 21
192.073
 31
0.0
  0
LINE
  5
10AA
330
18
100
AcDbEntity
  8
1
  6
Continuous
 62
     1
100
AcDbLine
 10
617.248
 20
198.437
 30
0.0
 11
617.955
 21
198.438
 31
0.0
  0
LINE
  5
10AB
330
18
100
AcDbEntity
  8
1
  6
CENTER
 62
     2
100
AcDbLine
 10
603.636
 20
178.462
 30
0.0
 11
635.8099999999999
 21
146.288
 31
0.0
  0
LINE
  5
10AC
330
18
100
AcDbEntity
  8
1
  6
Continuous
 62
     1
100
AcDbLine
 10
617.955
 20
198.438
 30
0.0
 11
617.6009999999999
 21
198.084
 31
0.0
  0
LINE
  5
10AD
330
18
100
AcDbEntity
  8
1
  6
Continuous
 62
     1
100
AcDbLine
 10
623.6119999999999
 20
192.781
 30
0.0
 11
623.259
 21
192.427
 31
0.0
  0
LINE
  5
10AE
330
18
100
AcDbEntity
  8
1
  6
Continuous
 62
     1
100
AcDbLine
 10
625.733
 20
136.212
 30
0.0
 11
628.9149999999999
 21
133.03
 31
0.0
  0
LINE
  5
10AF
330
18
100
AcDbEntity
  8
1
  6
Continuous
 62
     1
100
AcDbLine
 10
628.9149999999999
 20
133.03
 30
0.0
 11
648.0069999999999
 21
152.122
 31
0.0
  0
LINE
  5
10B0
330
18
100
AcDbEntity
  8
1
  6
Continuous
 62
     1
100
AcDbLine
 10
648.0069999999999
 20
152.122
 30
0.0
 11
644.825
 21
155.304
 31
0.0
  0
LINE
  5
10B1
330
18
100
AcDbEntity
  8
1
  6
Continuous
 62
     1
100
AcDbLine
 10
621.1369999999999
 20
131.616
 30
0.0
 11
649.422
 21
159.9
 31
0.0
  0
LINE
  5
10B2
330
18
100
AcDbEntity
  8
1
  6
Continuous
 62
     1
100
AcDbLine
 10
638.108
 20
171.214
 30
0.0
 11
609.824
 21
142.93
 31
0.0
  0
LINE
  5
10B3
330
18
100
AcDbEntity
  8
1
  6
Continuous
 62
     2
100
AcDbLine
 10
608.056
 20
144.697
 30
0.0
 11
621.1369999999999
 21
131.616
 31
0.0
  0
LINE
  5
10B4
330
18
100
AcDbEntity
  8
1
  6
Continuous
 62
     1
100
AcDbLine
 10
608.4089999999999
 20
158.486
 30
0.0
 11
616.8949999999999
 21
150.0
 31
0.0
  0
LINE
  5
10B5
330
18
100
AcDbEntity
  8
1
  6
Continuous
 62
     1
100
AcDbLine
 10
631.0369999999998
 20
164.143
 30
0.0
 11
622.5509999999999
 21
172.628
 31
0.0
  0
LINE
  5
10B6
330
18
100
AcDbEntity
  8
1
  6
DASHED
 62
     1
100
AcDbLine
 10
619.369
 20
183.588
 30
0.0
 11
597.4490000000001
 21
161.668
 31
0.0
  0
LINE
  5
10B7
330
18
100
AcDbEntity
  8
1
  6
CENTER
 62
     2
100
AcDbLine
 10
588.731
 20
192.3059999999999
 30
0.0
 11
641.3319999999999
 21
139.705
 31
0.0
  0
LINE
  5
10B8
330
18
100
AcDbEntity
  8
1
  6
Continuous
 62
     1
100
AcDbLine
 10
452.733
 20
198.4309999999999
 30
0.0
 11
452.733
 21
131.616
 31
0.0
  0
LINE
  5
10B9
330
18
100
AcDbEntity
  8
1
  6
CENTER
 62
     2
100
AcDbLine
 10
523.533
 20
185.9309999999999
 30
0.0
 11
571.445
 21
185.9309999999999
 31
0.0
  0
LINE
  5
10BA
330
18
100
AcDbEntity
  8
1
  6
CENTER
 62
     2
100
AcDbLine
 10
537.47
 20
155.931
 30
0.0
 11
569.973
 21
155.931
 31
0.0
  0
LINE
  5
10BB
330
18
100
AcDbEntity
  8
1
  6
CENTER
 62
     2
100
AcDbLine
 10
535.313
 20
170.931
 30
0.0
 11
561.1419999999999
 21
170.931
 31
0.0
  0
LINE
  5
10BC
330
18
100
AcDbEntity
  8
1
  6
CENTER
 62
     2
100
AcDbLine
 10
398.364
 20
144.344
 30
0.0
 11
379.435
 21
144.344
 31
0.0
  0
LINE
  5
10BD
330
18
100
AcDbEntity
  8
1
  6
Continuous
 62
     1
100
AcDbLine
 10
368.74
 20
144.344
 30
0.0
 11
368.74
 21
158.148
 31
0.0
  0
LINE
  5
10BE
330
18
100
AcDbEntity
  8
1
  6
Continuous
 62
     1
100
AcDbLine
 10
408.74
 20
158.148
 30
0.0
 11
408.74
 21
144.344
 31
0.0
  0
INSERT
  5
10BF
330
18
100
AcDbEntity
  8
0
100
AcDbBlockReference
  2
_G_P_21
 10
0.0
 20
0.0
 30
0.0
  0
INSERT
  5
10C0
330
18
100
AcDbEntity
  8
0
100
AcDbBlockReference
  2
_G_P_22
 10
0.0
 20
0.0
 30
0.0
  0
LINE
  5
10C1
330
18
100
AcDbEntity
  8
1
  6
Continuous
 62
     2
100
AcDbLine
 10
381.24
 20
157.454
 30
0.0
 11
381.24
 21
170.945
 31
0.0
  0
LINE
  5
10C2
330
18
100
AcDbEntity
  8
1
  6
Continuous
 62
     2
100
AcDbLine
 10
396.24
 20
170.945
 30
0.0
 11
396.24
 21
157.454
 31
0.0
  0
LINE
  5
10C3
330
18
100
AcDbEntity
  8
1
  6
Continuous
 62
     2
100
AcDbLine
 10
374.24
 20
154.084
 30
0.0
 11
374.24
 21
167.656
 31
0.0
  0
LINE
  5
10C4
330
18
100
AcDbEntity
  8
1
  6
Continuous
 62
     2
100
AcDbLine
 10
403.2399999999999
 20
167.656
 30
0.0
 11
403.2399999999999
 21
154.084
 31
0.0
  0
LINE
  5
10C5
330
18
100
AcDbEntity
  8
1
  6
Continuous
 62
     2
100
AcDbLine
 10
370.24
 20
149.717
 30
0.0
 11
370.24
 21
163.393
 31
0.0
  0
LINE
  5
10C6
330
18
100
AcDbEntity
  8
1
  6
Continuous
 62
     2
100
AcDbLine
 10
407.24
 20
163.393
 30
0.0
 11
407.24
 21
149.717
 31
0.0
  0
INSERT
  5
10C7
330
18
100
AcDbEntity
  8
0
100
AcDbBlockReference
  2
_G_P_23
 10
0.0
 20
0.0
 30
0.0
  0
INSERT
  5
10C8
330
18
100
AcDbEntity
  8
0
100
AcDbBlockReference
  2
_G_P_24
 10
0.0
 20
0.0
 30
0.0
  0
LINE
  5
10C9
330
18
100
AcDbEntity
  8
1
  6
Continuous
 62
     2
100
AcDbLine
 10
388.74
 20
158.486
 30
0.0
 11
388.74
 21
171.929
 31
0.0
  0
LINE
  5
10CA
330
18
100
AcDbEntity
  8
1
  6
CENTER
 62
     2
100
AcDbLine
 10
588.1059999999999
 20
197.778
 30
0.0
 11
588.1059999999999
 21
210.006
 31
0.0
  0
LINE
  5
10CB
330
18
100
AcDbEntity
  8
1
  6
CENTER
 62
     2
100
AcDbLine
 10
573.106
 20
196.626
 30
0.0
 11
573.106
 21
210.766
 31
0.0
  0
LINE
  5
10CC
330
18
100
AcDbEntity
  8
1
  6
Continuous
 62
     2
100
AcDbLine
 10
543.106
 20
173.931
 30
0.0
 11
559.1059999999999
 21
173.931
 31
0.0
  0
LINE
  5
10CD
330
18
100
AcDbEntity
  8
1
  6
Continuous
 62
     2
100
AcDbLine
 10
559.1059999999999
 20
167.931
 30
0.0
 11
543.106
 21
167.931
 31
0.0
  0
LINE
  5
10CE
330
18
100
AcDbEntity
  8
1
  6
Continuous
 62
     2
100
AcDbLine
 10
544.106
 20
173.931
 30
0.0
 11
544.106
 21
171.431
 31
0.0
  0
LINE
  5
10CF
330
18
100
AcDbEntity
  8
1
  6
Continuous
 62
     2
100
AcDbLine
 10
544.106
 20
170.4309999999999
 30
0.0
 11
544.106
 21
167.931
 31
0.0
  0
LINE
  5
10D0
330
18
100
AcDbEntity
  8
1
  6
Continuous
 62
     2
100
AcDbLine
 10
558.1059999999999
 20
167.931
 30
0.0
 11
558.1059999999999
 21
170.4309999999999
 31
0.0
  0
LINE
  5
10D1
330
18
100
AcDbEntity
  8
1
  6
Continuous
 62
     2
100
AcDbLine
 10
558.1059999999999
 20
171.431
 30
0.0
 11
558.1059999999999
 21
173.931
 31
0.0
  0
LINE
  5
10D2
330
18
100
AcDbEntity
  8
1
  6
Continuous
 62
     2
100
AcDbLine
 10
559.1059999999999
 20
168.931
 30
0.0
 11
558.1059999999999
 21
167.931
 31
0.0
  0
LINE
  5
10D3
330
18
100
AcDbEntity
  8
1
  6
Continuous
 62
     2
100
AcDbLine
 10
543.106
 20
168.931
 30
0.0
 11
544.106
 21
167.931
 31
0.0
  0
LINE
  5
10D4
330
18
100
AcDbEntity
  8
1
  6
Continuous
 62
     2
100
AcDbLine
 10
543.106
 20
172.932
 30
0.0
 11
544.106
 21
173.931
 31
0.0
  0
LINE
  5
10D5
330
18
100
AcDbEntity
  8
1
  6
Continuous
 62
     2
100
AcDbLine
 10
559.1059999999999
 20
172.931
 30
0.0
 11
558.1059999999999
 21
173.931
 31
0.0
  0
LINE
  5
10D6
330
18
100
AcDbEntity
  8
1
  6
Continuous
 62
     2
100
AcDbLine
 10
543.106
 20
171.431
 30
0.0
 11
559.1059999999999
 21
171.431
 31
0.0
  0
LINE
  5
10D7
330
18
100
AcDbEntity
  8
1
  6
Continuous
 62
     2
100
AcDbLine
 10
559.1059999999999
 20
170.4309999999999
 30
0.0
 11
543.106
 21
170.4309999999999
 31
0.0
  0
LINE
  5
10D8
330
18
100
AcDbEntity
  8
1
  6
Continuous
 62
     2
100
AcDbLine
 10
529.1059999999999
 20
182.731
 30
0.0
 11
529.1059999999999
 21
189.131
 31
0.0
  0
LINE
  5
10D9
330
18
100
AcDbEntity
  8
1
  6
Continuous
 62
     2
100
AcDbLine
 10
529.1059999999999
 20
182.731
 30
0.0
 11
529.9059999999999
 21
181.9309999999999
 31
0.0
  0
LINE
  5
10DA
330
18
100
AcDbEntity
  8
1
  6
Continuous
 62
     2
100
AcDbLine
 10
529.1059999999999
 20
189.131
 30
0.0
 11
529.9059999999999
 21
189.931
 31
0.0
  0
LINE
  5
10DB
330
18
100
AcDbEntity
  8
1
  6
Continuous
 62
     2
100
AcDbLine
 10
529.9059999999999
 20
189.931
 30
0.0
 11
543.106
 21
189.931
 31
0.0
  0
LINE
  5
10DC
330
18
100
AcDbEntity
  8
1
  6
Continuous
 62
     2
100
AcDbLine
 10
543.106
 20
189.931
 30
0.0
 11
559.1059999999999
 21
189.931
 31
0.0
  0
LINE
  5
10DD
330
18
100
AcDbEntity
  8
1
  6
Continuous
 62
     2
100
AcDbLine
 10
559.1059999999999
 20
181.9309999999999
 30
0.0
 11
543.106
 21
181.9309999999999
 31
0.0
  0
LINE
  5
10DE
330
18
100
AcDbEntity
  8
1
  6
Continuous
 62
     2
100
AcDbLine
 10
543.106
 20
181.9309999999999
 30
0.0
 11
529.9059999999999
 21
181.9309999999999
 31
0.0
  0
LINE
  5
10DF
330
18
100
AcDbEntity
  8
1
  6
Continuous
 62
     2
100
AcDbLine
 10
529.1059999999999
 20
182.731
 30
0.0
 11
543.106
 21
182.731
 31
0.0
  0
LINE
  5
10E0
330
18
100
AcDbEntity
  8
1
  6
Continuous
 62
     2
100
AcDbLine
 10
543.106
 20
189.131
 30
0.0
 11
529.1059999999999
 21
189.131
 31
0.0
  0
LINE
  5
10E1
330
18
100
AcDbEntity
  8
1
  6
Continuous
 62
     2
100
AcDbLine
 10
529.9059999999999
 20
189.931
 30
0.0
 11
529.9059999999999
 21
181.9309999999999
 31
0.0
  0
LINE
  5
10E2
330
18
100
AcDbEntity
  8
1
  6
Continuous
 62
     2
100
AcDbLine
 10
543.9059999999999
 20
159.931
 30
0.0
 11
559.1059999999999
 21
159.931
 31
0.0
  0
LINE
  5
10E3
330
18
100
AcDbEntity
  8
1
  6
Continuous
 62
     2
100
AcDbLine
 10
559.37
 20
151.931
 30
0.0
 11
543.9059999999999
 21
151.931
 31
0.0
  0
LINE
  5
10E4
330
18
100
AcDbEntity
  8
1
  6
Continuous
 62
     2
100
AcDbLine
 10
543.106
 20
152.731
 30
0.0
 11
553.106
 21
152.731
 31
0.0
  0
LINE
  5
10E5
330
18
100
AcDbEntity
  8
1
  6
Continuous
 62
     2
100
AcDbLine
 10
553.106
 20
159.131
 30
0.0
 11
543.106
 21
159.131
 31
0.0
  0
LINE
  5
10E6
330
18
100
AcDbEntity
  8
1
  6
Continuous
 62
     2
100
AcDbLine
 10
543.9059999999999
 20
159.931
 30
0.0
 11
543.9059999999999
 21
151.931
 31
0.0
  0
LINE
  5
10E7
330
18
100
AcDbEntity
  8
1
  6
Continuous
 62
     2
100
AcDbLine
 10
543.9059999999999
 20
159.931
 30
0.0
 11
543.106
 21
159.131
 31
0.0
  0
LINE
  5
10E8
330
18
100
AcDbEntity
  8
1
  6
Continuous
 62
     2
100
AcDbLine
 10
543.9059999999999
 20
151.931
 30
0.0
 11
543.106
 21
152.731
 31
0.0
  0
LINE
  5
10E9
330
18
100
AcDbEntity
  8
1
  6
Continuous
 62
     2
100
AcDbLine
 10
561.106
 20
192.431
 30
0.0
 11
561.106
 21
179.431
 31
0.0
  0
LINE
  5
10EA
330
18
100
AcDbEntity
  8
1
  6
Continuous
 62
     2
100
AcDbLine
 10
559.1059999999999
 20
192.431
 30
0.0
 11
569.106
 21
192.431
 31
0.0
  0
LINE
  5
10EB
330
18
100
AcDbEntity
  8
1
  6
Continuous
 62
     2
100
AcDbLine
 10
569.106
 20
179.431
 30
0.0
 11
559.1059999999999
 21
179.431
 31
0.0
  0
LINE
  5
10EC
330
18
100
AcDbEntity
  8
1
  6
Continuous
 62
     2
100
AcDbLine
 10
569.106
 20
192.431
 30
0.0
 11
569.106
 21
179.431
 31
0.0
  0
LINE
  5
10ED
330
18
100
AcDbEntity
  8
1
  6
Continuous
 62
     2
100
AcDbLine
 10
561.106
 20
162.431
 30
0.0
 11
561.106
 21
149.431
 31
0.0
  0
LINE
  5
10EE
330
18
100
AcDbEntity
  8
1
  6
Continuous
 62
     2
100
AcDbLine
 10
559.1059999999999
 20
162.431
 30
0.0
 11
569.106
 21
162.431
 31
0.0
  0
LINE
  5
10EF
330
18
100
AcDbEntity
  8
1
  6
Continuous
 62
     2
100
AcDbLine
 10
569.106
 20
149.431
 30
0.0
 11
559.1059999999999
 21
149.431
 31
0.0
  0
LINE
  5
10F0
330
18
100
AcDbEntity
  8
1
  6
Continuous
 62
     2
100
AcDbLine
 10
569.106
 20
162.431
 30
0.0
 11
569.106
 21
149.431
 31
0.0
  0
LINE
  5
10F1
330
18
100
AcDbEntity
  8
1
  6
Continuous
 62
     1
100
AcDbLine
 10
638.108
 20
171.214
 30
0.0
 11
649.4209999999999
 21
159.9
 31
0.0
  0
LINE
  5
10F2
330
18
100
AcDbEntity
  8
1
  6
CENTER
 62
     2
100
AcDbLine
 10
418.799
 20
190.306
 30
0.0
 11
403.418
 21
190.306
 31
0.0
  0
LINE
  5
10F3
330
18
100
AcDbEntity
  8
1
  6
Continuous
 62
     1
100
AcDbLine
 10
553.106
 20
146.155
 30
0.0
 11
553.106
 21
205.431
 31
0.0
  0
LINE
  5
10F4
330
18
100
AcDbEntity
  8
1
  6
Continuous
 62
     1
100
AcDbLine
 10
553.6069999999999
 20
205.935
 30
0.0
 11
612.6059999999999
 21
205.935
 31
0.0
  0
LINE
  5
10F5
330
18
100
AcDbEntity
  8
1
  6
DASHED
 62
     1
100
AcDbLine
 10
608.856
 20
199.931
 30
0.0
 11
608.856
 21
205.931
 31
0.0
  0
LINE
  5
10F6
330
18
100
AcDbEntity
  8
1
  6
DASHED
 62
     1
100
AcDbLine
 10
597.3559999999999
 20
199.931
 30
0.0
 11
597.3559999999999
 21
205.931
 31
0.0
  0
LINE
  5
10F7
330
18
100
AcDbEntity
  8
1
  6
DASHED
 62
     1
100
AcDbLine
 10
591.1059999999999
 20
199.931
 30
0.0
 11
591.1059999999999
 21
205.931
 31
0.0
  0
LINE
  5
10F8
330
18
100
AcDbEntity
  8
1
  6
DASHED
 62
     1
100
AcDbLine
 10
585.106
 20
199.931
 30
0.0
 11
585.106
 21
205.931
 31
0.0
  0
LINE
  5
10F9
330
18
100
AcDbEntity
  8
1
  6
DASHED
 62
     1
100
AcDbLine
 10
578.856
 20
199.931
 30
0.0
 11
578.856
 21
205.931
 31
0.0
  0
LINE
  5
10FA
330
18
100
AcDbEntity
  8
1
  6
DASHED
 62
     1
100
AcDbLine
 10
567.356
 20
199.931
 30
0.0
 11
567.356
 21
205.931
 31
0.0
  0
LINE
  5
10FB
330
18
100
AcDbEntity
  8
1
  6
DASHED
 62
     1
100
AcDbLine
 10
559.1099999999999
 20
150.181
 30
0.0
 11
553.11
 21
150.181
 31
0.0
  0
LINE
  5
10FC
330
18
100
AcDbEntity
  8
1
  6
DASHED
 62
     1
100
AcDbLine
 10
559.1099999999999
 20
161.681
 30
0.0
 11
553.11
 21
161.681
 31
0.0
  0
LINE
  5
10FD
330
18
100
AcDbEntity
  8
1
  6
DASHED
 62
     1
100
AcDbLine
 10
559.1099999999999
 20
180.181
 30
0.0
 11
553.11
 21
180.181
 31
0.0
  0
LINE
  5
10FE
330
18
100
AcDbEntity
  8
1
  6
DASHED
 62
     1
100
AcDbLine
 10
559.1099999999999
 20
191.681
 30
0.0
 11
553.11
 21
191.681
 31
0.0
  0
LINE
  5
10FF
330
18
100
AcDbEntity
  8
1
  6
CENTER
 62
     2
100
AcDbLine
 10
628.21
 20
203.035
 30
0.0
 11
567.7509999999999
 21
142.576
 31
0.0
  0
LINE
  5
1100
330
18
100
AcDbEntity
  8
1
  6
Continuous
 62
     1
100
AcDbLine
 10
613.1059999999999
 20
199.931
 30
0.0
 11
615.48
 21
190.306
 31
0.0
  0
LINE
  5
1101
330
18
100
AcDbEntity
  8
1
  6
Continuous
 62
     2
100
AcDbLine
 10
623.106
 20
182.68
 30
0.0
 11
623.106
 21
131.616
 31
0.0
  0
LINE
  5
1102
330
18
100
AcDbEntity
  8
1
  6
CENTER
 62
     2
100
AcDbLine
 10
597.803
 20
185.9309999999999
 30
0.0
 11
611.106
 21
185.9309999999999
 31
0.0
  0
LINE
  5
1103
330
18
100
AcDbEntity
  8
1
  6
CENTER
 62
     2
100
AcDbLine
 10
595.106
 20
169.931
 30
0.0
 11
607.947
 21
169.931
 31
0.0
  0
LINE
  5
1104
330
18
100
AcDbEntity
  8
1
  6
Continuous
 62
     2
100
AcDbLine
 10
583.1059999999999
 20
131.616
 30
0.0
 11
583.1059999999999
 21
182.68
 31
0.0
  0
LINE
  5
1105
330
18
100
AcDbEntity
  8
1
  6
CENTER
 62
     2
100
AcDbLine
 10
603.106
 20
205.931
 30
0.0
 11
603.106
 21
108.393
 31
0.0
  0
LINE
  5
1106
330
18
100
AcDbEntity
  8
1
  6
Continuous
 62
     1
100
AcDbLine
 10
448.733
 20
131.616
 30
0.0
 11
452.733
 21
131.616
 31
0.0
  0
LINE
  5
1107
330
18
100
AcDbEntity
  8
1
  6
Continuous
 62
     2
100
AcDbLine
 10
583.1059999999999
 20
131.616
 30
0.0
 11
585.075
 21
131.616
 31
0.0
  0
LINE
  5
1108
330
18
100
AcDbEntity
  8
1
  6
CENTER
 62
     2
100
AcDbLine
 10
621.1369999999999
 20
131.616
 30
0.0
 11
623.106
 21
131.616
 31
0.0
  0
CIRCLE
  5
1109
330
18
100
AcDbEntity
  8
1
  6
Continuous
 62
     1
100
AcDbCircle
 10
603.106
 20
185.9309999999999
 30
0.0
 40
2.5
  0
CIRCLE
  5
110A
330
18
100
AcDbEntity
  8
1
  6
Continuous
 62
     1
100
AcDbCircle
 10
603.106
 20
169.931
 30
0.0
 40
2.5
  0
LINE
  5
110B
330
18
100
AcDbEntity
  8
1
  6
Continuous
 62
     1
100
AcDbLine
 10
452.733
 20
198.4309999999999
 30
0.0
 11
448.733
 21
198.4309999999999
 31
0.0
  0
LINE
  5
110C
330
18
100
AcDbEntity
  8
1
  6
Continuous
 62
     1
100
AcDbLine
 10
350.733
 20
131.608
 30
0.0
 11
346.75
 21
131.608
 31
0.0
  0
LINE
  5
110D
330
18
100
AcDbEntity
  8
1
  6
Continuous
 62
     1
100
AcDbLine
 10
346.739
 20
198.423
 30
0.0
 11
346.75
 21
131.608
 31
0.0
  0
LINE
  5
110E
330
18
100
AcDbEntity
  8
1
  6
Continuous
 62
     1
100
AcDbLine
 10
346.739
 20
198.423
 30
0.0
 11
350.739
 21
198.424
 31
0.0
  0
LINE
  5
110F
330
18
100
AcDbEntity
  8
1
  6
Continuous
 62
     1
100
AcDbLine
 10
442.733
 20
145.931
 30
0.0
 11
448.733
 21
145.931
 31
0.0
  0
LINE
  5
1110
330
18
100
AcDbEntity
  8
1
  6
Continuous
 62
     1
100
AcDbLine
 10
452.733
 20
145.931
 30
0.0
 11
469.733
 21
145.931
 31
0.0
  0
LINE
  5
1111
330
18
100
AcDbEntity
  8
1
  6
CENTER
 62
     2
100
AcDbLine
 10
410.7359999999999
 20
196.0
 30
0.0
 11
410.7409999999999
 21
130.202
 31
0.0
  0
LINE
  5
1112
330
18
100
AcDbEntity
  8
1
  6
Continuous
 62
     1
100
AcDbLine
 10
430.733
 20
154.597
 30
0.0
 11
430.733
 21
144.344
 31
0.0
  0
LINE
  5
1113
330
18
100
AcDbEntity
  8
1
  6
Continuous
 62
     2
100
AcDbLine
 10
429.2399999999999
 20
138.983
 30
0.0
 11
429.2399999999999
 21
153.126
 31
0.0
  0
LINE
  5
1114
330
18
100
AcDbEntity
  8
1
  6
Continuous
 62
     2
100
AcDbLine
 10
425.2399999999999
 20
134.609
 30
0.0
 11
425.2399999999999
 21
148.751
 31
0.0
  0
LINE
  5
1115
330
18
100
AcDbEntity
  8
1
  6
Continuous
 62
     2
100
AcDbLine
 10
418.24
 20
131.236
 30
0.0
 11
418.24
 21
145.378
 31
0.0
  0
LINE
  5
1116
330
18
100
AcDbEntity
  8
1
  6
Continuous
 62
     2
100
AcDbLine
 10
403.2399999999999
 20
134.604
 30
0.0
 11
403.2399999999999
 21
131.232
 31
0.0
  0
LINE
  5
1117
330
18
100
AcDbEntity
  8
1
  6
CENTER
 62
     2
100
AcDbLine
 10
459.739
 20
145.93
 30
0.0
 11
459.733
 21
212.999
 31
0.0
  0
LINE
  5
1118
330
18
100
AcDbEntity
  8
1
  6
CENTER
 62
     2
100
AcDbLine
 10
339.733
 20
211.684
 30
0.0
 11
339.7390000000001
 21
144.339
 31
0.0
  0
LINE
  5
1119
330
18
100
AcDbEntity
  8
1
  6
CENTER
 62
     2
100
AcDbLine
 10
393.084
 20
143.344
 30
0.0
 11
383.499
 21
143.344
 31
0.0
  0
LINE
  5
111A
330
18
100
AcDbEntity
  8
1
  6
DASHED
 62
     1
100
AcDbLine
 10
584.368
 20
185.356
 30
0.0
 11
585.075
 21
184.649
 31
0.0
  0
LINE
  5
111B
330
18
100
AcDbEntity
  8
1
  6
DASHED
 62
     1
100
AcDbLine
 10
595.229
 20
196.218
 30
0.0
 11
584.82
 21
185.808
 31
0.0
  0
LINE
  5
111C
330
18
100
AcDbEntity
  8
1
  6
DASHED
 62
     1
100
AcDbLine
 10
590.9869999999999
 20
200.46
 30
0.0
 11
580.5769999999999
 21
190.05
 31
0.0
  0
ARC
  5
111D
330
18
100
AcDbEntity
  8
1
  6
DASHED
 62
     1
100
AcDbCircle
 10
579.6149999999999
 20
201.423
 30
0.0
 40
14.722
100
AcDbArc
 50
295.511
 51
334.495
  0
ARC
  5
111E
330
18
100
AcDbEntity
  8
1
  6
DASHED
 62
     1
100
AcDbCircle
 10
582.0069999999999
 20
188.621
 30
0.0
 40
3.978
100
AcDbArc
 50
277.02
 51
353.005
  0
ARC
  5
111F
330
18
100
AcDbEntity
  8
1
  6
DASHED
 62
     1
100
AcDbCircle
 10
596.192
 20
184.845
 30
0.0
 40
14.722
100
AcDbArc
 50
115.511
 51
154.489
  0
ARC
  5
1120
330
18
100
AcDbEntity
  8
1
  6
DASHED
 62
     1
100
AcDbCircle
 10
583.3899999999999
 20
187.237
 30
0.0
 40
3.978
100
AcDbArc
 50
96.99530000000001
 51
172.98
  0
LINE
  5
1121
330
18
100
AcDbEntity
  8
1
  6
DASHED
 62
     1
100
AcDbLine
 10
592.903
 20
195.082
 30
0.0
 11
589.8569999999999
 21
198.128
 31
0.0
  0
LINE
  5
1122
330
18
100
AcDbEntity
  8
1
  6
DASHED
 62
     1
100
AcDbLine
 10
585.949
 20
188.14
 30
0.0
 11
582.9089999999999
 21
191.18
 31
0.0
  0
LINE
  5
1123
330
18
100
AcDbEntity
  8
1
  6
DASHED
 62
     1
100
AcDbLine
 10
582.4869999999999
 20
184.678
 30
0.0
 11
579.447
 21
187.718
 31
0.0
  0
LINE
  5
1124
330
18
100
AcDbEntity
  8
1
  6
DASHED
 62
     1
100
AcDbLine
 10
588.2569999999999
 20
198.438
 30
0.0
 11
582.6
 21
192.781
 31
0.0
  0
LINE
  5
1125
330
18
100
AcDbEntity
  8
1
  6
DASHED
 62
     1
100
AcDbLine
 10
582.6
 20
192.781
 30
0.0
 11
582.6
 21
192.073
 31
0.0
  0
LINE
  5
1126
330
18
100
AcDbEntity
  8
1
  6
DASHED
 62
     1
100
AcDbLine
 10
588.964
 20
198.437
 30
0.0
 11
588.2569999999999
 21
198.438
 31
0.0
  0
LINE
  5
1127
330
18
100
AcDbEntity
  8
1
  6
DASHED
 62
     1
100
AcDbLine
 10
583.307
 20
203.387
 30
0.0
 11
588.6099999999999
 21
198.084
 31
0.0
  0
LINE
  5
1128
330
18
100
AcDbEntity
  8
1
  6
DASHED
 62
     1
100
AcDbLine
 10
583.307
 20
203.387
 30
0.0
 11
581.893
 21
203.387
 31
0.0
  0
LINE
  5
1129
330
18
100
AcDbEntity
  8
1
  6
DASHED
 62
     1
100
AcDbLine
 10
577.6499999999999
 20
197.7299999999999
 30
0.0
 11
582.953
 21
192.427
 31
0.0
  0
LINE
  5
112A
330
18
100
AcDbEntity
  8
1
  6
DASHED
 62
     1
100
AcDbLine
 10
581.893
 20
203.387
 30
0.0
 11
577.6499999999999
 21
199.145
 31
0.0
  0
LINE
  5
112B
330
18
100
AcDbEntity
  8
1
  6
DASHED
 62
     1
100
AcDbLine
 10
577.6499999999999
 20
199.145
 30
0.0
 11
577.6499999999999
 21
197.7299999999999
 31
0.0
  0
LINE
  5
112C
330
18
100
AcDbEntity
  8
1
  6
DASHED
 62
     1
100
AcDbLine
 10
582.6
 20
202.68
 30
0.0
 11
586.8419999999999
 21
198.438
 31
0.0
  0
LINE
  5
112D
330
18
100
AcDbEntity
  8
1
  6
DASHED
 62
     1
100
AcDbLine
 10
582.6
 20
194.195
 30
0.0
 11
578.357
 21
198.438
 31
0.0
  0
LINE
  5
112E
330
18
100
AcDbEntity
  8
1
  6
DASHED
 62
     1
100
AcDbLine
 10
586.8419999999999
 20
198.438
 30
0.0
 11
582.6
 21
194.195
 31
0.0
  0
LINE
  5
112F
330
18
100
AcDbEntity
  8
1
  6
DASHED
 62
     2
100
AcDbLine
 10
581.186
 20
202.68
 30
0.0
 11
582.6
 21
194.195
 31
0.0
  0
LINE
  5
1130
330
18
100
AcDbEntity
  8
1
  6
DASHED
 62
     2
100
AcDbLine
 10
586.8419999999999
 20
198.438
 30
0.0
 11
578.357
 21
199.852
 31
0.0
  0
LINE
  5
1131
330
18
100
AcDbEntity
  8
1
  6
DASHED
 62
     1
100
AcDbLine
 10
582.6
 20
202.68
 30
0.0
 11
581.186
 21
202.68
 31
0.0
  0
LINE
  5
1132
330
18
100
AcDbEntity
  8
1
  6
DASHED
 62
     1
100
AcDbLine
 10
578.357
 20
199.852
 30
0.0
 11
578.357
 21
198.438
 31
0.0
  0
ARC
  5
1133
330
18
100
AcDbEntity
  8
1
  6
DASHED
 62
     1
100
AcDbCircle
 10
593.7999999999999
 20
197.648
 30
0.0
 40
3.978
100
AcDbArc
 50
97.01999999999998
 51
173.004
  0
LINE
  5
1134
330
18
100
AcDbEntity
  8
1
  6
DASHED
 62
     1
100
AcDbLine
 10
596.359
 20
198.55
 30
0.0
 11
593.3189999999999
 21
201.59
 31
0.0
  0
ARC
  5
1135
330
18
100
AcDbEntity
  8
1
  6
DASHED
 62
     1
100
AcDbCircle
 10
592.4159999999999
 20
199.031
 30
0.0
 40
3.978
100
AcDbArc
 50
277.024
 51
352.98
  0
LINE
  5
1136
330
18
100
AcDbEntity
  8
1
  6
DASHED
 62
     1
100
AcDbLine
 10
595.682
 20
196.67
 30
0.0
 11
596.389
 21
195.963
 31
0.0
  0
LINE
  5
1137
330
18
100
AcDbEntity
  8
1
  6
Continuous
 62
     2
100
AcDbLine
 10
610.177
 20
195.609
 30
0.0
 11
596.035
 21
195.609
 31
0.0
  0
LINE
  5
1138
330
18
100
AcDbEntity
  8
1
  6
Continuous
 62
     1
100
AcDbLine
 10
609.824
 20
142.93
 30
0.0
 11
621.1369999999999
 21
131.616
 31
0.0
  0
LINE
  5
1139
330
18
100
AcDbEntity
  8
1
  6
Continuous
 62
     1
100
AcDbLine
 10
585.075
 20
131.616
 30
0.0
 11
596.389
 21
142.929
 31
0.0
  0
LINE
  5
113A
330
18
100
AcDbEntity
  8
1
  6
CENTER
 62
     2
100
AcDbLine
 10
53.11749999999999
 20
177.931
 30
0.0
 11
129.429
 21
177.931
 31
0.0
  0
LINE
  5
113B
330
18
100
AcDbEntity
  8
1
  6
DASHED
 62
     1
100
AcDbLine
 10
100.369
 20
199.931
 30
0.0
 11
90.7432
 21
190.306
 31
0.0
  0
LINE
  5
113C
330
18
100
AcDbEntity
  8
1
  6
CENTER
 62
     2
100
AcDbLine
 10
96.04649999999999
 20
195.609
 30
0.0
 11
83.11750000000001
 21
182.68
 31
0.0
  0
LINE
  5
113D
330
18
100
AcDbEntity
  8
1
  6
DASHED
 62
     1
100
AcDbLine
 10
83.11750000000001
 20
182.68
 30
0.0
 11
80.11750000000001
 21
179.68
 31
0.0
  0
LINE
  5
113E
330
18
100
AcDbEntity
  8
1
  6
Continuous
 62
     1
100
AcDbLine
 10
104.866
 20
154.931
 30
0.0
 11
126.118
 21
176.183
 31
0.0
  0
LINE
  5
113F
330
18
100
AcDbEntity
  8
1
  6
DASHED
 62
     1
100
AcDbLine
 10
80.11750000000001
 20
176.183
 30
0.0
 11
101.369
 21
154.931
 31
0.0
  0
LINE
  5
1140
330
18
100
AcDbEntity
  8
1
  6
Continuous
 62
     1
100
AcDbLine
 10
113.118
 20
200.431
 30
0.0
 11
113.118
 21
205.431
 31
0.0
  0
ARC
  5
1141
330
18
100
AcDbEntity
  8
1
  6
Continuous
 62
     1
100
AcDbCircle
 10
112.618
 20
200.431
 30
0.0
 40
0.5
100
AcDbArc
 50
270.0
 51
0.0
  0
LINE
  5
1142
330
18
100
AcDbEntity
  8
1
  6
Continuous
 62
     1
100
AcDbLine
 10
59.1175
 20
146.431
 30
0.0
 11
59.1175
 21
198.4309999999999
 31
0.0
  0
ARC
  5
1143
330
18
100
AcDbEntity
  8
1
  6
Continuous
 62
     1
100
AcDbCircle
 10
60.61749999999999
 20
198.4309999999999
 30
0.0
 40
1.5
100
AcDbArc
 50
90.0
 51
180.0
  0
LINE
  5
1144
330
18
100
AcDbEntity
  8
1
  6
Continuous
 62
     1
100
AcDbLine
 10
60.61749999999999
 20
199.931
 30
0.0
 11
113.118
 21
199.931
 31
0.0
  0
ARC
  5
1145
330
18
100
AcDbEntity
  8
1
  6
Continuous
 62
     1
100
AcDbCircle
 10
58.6175
 20
146.431
 30
0.0
 40
0.5
100
AcDbArc
 50
270.0
 51
0.0
  0
ARC
  5
1146
330
18
100
AcDbEntity
  8
1
  6
Continuous
 62
     1
100
AcDbCircle
 10
112.618
 20
205.431
 30
0.0
 40
0.5
100
AcDbArc
 50
0.0
 51
90.0
  0
ARC
  5
1147
330
18
100
AcDbEntity
  8
1
  6
Continuous
 62
     1
100
AcDbCircle
 10
53.6175
 20
205.431
 30
0.0
 40
0.5
100
AcDbArc
 50
90.0
 51
180.0
  0
LINE
  5
1148
330
18
100
AcDbEntity
  8
1
  6
DASHED
 62
     1
100
AcDbLine
 10
108.774
 20
194.195
 30
0.0
 11
86.8543
 21
172.275
 31
0.0
  0
LINE
  5
1149
330
18
100
AcDbEntity
  8
1
  6
DASHED
 62
     1
100
AcDbLine
 10
80.11750000000001
 20
176.183
 30
0.0
 11
80.11750000000001
 21
179.68
 31
0.0
  0
LINE
  5
114A
330
18
100
AcDbEntity
  8
1
  6
Continuous
 62
     1
100
AcDbLine
 10
126.118
 20
179.68
 30
0.0
 11
126.118
 21
176.183
 31
0.0
  0
LINE
  5
114B
330
18
100
AcDbEntity
  8
1
  6
Continuous
 62
     1
100
AcDbLine
 10
104.866
 20
154.931
 30
0.0
 11
101.369
 21
154.931
 31
0.0
  0
LINE
  5
114C
330
18
100
AcDbEntity
  8
1
  6
Continuous
 62
     1
100
AcDbLine
 10
53.11749999999999
 20
145.923
 30
0.0
 11
66.1164
 21
145.923
 31
0.0
  0
LINE
  5
114D
330
18
100
AcDbEntity
  8
1
  6
Continuous
 62
     1
100
AcDbLine
 10
66.1164
 20
145.923
 30
0.0
 11
101.369
 21
154.931
 31
0.0
  0
LINE
  5
114E
330
18
100
AcDbEntity
  8
1
  6
DASHED
 62
     1
100
AcDbLine
 10
106.956
 20
198.841
 30
0.0
 11
112.081
 21
193.717
 31
0.0
  0
LINE
  5
114F
330
18
100
AcDbEntity
  8
1
  6
Continuous
 62
     1
100
AcDbLine
 10
110.188
 20
195.609
 30
0.0
 11
126.118
 21
179.68
 31
0.0
  0
LINE
  5
1150
330
18
100
AcDbEntity
  8
1
  6
DASHED
 62
     1
100
AcDbLine
 10
56.8018
 20
159.9
 30
0.0
 11
68.1155
 21
171.214
 31
0.0
  0
LINE
  5
1151
330
18
100
AcDbEntity
  8
1
  6
Continuous
 62
     2
100
AcDbLine
 10
98.16780000000001
 20
144.697
 30
0.0
 11
85.0862
 21
131.616
 31
0.0
  0
ARC
  5
1152
330
18
100
AcDbEntity
  8
1
  6
Continuous
 62
     2
100
AcDbCircle
 10
103.118
 20
139.748
 30
0.0
 40
7.0
100
AcDbArc
 50
45.0002
 51
135.0
  0
LINE
  5
1153
330
18
100
AcDbEntity
  8
1
  6
Continuous
 62
     1
100
AcDbLine
 10
85.0862
 20
131.616
 30
0.0
 11
69.83039999999999
 21
146.872
 31
0.0
  0
LINE
  5
1154
330
18
100
AcDbEntity
  8
1
  6
DASHED
 62
     1
100
AcDbLine
 10
69.83039999999999
 20
146.872
 30
0.0
 11
56.8018
 21
159.9
 31
0.0
  0
LINE
  5
1155
330
18
100
AcDbEntity
  8
1
  6
DASHED
 62
     1
100
AcDbLine
 10
68.1155
 20
171.214
 30
0.0
 11
87.85239999999999
 21
151.477
 31
0.0
  0
LINE
  5
1156
330
18
100
AcDbEntity
  8
1
  6
Continuous
 62
     1
100
AcDbLine
 10
87.85239999999999
 20
151.477
 30
0.0
 11
96.4
 21
142.93
 31
0.0
  0
LINE
  5
1157
330
18
100
AcDbEntity
  8
1
  6
Continuous
 62
     1
100
AcDbLine
 10
77.30809999999999
 20
133.03
 30
0.0
 11
64.7617
 21
145.576
 31
0.0
  0
LINE
  5
1158
330
18
100
AcDbEntity
  8
1
  6
DASHED
 62
     1
100
AcDbLine
 10
64.41549999999999
 20
145.923
 30
0.0
 11
58.2162
 21
152.122
 31
0.0
  0
LINE
  5
1159
330
18
100
AcDbEntity
  8
1
  6
DASHED
 62
     1
100
AcDbLine
 10
58.2162
 20
152.122
 30
0.0
 11
61.3982
 21
155.304
 31
0.0
  0
LINE
  5
115A
330
18
100
AcDbEntity
  8
1
  6
Continuous
 62
     1
100
AcDbLine
 10
80.4901
 20
136.212
 30
0.0
 11
77.30809999999999
 21
133.03
 31
0.0
  0
LINE
  5
115B
330
18
100
AcDbEntity
  8
1
  6
DASHED
 62
     1
100
AcDbLine
 10
75.1866
 20
164.143
 30
0.0
 11
83.6721
 21
172.628
 31
0.0
  0
LINE
  5
115C
330
18
100
AcDbEntity
  8
1
  6
DASHED
 62
     1
100
AcDbLine
 10
97.81440000000001
 20
158.486
 30
0.0
 11
91.81919999999999
 21
152.491
 31
0.0
  0
LINE
  5
115D
330
18
100
AcDbEntity
  8
1
  6
Continuous
 62
     1
100
AcDbLine
 10
91.81919999999999
 20
152.491
 30
0.0
 11
89.3289
 21
150.001
 31
0.0
  0
LINE
  5
115E
330
18
100
AcDbEntity
  8
1
  6
Continuous
 62
     1
100
AcDbLine
 10
121.856
 20
185.356
 30
0.0
 11
121.149
 21
184.649
 31
0.0
  0
LINE
  5
115F
330
18
100
AcDbEntity
  8
1
  6
Continuous
 62
     1
100
AcDbLine
 10
115.029
 20
192.183
 30
0.0
 11
121.404
 21
185.808
 31
0.0
  0
LINE
  5
1160
330
18
100
AcDbEntity
  8
1
  6
Continuous
 62
     1
100
AcDbLine
 10
115.237
 20
200.46
 30
0.0
 11
125.647
 21
190.05
 31
0.0
  0
ARC
  5
1161
330
18
100
AcDbEntity
  8
1
  6
Continuous
 62
     1
100
AcDbCircle
 10
126.609
 20
201.423
 30
0.0
 40
14.722
100
AcDbArc
 50
217.792
 51
244.489
  0
ARC
  5
1162
330
18
100
AcDbEntity
  8
1
  6
Continuous
 62
     1
100
AcDbCircle
 10
124.217
 20
188.621
 30
0.0
 40
3.978
100
AcDbArc
 50
186.995
 51
262.98
  0
ARC
  5
1163
330
18
100
AcDbEntity
  8
1
  6
Continuous
 62
     1
100
AcDbCircle
 10
112.424
 20
197.648
 30
0.0
 40
3.978
100
AcDbArc
 50
6.995539999999999
 51
82.98
  0
ARC
  5
1164
330
18
100
AcDbEntity
  8
1
  6
Continuous
 62
     1
100
AcDbCircle
 10
110.031
 20
184.845
 30
0.0
 40
14.722
100
AcDbArc
 50
25.511
 51
64.48909999999999
  0
ARC
  5
1165
330
18
100
AcDbEntity
  8
1
  6
Continuous
 62
     1
100
AcDbCircle
 10
122.834
 20
187.237
 30
0.0
 40
3.978
100
AcDbArc
 50
7.02026
 51
83.0047
  0
LINE
  5
1166
330
18
100
AcDbEntity
  8
1
  6
Continuous
 62
     1
100
AcDbLine
 10
114.117
 20
195.879
 30
0.0
 11
116.366
 21
198.128
 31
0.0
  0
LINE
  5
1167
330
18
100
AcDbEntity
  8
1
  6
Continuous
 62
     1
100
AcDbLine
 10
120.274
 20
188.14
 30
0.0
 11
123.314
 21
191.18
 31
0.0
  0
LINE
  5
1168
330
18
100
AcDbEntity
  8
1
  6
Continuous
 62
     1
100
AcDbLine
 10
123.736
 20
184.678
 30
0.0
 11
126.776
 21
187.718
 31
0.0
  0
LINE
  5
1169
330
18
100
AcDbEntity
  8
1
  6
Continuous
 62
     1
100
AcDbLine
 10
117.967
 20
198.438
 30
0.0
 11
123.624
 21
192.781
 31
0.0
  0
LINE
  5
116A
330
18
100
AcDbEntity
  8
1
  6
Continuous
 62
     1
100
AcDbLine
 10
123.624
 20
192.781
 30
0.0
 11
123.624
 21
192.073
 31
0.0
  0
LINE
  5
116B
330
18
100
AcDbEntity
  8
1
  6
Continuous
 62
     1
100
AcDbLine
 10
117.259
 20
198.437
 30
0.0
 11
117.967
 21
198.438
 31
0.0
  0
LINE
  5
116C
330
18
100
AcDbEntity
  8
1
  6
Continuous
 62
     1
100
AcDbLine
 10
117.967
 20
198.438
 30
0.0
 11
117.613
 21
198.084
 31
0.0
  0
LINE
  5
116D
330
18
100
AcDbEntity
  8
1
  6
Continuous
 62
     1
100
AcDbLine
 10
123.624
 20
192.781
 30
0.0
 11
123.27
 21
192.427
 31
0.0
  0
LINE
  5
116E
330
18
100
AcDbEntity
  8
1
  6
Continuous
 62
     1
100
AcDbLine
 10
125.745
 20
136.212
 30
0.0
 11
128.927
 21
133.03
 31
0.0
  0
LINE
  5
116F
330
18
100
AcDbEntity
  8
1
  6
Continuous
 62
     1
100
AcDbLine
 10
128.927
 20
133.03
 30
0.0
 11
148.019
 21
152.122
 31
0.0
  0
LINE
  5
1170
330
18
100
AcDbEntity
  8
1
  6
Continuous
 62
     1
100
AcDbLine
 10
148.019
 20
152.122
 30
0.0
 11
144.837
 21
155.304
 31
0.0
  0
LINE
  5
1171
330
18
100
AcDbEntity
  8
1
  6
Continuous
 62
     1
100
AcDbLine
 10
121.149
 20
131.616
 30
0.0
 11
149.433
 21
159.9
 31
0.0
  0
LINE
  5
1172
330
18
100
AcDbEntity
  8
1
  6
Continuous
 62
     1
100
AcDbLine
 10
138.12
 20
171.214
 30
0.0
 11
109.835
 21
142.93
 31
0.0
  0
LINE
  5
1173
330
18
100
AcDbEntity
  8
1
  6
Continuous
 62
     2
100
AcDbLine
 10
108.067
 20
144.697
 30
0.0
 11
121.149
 21
131.616
 31
0.0
  0
LINE
  5
1174
330
18
100
AcDbEntity
  8
1
  6
Continuous
 62
     1
100
AcDbLine
 10
108.421
 20
158.486
 30
0.0
 11
116.906
 21
150.0
 31
0.0
  0
LINE
  5
1175
330
18
100
AcDbEntity
  8
1
  6
Continuous
 62
     1
100
AcDbLine
 10
131.048
 20
164.143
 30
0.0
 11
122.563
 21
172.628
 31
0.0
  0
LINE
  5
1176
330
18
100
AcDbEntity
  8
1
  6
DASHED
 62
     1
100
AcDbLine
 10
119.381
 20
183.588
 30
0.0
 11
97.4608
 21
161.668
 31
0.0
  0
LINE
  5
1177
330
18
100
AcDbEntity
  8
1
  6
CENTER
 62
     2
100
AcDbLine
 10
88.7427
 20
192.3059999999999
 30
0.0
 11
141.344
 21
139.705
 31
0.0
  0
LINE
  5
1178
330
18
100
AcDbEntity
  8
1
  6
CENTER
 62
     2
100
AcDbLine
 10
23.5449
 20
185.9309999999999
 30
0.0
 11
71.45610000000001
 21
185.9309999999999
 31
0.0
  0
LINE
  5
1179
330
18
100
AcDbEntity
  8
1
  6
CENTER
 62
     2
100
AcDbLine
 10
37.4812
 20
155.931
 30
0.0
 11
69.9842
 21
155.931
 31
0.0
  0
LINE
  5
117A
330
18
100
AcDbEntity
  8
1
  6
CENTER
 62
     2
100
AcDbLine
 10
35.32500000000001
 20
170.931
 30
0.0
 11
61.1532
 21
170.931
 31
0.0
  0
LINE
  5
117B
330
18
100
AcDbEntity
  8
1
  6
CENTER
 62
     2
100
AcDbLine
 10
88.11750000000001
 20
197.778
 30
0.0
 11
88.11750000000001
 21
210.006
 31
0.0
  0
LINE
  5
117C
330
18
100
AcDbEntity
  8
1
  6
CENTER
 62
     2
100
AcDbLine
 10
73.1175
 20
196.626
 30
0.0
 11
73.1175
 21
210.766
 31
0.0
  0
LINE
  5
117D
330
18
100
AcDbEntity
  8
1
  6
Continuous
 62
     2
100
AcDbLine
 10
43.11749999999999
 20
173.931
 30
0.0
 11
59.1175
 21
173.931
 31
0.0
  0
LINE
  5
117E
330
18
100
AcDbEntity
  8
1
  6
Continuous
 62
     2
100
AcDbLine
 10
59.1175
 20
167.931
 30
0.0
 11
43.11749999999999
 21
167.931
 31
0.0
  0
LINE
  5
117F
330
18
100
AcDbEntity
  8
1
  6
Continuous
 62
     2
100
AcDbLine
 10
44.1175
 20
173.931
 30
0.0
 11
44.1175
 21
171.431
 31
0.0
  0
LINE
  5
1180
330
18
100
AcDbEntity
  8
1
  6
Continuous
 62
     2
100
AcDbLine
 10
44.1175
 20
170.4309999999999
 30
0.0
 11
44.1175
 21
167.931
 31
0.0
  0
LINE
  5
1181
330
18
100
AcDbEntity
  8
1
  6
Continuous
 62
     2
100
AcDbLine
 10
58.11749999999999
 20
167.931
 30
0.0
 11
58.11749999999999
 21
170.4309999999999
 31
0.0
  0
LINE
  5
1182
330
18
100
AcDbEntity
  8
1
  6
Continuous
 62
     2
100
AcDbLine
 10
58.11749999999999
 20
171.431
 30
0.0
 11
58.11749999999999
 21
173.931
 31
0.0
  0
LINE
  5
1183
330
18
100
AcDbEntity
  8
1
  6
Continuous
 62
     2
100
AcDbLine
 10
59.1175
 20
168.931
 30
0.0
 11
58.1173
 21
167.931
 31
0.0
  0
LINE
  5
1184
330
18
100
AcDbEntity
  8
1
  6
Continuous
 62
     2
100
AcDbLine
 10
43.11749999999999
 20
168.931
 30
0.0
 11
44.1175
 21
167.931
 31
0.0
  0
LINE
  5
1185
330
18
100
AcDbEntity
  8
1
  6
Continuous
 62
     2
100
AcDbLine
 10
43.11749999999999
 20
172.932
 30
0.0
 11
44.1175
 21
173.931
 31
0.0
  0
LINE
  5
1186
330
18
100
AcDbEntity
  8
1
  6
Continuous
 62
     2
100
AcDbLine
 10
59.1175
 20
172.931
 30
0.0
 11
58.1173
 21
173.931
 31
0.0
  0
LINE
  5
1187
330
18
100
AcDbEntity
  8
1
  6
Continuous
 62
     2
100
AcDbLine
 10
43.11749999999999
 20
171.431
 30
0.0
 11
59.1175
 21
171.431
 31
0.0
  0
LINE
  5
1188
330
18
100
AcDbEntity
  8
1
  6
Continuous
 62
     2
100
AcDbLine
 10
59.1175
 20
170.4309999999999
 30
0.0
 11
43.11749999999999
 21
170.4309999999999
 31
0.0
  0
LINE
  5
1189
330
18
100
AcDbEntity
  8
1
  6
Continuous
 62
     2
100
AcDbLine
 10
29.1175
 20
182.731
 30
0.0
 11
29.1175
 21
189.131
 31
0.0
  0
LINE
  5
118A
330
18
100
AcDbEntity
  8
1
  6
Continuous
 62
     2
100
AcDbLine
 10
29.1175
 20
182.731
 30
0.0
 11
29.9176
 21
181.9309999999999
 31
0.0
  0
LINE
  5
118B
330
18
100
AcDbEntity
  8
1
  6
Continuous
 62
     2
100
AcDbLine
 10
29.1175
 20
189.131
 30
0.0
 11
29.9173
 21
189.931
 31
0.0
  0
LINE
  5
118C
330
18
100
AcDbEntity
  8
1
  6
Continuous
 62
     2
100
AcDbLine
 10
29.9173
 20
189.931
 30
0.0
 11
43.11749999999999
 21
189.931
 31
0.0
  0
LINE
  5
118D
330
18
100
AcDbEntity
  8
1
  6
Continuous
 62
     2
100
AcDbLine
 10
43.11749999999999
 20
189.931
 30
0.0
 11
59.1175
 21
189.931
 31
0.0
  0
LINE
  5
118E
330
18
100
AcDbEntity
  8
1
  6
Continuous
 62
     2
100
AcDbLine
 10
59.1175
 20
181.9309999999999
 30
0.0
 11
43.11749999999999
 21
181.9309999999999
 31
0.0
  0
LINE
  5
118F
330
18
100
AcDbEntity
  8
1
  6
Continuous
 62
     2
100
AcDbLine
 10
43.11749999999999
 20
181.9309999999999
 30
0.0
 11
29.9176
 21
181.9309999999999
 31
0.0
  0
LINE
  5
1190
330
18
100
AcDbEntity
  8
1
  6
Continuous
 62
     2
100
AcDbLine
 10
29.1175
 20
182.731
 30
0.0
 11
43.11749999999999
 21
182.731
 31
0.0
  0
LINE
  5
1191
330
18
100
AcDbEntity
  8
1
  6
Continuous
 62
     2
100
AcDbLine
 10
43.11749999999999
 20
189.131
 30
0.0
 11
29.1175
 21
189.131
 31
0.0
  0
LINE
  5
1192
330
18
100
AcDbEntity
  8
1
  6
Continuous
 62
     2
100
AcDbLine
 10
29.9175
 20
189.931
 30
0.0
 11
29.9175
 21
181.9309999999999
 31
0.0
  0
LINE
  5
1193
330
18
100
AcDbEntity
  8
1
  6
Continuous
 62
     2
100
AcDbLine
 10
43.9174
 20
159.931
 30
0.0
 11
59.1175
 21
159.931
 31
0.0
  0
LINE
  5
1194
330
18
100
AcDbEntity
  8
1
  6
Continuous
 62
     2
100
AcDbLine
 10
59.3811
 20
151.931
 30
0.0
 11
43.9174
 21
151.931
 31
0.0
  0
LINE
  5
1195
330
18
100
AcDbEntity
  8
1
  6
Continuous
 62
     2
100
AcDbLine
 10
43.11749999999999
 20
152.731
 30
0.0
 11
53.11749999999999
 21
152.731
 31
0.0
  0
LINE
  5
1196
330
18
100
AcDbEntity
  8
1
  6
Continuous
 62
     2
100
AcDbLine
 10
53.11749999999999
 20
159.131
 30
0.0
 11
43.11749999999999
 21
159.131
 31
0.0
  0
LINE
  5
1197
330
18
100
AcDbEntity
  8
1
  6
Continuous
 62
     2
100
AcDbLine
 10
43.9174
 20
159.931
 30
0.0
 11
43.9174
 21
151.931
 31
0.0
  0
LINE
  5
1198
330
18
100
AcDbEntity
  8
1
  6
Continuous
 62
     2
100
AcDbLine
 10
43.9174
 20
159.931
 30
0.0
 11
43.11749999999999
 21
159.131
 31
0.0
  0
LINE
  5
1199
330
18
100
AcDbEntity
  8
1
  6
Continuous
 62
     2
100
AcDbLine
 10
43.9174
 20
151.931
 30
0.0
 11
43.11749999999999
 21
152.731
 31
0.0
  0
LINE
  5
119A
330
18
100
AcDbEntity
  8
1
  6
Continuous
 62
     2
100
AcDbLine
 10
61.1175
 20
192.431
 30
0.0
 11
61.1175
 21
179.431
 31
0.0
  0
LINE
  5
119B
330
18
100
AcDbEntity
  8
1
  6
Continuous
 62
     2
100
AcDbLine
 10
59.1175
 20
192.431
 30
0.0
 11
69.11750000000001
 21
192.431
 31
0.0
  0
LINE
  5
119C
330
18
100
AcDbEntity
  8
1
  6
Continuous
 62
     2
100
AcDbLine
 10
69.11750000000001
 20
179.431
 30
0.0
 11
59.1175
 21
179.431
 31
0.0
  0
LINE
  5
119D
330
18
100
AcDbEntity
  8
1
  6
Continuous
 62
     2
100
AcDbLine
 10
69.11750000000001
 20
192.431
 30
0.0
 11
69.11750000000001
 21
179.431
 31
0.0
  0
LINE
  5
119E
330
18
100
AcDbEntity
  8
1
  6
Continuous
 62
     2
100
AcDbLine
 10
61.1175
 20
162.431
 30
0.0
 11
61.1175
 21
149.431
 31
0.0
  0
LINE
  5
119F
330
18
100
AcDbEntity
  8
1
  6
Continuous
 62
     2
100
AcDbLine
 10
59.1175
 20
162.431
 30
0.0
 11
69.11750000000001
 21
162.431
 31
0.0
  0
LINE
  5
11A0
330
18
100
AcDbEntity
  8
1
  6
Continuous
 62
     2
100
AcDbLine
 10
69.11750000000001
 20
149.431
 30
0.0
 11
59.1175
 21
149.431
 31
0.0
  0
LINE
  5
11A1
330
18
100
AcDbEntity
  8
1
  6
Continuous
 62
     2
100
AcDbLine
 10
69.11750000000001
 20
162.431
 30
0.0
 11
69.11750000000001
 21
149.431
 31
0.0
  0
LINE
  5
11A2
330
18
100
AcDbEntity
  8
1
  6
Continuous
 62
     1
100
AcDbLine
 10
138.119
 20
171.214
 30
0.0
 11
149.433
 21
159.9
 31
0.0
  0
LINE
  5
11A3
330
18
100
AcDbEntity
  8
1
  6
Continuous
 62
     1
100
AcDbLine
 10
53.11749999999999
 20
146.155
 30
0.0
 11
53.11749999999999
 21
205.431
 31
0.0
  0
LINE
  5
11A4
330
18
100
AcDbEntity
  8
1
  6
Continuous
 62
     1
100
AcDbLine
 10
53.6188
 20
205.935
 30
0.0
 11
112.618
 21
205.935
 31
0.0
  0
LINE
  5
11A5
330
18
100
AcDbEntity
  8
1
  6
DASHED
 62
     1
100
AcDbLine
 10
108.867
 20
199.931
 30
0.0
 11
108.867
 21
205.931
 31
0.0
  0
LINE
  5
11A6
330
18
100
AcDbEntity
  8
1
  6
DASHED
 62
     1
100
AcDbLine
 10
97.3675
 20
199.931
 30
0.0
 11
97.3675
 21
205.931
 31
0.0
  0
LINE
  5
11A7
330
18
100
AcDbEntity
  8
1
  6
DASHED
 62
     1
100
AcDbLine
 10
91.11740000000001
 20
199.931
 30
0.0
 11
91.11740000000001
 21
205.931
 31
0.0
  0
LINE
  5
11A8
330
18
100
AcDbEntity
  8
1
  6
DASHED
 62
     1
100
AcDbLine
 10
85.11750000000001
 20
199.931
 30
0.0
 11
85.11750000000001
 21
205.931
 31
0.0
  0
LINE
  5
11A9
330
18
100
AcDbEntity
  8
1
  6
DASHED
 62
     1
100
AcDbLine
 10
78.86750000000001
 20
199.931
 30
0.0
 11
78.86750000000001
 21
205.931
 31
0.0
  0
LINE
  5
11AA
330
18
100
AcDbEntity
  8
1
  6
DASHED
 62
     1
100
AcDbLine
 10
67.3675
 20
199.931
 30
0.0
 11
67.3675
 21
205.931
 31
0.0
  0
LINE
  5
11AB
330
18
100
AcDbEntity
  8
1
  6
DASHED
 62
     1
100
AcDbLine
 10
59.1218
 20
150.181
 30
0.0
 11
53.1218
 21
150.181
 31
0.0
  0
LINE
  5
11AC
330
18
100
AcDbEntity
  8
1
  6
DASHED
 62
     1
100
AcDbLine
 10
59.1218
 20
161.681
 30
0.0
 11
53.1218
 21
161.681
 31
0.0
  0
LINE
  5
11AD
330
18
100
AcDbEntity
  8
1
  6
DASHED
 62
     1
100
AcDbLine
 10
59.1218
 20
180.181
 30
0.0
 11
53.1218
 21
180.181
 31
0.0
  0
LINE
  5
11AE
330
18
100
AcDbEntity
  8
1
  6
DASHED
 62
     1
100
AcDbLine
 10
59.1218
 20
191.681
 30
0.0
 11
53.1218
 21
191.681
 31
0.0
  0
LINE
  5
11AF
330
18
100
AcDbEntity
  8
1
  6
CENTER
 62
     2
100
AcDbLine
 10
128.221
 20
203.035
 30
0.0
 11
67.76220000000001
 21
142.576
 31
0.0
  0
LINE
  5
11B0
330
18
100
AcDbEntity
  8
1
  6
Continuous
 62
     1
100
AcDbLine
 10
113.118
 20
199.931
 30
0.0
 11
115.492
 21
190.306
 31
0.0
  0
LINE
  5
11B1
330
18
100
AcDbEntity
  8
1
  6
Continuous
 62
     2
100
AcDbLine
 10
123.117
 20
182.68
 30
0.0
 11
123.117
 21
131.616
 31
0.0
  0
LINE
  5
11B2
330
18
100
AcDbEntity
  8
1
  6
CENTER
 62
     2
100
AcDbLine
 10
97.8142
 20
185.9309999999999
 30
0.0
 11
111.118
 21
185.9309999999999
 31
0.0
  0
LINE
  5
11B3
330
18
100
AcDbEntity
  8
1
  6
CENTER
 62
     2
100
AcDbLine
 10
95.1176
 20
169.931
 30
0.0
 11
107.958
 21
169.931
 31
0.0
  0
LINE
  5
11B4
330
18
100
AcDbEntity
  8
1
  6
Continuous
 62
     2
100
AcDbLine
 10
83.11750000000001
 20
131.616
 30
0.0
 11
83.11750000000001
 21
182.68
 31
0.0
  0
LINE
  5
11B5
330
18
100
AcDbEntity
  8
1
  6
CENTER
 62
     2
100
AcDbLine
 10
121.149
 20
131.616
 30
0.0
 11
123.117
 21
131.616
 31
0.0
  0
CIRCLE
  5
11B6
330
18
100
AcDbEntity
  8
1
  6
Continuous
 62
     1
100
AcDbCircle
 10
103.117
 20
185.9309999999999
 30
0.0
 40
2.5
  0
CIRCLE
  5
11B7
330
18
100
AcDbEntity
  8
1
  6
Continuous
 62
     1
100
AcDbCircle
 10
103.117
 20
169.931
 30
0.0
 40
2.5
  0
LINE
  5
11B8
330
18
100
AcDbEntity
  8
1
  6
Continuous
 62
     2
100
AcDbLine
 10
83.11750000000001
 20
131.616
 30
0.0
 11
85.0863
 21
131.616
 31
0.0
  0
LINE
  5
11B9
330
18
100
AcDbEntity
  8
1
  6
DASHED
 62
     2
100
AcDbLine
 10
53.11749999999999
 20
145.923
 30
0.0
 11
53.11749999999999
 21
146.155
 31
0.0
  0
LINE
  5
11BA
330
18
100
AcDbEntity
  8
1
  6
DASHED
 62
     1
100
AcDbLine
 10
84.3792
 20
185.356
 30
0.0
 11
85.0863
 21
184.649
 31
0.0
  0
LINE
  5
11BB
330
18
100
AcDbEntity
  8
1
  6
DASHED
 62
     1
100
AcDbLine
 10
95.241
 20
196.218
 30
0.0
 11
84.83110000000001
 21
185.808
 31
0.0
  0
LINE
  5
11BC
330
18
100
AcDbEntity
  8
1
  6
DASHED
 62
     1
100
AcDbLine
 10
90.9984
 20
200.46
 30
0.0
 11
80.5884
 21
190.05
 31
0.0
  0
ARC
  5
11BD
330
18
100
AcDbEntity
  8
1
  6
DASHED
 62
     1
100
AcDbCircle
 10
79.62609999999999
 20
201.423
 30
0.0
 40
14.722
100
AcDbArc
 50
295.511
 51
334.495
  0
ARC
  5
11BE
330
18
100
AcDbEntity
  8
1
  6
DASHED
 62
     1
100
AcDbCircle
 10
82.01819999999999
 20
188.621
 30
0.0
 40
3.978
100
AcDbArc
 50
277.02
 51
353.005
  0
ARC
  5
11BF
330
18
100
AcDbEntity
  8
1
  6
DASHED
 62
     1
100
AcDbCircle
 10
96.20350000000001
 20
184.845
 30
0.0
 40
14.722
100
AcDbArc
 50
115.511
 51
154.489
  0
ARC
  5
11C0
330
18
100
AcDbEntity
  8
1
  6
DASHED
 62
     1
100
AcDbCircle
 10
83.4013
 20
187.237
 30
0.0
 40
3.978
100
AcDbArc
 50
96.99530000000001
 51
172.98
  0
LINE
  5
11C1
330
18
100
AcDbEntity
  8
1
  6
DASHED
 62
     1
100
AcDbLine
 10
92.91439999999999
 20
195.082
 30
0.0
 11
89.8685
 21
198.128
 31
0.0
  0
LINE
  5
11C2
330
18
100
AcDbEntity
  8
1
  6
DASHED
 62
     1
100
AcDbLine
 10
85.96099999999999
 20
188.14
 30
0.0
 11
82.92050000000001
 21
191.18
 31
0.0
  0
LINE
  5
11C3
330
18
100
AcDbEntity
  8
1
  6
DASHED
 62
     1
100
AcDbLine
 10
82.499
 20
184.678
 30
0.0
 11
79.4585
 21
187.718
 31
0.0
  0
LINE
  5
11C4
330
18
100
AcDbEntity
  8
1
  6
DASHED
 62
     1
100
AcDbLine
 10
88.26819999999999
 20
198.438
 30
0.0
 11
82.61129999999999
 21
192.781
 31
0.0
  0
LINE
  5
11C5
330
18
100
AcDbEntity
  8
1
  6
DASHED
 62
     1
100
AcDbLine
 10
82.61129999999999
 20
192.781
 30
0.0
 11
82.61129999999999
 21
192.073
 31
0.0
  0
LINE
  5
11C6
330
18
100
AcDbEntity
  8
1
  6
DASHED
 62
     1
100
AcDbLine
 10
88.9756
 20
198.437
 30
0.0
 11
88.26819999999999
 21
198.438
 31
0.0
  0
ARC
  5
11C7
330
18
100
AcDbEntity
  8
1
  6
DASHED
 62
     1
100
AcDbCircle
 10
93.8113
 20
197.648
 30
0.0
 40
3.978
100
AcDbArc
 50
97.01999999999998
 51
173.004
  0
LINE
  5
11C8
330
18
100
AcDbEntity
  8
1
  6
DASHED
 62
     1
100
AcDbLine
 10
96.3709
 20
198.55
 30
0.0
 11
93.33029999999999
 21
201.59
 31
0.0
  0
ARC
  5
11C9
330
18
100
AcDbEntity
  8
1
  6
DASHED
 62
     1
100
AcDbCircle
 10
92.428
 20
199.031
 30
0.0
 40
3.978
100
AcDbArc
 50
277.024
 51
352.98
  0
LINE
  5
11CA
330
18
100
AcDbEntity
  8
1
  6
DASHED
 62
     1
100
AcDbLine
 10
95.69309999999999
 20
196.67
 30
0.0
 11
96.40019999999999
 21
195.963
 31
0.0
  0
LINE
  5
11CB
330
18
100
AcDbEntity
  8
1
  6
Continuous
 62
     2
100
AcDbLine
 10
110.188
 20
195.609
 30
0.0
 11
96.04649999999999
 21
195.609
 31
0.0
  0
LINE
  5
11CC
330
18
100
AcDbEntity
  8
1
  6
Continuous
 62
     1
100
AcDbLine
 10
109.835
 20
142.93
 30
0.0
 11
121.149
 21
131.616
 31
0.0
  0
LINE
  5
11CD
330
18
100
AcDbEntity
  8
1
  6
Continuous
 62
     1
100
AcDbLine
 10
85.08650000000001
 20
131.616
 30
0.0
 11
96.40019999999999
 21
142.929
 31
0.0
  0
LINE
  5
11CE
330
18
100
AcDbEntity
  8
1
  6
CENTER
 62
     2
100
AcDbLine
 10
103.117
 20
205.931
 30
0.0
 11
103.117
 21
146.748
 31
0.0
  0
LINE
  5
11CF
330
18
100
AcDbEntity
  8
1
  6
CENTER
 62
     2
100
AcDbLine
 10
103.117
 20
5.545609999999999
 30
0.0
 11
103.117
 21
-53.6375
 31
0.0
  0
LINE
  5
11D0
330
18
100
AcDbEntity
  8
1
  6
CENTER
 62
     2
100
AcDbLine
 10
418.85
 20
6.549389999999999
 30
0.0
 11
403.1
 21
6.549389999999999
 31
0.0
  0
LINE
  5
11D1
330
18
100
AcDbEntity
  8
1
  6
CENTER
 62
     2
100
AcDbLine
 10
602.576
 20
-26.164
 30
0.0
 11
570.4019999999998
 21
6.00944
 31
0.0
  0
LINE
  5
11D2
330
18
100
AcDbEntity
  8
1
  6
CENTER
 62
     2
100
AcDbLine
 10
603.1169999999999
 20
-47.6375
 30
0.0
 11
603.1169999999999
 21
22.8849
 31
0.0
  0
LINE
  5
11D3
330
18
100
AcDbEntity
  8
1
  6
CENTER
 62
     2
100
AcDbLine
 10
603.659
 20
-26.164
 30
0.0
 11
635.8330000000001
 21
6.00944
 31
0.0
  0
LINE
  5
11D4
330
18
100
AcDbEntity
  8
1
  6
DASHED
 62
     1
100
AcDbLine
 10
584.368
 20
-33.058
 30
0.0
 11
585.075
 21
-32.351
 31
0.0
  0
LINE
  5
11D5
330
18
100
AcDbEntity
  8
1
  6
DASHED
 62
     1
100
AcDbLine
 10
595.229
 20
-43.91989999999999
 30
0.0
 11
584.82
 21
-33.5101
 31
0.0
  0
LINE
  5
11D6
330
18
100
AcDbEntity
  8
1
  6
DASHED
 62
     1
100
AcDbLine
 10
590.9869999999999
 20
-48.1627
 30
0.0
 11
580.5769999999999
 21
-37.7528
 31
0.0
  0
ARC
  5
11D7
330
18
100
AcDbEntity
  8
1
  6
DASHED
 62
     1
100
AcDbCircle
 10
579.6149999999999
 20
-49.12510000000001
 30
0.0
 40
14.722
100
AcDbArc
 50
25.5055
 51
64.48909999999999
  0
ARC
  5
11D8
330
18
100
AcDbEntity
  8
1
  6
DASHED
 62
     1
100
AcDbCircle
 10
582.0069999999999
 20
-36.3231
 30
0.0
 40
3.978
100
AcDbArc
 50
6.99549
 51
82.98
  0
ARC
  5
11D9
330
18
100
AcDbEntity
  8
1
  6
DASHED
 62
     1
100
AcDbCircle
 10
596.192
 20
-32.5477
 30
0.0
 40
14.722
100
AcDbArc
 50
205.5109999999999
 51
244.489
  0
ARC
  5
11DA
330
18
100
AcDbEntity
  8
1
  6
DASHED
 62
     1
100
AcDbCircle
 10
583.3899999999999
 20
-34.9398
 30
0.0
 40
3.978
100
AcDbArc
 50
187.02
 51
263.005
  0
LINE
  5
11DB
330
18
100
AcDbEntity
  8
1
  6
DASHED
 62
     1
100
AcDbLine
 10
592.903
 20
-42.7848
 30
0.0
 11
589.8569999999999
 21
-45.8307
 31
0.0
  0
LINE
  5
11DC
330
18
100
AcDbEntity
  8
1
  6
DASHED
 62
     1
100
AcDbLine
 10
585.949
 20
-35.8422
 30
0.0
 11
582.9089999999999
 21
-38.8827
 31
0.0
  0
LINE
  5
11DD
330
18
100
AcDbEntity
  8
1
  6
DASHED
 62
     1
100
AcDbLine
 10
582.4869999999999
 20
-32.3803
 30
0.0
 11
579.447
 21
-35.4208
 31
0.0
  0
LINE
  5
11DE
330
18
100
AcDbEntity
  8
1
  6
DASHED
 62
     1
100
AcDbLine
 10
588.2569999999999
 20
-46.13999999999999
 30
0.0
 11
582.6
 21
-40.483
 31
0.0
  0
LINE
  5
11DF
330
18
100
AcDbEntity
  8
1
  6
DASHED
 62
     1
100
AcDbLine
 10
582.6
 20
-40.483
 30
0.0
 11
582.6
 21
-39.7755
 31
0.0
  0
LINE
  5
11E0
330
18
100
AcDbEntity
  8
1
  6
DASHED
 62
     1
100
AcDbLine
 10
588.964
 20
-46.1398
 30
0.0
 11
588.2569999999999
 21
-46.13999999999999
 31
0.0
  0
LINE
  5
11E1
330
18
100
AcDbEntity
  8
1
  6
DASHED
 62
     1
100
AcDbLine
 10
583.307
 20
-51.08979999999999
 30
0.0
 11
588.6099999999999
 21
-45.78629999999999
 31
0.0
  0
LINE
  5
11E2
330
18
100
AcDbEntity
  8
1
  6
DASHED
 62
     1
100
AcDbLine
 10
583.307
 20
-51.08979999999999
 30
0.0
 11
581.893
 21
-51.08979999999999
 31
0.0
  0
LINE
  5
11E3
330
18
100
AcDbEntity
  8
1
  6
DASHED
 62
     1
100
AcDbLine
 10
577.6499999999999
 20
-45.4328
 30
0.0
 11
582.953
 21
-40.12929999999999
 31
0.0
  0
LINE
  5
11E4
330
18
100
AcDbEntity
  8
1
  6
DASHED
 62
     1
100
AcDbLine
 10
581.893
 20
-51.08979999999999
 30
0.0
 11
577.6499999999999
 21
-46.847
 31
0.0
  0
LINE
  5
11E5
330
18
100
AcDbEntity
  8
1
  6
DASHED
 62
     1
100
AcDbLine
 10
577.6499999999999
 20
-46.847
 30
0.0
 11
577.6499999999999
 21
-45.4328
 31
0.0
  0
LINE
  5
11E6
330
18
100
AcDbEntity
  8
1
  6
DASHED
 62
     1
100
AcDbLine
 10
582.6
 20
-50.3827
 30
0.0
 11
586.8419999999999
 21
-46.13999999999999
 31
0.0
  0
LINE
  5
11E7
330
18
100
AcDbEntity
  8
1
  6
DASHED
 62
     1
100
AcDbLine
 10
582.6
 20
-41.8972
 30
0.0
 11
578.357
 21
-46.1399
 31
0.0
  0
LINE
  5
11E8
330
18
100
AcDbEntity
  8
1
  6
DASHED
 62
     1
100
AcDbLine
 10
586.8419999999999
 20
-46.13999999999999
 30
0.0
 11
582.6
 21
-41.8972
 31
0.0
  0
LINE
  5
11E9
330
18
100
AcDbEntity
  8
1
  6
DASHED
 62
     2
100
AcDbLine
 10
581.186
 20
-50.3827
 30
0.0
 11
582.6
 21
-41.8972
 31
0.0
  0
LINE
  5
11EA
330
18
100
AcDbEntity
  8
1
  6
DASHED
 62
     2
100
AcDbLine
 10
586.8419999999999
 20
-46.13999999999999
 30
0.0
 11
578.357
 21
-47.5541
 31
0.0
  0
LINE
  5
11EB
330
18
100
AcDbEntity
  8
1
  6
DASHED
 62
     1
100
AcDbLine
 10
582.6
 20
-50.3827
 30
0.0
 11
581.186
 21
-50.3827
 31
0.0
  0
LINE
  5
11EC
330
18
100
AcDbEntity
  8
1
  6
DASHED
 62
     1
100
AcDbLine
 10
578.357
 20
-47.5541
 30
0.0
 11
578.357
 21
-46.1399
 31
0.0
  0
ARC
  5
11ED
330
18
100
AcDbEntity
  8
1
  6
DASHED
 62
     1
100
AcDbCircle
 10
593.7999999999999
 20
-45.35
 30
0.0
 40
3.978
100
AcDbArc
 50
186.996
 51
262.98
  0
LINE
  5
11EE
330
18
100
AcDbEntity
  8
1
  6
DASHED
 62
     1
100
AcDbLine
 10
596.359
 20
-46.2521
 30
0.0
 11
593.3189999999999
 21
-49.2926
 31
0.0
  0
ARC
  5
11EF
330
18
100
AcDbEntity
  8
1
  6
DASHED
 62
     1
100
AcDbCircle
 10
592.4159999999999
 20
-46.7329
 30
0.0
 40
3.978
100
AcDbArc
 50
7.019969999999999
 51
82.9762
  0
LINE
  5
11F0
330
18
100
AcDbEntity
  8
1
  6
DASHED
 62
     1
100
AcDbLine
 10
595.682
 20
-44.37199999999999
 30
0.0
 11
596.389
 21
-43.6649
 31
0.0
  0
TEXT
  5
11F1
330
18
100
AcDbEntity
  8
1
  6
Continuous
 62
     1
100
AcDbText
 10
406.881
 20
-105.2
 30
0.0
 40
8.0
  1
TECLINE  204.2071  (EXC)
 41
0.99
100
AcDbText
  0
TEXT
  5
11F2
330
18
100
AcDbEntity
  8
1
  6
Continuous
 62
     2
100
AcDbText
 10
542.947
 20
119.714
 30
0.0
 40
8.0
  1
EXC
 50
45.0
 41
0.99
100
AcDbText
  0
TEXT
  5
11F3
330
18
100
AcDbEntity
  8
1
  6
Continuous
 62
     2
100
AcDbText
 10
571.104
 20
22.445
 30
0.0
 40
8.0
  1
EXC
 50
135.0
 41
0.99
100
AcDbText
  0
ENDSEC
  0
SECTION
  2
OBJECTS
  0
DICTIONARY
  5
C
330
0
100
AcDbDictionary
281
     1
  3
ACAD_COLOR
350
3215
  3
ACAD_GROUP
350
D
  3
ACAD_LAYOUT
350
323D
  3
ACAD_MATERIAL
350
31EB
  3
ACAD_MLEADERSTYLE
350
323A
  3
ACAD_MLINESTYLE
350
1B
  3
ACAD_PLOTSETTINGS
350
323E
  3
ACAD_PLOTSTYLENAME
350
31E9
  3
ACAD_SCALELIST
350
3218
  3
ACAD_TABLESTYLE
350
3216
  3
ACAD_VISUALSTYLE
350
3204
  3
ACDB_RECOMPOSE_DATA
350
325E
  3
AcDbVariableDictionary
350
3258
  0
DICTIONARY
  5
3254
330
E
100
AcDbDictionary
280
     1
281
     1
  3
ADSK_XREC_LAYER_RECONCILED
360
3255
  0
DICTIONARY
  5
3256
330
27
100
AcDbDictionary
280
     1
281
     1
  3
ADSK_XREC_LAYER_RECONCILED
360
3257
  0
DICTIONARY
  5
3215
102
{ACAD_REACTORS
330
C
102
}
330
C
100
AcDbDictionary
281
     1
  0
DICTIONARY
  5
D
102
{ACAD_REACTORS
330
C
102
}
330
C
100
AcDbDictionary
281
     1
  0
DICTIONARY
  5
323D
102
{ACAD_REACTORS
330
C
102
}
330
C
100
AcDbDictionary
281
     1
  3
Layout1
350
3240
  3
Model
350
323F
  0
DICTIONARY
  5
31EB
102
{ACAD_REACTORS
330
C
102
}
330
C
100
AcDbDictionary
281
     1
  3
ByBlock
350
31F4
  3
ByLayer
350
31EC
  3
Global
350
31FC
  0
DICTIONARY
  5
323A
102
{ACAD_REACTORS
330
C
102
}
330
C
100
AcDbDictionary
281
     1
  3
Standard
350
323B
  0
DICTIONARY
  5
1B
102
{ACAD_REACTORS
330
C
102
}
330
C
100
AcDbDictionary
281
     1
  3
STANDARD
350
1C
  0
DICTIONARY
  5
323E
102
{ACAD_REACTORS
330
C
102
}
330
C
100
AcDbDictionary
281
     1
  0
ACDBDICTIONARYWDFLT
  5
31E9
102
{ACAD_REACTORS
330
C
102
}
330
C
100
AcDbDictionary
281
     1
  3
Normal
350
31EA
100
AcDbDictionaryWithDefault
340
31EA
  0
DICTIONARY
  5
3218
102
{ACAD_REACTORS
330
C
102
}
330
C
100
AcDbDictionary
281
     1
  3
A0
350
3219
  3
A1
350
321A
  3
A2
350
321B
  3
A3
350
321C
  3
A4
350
321D
  3
A5
350
321E
  3
A6
350
321F
  3
A7
350
3220
  3
A8
350
3221
  3
A9
350
3222
  3
B0
350
3223
  3
B1
350
3224
  3
B2
350
3225
  3
B3
350
3226
  3
B4
350
3227
  3
B5
350
3228
  3
B6
350
3229
  3
B7
350
322A
  3
B8
350
322B
  3
B9
350
322C
  3
C0
350
322D
  3
C1
350
322E
  3
C2
350
322F
  3
C3
350
3230
  3
C4
350
3231
  3
C5
350
3232
  3
C6
350
3233
  3
C7
350
3234
  3
C8
350
3235
  3
C9
350
3236
  3
D0
350
3237
  3
D1
350
3238
  3
D2
350
3239
  0
DICTIONARY
  5
3216
102
{ACAD_REACTORS
330
C
102
}
330
C
100
AcDbDictionary
281
     1
  3
Standard
350
3217
  0
DICTIONARY
  5
3204
102
{ACAD_REACTORS
330
C
102
}
330
C
100
AcDbDictionary
281
     1
  3
2dWireframe
350
320A
  3
3D Hidden
350
320C
  3
3dWireframe
350
320B
  3
Basic
350
3209
  3
Brighten
350
3210
  3
ColorChange
350
3214
  3
Conceptual
350
320D
  3
Dim
350
320F
  3
Facepattern
350
3213
  3
Flat
350
3205
  3
FlatWithEdges
350
3206
  3
Gouraud
350
3207
  3
GouraudWithEdges
350
3208
  3
Linepattern
350
3212
  3
Realistic
350
320E
  3
Thicken
350
3211
  0
XRECORD
  5
325E
102
{ACAD_REACTORS
330
C
102
}
330
C
100
AcDbXrecord
280
     1
 90
        1
330
3217
  0
DICTIONARY
  5
3258
102
{ACAD_REACTORS
330
C
102
}
330
C
100
AcDbDictionary
281
     1
  3
CANNOSCALE
350
325B
  3
CMLEADERSTYLE
350
325A
  3
CTABLESTYLE
350
3259
  0
XRECORD
  5
3255
102
{ACAD_REACTORS
330
3254
102
}
330
3254
100
AcDbXrecord
280
     1
290
     1
  0
XRECORD
  5
3257
102
{ACAD_REACTORS
330
3256
102
}
330
3256
100
AcDbXrecord
280
     1
290
     1
  0
LAYOUT
  5
3240
102
{ACAD_REACTORS
330
323D
102
}
330
323D
100
AcDbPlotSettings
  1

  2
Brother HL-5140
  4

  6

 40
0.0
 41
0.0
 42
0.0
 43
0.0
 44
0.0
 45
0.0
 46
0.0
 47
0.0
 48
0.0
 49
0.0
140
0.0
141
0.0
142
1.0
143
1.0
 70
   688
 72
     0
 73
     0
 74
     5
  7

 75
    16
147
1.0
 76
     0
 77
     2
 78
   300
148
0.0
149
0.0
100
AcDbLayout
  1
Layout1
 70
     1
 71
     1
 10
0.0
 20
0.0
 11
12.0
 21
9.0
 12
0.0
 22
0.0
 32
0.0
 14
1.000000000000000E+20
 24
1.000000000000000E+20
 34
1.000000000000000E+20
 15
-1.000000000000000E+20
 25
-1.000000000000000E+20
 35
-1.000000000000000E+20
146
0.0
 13
0.0
 23
0.0
 33
0.0
 16
1.0
 26
0.0
 36
0.0
 17
0.0
 27
1.0
 37
0.0
 76
     0
330
15
  0
LAYOUT
  5
323F
102
{ACAD_REACTORS
330
323D
102
}
330
323D
100
AcDbPlotSettings
  1

  2
Brother HL-5140
  4

  6

 40
0.0
 41
0.0
 42
0.0
 43
0.0
 44
0.0
 45
0.0
 46
0.0
 47
0.0
 48
0.0
 49
0.0
140
0.0
141
0.0
142
1.0
143
1.0
 70
  1712
 72
     0
 73
     0
 74
     0
  7

 75
     0
147
1.0
 76
     0
 77
     2
 78
   300
148
0.0
149
0.0
100
AcDbLayout
  1
Model
 70
     1
 71
     0
 10
0.0
 20
0.0
 11
12.0
 21
9.0
 12
0.0
 22
0.0
 32
0.0
 14
0.0
 24
0.0
 34
0.0
 15
0.0
 25
0.0
 35
0.0
146
0.0
 13
0.0
 23
0.0
 33
0.0
 16
1.0
 26
0.0
 36
0.0
 17
0.0
 27
1.0
 37
0.0
 76
     0
330
18
331
31E7
  0
MATERIAL
  5
31F4
102
{ACAD_XDICTIONARY
360
31F5
102
}
102
{ACAD_REACTORS
330
31EB
102
}
330
31EB
100
AcDbMaterial
  1
ByBlock
 72
     0
 43
0.0208333333333333
 43
0.0
 43
0.0
 43
0.0
 43
0.0
 43
0.0208333333333333
 43
0.0
 43
0.0
 43
0.0
 43
0.0
 43
1.0
 43
0.0
 43
0.0
 43
0.0
 43
0.0
 43
1.0
 77
     0
 47
0.0208333333333333
 47
0.0
 47
0.0
 47
0.0
 47
0.0
 47
0.0208333333333333
 47
0.0
 47
0.0
 47
0.0
 47
0.0
 47
1.0
 47
0.0
 47
0.0
 47
0.0
 47
0.0
 47
1.0
171
     0
 49
0.0208333333333333
 49
0.0
 49
0.0
 49
0.0
 49
0.0
 49
0.0208333333333333
 49
0.0
 49
0.0
 49
0.0
 49
0.0
 49
1.0
 49
0.0
 49
0.0
 49
0.0
 49
0.0
 49
1.0
175
     0
142
0.0208333333333333
142
0.0
142
0.0
142
0.0
142
0.0
142
0.0208333333333333
142
0.0
142
0.0
142
0.0
142
0.0
142
1.0
142
0.0
142
0.0
142
0.0
142
0.0
142
1.0
179
     0
144
0.0208333333333333
144
0.0
144
0.0
144
0.0
144
0.0
144
0.0208333333333333
144
0.0
144
0.0
144
0.0
144
0.0
144
1.0
144
0.0
144
0.0
144
0.0
144
0.0
144
1.0
147
0.0208333333333333
147
0.0
147
0.0
147
0.0
147
0.0
147
0.0208333333333333
147
0.0
147
0.0
147
0.0
147
0.0
147
1.0
147
0.0
147
0.0
147
0.0
147
0.0
147
1.0
  0
MATERIAL
  5
31EC
102
{ACAD_XDICTIONARY
360
31ED
102
}
102
{ACAD_REACTORS
330
31EB
102
}
330
31EB
100
AcDbMaterial
  1
ByLayer
 72
     0
 43
0.0208333333333333
 43
0.0
 43
0.0
 43
0.0
 43
0.0
 43
0.0208333333333333
 43
0.0
 43
0.0
 43
0.0
 43
0.0
 43
1.0
 43
0.0
 43
0.0
 43
0.0
 43
0.0
 43
1.0
 77
     0
 47
0.0208333333333333
 47
0.0
 47
0.0
 47
0.0
 47
0.0
 47
0.0208333333333333
 47
0.0
 47
0.0
 47
0.0
 47
0.0
 47
1.0
 47
0.0
 47
0.0
 47
0.0
 47
0.0
 47
1.0
171
     0
 49
0.0208333333333333
 49
0.0
 49
0.0
 49
0.0
 49
0.0
 49
0.0208333333333333
 49
0.0
 49
0.0
 49
0.0
 49
0.0
 49
1.0
 49
0.0
 49
0.0
 49
0.0
 49
0.0
 49
1.0
175
     0
142
0.0208333333333333
142
0.0
142
0.0
142
0.0
142
0.0
142
0.0208333333333333
142
0.0
142
0.0
142
0.0
142
0.0
142
1.0
142
0.0
142
0.0
142
0.0
142
0.0
142
1.0
179
     0
144
0.0208333333333333
144
0.0
144
0.0
144
0.0
144
0.0
144
0.0208333333333333
144
0.0
144
0.0
144
0.0
144
0.0
144
1.0
144
0.0
144
0.0
144
0.0
144
0.0
144
1.0
147
0.0208333333333333
147
0.0
147
0.0
147
0.0
147
0.0
147
0.0208333333333333
147
0.0
147
0.0
147
0.0
147
0.0
147
1.0
147
0.0
147
0.0
147
0.0
147
0.0
147
1.0
  0
MATERIAL
  5
31FC
102
{ACAD_XDICTIONARY
360
31FD
102
}
102
{ACAD_REACTORS
330
31EB
102
}
330
31EB
100
AcDbMaterial
  1
Global
 72
     0
 43
0.0208333333333333
 43
0.0
 43
0.0
 43
0.0
 43
0.0
 43
0.0208333333333333
 43
0.0
 43
0.0
 43
0.0
 43
0.0
 43
1.0
 43
0.0
 43
0.0
 43
0.0
 43
0.0
 43
1.0
 77
     0
 47
0.0208333333333333
 47
0.0
 47
0.0
 47
0.0
 47
0.0
 47
0.0208333333333333
 47
0.0
 47
0.0
 47
0.0
 47
0.0
 47
1.0
 47
0.0
 47
0.0
 47
0.0
 47
0.0
 47
1.0
171
     0
 49
0.0208333333333333
 49
0.0
 49
0.0
 49
0.0
 49
0.0
 49
0.0208333333333333
 49
0.0
 49
0.0
 49
0.0
 49
0.0
 49
1.0
 49
0.0
 49
0.0
 49
0.0
 49
0.0
 49
1.0
175
     0
142
0.0208333333333333
142
0.0
142
0.0
142
0.0
142
0.0
142
0.0208333333333333
142
0.0
142
0.0
142
0.0
142
0.0
142
1.0
142
0.0
142
0.0
142
0.0
142
0.0
142
1.0
179
     0
144
0.0208333333333333
144
0.0
144
0.0
144
0.0
144
0.0
144
0.0208333333333333
144
0.0
144
0.0
144
0.0
144
0.0
144
1.0
144
0.0
144
0.0
144
0.0
144
0.0
144
1.0
147
0.0208333333333333
147
0.0
147
0.0
147
0.0
147
0.0
147
0.0208333333333333
147
0.0
147
0.0
147
0.0
147
0.0
147
1.0
147
0.0
147
0.0
147
0.0
147
0.0
147
1.0
  0
MLEADERSTYLE
  5
323B
102
{ACAD_REACTORS
330
323A
102
}
330
323A
100
AcDbMLeaderStyle
170
     2
171
     1
172
     0
 90
        2
 40
0.0
 41
0.0
173
     1
 91
-1056964608
340
12
 92
       -2
290
     1
 42
0.09
291
     1
 43
0.36
  3
Standard
 44
0.18
300

342
F
174
     1
178
     6
175
     1
176
     0
 93
-1056964608
 45
0.18
292
     0
297
     0
 46
0.18
 94
-1056964608
 47
1.0
 49
1.0
140
1.0
293
     1
141
0.0
294
     1
177
     0
142
1.0
295
     0
296
     0
143
0.125
1001
ACAD_MLEADERVER
1070
     2
  0
MLINESTYLE
  5
1C
102
{ACAD_REACTORS
330
1B
102
}
330
1B
100
AcDbMlineStyle
  2
STANDARD
 70
     0
  3

 62
   256
 51
90.0
 52
90.0
 71
     2
 49
0.5
 62
   256
  6
BYLAYER
 49
-0.5
 62
   256
  6
BYLAYER
  0
ACDBPLACEHOLDER
  5
31EA
102
{ACAD_REACTORS
330
31E9
102
}
330
31E9
  0
SCALE
  5
3219
102
{ACAD_REACTORS
330
3218
102
}
330
3218
100
AcDbScale
 70
     0
300
1:1
140
1.0
141
1.0
290
     1
  0
SCALE
  5
321A
102
{ACAD_REACTORS
330
3218
102
}
330
3218
100
AcDbScale
 70
     0
300
1:2
140
1.0
141
2.0
290
     0
  0
SCALE
  5
321B
102
{ACAD_REACTORS
330
3218
102
}
330
3218
100
AcDbScale
 70
     0
300
1:4
140
1.0
141
4.0
290
     0
  0
SCALE
  5
321C
102
{ACAD_REACTORS
330
3218
102
}
330
3218
100
AcDbScale
 70
     0
300
1:5
140
1.0
141
5.0
290
     0
  0
SCALE
  5
321D
102
{ACAD_REACTORS
330
3218
102
}
330
3218
100
AcDbScale
 70
     0
300
1:8
140
1.0
141
8.0
290
     0
  0
SCALE
  5
321E
102
{ACAD_REACTORS
330
3218
102
}
330
3218
100
AcDbScale
 70
     0
300
1:10
140
1.0
141
10.0
290
     0
  0
SCALE
  5
321F
102
{ACAD_REACTORS
330
3218
102
}
330
3218
100
AcDbScale
 70
     0
300
1:16
140
1.0
141
16.0
290
     0
  0
SCALE
  5
3220
102
{ACAD_REACTORS
330
3218
102
}
330
3218
100
AcDbScale
 70
     0
300
1:20
140
1.0
141
20.0
290
     0
  0
SCALE
  5
3221
102
{ACAD_REACTORS
330
3218
102
}
330
3218
100
AcDbScale
 70
     0
300
1:30
140
1.0
141
30.0
290
     0
  0
SCALE
  5
3222
102
{ACAD_REACTORS
330
3218
102
}
330
3218
100
AcDbScale
 70
     0
300
1:40
140
1.0
141
40.0
290
     0
  0
SCALE
  5
3223
102
{ACAD_REACTORS
330
3218
102
}
330
3218
100
AcDbScale
 70
     0
300
1:50
140
1.0
141
50.0
290
     0
  0
SCALE
  5
3224
102
{ACAD_REACTORS
330
3218
102
}
330
3218
100
AcDbScale
 70
     0
300
1:100
140
1.0
141
100.0
290
     0
  0
SCALE
  5
3225
102
{ACAD_REACTORS
330
3218
102
}
330
3218
100
AcDbScale
 70
     0
300
2:1
140
2.0
141
1.0
290
     0
  0
SCALE
  5
3226
102
{ACAD_REACTORS
330
3218
102
}
330
3218
100
AcDbScale
 70
     0
300
4:1
140
4.0
141
1.0
290
     0
  0
SCALE
  5
3227
102
{ACAD_REACTORS
330
3218
102
}
330
3218
100
AcDbScale
 70
     0
300
8:1
140
8.0
141
1.0
290
     0
  0
SCALE
  5
3228
102
{ACAD_REACTORS
330
3218
102
}
330
3218
100
AcDbScale
 70
     0
300
10:1
140
10.0
141
1.0
290
     0
  0
SCALE
  5
3229
102
{ACAD_REACTORS
330
3218
102
}
330
3218
100
AcDbScale
 70
     0
300
100:1
140
100.0
141
1.0
290
     0
  0
SCALE
  5
322A
102
{ACAD_REACTORS
330
3218
102
}
330
3218
100
AcDbScale
 70
     0
300
1/128" = 1'-0"
140
0.0078125
141
12.0
290
     0
  0
SCALE
  5
322B
102
{ACAD_REACTORS
330
3218
102
}
330
3218
100
AcDbScale
 70
     0
300
1/64" = 1'-0"
140
0.015625
141
12.0
290
     0
  0
SCALE
  5
322C
102
{ACAD_REACTORS
330
3218
102
}
330
3218
100
AcDbScale
 70
     0
300
1/32" = 1'-0"
140
0.03125
141
12.0
290
     0
  0
SCALE
  5
322D
102
{ACAD_REACTORS
330
3218
102
}
330
3218
100
AcDbScale
 70
     0
300
1/16" = 1'-0"
140
0.0625
141
12.0
290
     0
  0
SCALE
  5
322E
102
{ACAD_REACTORS
330
3218
102
}
330
3218
100
AcDbScale
 70
     0
300
3/32" = 1'-0"
140
0.09375
141
12.0
290
     0
  0
SCALE
  5
322F
102
{ACAD_REACTORS
330
3218
102
}
330
3218
100
AcDbScale
 70
     0
300
1/8" = 1'-0"
140
0.125
141
12.0
290
     0
  0
SCALE
  5
3230
102
{ACAD_REACTORS
330
3218
102
}
330
3218
100
AcDbScale
 70
     0
300
3/16" = 1'-0"
140
0.1875
141
12.0
290
     0
  0
SCALE
  5
3231
102
{ACAD_REACTORS
330
3218
102
}
330
3218
100
AcDbScale
 70
     0
300
1/4" = 1'-0"
140
0.25
141
12.0
290
     0
  0
SCALE
  5
3232
102
{ACAD_REACTORS
330
3218
102
}
330
3218
100
AcDbScale
 70
     0
300
3/8" = 1'-0"
140
0.375
141
12.0
290
     0
  0
SCALE
  5
3233
102
{ACAD_REACTORS
330
3218
102
}
330
3218
100
AcDbScale
 70
     0
300
1/2" = 1'-0"
140
0.5
141
12.0
290
     0
  0
SCALE
  5
3234
102
{ACAD_REACTORS
330
3218
102
}
330
3218
100
AcDbScale
 70
     0
300
3/4" = 1'-0"
140
0.75
141
12.0
290
     0
  0
SCALE
  5
3235
102
{ACAD_REACTORS
330
3218
102
}
330
3218
100
AcDbScale
 70
     0
300
1" = 1'-0"
140
1.0
141
12.0
290
     0
  0
SCALE
  5
3236
102
{ACAD_REACTORS
330
3218
102
}
330
3218
100
AcDbScale
 70
     0
300
1-1/2" = 1'-0"
140
1.5
141
12.0
290
     0
  0
SCALE
  5
3237
102
{ACAD_REACTORS
330
3218
102
}
330
3218
100
AcDbScale
 70
     0
300
3" = 1'-0"
140
3.0
141
12.0
290
     0
  0
SCALE
  5
3238
102
{ACAD_REACTORS
330
3218
102
}
330
3218
100
AcDbScale
 70
     0
300
6" = 1'-0"
140
6.0
141
12.0
290
     0
  0
SCALE
  5
3239
102
{ACAD_REACTORS
330
3218
102
}
330
3218
100
AcDbScale
 70
     0
300
1'-0" = 1'-0"
140
12.0
141
12.0
290
     0
  0
TABLESTYLE
  5
3217
102
{ACAD_XDICTIONARY
360
325C
102
}
102
{ACAD_REACTORS
330
3216
102
}
330
3216
100
AcDbTableStyle
  3
Standard
 70
     0
 71
     0
 40
0.06
 41
0.06
280
     0
281
     0
  7
STANDARD
140
0.18
170
     2
 62
     0
 63
     7
283
     0
274
    -2
284
     1
 64
     0
275
    -2
285
     1
 65
     0
276
    -2
286
     1
 66
     0
277
    -2
287
     1
 67
     0
278
    -2
288
     1
 68
     0
279
    -2
289
     1
 69
     0
  7
STANDARD
140
0.25
170
     5
 62
     0
 63
     7
283
     0
274
    -2
284
     1
 64
     0
275
    -2
285
     1
 65
     0
276
    -2
286
     1
 66
     0
277
    -2
287
     1
 67
     0
278
    -2
288
     1
 68
     0
279
    -2
289
     1
 69
     0
  7
STANDARD
140
0.18
170
     5
 62
     0
 63
     7
283
     0
274
    -2
284
     1
 64
     0
275
    -2
285
     1
 65
     0
276
    -2
286
     1
 66
     0
277
    -2
287
     1
 67
     0
278
    -2
288
     1
 68
     0
279
    -2
289
     1
 69
     0
  0
VISUALSTYLE
  5
320A
102
{ACAD_REACTORS
330
3204
102
}
330
3204
100
AcDbVisualStyle
  2
2dWireframe
 70
     4
 71
     0
 72
     2
 73
     0
 90
        0
 40
-0.6
 41
-30.0
 62
     5
 63
     7
421
 16777215
 74
     1
 91
        4
 64
     7
 65
   257
 75
     1
175
     1
 42
1.0
 92
        0
 66
   257
 43
1.0
 76
     1
 77
     6
 78
     2
 67
     7
 79
     5
170
     0
171
     0
290
     0
174
     0
 93
        1
 44
0.0
173
     0
291
     0
 45
0.0
1001
ACAD
1000
AcDbSavedByObjectVersion
1070
     0
  0
VISUALSTYLE
  5
320C
102
{ACAD_REACTORS
330
3204
102
}
330
3204
100
AcDbVisualStyle
  2
3D Hidden
 70
     6
 71
     1
 72
     2
 73
     2
 90
        0
 40
-0.6
 41
-30.0
 62
     5
 63
     7
421
 16777215
 74
     2
 91
        2
 64
     7
 65
   257
 75
     2
175
     1
 42
40.0
 92
        0
 66
   257
 43
1.0
 76
     1
 77
     6
 78
     2
 67
     7
 79
     3
170
     0
171
     0
290
     0
174
     0
 93
        1
 44
0.0
173
     0
291
     0
 45
0.0
1001
ACAD
1000
AcDbSavedByObjectVersion
1070
     0
  0
VISUALSTYLE
  5
320B
102
{ACAD_REACTORS
330
3204
102
}
330
3204
100
AcDbVisualStyle
  2
3dWireframe
 70
     5
 71
     0
 72
     2
 73
     0
 90
        0
 40
-0.6
 41
-30.0
 62
     5
 63
     7
421
 16777215
 74
     1
 91
        4
 64
     7
 65
   257
 75
     1
175
     1
 42
1.0
 92
        0
 66
   257
 43
1.0
 76
     1
 77
     6
 78
     2
 67
     7
 79
     5
170
     0
171
     0
290
     0
174
     0
 93
        1
 44
0.0
173
     0
291
     0
 45
0.0
1001
ACAD
1000
AcDbSavedByObjectVersion
1070
     0
  0
VISUALSTYLE
  5
3209
102
{ACAD_REACTORS
330
3204
102
}
330
3204
100
AcDbVisualStyle
  2
Basic
 70
     7
 71
     1
 72
     0
 73
     1
 90
        0
 40
-0.6
 41
-30.0
 62
     5
 63
     7
421
 16777215
 74
     0
 91
        4
 64
     7
 65
   257
 75
     1
175
     1
 42
1.0
 92
        8
 66
     7
 43
1.0
 76
     1
 77
     6
 78
     2
 67
     7
 79
     5
170
     0
171
     0
290
     0
174
     0
 93
        1
 44
0.0
173
     0
291
     1
 45
0.0
1001
ACAD
1000
AcDbSavedByObjectVersion
1070
     0
  0
VISUALSTYLE
  5
3210
102
{ACAD_REACTORS
330
3204
102
}
330
3204
100
AcDbVisualStyle
  2
Brighten
 70
    12
 71
     2
 72
     2
 73
     0
 90
        0
 40
-0.6
 41
-30.0
 62
     5
 63
     7
421
 16777215
 74
     1
 91
        4
 64
     7
 65
   257
 75
     1
175
     1
 42
1.0
 92
        8
 66
     7
 43
1.0
 76
     1
 77
     6
 78
     2
 67
     7
 79
     5
170
     0
171
     0
290
     0
174
     0
 93
        1
 44
50.0
173
     0
291
     1
 45
0.0
1001
ACAD
1000
AcDbSavedByObjectVersion
1070
     0
  0
VISUALSTYLE
  5
3214
102
{ACAD_REACTORS
330
3204
102
}
330
3204
100
AcDbVisualStyle
  2
ColorChange
 70
    16
 71
     2
 72
     2
 73
     3
 90
        0
 40
-0.6
 41
-30.0
 62
     5
 63
     8
421
  8421504
 74
     1
 91
        4
 64
     7
 65
   257
 75
     1
175
     1
 42
1.0
 92
        8
 66
     8
424
  8421504
 43
1.0
 76
     1
 77
     6
 78
     2
 67
     7
 79
     5
170
     0
171
     0
290
     0
174
     0
 93
        1
 44
0.0
173
     0
291
     1
 45
0.0
1001
ACAD
1000
AcDbSavedByObjectVersion
1070
     0
  0
VISUALSTYLE
  5
320D
102
{ACAD_REACTORS
330
3204
102
}
330
3204
100
AcDbVisualStyle
  2
Conceptual
 70
     9
 71
     3
 72
     2
 73
     0
 90
        0
 40
-0.6
 41
-30.0
 62
     5
 63
     7
421
 16777215
 74
     2
 91
        2
 64
     7
 65
   257
 75
     1
175
     1
 42
40.0
 92
        8
 66
     7
 43
1.0
 76
     1
 77
     6
 78
     2
 67
     7
 79
     3
170
     0
171
     0
290
     0
174
     0
 93
        1
 44
0.0
173
     0
291
     0
 45
0.0
1001
ACAD
1000
AcDbSavedByObjectVersion
1070
     0
  0
VISUALSTYLE
  5
320F
102
{ACAD_REACTORS
330
3204
102
}
330
3204
100
AcDbVisualStyle
  2
Dim
 70
    11
 71
     2
 72
     2
 73
     0
 90
        0
 40
-0.6
 41
-30.0
 62
     5
 63
     7
421
 16777215
 74
     1
 91
        4
 64
     7
 65
   257
 75
     1
175
     1
 42
1.0
 92
        8
 66
     7
 43
1.0
 76
     1
 77
     6
 78
     2
 67
     7
 79
     5
170
     0
171
     0
290
     0
174
     0
 93
        1
 44
-50.0
173
     0
291
     1
 45
0.0
1001
ACAD
1000
AcDbSavedByObjectVersion
1070
     0
  0
VISUALSTYLE
  5
3213
102
{ACAD_REACTORS
330
3204
102
}
330
3204
100
AcDbVisualStyle
  2
Facepattern
 70
    15
 71
     2
 72
     2
 73
     0
 90
        0
 40
-0.6
 41
-30.0
 62
     5
 63
     7
421
 16777215
 74
     1
 91
        4
 64
     7
 65
   257
 75
     1
175
     1
 42
1.0
 92
        8
 66
     7
 43
1.0
 76
     1
 77
     6
 78
     2
 67
     7
 79
     5
170
     0
171
     0
290
     0
174
     0
 93
        1
 44
0.0
173
     0
291
     1
 45
0.0
1001
ACAD
1000
AcDbSavedByObjectVersion
1070
     0
  0
VISUALSTYLE
  5
3205
102
{ACAD_REACTORS
330
3204
102
}
330
3204
100
AcDbVisualStyle
  2
Flat
 70
     0
 71
     2
 72
     1
 73
     1
 90
        2
 40
-0.6
 41
30.0
 62
     5
 63
     7
421
 16777215
 74
     0
 91
        4
 64
     7
 65
   257
 75
     1
175
     1
 42
1.0
 92
        8
 66
     7
 43
1.0
 76
     1
 77
     6
 78
     2
 67
     7
 79
     5
170
     0
171
     0
290
     0
174
     0
 93
       13
 44
0.0
173
     0
291
     1
 45
0.0
1001
ACAD
1000
AcDbSavedByObjectVersion
1070
     0
  0
VISUALSTYLE
  5
3206
102
{ACAD_REACTORS
330
3204
102
}
330
3204
100
AcDbVisualStyle
  2
FlatWithEdges
 70
     1
 71
     2
 72
     1
 73
     1
 90
        2
 40
-0.6
 41
30.0
 62
     5
 63
     7
421
 16777215
 74
     1
 91
        4
 64
     7
 65
   257
 75
     1
175
     1
 42
1.0
 92
        0
 66
   257
 43
1.0
 76
     1
 77
     6
 78
     2
 67
     7
 79
     5
170
     0
171
     0
290
     0
174
     0
 93
       13
 44
0.0
173
     0
291
     1
 45
0.0
1001
ACAD
1000
AcDbSavedByObjectVersion
1070
     0
  0
VISUALSTYLE
  5
3207
102
{ACAD_REACTORS
330
3204
102
}
330
3204
100
AcDbVisualStyle
  2
Gouraud
 70
     2
 71
     2
 72
     2
 73
     1
 90
        2
 40
-0.6
 41
30.0
 62
     5
 63
     7
421
 16777215
 74
     0
 91
        4
 64
     7
 65
   257
 75
     1
175
     1
 42
1.0
 92
        0
 66
     7
 43
1.0
 76
     1
 77
     6
 78
     2
 67
     7
 79
     5
170
     0
171
     0
290
     0
174
     0
 93
       13
 44
0.0
173
     0
291
     1
 45
0.0
1001
ACAD
1000
AcDbSavedByObjectVersion
1070
     0
  0
VISUALSTYLE
  5
3208
102
{ACAD_REACTORS
330
3204
102
}
330
3204
100
AcDbVisualStyle
  2
GouraudWithEdges
 70
     3
 71
     2
 72
     2
 73
     1
 90
        2
 40
-0.6
 41
30.0
 62
     5
 63
     7
421
 16777215
 74
     1
 91
        4
 64
     7
 65
   257
 75
     1
175
     1
 42
1.0
 92
        0
 66
   257
 43
1.0
 76
     1
 77
     6
 78
     2
 67
     7
 79
     5
170
     0
171
     0
290
     0
174
     0
 93
       13
 44
0.0
173
     0
291
     1
 45
0.0
1001
ACAD
1000
AcDbSavedByObjectVersion
1070
     0
  0
VISUALSTYLE
  5
3212
102
{ACAD_REACTORS
330
3204
102
}
330
3204
100
AcDbVisualStyle
  2
Linepattern
 70
    14
 71
     2
 72
     2
 73
     0
 90
        0
 40
-0.6
 41
-30.0
 62
     5
 63
     7
421
 16777215
 74
     1
 91
        4
 64
     7
 65
   257
 75
     7
175
     7
 42
1.0
 92
        8
 66
     7
 43
1.0
 76
     1
 77
     6
 78
     2
 67
     7
 79
     5
170
     0
171
     0
290
     0
174
     0
 93
        1
 44
0.0
173
     0
291
     1
 45
0.0
1001
ACAD
1000
AcDbSavedByObjectVersion
1070
     0
  0
VISUALSTYLE
  5
320E
102
{ACAD_REACTORS
330
3204
102
}
330
3204
100
AcDbVisualStyle
  2
Realistic
 70
     8
 71
     2
 72
     2
 73
     0
 90
        0
 40
-0.6
 41
-30.0
 62
     5
 63
     7
421
 16777215
 74
     1
 91
        0
 64
     7
 65
   257
 75
     1
175
     1
 42
1.0
 92
        8
 66
     8
424
  7895160
 43
1.0
 76
     1
 77
     6
 78
     2
 67
     7
 79
     5
170
     0
171
     0
290
     0
174
     0
 93
       13
 44
0.0
173
     0
291
     0
 45
0.0
1001
ACAD
1000
AcDbSavedByObjectVersion
1070
     0
  0
VISUALSTYLE
  5
3211
102
{ACAD_REACTORS
330
3204
102
}
330
3204
100
AcDbVisualStyle
  2
Thicken
 70
    13
 71
     2
 72
     2
 73
     0
 90
        0
 40
-0.6
 41
-30.0
 62
     5
 63
     7
421
 16777215
 74
     1
 91
        4
 64
     7
 65
   257
 75
     1
175
     1
 42
1.0
 92
       12
 66
     7
 43
1.0
 76
     1
 77
     6
 78
     2
 67
     7
 79
     5
170
     0
171
     0
290
     0
174
     0
 93
        1
 44
0.0
173
     0
291
     1
 45
0.0
1001
ACAD
1000
AcDbSavedByObjectVersion
1070
     0
  0
DICTIONARYVAR
  5
325B
102
{ACAD_REACTORS
330
3258
102
}
330
3258
100
DictionaryVariables
280
     0
  1
1:1
  0
DICTIONARYVAR
  5
325A
102
{ACAD_REACTORS
330
3258
102
}
330
3258
100
DictionaryVariables
280
     0
  1
STANDARD
  0
DICTIONARYVAR
  5
3259
102
{ACAD_REACTORS
330
3258
102
}
330
3258
100
DictionaryVariables
280
     0
  1
STANDARD
  0
DICTIONARY
  5
31F5
330
31F4
100
AcDbDictionary
280
     1
281
     1
  3
ACAD_XREC_ROUNDTRIP
360
3260
  3
BUMPTILE
360
31F7
  3
DIFFUSETILE
360
31F6
  3
OPACITYTILE
360
31FA
  3
REFLECTIONTILE
360
31F9
  3
REFRACTIONTILE
360
31FB
  3
SPECULARTILE
360
31F8
  0
DICTIONARY
  5
31ED
330
31EC
100
AcDbDictionary
280
     1
281
     1
  3
ACAD_XREC_ROUNDTRIP
360
325F
  3
BUMPTILE
360
31EF
  3
DIFFUSETILE
360
31EE
  3
OPACITYTILE
360
31F2
  3
REFLECTIONTILE
360
31F1
  3
REFRACTIONTILE
360
31F3
  3
SPECULARTILE
360
31F0
  0
DICTIONARY
  5
31FD
330
31FC
100
AcDbDictionary
280
     1
281
     1
  3
ACAD_XREC_ROUNDTRIP
360
3261
  3
BUMPTILE
360
31FF
  3
DIFFUSETILE
360
31FE
  3
OPACITYTILE
360
3202
  3
REFLECTIONTILE
360
3201
  3
REFRACTIONTILE
360
3203
  3
SPECULARTILE
360
3200
  0
DICTIONARY
  5
325C
330
3217
100
AcDbDictionary
280
     1
281
     1
  3
ACAD_ROUNDTRIP_2008_TABLESTYLE_CELLSTYLEMAP
360
325D
  3
ACAD_XREC_ROUNDTRIP
360
3262
  0
XRECORD
  5
3260
102
{ACAD_REACTORS
330
31F5
102
}
330
31F5
100
AcDbXrecord
280
     1
102
MATERIAL
148
0.0
149
0.0
149
0.0
 93
        0
 94
      127
282
     0
 72
     0
 77
     0
171
     0
175
     0
179
     0
273
     0
  0
XRECORD
  5
31F7
102
{ACAD_REACTORS
330
31F5
102
}
330
31F5
100
AcDbXrecord
280
     1
270
     1
271
     1
  0
XRECORD
  5
31F6
102
{ACAD_REACTORS
330
31F5
102
}
330
31F5
100
AcDbXrecord
280
     1
270
     1
271
     1
  0
XRECORD
  5
31FA
102
{ACAD_REACTORS
330
31F5
102
}
330
31F5
100
AcDbXrecord
280
     1
270
     1
271
     1
  0
XRECORD
  5
31F9
102
{ACAD_REACTORS
330
31F5
102
}
330
31F5
100
AcDbXrecord
280
     1
270
     1
271
     1
  0
XRECORD
  5
31FB
102
{ACAD_REACTORS
330
31F5
102
}
330
31F5
100
AcDbXrecord
280
     1
270
     1
271
     1
  0
XRECORD
  5
31F8
102
{ACAD_REACTORS
330
31F5
102
}
330
31F5
100
AcDbXrecord
280
     1
270
     1
271
     1
  0
XRECORD
  5
325F
102
{ACAD_REACTORS
330
31ED
102
}
330
31ED
100
AcDbXrecord
280
     1
102
MATERIAL
148
0.0
149
0.0
149
0.0
 93
        0
 94
      127
282
     0
 72
     0
 77
     0
171
     0
175
     0
179
     0
273
     0
  0
XRECORD
  5
31EF
102
{ACAD_REACTORS
330
31ED
102
}
330
31ED
100
AcDbXrecord
280
     1
270
     1
271
     1
  0
XRECORD
  5
31EE
102
{ACAD_REACTORS
330
31ED
102
}
330
31ED
100
AcDbXrecord
280
     1
270
     1
271
     1
  0
XRECORD
  5
31F2
102
{ACAD_REACTORS
330
31ED
102
}
330
31ED
100
AcDbXrecord
280
     1
270
     1
271
     1
  0
XRECORD
  5
31F1
102
{ACAD_REACTORS
330
31ED
102
}
330
31ED
100
AcDbXrecord
280
     1
270
     1
271
     1
  0
XRECORD
  5
31F3
102
{ACAD_REACTORS
330
31ED
102
}
330
31ED
100
AcDbXrecord
280
     1
270
     1
271
     1
  0
XRECORD
  5
31F0
102
{ACAD_REACTORS
330
31ED
102
}
330
31ED
100
AcDbXrecord
280
     1
270
     1
271
     1
  0
XRECORD
  5
3261
102
{ACAD_REACTORS
330
31FD
102
}
330
31FD
100
AcDbXrecord
280
     1
102
MATERIAL
148
0.0
149
0.0
149
0.0
 93
        0
 94
      127
282
     0
 72
     0
 77
     0
171
     0
175
     0
179
     0
273
     0
  0
XRECORD
  5
31FF
102
{ACAD_REACTORS
330
31FD
102
}
330
31FD
100
AcDbXrecord
280
     1
270
     1
271
     1
  0
XRECORD
  5
31FE
102
{ACAD_REACTORS
330
31FD
102
}
330
31FD
100
AcDbXrecord
280
     1
270
     1
271
     1
  0
XRECORD
  5
3202
102
{ACAD_REACTORS
330
31FD
102
}
330
31FD
100
AcDbXrecord
280
     1
270
     1
271
     1
  0
XRECORD
  5
3201
102
{ACAD_REACTORS
330
31FD
102
}
330
31FD
100
AcDbXrecord
280
     1
270
     1
271
     1
  0
XRECORD
  5
3203
102
{ACAD_REACTORS
330
31FD
102
}
330
31FD
100
AcDbXrecord
280
     1
270
     1
271
     1
  0
XRECORD
  5
3200
102
{ACAD_REACTORS
330
31FD
102
}
330
31FD
100
AcDbXrecord
280
     1
270
     1
271
     1
  0
CELLSTYLEMAP
  5
325D
102
{ACAD_REACTORS
330
325C
102
}
330
325C
100
AcDbCellStyleMap
 90
        3
300
CELLSTYLE
  1
TABLEFORMAT_BEGIN
 90
        5
170
     1
 91
        0
 92
    32768
 62
   257
 93
        1
300
CONTENTFORMAT
  1
CONTENTFORMAT_BEGIN
 90
        0
 91
        0
 92
      512
 93
        0
300

 40
0.0
140
1.0
 94
        5
 62
     0
340
F
144
0.25
309
CONTENTFORMAT_END
171
     0
 94
        0
309
TABLEFORMAT_END
  1
CELLSTYLE_BEGIN
 90
        1
 91
        1
300
_TITLE
309
CELLSTYLE_END
300
CELLSTYLE
  1
TABLEFORMAT_BEGIN
 90
        5
170
     1
 91
        0
 92
        0
 62
   257
 93
        1
300
CONTENTFORMAT
  1
CONTENTFORMAT_BEGIN
 90
        0
 91
        0
 92
      512
 93
        0
300

 40
0.0
140
1.0
 94
        5
 62
     0
340
F
144
0.18
309
CONTENTFORMAT_END
171
     0
 94
        0
309
TABLEFORMAT_END
  1
CELLSTYLE_BEGIN
 90
        2
 91
        1
300
_HEADER
309
CELLSTYLE_END
300
CELLSTYLE
  1
TABLEFORMAT_BEGIN
 90
        5
170
     1
 91
        0
 92
        0
 62
   257
 93
        1
300
CONTENTFORMAT
  1
CONTENTFORMAT_BEGIN
 90
        0
 91
        0
 92
      512
 93
        0
300

 40
0.0
140
1.0
 94
        2
 62
     0
340
F
144
0.18
309
CONTENTFORMAT_END
171
     0
 94
        0
309
TABLEFORMAT_END
  1
CELLSTYLE_BEGIN
 90
        3
 91
        2
300
_DATA
309
CELLSTYLE_END
  0
XRECORD
  5
3262
102
{ACAD_REACTORS
330
325C
102
}
330
325C
100
AcDbXrecord
280
     1
102
ACAD_ROUNDTRIP_PRE2007_TABLESTYLE
 90
      512
 91
        0
  1

 92
      512
 93
        0
  2

 94
      512
 95
        0
  3

  0
ENDSEC
  0
EOF
