  0
SECTION
  2
HEADER
  9
$ACADVER
  1
AC1018
  9
$ACADMAINTVER
 70
   104
  9
$DWGCODEPAGE
  3
ANSI_1252
  9
$LASTSAVEDBY
  1
Achim
  9
$INSBASE
 10
-298.511
 20
323.39
 30
0.0
  9
$EXTMIN
 10
-9.490000000000009
 20
-238.5536
 30
0.0
  9
$EXTMAX
 10
411.2623475278615
 20
15.77100000000004
 30
0.0
  9
$LIMMIN
 10
0.0
 20
0.0
  9
$LIMMAX
 10
10.0
 20
10.0
  9
$ORTHOMODE
 70
     1
  9
$REGENMODE
 70
     1
  9
$FILLMODE
 70
     1
  9
$QTEXTMODE
 70
     0
  9
$MIRRTEXT
 70
     1
  9
$LTSCALE
 40
6.0
  9
$ATTMODE
 70
     1
  9
$TEXTSIZE
 40
0.2
  9
$TRACEWID
 40
0.05
  9
$TEXTSTYLE
  7
STANDARD
  9
$CLAYER
  8
0
  9
$CELTYPE
  6
CONTINUOUS
  9
$CECOLOR
 62
   256
  9
$CELTSCALE
 40
1.0
  9
$DISPSILH
 70
     0
  9
$DIMSCALE
 40
1.0
  9
$DIMASZ
 40
0.18
  9
$DIMEXO
 40
0.0625
  9
$DIMDLI
 40
0.38
  9
$DIMRND
 40
0.0
  9
$DIMDLE
 40
0.0
  9
$DIMEXE
 40
0.18
  9
$DIMTP
 40
0.0
  9
$DIMTM
 40
0.0
  9
$DIMTXT
 40
0.18
  9
$DIMCEN
 40
0.09
  9
$DIMTSZ
 40
0.0
  9
$DIMTOL
 70
     0
  9
$DIMLIM
 70
     0
  9
$DIMTIH
 70
     1
  9
$DIMTOH
 70
     1
  9
$DIMSE1
 70
     0
  9
$DIMSE2
 70
     0
  9
$DIMTAD
 70
     0
  9
$DIMZIN
 70
     0
  9
$DIMBLK
  1

  9
$DIMASO
 70
     1
  9
$DIMSHO
 70
     1
  9
$DIMPOST
  1

  9
$DIMAPOST
  1

  9
$DIMALT
 70
     0
  9
$DIMALTD
 70
     2
  9
$DIMALTF
 40
25.4
  9
$DIMLFAC
 40
1.0
  9
$DIMTOFL
 70
     0
  9
$DIMTVP
 40
0.0
  9
$DIMTIX
 70
     0
  9
$DIMSOXD
 70
     0
  9
$DIMSAH
 70
     0
  9
$DIMBLK1
  1

  9
$DIMBLK2
  1

  9
$DIMSTYLE
  2
STANDARD
  9
$DIMCLRD
 70
     0
  9
$DIMCLRE
 70
     0
  9
$DIMCLRT
 70
     0
  9
$DIMTFAC
 40
1.0
  9
$DIMGAP
 40
0.09
  9
$DIMJUST
 70
     0
  9
$DIMSD1
 70
     0
  9
$DIMSD2
 70
     0
  9
$DIMTOLJ
 70
     1
  9
$DIMTZIN
 70
     0
  9
$DIMALTZ
 70
     0
  9
$DIMALTTZ
 70
     0
  9
$DIMUPT
 70
     0
  9
$DIMDEC
 70
     4
  9
$DIMTDEC
 70
     4
  9
$DIMALTU
 70
     2
  9
$DIMALTTD
 70
     2
  9
$DIMTXSTY
  7
STANDARD
  9
$DIMAUNIT
 70
     0
  9
$DIMADEC
 70
     0
  9
$DIMALTRND
 40
0.0
  9
$DIMAZIN
 70
     0
  9
$DIMDSEP
 70
    46
  9
$DIMATFIT
 70
     3
  9
$DIMFRAC
 70
     0
  9
$DIMLDRBLK
  1

  9
$DIMLUNIT
 70
     2
  9
$DIMLWD
 70
    -2
  9
$DIMLWE
 70
    -2
  9
$DIMTMOVE
 70
     2
  9
$LUNITS
 70
     2
  9
$LUPREC
 70
     4
  9
$SKETCHINC
 40
0.1
  9
$FILLETRAD
 40
0.0
  9
$AUNITS
 70
     0
  9
$AUPREC
 70
     0
  9
$MENU
  1
.
  9
$ELEVATION
 40
0.0
  9
$PELEVATION
 40
0.0
  9
$THICKNESS
 40
0.0
  9
$LIMCHECK
 70
     0
  9
$CHAMFERA
 40
0.0
  9
$CHAMFERB
 40
0.0
  9
$CHAMFERC
 40
0.0
  9
$CHAMFERD
 40
0.0
  9
$SKPOLY
 70
     0
  9
$TDCREATE
 40
2450783.536287616
  9
$TDUCREATE
 40
2450783.452954282
  9
$TDUPDATE
 40
2455429.465547917
  9
$TDUUPDATE
 40
2455429.382214584
  9
$TDINDWG
 40
0.0001786921
  9
$TDUSRTIMER
 40
0.0001786921
  9
$USRTIMER
 70
     1
  9
$ANGBASE
 50
0.0
  9
$ANGDIR
 70
     0
  9
$PDMODE
 70
     0
  9
$PDSIZE
 40
0.0
  9
$PLINEWID
 40
0.0
  9
$SPLFRAME
 70
     0
  9
$SPLINETYPE
 70
     6
  9
$SPLINESEGS
 70
     8
  9
$HANDSEED
  5
B64
  9
$SURFTAB1
 70
     6
  9
$SURFTAB2
 70
     6
  9
$SURFTYPE
 70
     6
  9
$SURFU
 70
     6
  9
$SURFV
 70
     6
  9
$UCSBASE
  2

  9
$UCSNAME
  2

  9
$UCSORG
 10
0.0
 20
0.0
 30
0.0
  9
$UCSXDIR
 10
1.0
 20
0.0
 30
0.0
  9
$UCSYDIR
 10
0.0
 20
1.0
 30
0.0
  9
$UCSORTHOREF
  2

  9
$UCSORTHOVIEW
 70
     0
  9
$UCSORGTOP
 10
0.0
 20
0.0
 30
0.0
  9
$UCSORGBOTTOM
 10
0.0
 20
0.0
 30
0.0
  9
$UCSORGLEFT
 10
0.0
 20
0.0
 30
0.0
  9
$UCSORGRIGHT
 10
0.0
 20
0.0
 30
0.0
  9
$UCSORGFRONT
 10
0.0
 20
0.0
 30
0.0
  9
$UCSORGBACK
 10
0.0
 20
0.0
 30
0.0
  9
$PUCSBASE
  2

  9
$PUCSNAME
  2

  9
$PUCSORG
 10
0.0
 20
0.0
 30
0.0
  9
$PUCSXDIR
 10
1.0
 20
0.0
 30
0.0
  9
$PUCSYDIR
 10
0.0
 20
1.0
 30
0.0
  9
$PUCSORTHOREF
  2

  9
$PUCSORTHOVIEW
 70
     0
  9
$PUCSORGTOP
 10
0.0
 20
0.0
 30
0.0
  9
$PUCSORGBOTTOM
 10
0.0
 20
0.0
 30
0.0
  9
$PUCSORGLEFT
 10
0.0
 20
0.0
 30
0.0
  9
$PUCSORGRIGHT
 10
0.0
 20
0.0
 30
0.0
  9
$PUCSORGFRONT
 10
0.0
 20
0.0
 30
0.0
  9
$PUCSORGBACK
 10
0.0
 20
0.0
 30
0.0
  9
$USERI1
 70
     0
  9
$USERI2
 70
     0
  9
$USERI3
 70
     0
  9
$USERI4
 70
     0
  9
$USERI5
 70
     0
  9
$USERR1
 40
0.0
  9
$USERR2
 40
0.0
  9
$USERR3
 40
0.0
  9
$USERR4
 40
0.0
  9
$USERR5
 40
0.0
  9
$WORLDVIEW
 70
     1
  9
$SHADEDGE
 70
     3
  9
$SHADEDIF
 70
    70
  9
$TILEMODE
 70
     1
  9
$MAXACTVP
 70
    16
  9
$PINSBASE
 10
0.0
 20
0.0
 30
0.0
  9
$PLIMCHECK
 70
     0
  9
$PEXTMIN
 10
1.000000000000000E+20
 20
1.000000000000000E+20
 30
1.000000000000000E+20
  9
$PEXTMAX
 10
-1.000000000000000E+20
 20
-1.000000000000000E+20
 30
-1.000000000000000E+20
  9
$PLIMMIN
 10
0.0
 20
0.0
  9
$PLIMMAX
 10
12.0
 20
9.0
  9
$UNITMODE
 70
     0
  9
$VISRETAIN
 70
     0
  9
$PLINEGEN
 70
     0
  9
$PSLTSCALE
 70
     1
  9
$TREEDEPTH
 70
  3020
  9
$CMLSTYLE
  2
Standard
  9
$CMLJUST
 70
     0
  9
$CMLSCALE
 40
1.0
  9
$PROXYGRAPHICS
 70
     1
  9
$MEASUREMENT
 70
     0
  9
$CELWEIGHT
370
    -1
  9
$ENDCAPS
280
     0
  9
$JOINSTYLE
280
     0
  9
$LWDISPLAY
290
     0
  9
$INSUNITS
 70
     0
  9
$HYPERLINKBASE
  1

  9
$STYLESHEET
  1

  9
$XEDIT
290
     1
  9
$CEPSNTYPE
380
     0
  9
$PSTYLEMODE
290
     1
  9
$FINGERPRINTGUID
  2
{D39DAECF-3B35-4A46-B5F9-32E6D0AA6A48}
  9
$VERSIONGUID
  2
{08B7F986-6D8D-45C3-AF18-98CCDF1A6BD1}
  9
$EXTNAMES
290
     1
  9
$PSVPSCALE
 40
0.0
  9
$OLESTARTUP
290
     0
  9
$SORTENTS
280
   127
  9
$INDEXCTL
280
     0
  9
$HIDETEXT
280
     1
  9
$XCLIPFRAME
290
     0
  9
$HALOGAP
280
     0
  9
$OBSCOLOR
 70
   257
  9
$OBSLTYPE
280
     0
  9
$INTERSECTIONDISPLAY
280
     0
  9
$INTERSECTIONCOLOR
 70
   257
  9
$DIMASSOC
280
     2
  9
$PROJECTNAME
  1

  0
ENDSEC
  0
SECTION
  2
CLASSES
  0
CLASS
  1
ACDBDICTIONARYWDFLT
  2
AcDbDictionaryWithDefault
  3
ObjectDBX Classes
 90
        0
 91
        1
280
     0
281
     0
  0
CLASS
  1
MATERIAL
  2
AcDbMaterial
  3
ObjectDBX Classes
 90
     1153
 91
        3
280
     0
281
     0
  0
CLASS
  1
VISUALSTYLE
  2
AcDbVisualStyle
  3
ObjectDBX Classes
 90
     4095
 91
       16
280
     0
281
     0
  0
CLASS
  1
SCALE
  2
AcDbScale
  3
ObjectDBX Classes
 90
     1153
 91
       33
280
     0
281
     0
  0
CLASS
  1
TABLESTYLE
  2
AcDbTableStyle
  3
ObjectDBX Classes
 90
     4095
 91
        1
280
     0
281
     0
  0
CLASS
  1
MLEADERSTYLE
  2
AcDbMLeaderStyle
  3
ACDB_MLEADERSTYLE_CLASS
 90
     4095
 91
        1
280
     0
281
     0
  0
CLASS
  1
DICTIONARYVAR
  2
AcDbDictionaryVar
  3
ObjectDBX Classes
 90
        0
 91
        5
280
     0
281
     0
  0
CLASS
  1
CELLSTYLEMAP
  2
AcDbCellStyleMap
  3
ObjectDBX Classes
 90
     1152
 91
        1
280
     0
281
     0
  0
ENDSEC
  0
SECTION
  2
TABLES
  0
TABLE
  2
VPORT
  5
ADB
330
0
100
AcDbSymbolTable
 70
     1
  0
VPORT
  5
B4E
330
ADB
100
AcDbSymbolTableRecord
100
AcDbViewportTableRecord
  2
*ACTIVE
 70
     0
 10
0.0
 20
0.0
 11
1.0
 21
1.0
 12
236.786353164557
 22
-97.00817021727781
 13
0.0
 23
0.0
 14
1.0
 24
1.0
 15
0.0
 25
0.0
 16
0.0
 26
0.0
 36
1.0
 17
0.0
 27
0.0
 37
0.0
 40
283.0908595654444
 41
1.739910313901345
 42
50.0
 43
0.0
 44
0.0
 50
0.0
 51
0.0
 71
     0
 72
   100
 73
     1
 74
     1
 75
     0
 76
     0
 77
     0
 78
     0
281
     0
 65
     1
110
0.0
120
0.0
130
0.0
111
1.0
121
0.0
131
0.0
112
0.0
122
1.0
132
0.0
 79
     0
146
0.0
  0
ENDTAB
  0
TABLE
  2
LTYPE
  5
AD8
330
0
100
AcDbSymbolTable
 70
     1
  0
LTYPE
  5
B35
330
AD8
100
AcDbSymbolTableRecord
100
AcDbLinetypeTableRecord
  2
ByBlock
 70
     0
  3

 72
    65
 73
     0
 40
0.0
  0
LTYPE
  5
B36
330
AD8
100
AcDbSymbolTableRecord
100
AcDbLinetypeTableRecord
  2
ByLayer
 70
     0
  3

 72
    65
 73
     0
 40
0.0
  0
LTYPE
  5
B37
330
AD8
100
AcDbSymbolTableRecord
100
AcDbLinetypeTableRecord
  2
CONTINUOUS
 70
     0
  3
Solid line
 72
    65
 73
     0
 40
0.0
  0
ENDTAB
  0
TABLE
  2
LAYER
  5
AD5
330
0
100
AcDbSymbolTable
 70
     1
  0
LAYER
  5
B2F
102
{ACAD_XDICTIONARY
360
B55
102
}
330
AD5
100
AcDbSymbolTableRecord
100
AcDbLayerTableRecord
  2
0
 70
     0
 62
     7
  6
CONTINUOUS
370
    -3
390
AE2
  0
ENDTAB
  0
TABLE
  2
STYLE
  5
AD6
330
0
100
AcDbSymbolTable
 70
     2
  0
STYLE
  5
B30
330
AD6
100
AcDbSymbolTableRecord
100
AcDbTextStyleTableRecord
  2
STANDARD
 70
     0
 40
0.0
 41
1.0
 50
0.0
 71
     0
 42
0.2
  3
TXT
  4

  0
STYLE
  5
B34
330
AD6
100
AcDbSymbolTableRecord
100
AcDbTextStyleTableRecord
  2
Annotative
 70
     0
 40
0.0
 41
1.0
 50
0.0
 71
     0
 42
0.2
  3

  4

1001
AcadAnnotative
1000
AnnotativeData
1002
{
1070
     1
1070
     1
1002
}
  0
ENDTAB
  0
TABLE
  2
VIEW
  5
AD9
330
0
100
AcDbSymbolTable
 70
     0
  0
ENDTAB
  0
TABLE
  2
UCS
  5
ADA
330
0
100
AcDbSymbolTable
 70
     0
  0
ENDTAB
  0
TABLE
  2
APPID
  5
ADC
330
0
100
AcDbSymbolTable
 70
     3
  0
APPID
  5
B31
330
ADC
100
AcDbSymbolTableRecord
100
AcDbRegAppTableRecord
  2
ACAD
 70
     0
  0
APPID
  5
B38
330
ADC
100
AcDbSymbolTableRecord
100
AcDbRegAppTableRecord
  2
AcadAnnotative
 70
     0
  0
APPID
  5
B42
330
ADC
100
AcDbSymbolTableRecord
100
AcDbRegAppTableRecord
  2
ACAD_MLEADERVER
 70
     0
  0
ENDTAB
  0
TABLE
  2
DIMSTYLE
  5
ADD
330
0
100
AcDbSymbolTable
 70
     2
100
AcDbDimStyleTable
 71
     0
  0
DIMSTYLE
105
B32
330
ADD
100
AcDbSymbolTableRecord
100
AcDbDimStyleTableRecord
  2
STANDARD
 70
     0
279
     2
340
B30
  0
DIMSTYLE
105
B33
330
ADD
100
AcDbSymbolTableRecord
100
AcDbDimStyleTableRecord
  2
Annotative
 70
     0
340
B30
1001
AcadAnnotative
1000
AnnotativeData
1002
{
1070
     1
1070
     1
1002
}
  0
ENDTAB
  0
TABLE
  2
BLOCK_RECORD
  5
AD4
330
0
100
AcDbSymbolTable
 70
     3
  0
BLOCK_RECORD
  5
B47
330
AD4
100
AcDbSymbolTableRecord
100
AcDbBlockTableRecord
  2
*Model_Space
340
B4A
  0
BLOCK_RECORD
  5
B43
330
AD4
100
AcDbSymbolTableRecord
100
AcDbBlockTableRecord
  2
*Paper_Space
340
B46
  0
BLOCK_RECORD
  5
B4B
330
AD4
100
AcDbSymbolTableRecord
100
AcDbBlockTableRecord
  2
A$CB182
340
0
102
{BLKREFS
331
6A3
102
}
  0
BLOCK_RECORD
  5
B4C
330
AD4
100
AcDbSymbolTableRecord
100
AcDbBlockTableRecord
  2
A$CC005
340
0
102
{BLKREFS
331
1D
102
}
  0
BLOCK_RECORD
  5
B4D
330
AD4
100
AcDbSymbolTableRecord
100
AcDbBlockTableRecord
  2
A$CC303
340
0
102
{BLKREFS
331
A6A
102
}
  0
ENDTAB
  0
ENDSEC
  0
SECTION
  2
BLOCKS
  0
BLOCK
  5
B51
330
B47
100
AcDbEntity
  8
0
100
AcDbBlockBegin
  2
*Model_Space
 70
     0
 10
0.0
 20
0.0
 30
0.0
  3
*Model_Space
  1

  0
ENDBLK
  5
B52
330
B47
100
AcDbEntity
  8
0
100
AcDbBlockEnd
  0
BLOCK
  5
B4F
330
B43
100
AcDbEntity
 67
     1
  8
0
100
AcDbBlockBegin
  2
*Paper_Space
 70
     0
 10
0.0
 20
0.0
 30
0.0
  3
*Paper_Space
  1

  0
ENDBLK
  5
B50
330
B43
100
AcDbEntity
 67
     1
  8
0
100
AcDbBlockEnd
  0
BLOCK
  5
A68
330
B4B
100
AcDbEntity
  8
0
  6
Continuous
100
AcDbBlockBegin
  2
A$CB182
 70
     0
 10
0.0
 20
0.0
 30
0.0
  3
A$CB182
  1

  0
LINE
  5
6A5
330
B4B
100
AcDbEntity
  8
0
 62
     1
100
AcDbLine
 10
4.720485305408544
 20
378.9884404582513
 30
0.0
 11
269.6016853054085
 21
378.9884404582513
 31
0.0
  0
LINE
  5
6A6
330
B4B
100
AcDbEntity
  8
0
100
AcDbLine
 10
253.1015853054086
 20
383.8184404582513
 30
0.0
 11
198.1014853054085
 21
383.8184404582513
 31
0.0
  0
LWPOLYLINE
  5
6A7
330
B4B
100
AcDbEntity
  8
0
100
AcDbPolyline
 90
       41
 70
     0
 43
0.0
 10
213.0838853054086
 20
319.8284404582513
 10
214.2811853054086
 20
319.3914404582513
 10
215.5089853054085
 20
318.9994404582512
 10
216.7637853054085
 20
318.6524404582513
 10
218.0423853054085
 20
318.3514404582513
 10
219.3412853054085
 20
318.0984404582513
 10
220.6569853054086
 20
317.8934404582512
 10
221.9858853054085
 20
317.7364404582513
 10
223.3245853054086
 20
317.6284404582513
 10
224.6693853054085
 20
317.5694404582513
 10
226.0166853054085
 20
317.5604404582513
 10
227.3628853054086
 20
317.5994404582513
 10
228.7043853054086
 20
317.6894404582513
 10
230.0374853054086
 20
317.8274404582513
 10
231.3586853054085
 20
318.0144404582513
 10
232.6644853054085
 20
318.2494404582512
 10
233.9512853054085
 20
318.5314404582513
 10
235.2155853054085
 20
318.8604404582513
 10
236.4541853054086
 20
319.2354404582513
 10
237.6635853054086
 20
319.6554404582513
 10
238.8405853054085
 20
320.1194404582512
 10
239.9820853054085
 20
320.6254404582513
 10
241.0848853054085
 20
321.1734404582513
 10
242.1461853054085
 20
321.7604404582513
 10
243.1629853054086
 20
322.3854404582513
 10
244.1326853054085
 20
323.0464404582513
 10
245.0525853054085
 20
323.7424404582513
 10
245.9201853054086
 20
324.4714404582513
 10
246.7332853054085
 20
325.2314404582512
 10
247.4896853054086
 20
326.0194404582513
 10
248.1871853054085
 20
326.8344404582513
 10
248.8241853054085
 20
327.6744404582513
 10
249.3986853054086
 20
328.5364404582513
 10
249.9093853054085
 20
329.4174404582513
 10
250.3546853054086
 20
330.3174404582513
 10
250.7335853054085
 20
331.2314404582513
 10
251.0449853054085
 20
332.1584404582513
 10
251.2880853054086
 20
333.0954404582513
 10
251.4621853054085
 20
334.0404404582513
 10
251.5667853054085
 20
334.9904404582513
 10
251.6016853054085
 20
335.9424404582513
  0
LWPOLYLINE
  5
6D2
330
B4B
100
AcDbEntity
  8
0
100
AcDbPolyline
 90
       21
 70
     0
 43
0.0
 10
225.6016853054085
 20
331.1724404582513
 10
227.2425853054085
 20
331.2094404582513
 10
228.8768853054085
 20
331.3194404582513
 10
230.4981853054085
 20
331.5014404582513
 10
232.0999853054086
 20
331.7564404582513
 10
233.6757853054086
 20
332.0814404582513
 10
235.2194853054085
 20
332.4764404582513
 10
236.7247853054085
 20
332.9404404582513
 10
238.1857853054086
 20
333.4694404582513
 10
239.5965853054085
 20
334.0634404582513
 10
240.9515853054085
 20
334.7184404582513
 10
242.2453853054086
 20
335.4334404582513
 10
243.4727853054085
 20
336.2044404582513
 10
244.6289853054086
 20
337.0284404582513
 10
245.7092853054085
 20
337.9024404582513
 10
246.7094853054085
 20
338.8224404582512
 10
247.6254853054085
 20
339.7864404582513
 10
248.4536853054085
 20
340.7884404582513
 10
249.1907853054085
 20
341.8254404582513
 10
249.8337853054085
 20
342.8934404582513
 10
250.3802853054085
 20
343.9884404582512
  0
LINE
  5
6E9
330
B4B
100
AcDbEntity
  8
0
100
AcDbLine
 10
258.6018853054085
 20
371.5624404582513
 30
0.0
 11
228.1016853054085
 21
371.5624404582513
 31
0.0
  0
LINE
  5
6EA
330
B4B
100
AcDbEntity
  8
0
100
AcDbLine
 10
258.6018853054085
 20
343.9884404582512
 30
0.0
 11
226.6018853054085
 21
343.9884404582512
 31
0.0
  0
LINE
  5
6EB
330
B4B
100
AcDbEntity
  8
0
100
AcDbLine
 10
258.6018853054085
 20
413.9884404582512
 30
0.0
 11
22.60148530540857
 21
413.9884404582512
 31
0.0
  0
LINE
  5
6EC
330
B4B
100
AcDbEntity
  8
0
 62
     1
100
AcDbLine
 10
49.2004853054085
 20
398.7874404582513
 30
0.0
 11
61.30648530540856
 21
398.7874404582513
 31
0.0
  0
LINE
  5
6ED
330
B4B
100
AcDbEntity
  8
0
100
AcDbLine
 10
53.35148530540857
 20
410.1704404582512
 30
0.0
 11
51.10148530540858
 21
407.2724404582513
 31
0.0
  0
LINE
  5
6EE
330
B4B
100
AcDbEntity
  8
0
100
AcDbLine
 10
51.10148530540858
 20
407.2724404582513
 30
0.0
 11
53.35148530540857
 21
404.3754404582513
 31
0.0
  0
LWPOLYLINE
  5
6EF
330
B4B
100
AcDbEntity
  8
0
100
AcDbPolyline
 90
       33
 70
     0
 43
0.0
 10
63.34748530540855
 20
398.7874404582513
 10
63.19848530540852
 20
398.4294404582513
 10
63.01748530540854
 20
398.0804404582513
 10
62.80348530540852
 20
397.7394404582512
 10
62.55848530540854
 20
397.4094404582513
 10
62.28348530540853
 20
397.0914404582513
 10
61.97948530540855
 20
396.7864404582513
 10
61.64748530540854
 20
396.4974404582513
 10
61.28948530540856
 20
396.2234404582513
 10
60.90648530540855
 20
395.9674404582513
 10
60.50048530540855
 20
395.7294404582512
 10
60.07348530540852
 20
395.5114404582513
 10
59.62648530540855
 20
395.3134404582513
 10
58.68348530540854
 20
394.9814404582513
 10
57.68648530540855
 20
394.7404404582513
 10
56.65348530540853
 20
394.5934404582513
 10
55.60148530540854
 20
394.5444404582513
 10
54.55048530540853
 20
394.5934404582513
 10
53.51748530540851
 20
394.7404404582513
 10
52.51948530540852
 20
394.9814404582513
 10
51.57648530540853
 20
395.3134404582513
 10
51.12948530540854
 20
395.5114404582513
 10
50.70248530540851
 20
395.7294404582512
 10
50.29648530540857
 20
395.9674404582513
 10
49.91348530540853
 20
396.2234404582513
 10
49.55548530540852
 20
396.4974404582513
 10
49.22348530540853
 20
396.7864404582513
 10
48.91948530540855
 20
397.0914404582513
 10
48.64448530540852
 20
397.4094404582513
 10
48.39948530540858
 20
397.7394404582512
 10
48.18548530540851
 20
398.0804404582513
 10
48.00448530540854
 20
398.4294404582513
 10
47.85548530540853
 20
398.7874404582513
  0
LWPOLYLINE
  5
712
330
B4B
100
AcDbEntity
  8
0
100
AcDbPolyline
 90
       46
 70
     0
 43
0.0
 10
63.60048530540854
 20
398.8934404582513
 10
63.59948530540854
 20
398.6704404582513
 10
63.58748530540854
 20
398.4474404582513
 10
63.56148530540855
 20
398.2254404582513
 10
63.52448530540854
 20
398.0034404582513
 10
63.47448530540853
 20
397.7834404582513
 10
63.33848530540854
 20
397.3484404582513
 10
63.15348530540854
 20
396.9214404582513
 10
62.92248530540854
 20
396.5064404582513
 10
62.64548530540853
 20
396.1054404582513
 10
62.32448530540856
 20
395.7214404582513
 10
61.96248530540853
 20
395.3564404582512
 10
61.55948530540854
 20
395.0124404582513
 10
61.12048530540852
 20
394.6924404582513
 10
60.64748530540853
 20
394.3974404582513
 10
60.14248530540854
 20
394.1304404582512
 10
59.60948530540855
 20
393.8914404582513
 10
59.05148530540856
 20
393.6834404582512
 10
58.47248530540856
 20
393.5074404582513
 10
57.87548530540854
 20
393.3644404582512
 10
57.26348530540852
 20
393.2544404582513
 10
56.64248530540854
 20
393.1784404582513
 10
56.01348530540852
 20
393.1384404582513
 10
55.38348530540853
 20
393.1324404582513
 10
54.75348530540853
 20
393.1624404582513
 10
54.12948530540854
 20
393.2274404582513
 10
53.51448530540853
 20
393.3264404582513
 10
52.91248530540855
 20
393.4594404582512
 10
52.32748530540852
 20
393.6264404582513
 10
51.76248530540852
 20
393.8244404582513
 10
51.22148530540858
 20
394.0544404582512
 10
50.70748530540857
 20
394.3124404582513
 10
50.22448530540856
 20
394.5994404582513
 10
49.77448530540858
 20
394.9114404582513
 10
49.36048530540853
 20
395.2484404582513
 10
48.98548530540853
 20
395.6074404582513
 10
48.65148530540853
 20
395.9854404582513
 10
48.36148530540857
 20
396.3814404582513
 10
48.11548530540853
 20
396.7924404582513
 10
47.91648530540856
 20
397.2154404582513
 10
47.76548530540856
 20
397.6484404582513
 10
47.70848530540854
 20
397.8684404582513
 10
47.66248530540855
 20
398.0894404582512
 10
47.63048530540851
 20
398.3104404582513
 10
47.60948530540855
 20
398.5334404582513
 10
47.60148530540857
 20
398.7564404582513
  0
LINE
  5
742
330
B4B
100
AcDbEntity
  8
0
100
AcDbLine
 10
28.10148530540857
 20
383.8184404582513
 30
0.0
 11
83.10148530540855
 21
383.8184404582513
 31
0.0
  0
LWPOLYLINE
  5
743
330
B4B
100
AcDbEntity
  8
0
100
AcDbPolyline
 90
       41
 70
     0
 43
0.0
 10
29.60148530540858
 20
335.9424404582513
 10
29.63648530540854
 20
334.9904404582513
 10
29.74148530540856
 20
334.0404404582513
 10
29.91548530540854
 20
333.0954404582513
 10
30.15848530540854
 20
332.1584404582513
 10
30.46948530540857
 20
331.2314404582513
 10
30.84848530540853
 20
330.3174404582513
 10
31.29448530540856
 20
329.4174404582513
 10
31.80448530540855
 20
328.5364404582513
 10
32.37948530540854
 20
327.6744404582513
 10
33.01648530540854
 20
326.8344404582513
 10
33.71348530540854
 20
326.0194404582513
 10
34.47048530540854
 20
325.2314404582512
 10
35.28348530540853
 20
324.4714404582513
 10
36.15048530540855
 20
323.7424404582513
 10
37.07048530540851
 20
323.0464404582513
 10
38.04048530540854
 20
322.3854404582513
 10
39.05748530540853
 20
321.7604404582513
 10
40.11848530540851
 20
321.1734404582513
 10
41.22148530540857
 20
320.6254404582513
 10
42.36248530540854
 20
320.1194404582512
 10
43.53948530540856
 20
319.6554404582513
 10
44.74948530540854
 20
319.2354404582513
 10
45.98748530540854
 20
318.8604404582513
 10
47.25248530540852
 20
318.5314404582513
 10
48.53848530540853
 20
318.2494404582512
 10
49.84448530540857
 20
318.0144404582513
 10
51.16548530540853
 20
317.8274404582513
 10
52.49948530540854
 20
317.6894404582513
 10
53.84048530540855
 20
317.5994404582513
 10
55.18648530540855
 20
317.5604404582513
 10
56.53448530540853
 20
317.5694404582513
 10
57.87848530540853
 20
317.6284404582513
 10
59.21748530540853
 20
317.7364404582513
 10
60.54648530540856
 20
317.8934404582512
 10
61.86248530540854
 20
318.0984404582513
 10
63.16148530540854
 20
318.3514404582513
 10
64.43948530540854
 20
318.6524404582513
 10
65.69448530540853
 20
318.9994404582512
 10
66.92248530540855
 20
319.3914404582513
 10
68.11948530540854
 20
319.8284404582513
  0
LWPOLYLINE
  5
76E
330
B4B
100
AcDbEntity
  8
0
100
AcDbPolyline
 90
       21
 70
     0
 43
0.0
 10
30.82348530540855
 20
343.9884404582512
 10
31.36948530540855
 20
342.8934404582513
 10
32.01248530540852
 20
341.8254404582513
 10
32.74948530540854
 20
340.7884404582513
 10
33.57748530540852
 20
339.7864404582513
 10
34.49348530540851
 20
338.8224404582512
 10
35.49448530540855
 20
337.9024404582513
 10
36.57448530540853
 20
337.0284404582513
 10
37.73048530540854
 20
336.2044404582513
 10
38.95848530540855
 20
335.4334404582513
 10
40.25148530540855
 20
334.7184404582513
 10
41.60648530540856
 20
334.0634404582513
 10
43.01748530540851
 20
333.4694404582513
 10
44.47848530540852
 20
332.9404404582513
 10
45.98348530540852
 20
332.4764404582513
 10
47.52748530540856
 20
332.0814404582513
 10
49.10348530540852
 20
331.7564404582513
 10
50.70548530540856
 20
331.5014404582513
 10
52.32648530540854
 20
331.3194404582513
 10
53.96048530540856
 20
331.2094404582513
 10
55.60148530540854
 20
331.1724404582513
  0
LINE
  5
785
330
B4B
100
AcDbEntity
  8
0
100
AcDbLine
 10
53.10148530540857
 20
371.5624404582513
 30
0.0
 11
22.60148530540857
 21
371.5624404582513
 31
0.0
  0
LINE
  5
786
330
B4B
100
AcDbEntity
  8
0
100
AcDbLine
 10
54.60448530540856
 20
343.9884404582512
 30
0.0
 11
22.60148530540857
 21
343.9884404582512
 31
0.0
  0
LWPOLYLINE
  5
787
330
B4B
100
AcDbEntity
  8
0
100
AcDbPolyline
 90
       11
 70
     0
 43
0.0
 10
44.51448530540853
 20
343.9884404582512
 10
45.27348530540854
 20
343.3504404582513
 10
46.10548530540853
 20
342.7594404582513
 10
47.00448530540853
 20
342.2204404582513
 10
47.96448530540857
 20
341.7364404582512
 10
48.97948530540856
 20
341.3114404582513
 10
50.04048530540853
 20
340.9484404582513
 10
51.14148530540854
 20
340.6494404582513
 10
52.27448530540858
 20
340.4174404582513
 10
53.43048530540852
 20
340.2534404582512
 10
54.60148530540855
 20
340.1594404582513
  0
LWPOLYLINE
  5
794
330
B4B
100
AcDbEntity
  8
0
100
AcDbPolyline
 90
       91
 70
     0
 43
0.0
 10
55.60148530540854
 20
401.6154404582512
 10
54.97348530540853
 20
401.6334404582512
 10
54.35048530540854
 20
401.6854404582512
 10
53.73448530540855
 20
401.7724404582513
 10
53.12948530540854
 20
401.8924404582513
 10
52.54048530540853
 20
402.0464404582512
 10
51.96948530540857
 20
402.2324404582512
 10
51.42148530540857
 20
402.4494404582513
 10
50.89948530540858
 20
402.6964404582512
 10
50.40648530540858
 20
402.9714404582512
 10
49.94448530540854
 20
403.2724404582513
 10
49.51848530540854
 20
403.5994404582512
 10
49.12948530540854
 20
403.9474404582512
 10
48.78048530540855
 20
404.3174404582512
 10
48.47348530540853
 20
404.7044404582512
 10
48.21048530540855
 20
405.1084404582512
 10
47.99348530540851
 20
405.5244404582512
 10
47.82248530540852
 20
405.9524404582512
 10
47.75548530540851
 20
406.1694404582512
 10
47.7004853054085
 20
406.3884404582513
 10
47.65748530540856
 20
406.6084404582512
 10
47.62648530540855
 20
406.8294404582513
 10
47.60748530540854
 20
407.0504404582512
 10
47.60148530540857
 20
407.2724404582513
 10
47.60748530540854
 20
407.4954404582512
 10
47.62648530540855
 20
407.7164404582513
 10
47.65748530540856
 20
407.9374404582512
 10
47.7004853054085
 20
408.1574404582513
 10
47.75548530540851
 20
408.3764404582512
 10
47.90248530540856
 20
408.8084404582512
 10
48.09648530540858
 20
409.2304404582511
 10
48.33648530540853
 20
409.6414404582512
 10
48.62148530540856
 20
410.0374404582512
 10
48.94948530540853
 20
410.4154404582512
 10
49.31948530540854
 20
410.7754404582512
 10
49.72748530540854
 20
411.1124404582512
 10
50.17148530540857
 20
411.4274404582513
 10
50.64848530540854
 20
411.7154404582512
 10
51.15748530540855
 20
411.9764404582513
 10
51.69248530540852
 20
412.2084404582513
 10
52.25248530540852
 20
412.4104404582512
 10
52.83248530540856
 20
412.5804404582512
 10
53.43048530540852
 20
412.7174404582513
 10
54.04048530540854
 20
412.8214404582513
 10
54.66148530540855
 20
412.8904404582512
 10
55.28748530540855
 20
412.9254404582512
 10
55.91548530540854
 20
412.9254404582512
 10
56.54148530540854
 20
412.8904404582512
 10
57.16248530540855
 20
412.8214404582513
 10
57.77348530540852
 20
412.7174404582513
 10
58.37048530540852
 20
412.5804404582512
 10
58.95048530540853
 20
412.4104404582512
 10
59.51048530540854
 20
412.2084404582513
 10
60.04648530540857
 20
411.9764404582513
 10
60.55448530540854
 20
411.7154404582512
 10
61.03148530540855
 20
411.4274404582513
 10
61.47648530540855
 20
411.1124404582512
 10
61.88448530540856
 20
410.7754404582512
 10
62.25348530540853
 20
410.4154404582512
 10
62.58148530540856
 20
410.0374404582512
 10
62.86648530540856
 20
409.6414404582512
 10
63.10748530540855
 20
409.2304404582511
 10
63.30148530540856
 20
408.8084404582512
 10
63.44748530540854
 20
408.3764404582512
 10
63.50248530540852
 20
408.1574404582513
 10
63.54648530540856
 20
407.9374404582512
 10
63.57648530540856
 20
407.7164404582513
 10
63.59548530540855
 20
407.4954404582512
 10
63.60148530540854
 20
407.2724404582513
 10
63.59548530540855
 20
407.0504404582512
 10
63.57648530540856
 20
406.8294404582513
 10
63.54648530540856
 20
406.6084404582512
 10
63.50248530540852
 20
406.3884404582513
 10
63.44748530540854
 20
406.1694404582512
 10
63.30148530540856
 20
405.7374404582512
 10
63.10748530540855
 20
405.3144404582512
 10
62.86648530540856
 20
404.9044404582512
 10
62.58148530540856
 20
404.5084404582513
 10
62.25348530540853
 20
404.1304404582512
 10
61.88448530540856
 20
403.7704404582513
 10
61.47648530540855
 20
403.4324404582513
 10
61.03148530540855
 20
403.1184404582512
 10
60.55448530540854
 20
402.8304404582512
 10
60.04648530540857
 20
402.5694404582512
 10
59.51048530540854
 20
402.3374404582512
 10
58.95048530540853
 20
402.1354404582512
 10
58.37048530540852
 20
401.9654404582513
 10
57.77348530540852
 20
401.8284404582512
 10
57.16248530540855
 20
401.7244404582512
 10
56.54148530540854
 20
401.6554404582512
 10
55.60148530540854
 20
401.6154404582512
  0
LINE
  5
7F1
330
B4B
100
AcDbEntity
  8
0
100
AcDbLine
 10
18.60148530540857
 20
319.2194404582513
 30
0.0
 11
18.60148530540857
 21
408.9884404582512
 31
0.0
  0
LINE
  5
7F2
330
B4B
100
AcDbEntity
  8
0
100
AcDbLine
 10
22.60148530540857
 20
319.2194404582513
 30
0.0
 11
22.60148530540857
 21
413.9884404582512
 31
0.0
  0
LINE
  5
7F3
330
B4B
100
AcDbEntity
  8
0
 62
     1
100
AcDbLine
 10
2.111485305408564
 20
358.9884404582513
 30
0.0
 11
27.21548530540855
 21
358.9884404582513
 31
0.0
  0
LINE
  5
7F4
330
B4B
100
AcDbEntity
  8
0
100
AcDbLine
 10
22.60148530540857
 20
319.2194404582513
 30
0.0
 11
18.60148530540857
 21
319.2194404582513
 31
0.0
  0
LINE
  5
7F5
330
B4B
100
AcDbEntity
  8
0
100
AcDbLine
 10
29.60148530540858
 20
343.9884404582512
 30
0.0
 11
29.60148530540858
 21
335.9424404582513
 31
0.0
  0
LINE
  5
7F6
330
B4B
100
AcDbEntity
  8
0
100
AcDbLine
 10
18.60148530540857
 20
363.9884404582513
 30
0.0
 11
11.60148530540857
 21
363.9884404582513
 31
0.0
  0
LINE
  5
7F7
330
B4B
100
AcDbEntity
  8
0
100
AcDbLine
 10
11.60148530540857
 20
353.9884404582513
 30
0.0
 11
18.60148530540857
 21
353.9884404582513
 31
0.0
  0
LINE
  5
7F8
330
B4B
100
AcDbEntity
  8
0
100
AcDbLine
 10
11.60148530540857
 20
363.9884404582513
 30
0.0
 11
11.60148530540857
 21
353.9884404582513
 31
0.0
  0
LINE
  5
7F9
330
B4B
100
AcDbEntity
  8
0
100
AcDbLine
 10
17.60148530540857
 20
363.9884404582513
 30
0.0
 11
17.60148530540857
 21
353.9884404582513
 31
0.0
  0
LINE
  5
7FA
330
B4B
100
AcDbEntity
  8
0
 62
     1
100
AcDbLine
 10
2.111485305408564
 20
398.9884404582513
 30
0.0
 11
27.94648530540854
 21
398.9884404582513
 31
0.0
  0
LINE
  5
7FB
330
B4B
100
AcDbEntity
  8
0
100
AcDbLine
 10
11.60148530540857
 20
393.9884404582512
 30
0.0
 11
11.60148530540857
 21
403.9884404582513
 31
0.0
  0
LINE
  5
7FC
330
B4B
100
AcDbEntity
  8
0
100
AcDbLine
 10
17.60148530540857
 20
393.9884404582512
 30
0.0
 11
17.60148530540857
 21
403.9884404582513
 31
0.0
  0
LINE
  5
7FD
330
B4B
100
AcDbEntity
  8
0
100
AcDbLine
 10
28.10148530540857
 20
413.9884404582512
 30
0.0
 11
28.10148530540857
 21
383.8184404582513
 31
0.0
  0
LINE
  5
7FE
330
B4B
100
AcDbEntity
  8
0
100
AcDbLine
 10
18.60148530540857
 20
393.9884404582512
 30
0.0
 11
11.60148530540857
 21
393.9884404582512
 31
0.0
  0
LINE
  5
7FF
330
B4B
100
AcDbEntity
  8
0
100
AcDbLine
 10
28.10148530540857
 20
386.4154404582513
 30
0.0
 11
22.60148530540857
 21
386.4154404582513
 31
0.0
  0
LINE
  5
800
330
B4B
100
AcDbEntity
  8
0
100
AcDbLine
 10
11.60148530540857
 20
403.9884404582513
 30
0.0
 11
18.60148530540857
 21
403.9884404582513
 31
0.0
  0
LWPOLYLINE
  5
801
330
B4B
100
AcDbEntity
  8
0
100
AcDbPolyline
 90
        2
 70
     0
 43
3.0
 10
11.60148530540857
 20
402.4884404582512
 42
0.4142135623730951
 10
13.10148530540857
 20
403.9884404582513
 42
1.0
  0
CIRCLE
  5
805
330
B4B
100
AcDbEntity
  8
0
100
AcDbCircle
 10
11.60148530540857
 20
403.9884404582513
 30
0.0
 40
3.0
  0
LWPOLYLINE
  5
806
330
B4B
100
AcDbEntity
  8
0
100
AcDbPolyline
 90
        2
 70
     0
 43
3.0
 10
11.60148530540857
 20
405.4884404582512
 42
0.4142135623730951
 10
10.10148530540857
 20
403.9884404582513
 42
1.0
  0
LINE
  5
80A
330
B4B
100
AcDbEntity
  8
0
100
AcDbLine
 10
18.60148530540857
 20
408.9884404582512
 30
0.0
 11
22.60148530540857
 21
408.9884404582512
 31
0.0
  0
LINE
  5
80B
330
B4B
100
AcDbEntity
  8
0
100
AcDbLine
 10
47.60148530540857
 20
398.7874404582513
 30
0.0
 11
47.60148530540857
 21
407.2724404582513
 31
0.0
  0
LINE
  5
80C
330
B4B
100
AcDbEntity
  8
0
100
AcDbLine
 10
115.1014853054085
 20
400.9144404582512
 30
0.0
 11
166.1014853054085
 21
400.9144404582512
 31
0.0
  0
CIRCLE
  5
80D
330
B4B
100
AcDbEntity
  8
0
100
AcDbCircle
 10
142.1014853054085
 20
378.9884404582513
 30
0.0
 40
17.0
  0
LINE
  5
80E
330
B4B
100
AcDbEntity
  8
0
100
AcDbLine
 10
115.1014853054085
 20
357.0624404582513
 30
0.0
 11
166.1014853054085
 21
357.0624404582513
 31
0.0
  0
LINE
  5
80F
330
B4B
100
AcDbEntity
  8
0
100
AcDbLine
 10
174.6084853054085
 20
343.9884404582512
 30
0.0
 11
106.6014853054085
 21
343.9884404582512
 31
0.0
  0
LINE
  5
810
330
B4B
100
AcDbEntity
  8
0
 62
     1
100
AcDbLine
 10
80.60148530540855
 20
327.8174404582513
 30
0.0
 11
80.60148530540855
 21
394.1824404582513
 31
0.0
  0
LINE
  5
811
330
B4B
100
AcDbEntity
  8
0
 62
     1
100
AcDbLine
 10
55.60148530540854
 20
409.3434404582512
 30
0.0
 11
55.60148530540854
 21
320.4804404582513
 31
0.0
  0
LINE
  5
812
330
B4B
100
AcDbEntity
  8
0
 62
     1
100
AcDbLine
 10
140.6014853054085
 20
413.9884404582512
 30
0.0
 11
140.6014853054085
 21
343.9884404582512
 31
0.0
  0
LINE
  5
813
330
B4B
100
AcDbEntity
  8
0
 62
     1
100
AcDbLine
 10
142.1014853054085
 20
357.0624404582513
 30
0.0
 11
142.1014853054085
 21
400.9144404582512
 31
0.0
  0
LINE
  5
814
330
B4B
100
AcDbEntity
  8
0
100
AcDbLine
 10
115.1014853054085
 20
357.0624404582513
 30
0.0
 11
115.1014853054085
 21
400.9144404582512
 31
0.0
  0
LWPOLYLINE
  5
815
330
B4B
100
AcDbEntity
  8
0
100
AcDbPolyline
 90
       57
 70
     0
 43
0.0
 10
106.6014853054085
 20
349.5574404582513
 10
106.5814853054085
 20
350.2794404582513
 10
106.5214853054085
 20
351.0004404582513
 10
106.4214853054085
 20
351.7184404582513
 10
106.2814853054085
 20
352.4334404582512
 10
106.1014853054085
 20
353.1444404582513
 10
105.8834853054085
 20
353.8494404582512
 10
105.6254853054085
 20
354.5474404582513
 10
105.3294853054085
 20
355.2384404582513
 10
104.9944853054085
 20
355.9204404582513
 10
104.6224853054085
 20
356.5934404582513
 10
104.2134853054085
 20
357.2544404582513
 10
103.7674853054085
 20
357.9044404582512
 10
103.2864853054085
 20
358.5404404582513
 10
102.7704853054085
 20
359.1634404582513
 10
102.2194853054085
 20
359.7714404582513
 10
101.6354853054085
 20
360.3634404582513
 10
100.3724853054085
 20
361.4974404582513
 10
98.98648530540857
 20
362.5574404582513
 10
97.48748530540854
 20
363.5374404582513
 10
95.88348530540853
 20
364.4314404582512
 10
94.18648530540854
 20
365.2334404582513
 10
92.40548530540854
 20
365.9384404582513
 10
90.55148530540856
 20
366.5424404582513
 10
88.63548530540853
 20
367.0424404582513
 10
86.67148530540856
 20
367.4344404582513
 10
84.66848530540852
 20
367.7154404582513
 10
82.64148530540856
 20
367.8854404582513
 10
80.60148530540855
 20
367.9424404582513
 10
78.56148530540855
 20
367.8854404582513
 10
76.53448530540853
 20
367.7154404582513
 10
74.53148530540855
 20
367.4344404582513
 10
72.56748530540855
 20
367.0424404582513
 10
70.65148530540856
 20
366.5424404582513
 10
68.79748530540855
 20
365.9384404582513
 10
67.01648530540857
 20
365.2334404582513
 10
65.31948530540853
 20
364.4314404582512
 10
63.71548530540852
 20
363.5374404582513
 10
62.21648530540855
 20
362.5574404582513
 10
60.83148530540857
 20
361.4974404582513
 10
59.56748530540855
 20
360.3634404582513
 10
58.98348530540852
 20
359.7714404582513
 10
58.43248530540853
 20
359.1634404582513
 10
57.91648530540854
 20
358.5404404582513
 10
57.43548530540852
 20
357.9044404582512
 10
56.98948530540855
 20
357.2544404582513
 10
56.58048530540852
 20
356.5934404582513
 10
56.20848530540851
 20
355.9204404582513
 10
55.87448530540854
 20
355.2384404582513
 10
55.57748530540854
 20
354.5474404582513
 10
55.31948530540853
 20
353.8494404582512
 10
55.10148530540854
 20
353.1444404582513
 10
54.92148530540856
 20
352.4334404582512
 10
54.78148530540855
 20
351.7184404582513
 10
54.68148530540855
 20
350.9994404582513
 10
54.62148530540855
 20
350.2794404582513
 10
54.60148530540855
 20
349.5574404582513
  0
LINE
  5
850
330
B4B
100
AcDbEntity
  8
0
100
AcDbLine
 10
53.10148530540857
 20
374.6224404582513
 30
0.0
 11
108.1014853054085
 21
374.6224404582513
 31
0.0
  0
LINE
  5
851
330
B4B
100
AcDbEntity
  8
0
100
AcDbLine
 10
106.5954853054085
 20
343.9884404582512
 30
0.0
 11
55.63348530540853
 21
343.9884404582512
 31
0.0
  0
LWPOLYLINE
  5
852
330
B4B
100
AcDbEntity
  8
0
100
AcDbPolyline
 90
      113
 70
     0
 43
0.0
 10
106.6014853054085
 20
335.9424404582513
 10
106.5814853054085
 20
336.6644404582512
 10
106.5214853054085
 20
337.3844404582513
 10
106.4214853054085
 20
338.1034404582513
 10
106.2814853054085
 20
338.8184404582513
 10
106.1024853054085
 20
339.5294404582513
 10
105.8834853054085
 20
340.2344404582513
 10
105.6254853054085
 20
340.9324404582513
 10
105.3294853054085
 20
341.6234404582513
 10
104.9944853054085
 20
342.3054404582513
 10
104.6224853054085
 20
342.9774404582513
 10
104.2134853054085
 20
343.6394404582513
 10
103.7674853054085
 20
344.2884404582513
 10
103.2864853054085
 20
344.9254404582513
 10
102.7704853054085
 20
345.5484404582513
 10
102.2194853054085
 20
346.1564404582513
 10
101.6364853054085
 20
346.7484404582513
 10
100.3724853054085
 20
347.8824404582513
 10
98.98648530540857
 20
348.9424404582513
 10
97.48748530540854
 20
349.9224404582513
 10
95.88448530540857
 20
350.8164404582513
 10
94.18648530540854
 20
351.6184404582513
 10
92.40548530540854
 20
352.3234404582513
 10
90.55148530540856
 20
352.9274404582513
 10
88.63648530540855
 20
353.4274404582513
 10
86.67148530540856
 20
353.8194404582513
 10
84.66848530540852
 20
354.1004404582513
 10
82.64148530540856
 20
354.2704404582513
 10
80.60148530540855
 20
354.3274404582513
 10
78.56148530540855
 20
354.2704404582513
 10
76.53448530540853
 20
354.1004404582513
 10
74.53248530540853
 20
353.8194404582513
 10
72.56748530540855
 20
353.4274404582513
 10
70.65148530540856
 20
352.9274404582513
 10
68.79748530540855
 20
352.3234404582513
 10
67.01648530540857
 20
351.6184404582513
 10
65.31948530540853
 20
350.8164404582513
 10
63.71548530540852
 20
349.9224404582513
 10
62.21648530540855
 20
348.9424404582513
 10
60.83148530540857
 20
347.8824404582513
 10
59.56748530540855
 20
346.7484404582513
 10
58.98348530540852
 20
346.1564404582513
 10
58.43248530540853
 20
345.5484404582513
 10
57.91648530540854
 20
344.9254404582513
 10
57.43548530540852
 20
344.2884404582513
 10
56.98948530540855
 20
343.6394404582513
 10
56.58048530540852
 20
342.9774404582513
 10
56.20848530540851
 20
342.3054404582513
 10
55.87448530540854
 20
341.6234404582513
 10
55.57748530540854
 20
340.9324404582513
 10
55.31948530540853
 20
340.2344404582513
 10
55.10148530540854
 20
339.5294404582513
 10
54.92148530540856
 20
338.8184404582513
 10
54.78148530540855
 20
338.1034404582513
 10
54.68148530540855
 20
337.3844404582513
 10
54.62148530540855
 20
336.6644404582512
 10
54.60148530540855
 20
335.9424404582513
 10
54.62148530540855
 20
335.2204404582513
 10
54.68148530540855
 20
334.5004404582513
 10
54.78148530540855
 20
333.7814404582513
 10
54.92148530540856
 20
333.0664404582512
 10
55.10148530540854
 20
332.3554404582513
 10
55.31948530540853
 20
331.6504404582513
 10
55.57748530540854
 20
330.9524404582513
 10
55.87448530540854
 20
330.2614404582513
 10
56.20848530540851
 20
329.5794404582513
 10
56.58048530540852
 20
328.9064404582513
 10
56.98948530540855
 20
328.2454404582513
 10
57.43548530540852
 20
327.5954404582513
 10
57.91648530540854
 20
326.9594404582513
 10
58.43248530540853
 20
326.3364404582513
 10
58.98348530540852
 20
325.7284404582513
 10
59.56748530540855
 20
325.1364404582513
 10
60.83148530540857
 20
324.0024404582513
 10
62.21648530540855
 20
322.9424404582513
 10
63.71548530540852
 20
321.9624404582513
 10
65.31948530540853
 20
321.0684404582513
 10
67.01648530540857
 20
320.2664404582513
 10
68.79748530540855
 20
319.5614404582512
 10
70.65148530540856
 20
318.9574404582513
 10
72.56748530540855
 20
318.4574404582513
 10
74.53248530540853
 20
318.0654404582512
 10
76.53448530540853
 20
317.7844404582513
 10
78.56148530540855
 20
317.6144404582512
 10
80.60148530540855
 20
317.5574404582513
 10
82.64148530540856
 20
317.6144404582512
 10
84.66848530540852
 20
317.7844404582513
 10
86.67148530540856
 20
318.0654404582512
 10
88.63648530540855
 20
318.4574404582513
 10
90.55148530540856
 20
318.9574404582513
 10
92.40548530540854
 20
319.5614404582512
 10
94.18648530540854
 20
320.2664404582513
 10
95.88448530540857
 20
321.0684404582513
 10
97.48748530540854
 20
321.9624404582513
 10
98.98648530540857
 20
322.9424404582513
 10
100.3724853054085
 20
324.0024404582513
 10
101.6364853054085
 20
325.1364404582513
 10
102.2194853054085
 20
325.7284404582513
 10
102.7704853054085
 20
326.3364404582513
 10
103.2864853054085
 20
326.9594404582513
 10
103.7674853054085
 20
327.5954404582513
 10
104.2134853054085
 20
328.2454404582513
 10
104.6224853054085
 20
328.9064404582513
 10
104.9944853054085
 20
329.5794404582513
 10
105.3294853054085
 20
330.2614404582513
 10
105.6254853054085
 20
330.9524404582513
 10
105.8834853054085
 20
331.6504404582513
 10
106.1024853054085
 20
332.3554404582513
 10
106.2814853054085
 20
333.0664404582512
 10
106.4214853054085
 20
333.7814404582513
 10
106.5214853054085
 20
334.5004404582513
 10
106.5814853054085
 20
335.2204404582513
 10
106.6014853054085
 20
335.9424404582513
  0
LINE
  5
8C5
330
B4B
100
AcDbEntity
  8
0
100
AcDbLine
 10
54.60148530540855
 20
335.9424404582513
 30
0.0
 11
54.60148530540855
 21
349.5574404582513
 31
0.0
  0
LINE
  5
8C6
330
B4B
100
AcDbEntity
  8
0
100
AcDbLine
 10
53.10148530540857
 20
343.9884404582512
 30
0.0
 11
53.10148530540857
 21
374.6224404582513
 31
0.0
  0
LINE
  5
8C7
330
B4B
100
AcDbEntity
  8
0
 62
     1
100
AcDbLine
 10
74.25548530540854
 20
335.9424404582513
 30
0.0
 11
88.72048530540855
 21
335.9424404582513
 31
0.0
  0
LINE
  5
8C8
330
B4B
100
AcDbEntity
  8
0
100
AcDbLine
 10
106.5924853054085
 20
349.5574404582513
 30
0.0
 11
106.5994853054085
 21
336.1764404582512
 31
0.0
  0
LINE
  5
8C9
330
B4B
100
AcDbEntity
  8
0
100
AcDbLine
 10
108.1014853054085
 20
374.6224404582513
 30
0.0
 11
108.1014853054085
 21
343.9884404582512
 31
0.0
  0
LINE
  5
8CA
330
B4B
100
AcDbEntity
  8
0
100
AcDbLine
 10
115.1014853054085
 20
371.5624404582513
 30
0.0
 11
108.1014853054085
 21
371.5624404582513
 31
0.0
  0
LINE
  5
8CB
330
B4B
100
AcDbEntity
  8
0
100
AcDbLine
 10
115.1014853054085
 20
386.4154404582513
 30
0.0
 11
83.10148530540855
 21
386.4154404582513
 31
0.0
  0
LINE
  5
8CC
330
B4B
100
AcDbEntity
  8
0
100
AcDbLine
 10
63.60148530540854
 20
398.7604404582513
 30
0.0
 11
63.60148530540854
 21
407.2854404582512
 31
0.0
  0
LINE
  5
8CD
330
B4B
100
AcDbEntity
  8
0
 62
     1
100
AcDbLine
 10
53.35148530540857
 20
410.1704404582512
 30
0.0
 11
53.35148530540857
 21
404.3754404582513
 31
0.0
  0
LINE
  5
8CE
330
B4B
100
AcDbEntity
  8
0
 62
     1
100
AcDbLine
 10
57.85148530540855
 20
410.1704404582512
 30
0.0
 11
57.85148530540855
 21
404.3754404582513
 31
0.0
  0
LINE
  5
8CF
330
B4B
100
AcDbEntity
  8
0
100
AcDbLine
 10
57.85148530540855
 20
404.3754404582513
 30
0.0
 11
60.10148530540854
 21
407.2724404582513
 31
0.0
  0
LINE
  5
8D0
330
B4B
100
AcDbEntity
  8
0
100
AcDbLine
 10
60.10148530540854
 20
407.2724404582513
 30
0.0
 11
57.85148530540855
 21
410.1704404582512
 31
0.0
  0
LINE
  5
8D1
330
B4B
100
AcDbEntity
  8
0
100
AcDbLine
 10
53.35148530540857
 20
404.3754404582513
 30
0.0
 11
57.85148530540855
 21
404.3754404582513
 31
0.0
  0
LINE
  5
8D2
330
B4B
100
AcDbEntity
  8
0
100
AcDbLine
 10
57.85148530540855
 20
410.1704404582512
 30
0.0
 11
53.35148530540857
 21
410.1704404582512
 31
0.0
  0
LINE
  5
8D3
330
B4B
100
AcDbEntity
  8
0
100
AcDbLine
 10
83.10148530540855
 20
383.8184404582513
 30
0.0
 11
83.10148530540855
 21
413.9884404582512
 31
0.0
  0
LINE
  5
8D4
330
B4B
100
AcDbEntity
  8
0
 62
     1
100
AcDbLine
 10
200.6014853054085
 20
327.8174404582513
 30
0.0
 11
200.6014853054085
 21
394.1824404582513
 31
0.0
  0
LINE
  5
8D5
330
B4B
100
AcDbEntity
  8
0
 62
     1
100
AcDbLine
 10
225.6016853054085
 20
410.3434404582513
 30
0.0
 11
225.6016853054085
 21
320.4944404582513
 31
0.0
  0
LINE
  5
8D6
330
B4B
100
AcDbEntity
  8
0
100
AcDbLine
 10
166.1014853054085
 20
400.9144404582512
 30
0.0
 11
166.1014853054085
 21
357.0624404582513
 31
0.0
  0
LINE
  5
8D7
330
B4B
100
AcDbEntity
  8
0
100
AcDbLine
 10
228.1016853054085
 20
374.6224404582513
 30
0.0
 11
173.1014853054085
 21
374.6224404582513
 31
0.0
  0
LWPOLYLINE
  5
8D8
330
B4B
100
AcDbEntity
  8
0
100
AcDbPolyline
 90
       57
 70
     0
 43
0.0
 10
226.6017853054086
 20
349.5574404582513
 10
226.5817853054085
 20
350.2794404582513
 10
226.5216853054085
 20
350.9994404582513
 10
226.4215853054086
 20
351.7184404582513
 10
226.2816853054085
 20
352.4334404582512
 10
226.1022853054086
 20
353.1444404582513
 10
225.8834853054086
 20
353.8494404582512
 10
225.6256853054085
 20
354.5474404582513
 10
225.3292853054086
 20
355.2384404582513
 10
224.9947853054085
 20
355.9204404582513
 10
224.6226853054086
 20
356.5934404582513
 10
224.2135853054085
 20
357.2544404582513
 10
223.7679853054086
 20
357.9044404582512
 10
223.2867853054086
 20
358.5404404582513
 10
222.7704853054085
 20
359.1634404582513
 10
222.2200853054085
 20
359.7714404582513
 10
221.6362853054085
 20
360.3634404582513
 10
220.3723853054086
 20
361.4974404582513
 10
218.9865853054085
 20
362.5574404582513
 10
217.4874853054086
 20
363.5374404582513
 10
215.8842853054085
 20
364.4314404582512
 10
214.1867853054086
 20
365.2334404582513
 10
212.4055853054085
 20
365.9384404582513
 10
210.5515853054086
 20
366.5424404582513
 10
208.6364853054085
 20
367.0424404582513
 10
206.6714853054085
 20
367.4344404582513
 10
204.6694853054086
 20
367.7154404582513
 10
202.6414853054085
 20
367.8854404582513
 10
200.6014853054085
 20
367.9424404582513
 10
198.5614853054085
 20
367.8854404582513
 10
196.5344853054086
 20
367.7154404582513
 10
194.5324853054085
 20
367.4344404582513
 10
192.5674853054085
 20
367.0424404582513
 10
190.6524853054085
 20
366.5424404582513
 10
188.7984853054085
 20
365.9384404582513
 10
187.0164853054085
 20
365.2334404582513
 10
185.3194853054085
 20
364.4314404582512
 10
183.7164853054085
 20
363.5374404582513
 10
182.2174853054085
 20
362.5574404582513
 10
180.8314853054085
 20
361.4974404582513
 10
179.5674853054085
 20
360.3634404582513
 10
178.9834853054085
 20
359.7714404582513
 10
178.4334853054085
 20
359.1634404582513
 10
177.9164853054085
 20
358.5404404582513
 10
177.4354853054085
 20
357.9044404582512
 10
176.9904853054085
 20
357.2544404582513
 10
176.5814853054085
 20
356.5934404582513
 10
176.2084853054085
 20
355.9204404582513
 10
175.8744853054085
 20
355.2384404582513
 10
175.5784853054085
 20
354.5474404582513
 10
175.3204853054085
 20
353.8494404582512
 10
175.1014853054085
 20
353.1444404582513
 10
174.9214853054085
 20
352.4334404582512
 10
174.7824853054085
 20
351.7184404582513
 10
174.6824853054085
 20
351.0004404582513
 10
174.6214853054085
 20
350.2794404582513
 10
174.6014853054085
 20
349.5574404582513
  0
LINE
  5
913
330
B4B
100
AcDbEntity
  8
0
100
AcDbLine
 10
174.6084853054085
 20
343.9884404582512
 30
0.0
 11
225.5697853054086
 21
343.9884404582512
 31
0.0
  0
LWPOLYLINE
  5
914
330
B4B
100
AcDbEntity
  8
0
100
AcDbPolyline
 90
      113
 70
     0
 43
0.0
 10
174.6014853054085
 20
335.9424404582513
 10
174.6214853054085
 20
335.2204404582513
 10
174.6824853054085
 20
334.5004404582513
 10
174.7824853054085
 20
333.7814404582513
 10
174.9214853054085
 20
333.0664404582512
 10
175.1014853054085
 20
332.3554404582513
 10
175.3204853054085
 20
331.6504404582513
 10
175.5784853054085
 20
330.9524404582513
 10
175.8744853054085
 20
330.2614404582513
 10
176.2084853054085
 20
329.5794404582513
 10
176.5804853054085
 20
328.9064404582513
 10
176.9904853054085
 20
328.2454404582513
 10
177.4354853054085
 20
327.5954404582513
 10
177.9164853054085
 20
326.9594404582513
 10
178.4334853054085
 20
326.3364404582513
 10
178.9834853054085
 20
325.7284404582513
 10
179.5674853054085
 20
325.1364404582513
 10
180.8314853054085
 20
324.0024404582513
 10
182.2174853054085
 20
322.9424404582513
 10
183.7164853054085
 20
321.9624404582513
 10
185.3194853054085
 20
321.0684404582513
 10
187.0164853054085
 20
320.2664404582513
 10
188.7984853054085
 20
319.5614404582512
 10
190.6524853054085
 20
318.9574404582513
 10
192.5674853054085
 20
318.4574404582513
 10
194.5324853054085
 20
318.0654404582512
 10
196.5344853054086
 20
317.7844404582513
 10
198.5614853054085
 20
317.6144404582512
 10
200.6014853054085
 20
317.5574404582513
 10
202.6414853054085
 20
317.6144404582512
 10
204.6694853054086
 20
317.7844404582513
 10
206.6714853054085
 20
318.0654404582512
 10
208.6364853054085
 20
318.4574404582513
 10
210.5515853054086
 20
318.9574404582513
 10
212.4055853054085
 20
319.5614404582512
 10
214.1867853054086
 20
320.2664404582513
 10
215.8842853054085
 20
321.0684404582513
 10
217.4874853054086
 20
321.9624404582513
 10
218.9865853054085
 20
322.9424404582513
 10
220.3723853054086
 20
324.0024404582513
 10
221.6362853054085
 20
325.1364404582513
 10
222.2200853054085
 20
325.7284404582513
 10
222.7704853054085
 20
326.3364404582513
 10
223.2867853054086
 20
326.9594404582513
 10
223.7679853054086
 20
327.5954404582513
 10
224.2135853054085
 20
328.2454404582513
 10
224.6226853054086
 20
328.9064404582513
 10
224.9947853054085
 20
329.5794404582513
 10
225.3292853054086
 20
330.2614404582513
 10
225.6256853054085
 20
330.9524404582513
 10
225.8834853054086
 20
331.6504404582513
 10
226.1022853054086
 20
332.3554404582513
 10
226.2817853054086
 20
333.0664404582512
 10
226.4215853054086
 20
333.7814404582513
 10
226.5216853054085
 20
334.5004404582513
 10
226.5817853054085
 20
335.2204404582513
 10
226.6018853054085
 20
335.9424404582513
 10
226.5817853054085
 20
336.6644404582512
 10
226.5216853054085
 20
337.3844404582513
 10
226.4215853054086
 20
338.1034404582513
 10
226.2817853054086
 20
338.8184404582513
 10
226.1022853054086
 20
339.5294404582513
 10
225.8834853054086
 20
340.2344404582513
 10
225.6256853054085
 20
340.9324404582513
 10
225.3292853054086
 20
341.6234404582513
 10
224.9947853054085
 20
342.3054404582513
 10
224.6226853054086
 20
342.9774404582513
 10
224.2135853054085
 20
343.6394404582513
 10
223.7679853054086
 20
344.2884404582513
 10
223.2867853054086
 20
344.9254404582513
 10
222.7704853054085
 20
345.5484404582513
 10
222.2200853054085
 20
346.1564404582513
 10
221.6362853054085
 20
346.7484404582513
 10
220.3723853054086
 20
347.8824404582513
 10
218.9865853054085
 20
348.9424404582513
 10
217.4874853054086
 20
349.9224404582513
 10
215.8842853054085
 20
350.8164404582513
 10
214.1867853054086
 20
351.6184404582513
 10
212.4055853054085
 20
352.3234404582513
 10
210.5515853054086
 20
352.9274404582513
 10
208.6364853054085
 20
353.4274404582513
 10
206.6714853054085
 20
353.8194404582513
 10
204.6694853054086
 20
354.1004404582513
 10
202.6414853054085
 20
354.2704404582513
 10
200.6014853054085
 20
354.3274404582513
 10
198.5614853054085
 20
354.2704404582513
 10
196.5344853054086
 20
354.1004404582513
 10
194.5324853054085
 20
353.8194404582513
 10
192.5674853054085
 20
353.4274404582513
 10
190.6524853054085
 20
352.9274404582513
 10
188.7984853054085
 20
352.3234404582513
 10
187.0164853054085
 20
351.6184404582513
 10
185.3194853054085
 20
350.8164404582513
 10
183.7164853054085
 20
349.9224404582513
 10
182.2174853054085
 20
348.9424404582513
 10
180.8314853054085
 20
347.8824404582513
 10
179.5674853054085
 20
346.7484404582513
 10
178.9834853054085
 20
346.1564404582513
 10
178.4334853054085
 20
345.5484404582513
 10
177.9164853054085
 20
344.9254404582513
 10
177.4354853054085
 20
344.2884404582513
 10
176.9904853054085
 20
343.6394404582513
 10
176.5804853054085
 20
342.9774404582513
 10
176.2084853054085
 20
342.3054404582513
 10
175.8744853054085
 20
341.6234404582513
 10
175.5784853054085
 20
340.9324404582513
 10
175.3204853054085
 20
340.2344404582513
 10
175.1014853054085
 20
339.5294404582513
 10
174.9214853054085
 20
338.8184404582513
 10
174.7824853054085
 20
338.1034404582513
 10
174.6824853054085
 20
337.3844404582513
 10
174.6214853054085
 20
336.6644404582512
 10
174.6014853054085
 20
335.9424404582513
  0
LINE
  5
987
330
B4B
100
AcDbEntity
  8
0
100
AcDbLine
 10
173.1014853054085
 20
374.6224404582513
 30
0.0
 11
173.1014853054085
 21
343.9884404582512
 31
0.0
  0
LINE
  5
988
330
B4B
100
AcDbEntity
  8
0
100
AcDbLine
 10
174.6114853054085
 20
349.5574404582513
 30
0.0
 11
174.6034853054085
 21
336.1764404582512
 31
0.0
  0
LINE
  5
989
330
B4B
100
AcDbEntity
  8
0
100
AcDbLine
 10
173.1014853054085
 20
371.5624404582513
 30
0.0
 11
166.1014853054085
 21
371.5624404582513
 31
0.0
  0
LINE
  5
98A
330
B4B
100
AcDbEntity
  8
0
100
AcDbLine
 10
226.6018853054085
 20
335.9424404582513
 30
0.0
 11
226.6018853054085
 21
349.5574404582513
 31
0.0
  0
LINE
  5
98B
330
B4B
100
AcDbEntity
  8
0
100
AcDbLine
 10
228.1016853054085
 20
343.9884404582512
 30
0.0
 11
228.1016853054085
 21
374.6224404582513
 31
0.0
  0
LINE
  5
98C
330
B4B
100
AcDbEntity
  8
0
 62
     1
100
AcDbLine
 10
206.9474853054085
 20
335.9424404582513
 30
0.0
 11
192.4834853054085
 21
335.9424404582513
 31
0.0
  0
LWPOLYLINE
  5
98D
330
B4B
100
AcDbEntity
  8
0
100
AcDbPolyline
 90
       11
 70
     0
 43
0.0
 10
226.6018853054085
 20
340.1594404582513
 10
227.7733853054086
 20
340.2534404582512
 10
228.9293853054085
 20
340.4174404582513
 10
230.0618853054086
 20
340.6494404582513
 10
231.1626853054085
 20
340.9484404582513
 10
232.2240853054085
 20
341.3114404582513
 10
233.2384853054085
 20
341.7364404582512
 10
234.1986853054085
 20
342.2204404582513
 10
235.0979853054085
 20
342.7594404582513
 10
235.9298853054085
 20
343.3504404582513
 10
236.6884853054086
 20
343.9884404582512
  0
LINE
  5
99A
330
B4B
100
AcDbEntity
  8
0
100
AcDbLine
 10
198.1014853054085
 20
386.4154404582513
 30
0.0
 11
166.1014853054085
 21
386.4154404582513
 31
0.0
  0
LINE
  5
99B
330
B4B
100
AcDbEntity
  8
0
100
AcDbLine
 10
198.1014853054085
 20
383.8184404582513
 30
0.0
 11
198.1014853054085
 21
413.9884404582512
 31
0.0
  0
LINE
  5
99C
330
B4B
100
AcDbEntity
  8
0
100
AcDbLine
 10
233.6015853054085
 20
398.7604404582513
 30
0.0
 11
233.6015853054085
 21
407.2854404582512
 31
0.0
  0
LINE
  5
99D
330
B4B
100
AcDbEntity
  8
0
100
AcDbLine
 10
217.6015853054086
 20
398.7874404582513
 30
0.0
 11
217.6015853054086
 21
407.2724404582513
 31
0.0
  0
LINE
  5
99E
330
B4B
100
AcDbEntity
  8
0
 62
     1
100
AcDbLine
 10
219.2008853054085
 20
398.7874404582513
 30
0.0
 11
231.3063853054085
 21
398.7874404582513
 31
0.0
  0
LWPOLYLINE
  5
99F
330
B4B
100
AcDbEntity
  8
0
100
AcDbPolyline
 90
       33
 70
     0
 43
0.0
 10
233.3473853054085
 20
398.7874404582513
 10
233.1988853054085
 20
398.4294404582513
 10
233.0173853054085
 20
398.0804404582513
 10
232.8036853054085
 20
397.7394404582512
 10
232.5586853054085
 20
397.4094404582513
 10
232.2834853054085
 20
397.0914404582513
 10
231.9792853054086
 20
396.7864404582513
 10
231.6473853054085
 20
396.4974404582513
 10
231.2891853054085
 20
396.2234404582513
 10
230.9063853054086
 20
395.9674404582513
 10
230.5004853054085
 20
395.7294404582512
 10
230.0732853054086
 20
395.5114404582513
 10
229.6267853054085
 20
395.3134404582513
 10
228.6831853054085
 20
394.9814404582513
 10
227.6861853054085
 20
394.7404404582513
 10
226.6529853054085
 20
394.5934404582513
 10
225.6015853054086
 20
394.5444404582513
 10
224.5501853054086
 20
394.5934404582513
 10
223.5169853054085
 20
394.7404404582513
 10
222.5199853054085
 20
394.9814404582513
 10
221.5763853054085
 20
395.3134404582513
 10
221.1298853054085
 20
395.5114404582513
 10
220.7026853054085
 20
395.7294404582512
 10
220.2967853054086
 20
395.9674404582513
 10
219.9139853054085
 20
396.2234404582513
 10
219.5557853054086
 20
396.4974404582513
 10
219.2238853054085
 20
396.7864404582513
 10
218.9196853054085
 20
397.0914404582513
 10
218.6444853054085
 20
397.4094404582513
 10
218.3994853054085
 20
397.7394404582512
 10
218.1857853054085
 20
398.0804404582513
 10
218.0042853054085
 20
398.4294404582513
 10
217.8557853054086
 20
398.7874404582513
  0
LWPOLYLINE
  5
9C2
330
B4B
100
AcDbEntity
  8
0
100
AcDbPolyline
 90
       46
 70
     0
 43
0.0
 10
233.6000853054085
 20
398.8934404582513
 10
233.5997853054085
 20
398.6704404582513
 10
233.5869853054085
 20
398.4474404582513
 10
233.5617853054085
 20
398.2254404582513
 10
233.5242853054086
 20
398.0034404582513
 10
233.4743853054085
 20
397.7834404582513
 10
233.3380853054085
 20
397.3484404582513
 10
233.1535853054085
 20
396.9214404582513
 10
232.9221853054086
 20
396.5064404582513
 10
232.6452853054085
 20
396.1054404582513
 10
232.3244853054085
 20
395.7214404582513
 10
231.9619853054085
 20
395.3564404582512
 10
231.5599853054085
 20
395.0124404582513
 10
231.1208853054085
 20
394.6924404582513
 10
230.6474853054085
 20
394.3974404582513
 10
230.1426853054085
 20
394.1304404582512
 10
229.6095853054085
 20
393.8914404582513
 10
229.0516853054085
 20
393.6834404582512
 10
228.4722853054085
 20
393.5074404582513
 10
227.8750853054086
 20
393.3644404582512
 10
227.2636853054085
 20
393.2544404582513
 10
226.6419853054085
 20
393.1784404582513
 10
226.0137853054085
 20
393.1384404582513
 10
225.3830853054085
 20
393.1324404582513
 10
224.7536853054085
 20
393.1624404582513
 10
224.1295853054086
 20
393.2274404582513
 10
223.5146853054085
 20
393.3264404582513
 10
222.9126853054085
 20
393.4594404582512
 10
222.3273853054085
 20
393.6264404582513
 10
221.7624853054085
 20
393.8244404582513
 10
221.2214853054085
 20
394.0544404582512
 10
220.7076853054085
 20
394.3124404582513
 10
220.2242853054086
 20
394.5994404582513
 10
219.7742853054085
 20
394.9114404582513
 10
219.3605853054085
 20
395.2484404582513
 10
218.9856853054085
 20
395.6074404582513
 10
218.6518853054085
 20
395.9854404582513
 10
218.3612853054086
 20
396.3814404582513
 10
218.1157853054085
 20
396.7924404582513
 10
217.9167853054086
 20
397.2154404582513
 10
217.7654853054086
 20
397.6484404582513
 10
217.7080853054085
 20
397.8684404582513
 10
217.6629853054085
 20
398.0894404582512
 10
217.6301853054085
 20
398.3104404582513
 10
217.6097853054085
 20
398.5334404582513
 10
217.6017853054085
 20
398.7564404582513
  0
LINE
  5
9F2
330
B4B
100
AcDbEntity
  8
0
100
AcDbLine
 10
227.8515853054086
 20
410.1704404582512
 30
0.0
 11
223.3515853054086
 21
410.1704404582512
 31
0.0
  0
LINE
  5
9F3
330
B4B
100
AcDbEntity
  8
0
100
AcDbLine
 10
223.3515853054086
 20
404.3754404582513
 30
0.0
 11
227.8515853054086
 21
404.3754404582513
 31
0.0
  0
LWPOLYLINE
  5
9F4
330
B4B
100
AcDbEntity
  8
0
100
AcDbPolyline
 90
       91
 70
     0
 43
0.0
 10
225.6015853054086
 20
401.6154404582512
 10
224.9738853054085
 20
401.6334404582512
 10
224.3500853054085
 20
401.6854404582512
 10
223.7340853054085
 20
401.7724404582513
 10
223.1294853054085
 20
401.8924404582513
 10
222.5401853054086
 20
402.0464404582512
 10
221.9696853054085
 20
402.2324404582512
 10
221.4216853054085
 20
402.4494404582513
 10
220.8993853054086
 20
402.6964404582512
 10
220.4060853054085
 20
402.9714404582512
 10
219.9447853054085
 20
403.2724404582513
 10
219.5183853054086
 20
403.5994404582512
 10
219.1295853054085
 20
403.9474404582512
 10
218.7805853054085
 20
404.3174404582512
 10
218.4736853054086
 20
404.7044404582512
 10
218.2106853054086
 20
405.1084404582512
 10
217.9932853054086
 20
405.5244404582512
 10
217.8227853054086
 20
405.9524404582512
 10
217.7553853054085
 20
406.1694404582512
 10
217.7001853054085
 20
406.3884404582513
 10
217.6571853054086
 20
406.6084404582512
 10
217.6263853054086
 20
406.8294404582513
 10
217.6078853054085
 20
407.0504404582512
 10
217.6016853054085
 20
407.2724404582513
 10
217.6078853054085
 20
407.4954404582512
 10
217.6263853054086
 20
407.7164404582513
 10
217.6571853054086
 20
407.9374404582512
 10
217.7001853054085
 20
408.1574404582513
 10
217.7553853054085
 20
408.3764404582512
 10
217.9020853054085
 20
408.8084404582512
 10
218.0961853054085
 20
409.2304404582511
 10
218.3365853054086
 20
409.6414404582512
 10
218.6216853054085
 20
410.0374404582512
 10
218.9499853054086
 20
410.4154404582512
 10
219.3191853054086
 20
410.7754404582512
 10
219.7270853054085
 20
411.1124404582512
 10
220.1712853054086
 20
411.4274404582513
 10
220.6488853054086
 20
411.7154404582512
 10
221.1570853054086
 20
411.9764404582513
 10
221.6926853054085
 20
412.2084404582513
 10
222.2523853054085
 20
412.4104404582512
 10
222.8326853054086
 20
412.5804404582512
 10
223.4300853054085
 20
412.7174404582513
 10
224.0408853054085
 20
412.8214404582513
 10
224.6612853054085
 20
412.8904404582512
 10
225.2874853054085
 20
412.9254404582512
 10
225.9156853054085
 20
412.9254404582512
 10
226.5418853054085
 20
412.8904404582512
 10
227.1622853054085
 20
412.8214404582513
 10
227.7730853054085
 20
412.7174404582513
 10
228.3704853054085
 20
412.5804404582512
 10
228.9507853054085
 20
412.4104404582512
 10
229.5104853054085
 20
412.2084404582513
 10
230.0460853054086
 20
411.9764404582513
 10
230.5542853054086
 20
411.7154404582512
 10
231.0318853054085
 20
411.4274404582513
 10
231.4760853054086
 20
411.1124404582512
 10
231.8839853054086
 20
410.7754404582512
 10
232.2532853054085
 20
410.4154404582512
 10
232.5814853054085
 20
410.0374404582512
 10
232.8665853054086
 20
409.6414404582512
 10
233.1069853054085
 20
409.2304404582511
 10
233.3010853054085
 20
408.8084404582512
 10
233.4477853054086
 20
408.3764404582512
 10
233.5029853054086
 20
408.1574404582513
 10
233.5459853054085
 20
407.9374404582512
 10
233.5767853054085
 20
407.7164404582513
 10
233.5952853054085
 20
407.4954404582512
 10
233.6014853054085
 20
407.2724404582513
 10
233.5952853054085
 20
407.0504404582512
 10
233.5767853054085
 20
406.8294404582513
 10
233.5459853054085
 20
406.6084404582512
 10
233.5029853054086
 20
406.3884404582513
 10
233.4477853054086
 20
406.1694404582512
 10
233.3010853054085
 20
405.7374404582512
 10
233.1069853054085
 20
405.3144404582512
 10
232.8665853054086
 20
404.9044404582512
 10
232.5814853054085
 20
404.5084404582513
 10
232.2532853054085
 20
404.1304404582512
 10
231.8839853054086
 20
403.7704404582513
 10
231.4760853054086
 20
403.4324404582513
 10
231.0318853054085
 20
403.1184404582512
 10
230.5542853054086
 20
402.8304404582512
 10
230.0460853054086
 20
402.5694404582512
 10
229.5104853054085
 20
402.3374404582512
 10
228.9507853054085
 20
402.1354404582512
 10
228.3704853054085
 20
401.9654404582513
 10
227.7730853054085
 20
401.8284404582512
 10
227.1622853054085
 20
401.7244404582512
 10
226.5418853054085
 20
401.6554404582512
 10
225.6015853054086
 20
401.6154404582512
  0
LINE
  5
A51
330
B4B
100
AcDbEntity
  8
0
 62
     1
100
AcDbLine
 10
223.3515853054086
 20
410.1704404582512
 30
0.0
 11
223.3515853054086
 21
404.3754404582513
 31
0.0
  0
LINE
  5
A52
330
B4B
100
AcDbEntity
  8
0
100
AcDbLine
 10
221.1015853054085
 20
407.2724404582513
 30
0.0
 11
223.3515853054086
 21
404.3754404582513
 31
0.0
  0
LINE
  5
A53
330
B4B
100
AcDbEntity
  8
0
100
AcDbLine
 10
223.3515853054086
 20
410.1704404582512
 30
0.0
 11
221.1015853054085
 21
407.2724404582513
 31
0.0
  0
LINE
  5
A54
330
B4B
100
AcDbEntity
  8
0
 62
     1
100
AcDbLine
 10
227.8515853054086
 20
410.1704404582512
 30
0.0
 11
227.8515853054086
 21
404.3754404582513
 31
0.0
  0
LINE
  5
A55
330
B4B
100
AcDbEntity
  8
0
100
AcDbLine
 10
227.8515853054086
 20
404.3754404582513
 30
0.0
 11
230.1015853054086
 21
407.2724404582513
 31
0.0
  0
LINE
  5
A56
330
B4B
100
AcDbEntity
  8
0
100
AcDbLine
 10
230.1015853054086
 20
407.2724404582513
 30
0.0
 11
227.8515853054086
 21
410.1704404582512
 31
0.0
  0
LINE
  5
A57
330
B4B
100
AcDbEntity
  8
0
100
AcDbLine
 10
262.6017853054086
 20
319.2194404582513
 30
0.0
 11
262.6017853054086
 21
408.9884404582512
 31
0.0
  0
LINE
  5
A58
330
B4B
100
AcDbEntity
  8
0
100
AcDbLine
 10
258.6018853054085
 20
413.9884404582512
 30
0.0
 11
258.6018853054085
 21
319.2194404582513
 31
0.0
  0
LINE
  5
A59
330
B4B
100
AcDbEntity
  8
0
100
AcDbLine
 10
262.6017853054086
 20
319.2194404582513
 30
0.0
 11
258.6018853054085
 21
319.2194404582513
 31
0.0
  0
LINE
  5
A5A
330
B4B
100
AcDbEntity
  8
0
100
AcDbLine
 10
251.6017853054086
 20
343.9884404582512
 30
0.0
 11
251.6017853054086
 21
335.9424404582513
 31
0.0
  0
LINE
  5
A5B
330
B4B
100
AcDbEntity
  8
0
100
AcDbLine
 10
269.6016853054085
 20
358.9884404582513
 30
0.0
 11
258.0537853054086
 21
358.9884404582513
 31
0.0
  0
LINE
  5
A5C
330
B4B
100
AcDbEntity
  8
0
100
AcDbLine
 10
262.6017853054086
 20
363.9884404582513
 30
0.0
 11
269.6016853054085
 21
363.9884404582513
 31
0.0
  0
LINE
  5
A5D
330
B4B
100
AcDbEntity
  8
0
100
AcDbLine
 10
269.6016853054085
 20
353.9884404582513
 30
0.0
 11
262.6017853054086
 21
353.9884404582513
 31
0.0
  0
LINE
  5
A5E
330
B4B
100
AcDbEntity
  8
0
100
AcDbLine
 10
269.6016853054085
 20
363.9884404582513
 30
0.0
 11
269.6016853054085
 21
353.9884404582513
 31
0.0
  0
LINE
  5
A5F
330
B4B
100
AcDbEntity
  8
0
100
AcDbLine
 10
263.6018853054086
 20
363.9884404582513
 30
0.0
 11
263.6018853054086
 21
353.9884404582513
 31
0.0
  0
LINE
  5
A60
330
B4B
100
AcDbEntity
  8
0
100
AcDbLine
 10
269.6016853054085
 20
398.9884404582513
 30
0.0
 11
258.0537853054086
 21
398.9884404582513
 31
0.0
  0
LINE
  5
A61
330
B4B
100
AcDbEntity
  8
0
100
AcDbLine
 10
262.6017853054086
 20
408.9884404582512
 30
0.0
 11
258.6018853054085
 21
408.9884404582512
 31
0.0
  0
LINE
  5
A62
330
B4B
100
AcDbEntity
  8
0
100
AcDbLine
 10
253.1015853054086
 20
413.9884404582512
 30
0.0
 11
253.1015853054086
 21
383.8184404582513
 31
0.0
  0
LINE
  5
A63
330
B4B
100
AcDbEntity
  8
0
100
AcDbLine
 10
258.6018853054085
 20
386.4154404582513
 30
0.0
 11
253.1015853054086
 21
386.4154404582513
 31
0.0
  0
LINE
  5
A64
330
B4B
100
AcDbEntity
  8
0
100
AcDbLine
 10
269.6016853054085
 20
393.9884404582512
 30
0.0
 11
269.6016853054085
 21
403.9884404582513
 31
0.0
  0
LINE
  5
A65
330
B4B
100
AcDbEntity
  8
0
100
AcDbLine
 10
263.6018853054086
 20
393.9884404582512
 30
0.0
 11
263.6018853054086
 21
403.9884404582513
 31
0.0
  0
LINE
  5
A66
330
B4B
100
AcDbEntity
  8
0
100
AcDbLine
 10
262.6017853054086
 20
393.9884404582512
 30
0.0
 11
269.6016853054085
 21
393.9884404582512
 31
0.0
  0
LINE
  5
A67
330
B4B
100
AcDbEntity
  8
0
100
AcDbLine
 10
269.6016853054085
 20
403.9884404582513
 30
0.0
 11
262.6017853054086
 21
403.9884404582513
 31
0.0
  0
ENDBLK
  5
A69
330
B4B
100
AcDbEntity
  8
0
  6
Continuous
100
AcDbBlockEnd
  0
BLOCK
  5
6A1
330
B4C
100
AcDbEntity
  8
0
  6
Continuous
100
AcDbBlockBegin
  2
A$CC005
 70
     0
 10
0.0
 20
0.0
 30
0.0
  3
A$CC005
  1

  0
LWPOLYLINE
  5
1F
330
B4C
100
AcDbEntity
  8
0
100
AcDbPolyline
 90
       57
 70
     0
 43
0.0
 10
172.8527867598473
 20
8.094525389076181
 10
172.8727867598473
 20
7.37272538907618
 10
172.9327867598473
 20
6.652025389076186
 10
173.0337867598473
 20
5.933625389076183
 10
173.1727867598473
 20
5.218525389076177
 10
173.3527867598473
 20
4.507825389076188
 10
173.5717867598473
 20
3.802725389076186
 10
173.8297867598473
 20
3.104125389076187
 10
174.1257867598473
 20
2.413325389076177
 10
174.4597867598473
 20
1.731225389076186
 10
174.8317867598473
 20
1.059025389076182
 10
175.2417867598473
 20
0.3976253890761825
 10
175.6867867598473
 20
-0.2519746109238099
 10
176.1677867598473
 20
-0.8886746109238146
 10
176.6847867598473
 20
-1.511474610923812
 10
177.2347867598473
 20
-2.119474610923816
 10
177.8187867598473
 20
-2.711774610923811
 10
179.0827867598473
 20
-3.845374610923812
 10
180.4687867598474
 20
-4.905374610923814
 10
181.9677867598473
 20
-5.885274610923815
 10
183.5707867598473
 20
-6.77897461092381
 10
185.2677867598473
 20
-7.580974610923817
 10
187.0497867598473
 20
-8.286374610923814
 10
188.9037867598474
 20
-8.890774610923813
 10
190.8187867598473
 20
-9.390374610923814
 10
192.7837867598474
 20
-9.782174610923817
 10
194.7857867598474
 20
-10.06387461092382
 10
196.8127867598473
 20
-10.23347461092382
 10
198.8527867598473
 20
-10.29017461092381
 10
200.8927867598473
 20
-10.23347461092382
 10
202.9207867598474
 20
-10.06387461092382
 10
204.9227867598474
 20
-9.782174610923817
 10
206.8877867598474
 20
-9.390374610923814
 10
208.8028867598473
 20
-8.890674610923809
 10
210.6568867598473
 20
-8.286374610923814
 10
212.4380867598473
 20
-7.580974610923817
 10
214.1355867598473
 20
-6.77897461092381
 10
215.7387867598473
 20
-5.885274610923815
 10
217.2378867598474
 20
-4.905374610923814
 10
218.6236867598474
 20
-3.845374610923812
 10
219.8875867598474
 20
-2.711774610923811
 10
220.4713867598473
 20
-2.119474610923816
 10
221.0217867598474
 20
-1.511474610923812
 10
221.5380867598474
 20
-0.8886746109238146
 10
222.0192867598474
 20
-0.2519746109238099
 10
222.4648867598474
 20
0.3976253890761825
 10
222.8739867598473
 20
1.059025389076182
 10
223.2460867598474
 20
1.731225389076186
 10
223.5805867598473
 20
2.413325389076177
 10
223.8769867598473
 20
3.104125389076187
 10
224.1347867598474
 20
3.802725389076186
 10
224.3535867598474
 20
4.507825389076188
 10
224.5330867598474
 20
5.218525389076177
 10
224.6728867598474
 20
5.933625389076183
 10
224.7729867598474
 20
6.652125389076189
 10
224.8330867598474
 20
7.37272538907618
 10
224.8531867598473
 20
8.094525389076181
  0
LWPOLYLINE
  5
5A
330
B4C
100
AcDbEntity
  8
0
100
AcDbPolyline
 90
       57
 70
     0
 43
0.0
 10
52.85278675984736
 20
8.094525389076181
 10
52.87278675984737
 20
7.37272538907618
 10
52.93278675984737
 20
6.652025389076186
 10
53.03378675984735
 20
5.933625389076183
 10
53.17278675984738
 20
5.218525389076177
 10
53.35278675984736
 20
4.507825389076188
 10
53.57178675984735
 20
3.802725389076186
 10
53.82978675984734
 20
3.104125389076187
 10
54.12578675984736
 20
2.413325389076177
 10
54.45978675984733
 20
1.731225389076186
 10
54.83178675984735
 20
1.059025389076182
 10
55.24178675984734
 20
0.3976253890761825
 10
55.68678675984734
 20
-0.2519746109238099
 10
56.16778675984736
 20
-0.8886746109238146
 10
56.68478675984736
 20
-1.511474610923812
 10
57.23478675984734
 20
-2.119474610923816
 10
57.81878675984737
 20
-2.711774610923811
 10
59.08278675984738
 20
-3.845374610923812
 10
60.46878675984735
 20
-4.905374610923814
 10
61.96778675984737
 20
-5.885274610923815
 10
63.57078675984735
 20
-6.77897461092381
 10
65.26778675984738
 20
-7.580974610923817
 10
67.04978675984733
 20
-8.286374610923814
 10
68.90378675984734
 20
-8.890774610923813
 10
70.81878675984737
 20
-9.390374610923814
 10
72.78378675984734
 20
-9.782174610923817
 10
74.78578675984735
 20
-10.06387461092382
 10
76.81278675984737
 20
-10.23347461092382
 10
78.85278675984736
 20
-10.29017461092381
 10
80.89278675984738
 20
-10.23347461092382
 10
82.92078675984738
 20
-10.06387461092382
 10
84.92278675984739
 20
-9.782174610923817
 10
86.88778675984735
 20
-9.390374610923814
 10
88.80278675984738
 20
-8.890674610923809
 10
90.65678675984736
 20
-8.286374610923814
 10
92.43778675984737
 20
-7.580974610923817
 10
94.13578675984737
 20
-6.77897461092381
 10
95.73878675984735
 20
-5.885274610923815
 10
97.23778675984739
 20
-4.905374610923814
 10
98.62378675984736
 20
-3.845374610923812
 10
99.88778675984736
 20
-2.711774610923811
 10
100.4717867598473
 20
-2.119474610923816
 10
101.0217867598473
 20
-1.511474610923812
 10
101.5377867598473
 20
-0.8886746109238146
 10
102.0197867598473
 20
-0.2519746109238099
 10
102.4647867598473
 20
0.3976253890761825
 10
102.8737867598473
 20
1.059025389076182
 10
103.2457867598473
 20
1.731225389076186
 10
103.5807867598473
 20
2.413325389076177
 10
103.8767867598473
 20
3.104125389076187
 10
104.1347867598473
 20
3.802725389076186
 10
104.3537867598473
 20
4.507825389076188
 10
104.5327867598473
 20
5.218525389076177
 10
104.6727867598474
 20
5.933625389076183
 10
104.7727867598474
 20
6.652125389076189
 10
104.8327867598473
 20
7.37272538907618
 10
104.8527867598473
 20
8.094525389076181
  0
LINE
  5
95
330
B4C
100
AcDbEntity
  8
0
 62
     1
100
AcDbLine
 10
78.85278675984736
 20
5.468225389076181
 30
0.0
 11
78.85278675984736
 21
85.51342538907618
 31
0.0
  0
LINE
  5
96
330
B4C
100
AcDbEntity
  8
0
 62
     1
100
AcDbLine
 10
138.8527867598473
 20
86.61642538907617
 30
0.0
 11
138.8527867598473
 21
5.780025389076186
 31
0.0
  0
LINE
  5
97
330
B4C
100
AcDbEntity
  8
0
 62
     1
100
AcDbLine
 10
198.8527867598473
 20
81.53742538907616
 30
0.0
 11
198.8527867598473
 21
0.2033253890761841
 31
0.0
  0
LWPOLYLINE
  5
98
330
B4C
100
AcDbEntity
  8
0
100
AcDbPolyline
 90
       41
 70
     0
 43
0.0
 10
54.00378675984734
 20
16.61642538907618
 10
54.54078675984738
 20
15.51042538907617
 10
55.17478675984733
 20
14.43042538907618
 10
55.90578675984736
 20
13.38142538907618
 10
56.72878675984737
 20
12.36742538907619
 10
57.64178675984735
 20
11.39342538907618
 10
58.64078675984737
 20
10.46142538907618
 10
59.72078675984736
 20
9.576425389076177
 10
60.87878675984734
 20
8.741425389076184
 10
62.10978675984733
 20
7.960125389076182
 10
63.40778675984736
 20
7.236025389076189
 10
64.76878675984735
 20
6.571725389076178
 10
66.18578675984736
 20
5.96992538907618
 10
67.65478675984735
 20
5.433025389076178
 10
69.16978675984734
 20
4.963225389076185
 10
70.72278675984737
 20
4.562425389076182
 10
72.30878675984735
 20
4.23232538907618
 10
73.92178675984735
 20
3.974225389076181
 10
75.55478675984733
 20
3.789025389076186
 10
77.20078675984737
 20
3.677625389076183
 10
78.85278675984736
 20
3.640425389076185
 10
80.50578675984736
 20
3.677625389076183
 10
82.15178675984734
 20
3.789025389076186
 10
83.78478675984736
 20
3.974225389076181
 10
85.39778675984738
 20
4.23232538907618
 10
86.98378675984736
 20
4.562425389076182
 10
88.53678675984737
 20
4.963225389076185
 10
90.05078675984737
 20
5.433025389076178
 10
91.51978675984734
 20
5.96992538907618
 10
92.93778675984738
 20
6.571725389076178
 10
94.29878675984737
 20
7.236025389076189
 10
95.59678675984736
 20
7.960125389076182
 10
96.82778675984739
 20
8.741425389076184
 10
97.98478675984734
 20
9.576425389076177
 10
99.06578675984736
 20
10.46142538907618
 10
100.0637867598473
 20
11.39342538907618
 10
100.9767867598473
 20
12.36742538907619
 10
101.8007867598473
 20
13.38142538907618
 10
102.5307867598473
 20
14.43042538907618
 10
103.1657867598473
 20
15.51042538907617
 10
103.7027867598474
 20
16.61642538907618
  0
LWPOLYLINE
  5
C3
330
B4C
100
AcDbEntity
  8
0
100
AcDbPolyline
 90
       41
 70
     0
 43
0.0
 10
174.0037867598473
 20
16.61642538907618
 10
174.5407867598474
 20
15.51042538907617
 10
175.1747867598473
 20
14.43042538907618
 10
175.9057867598473
 20
13.38142538907618
 10
176.7287867598474
 20
12.36742538907619
 10
177.6417867598473
 20
11.39342538907618
 10
178.6407867598474
 20
10.46142538907618
 10
179.7207867598473
 20
9.576425389076177
 10
180.8787867598473
 20
8.741425389076184
 10
182.1097867598473
 20
7.960125389076182
 10
183.4077867598473
 20
7.236025389076189
 10
184.7687867598473
 20
6.571725389076178
 10
186.1857867598473
 20
5.96992538907618
 10
187.6547867598473
 20
5.433025389076178
 10
189.1697867598473
 20
4.963225389076185
 10
190.7227867598473
 20
4.562425389076182
 10
192.3087867598473
 20
4.23232538907618
 10
193.9217867598473
 20
3.974225389076181
 10
195.5547867598473
 20
3.789025389076186
 10
197.2007867598473
 20
3.677625389076183
 10
198.8527867598473
 20
3.640425389076185
 10
200.5057867598473
 20
3.677625389076183
 10
202.1517867598474
 20
3.789025389076186
 10
203.7847867598474
 20
3.974225389076181
 10
205.3977867598474
 20
4.23232538907618
 10
206.9837867598474
 20
4.562425389076182
 10
208.5369867598473
 20
4.963225389076185
 10
210.0511867598473
 20
5.433025389076178
 10
211.5200867598474
 20
5.96992538907618
 10
212.9377867598474
 20
6.571725389076178
 10
214.2984867598474
 20
7.236025389076189
 10
215.5967867598473
 20
7.960125389076182
 10
216.8272867598474
 20
8.741425389076184
 10
217.9850867598474
 20
9.576425389076177
 10
219.0655867598473
 20
10.46142538907618
 10
220.0642867598474
 20
11.39342538907618
 10
220.9771867598474
 20
12.36742538907619
 10
221.8005867598474
 20
13.38142538907618
 10
222.5311867598473
 20
14.43042538907618
 10
223.1659867598474
 20
15.51042538907617
 10
223.7024867598474
 20
16.61642538907618
  0
LINE
  5
EE
330
B4C
100
AcDbEntity
  8
0
100
AcDbLine
 10
256.8531867598474
 20
16.61842538907619
 30
0.0
 11
164.3527867598473
 21
16.61642538907618
 31
0.0
  0
LINE
  5
EF
330
B4C
100
AcDbEntity
  8
0
100
AcDbLine
 10
251.3529867598474
 20
48.20142538907617
 30
0.0
 11
196.3527867598473
 21
48.20142538907617
 31
0.0
  0
LWPOLYLINE
  5
F0
330
B4C
100
AcDbEntity
  8
0
100
AcDbPolyline
 90
       74
 70
     0
 43
0.0
 10
199.0037867598473
 20
86.61642538907617
 10
198.6737867598473
 20
85.78942538907616
 10
198.3977867598473
 20
84.95242538907618
 10
198.1787867598473
 20
84.10742538907616
 10
198.0147867598473
 20
83.25642538907619
 10
197.9077867598473
 20
82.40042538907619
 10
197.8567867598473
 20
81.54242538907615
 10
197.8637867598473
 20
80.68342538907618
 10
197.9267867598473
 20
79.8254253890762
 10
198.0457867598474
 20
78.97042538907621
 10
198.2217867598473
 20
78.12042538907618
 10
198.4537867598474
 20
77.2764253890762
 10
198.7417867598473
 20
76.44242538907616
 10
199.0837867598473
 20
75.61742538907617
 10
199.4797867598473
 20
74.80542538907619
 10
199.9297867598473
 20
74.00742538907616
 10
200.4317867598473
 20
73.22442538907617
 10
200.9847867598474
 20
72.45942538907619
 10
201.5877867598474
 20
71.71442538907618
 10
202.2387867598474
 20
70.98842538907618
 10
202.9377867598474
 20
70.28642538907618
 10
203.6817867598474
 20
69.60742538907618
 10
204.4707867598474
 20
68.95342538907619
 10
205.3017867598474
 20
68.32642538907617
 10
206.1727867598473
 20
67.72742538907619
 10
207.0827867598473
 20
67.1584253890762
 10
208.0297867598474
 20
66.61942538907618
 10
209.0103867598473
 20
66.11242538907617
 10
210.0238867598474
 20
65.63942538907617
 10
211.0675867598474
 20
65.19942538907617
 10
212.1392867598474
 20
64.79442538907616
 10
213.2364867598474
 20
64.42542538907616
 10
214.3568867598474
 20
64.09242538907619
 10
215.4979867598474
 20
63.79742538907618
 10
217.8324867598474
 20
63.32242538907618
 10
220.2194867598474
 20
63.0034253890762
 10
222.6381867598474
 20
62.84242538907619
 10
225.0675867598474
 20
62.84242538907619
 10
227.4863867598474
 20
63.0034253890762
 10
229.8733867598474
 20
63.32242538907618
 10
232.2077867598474
 20
63.79742538907618
 10
233.3489867598474
 20
64.09242538907619
 10
234.4693867598473
 20
64.42542538907616
 10
235.5665867598474
 20
64.79442538907616
 10
236.6381867598474
 20
65.19942538907617
 10
237.6818867598474
 20
65.63942538907617
 10
238.6953867598474
 20
66.11242538907617
 10
239.6764867598474
 20
66.61942538907618
 10
240.6230867598473
 20
67.1584253890762
 10
241.5329867598473
 20
67.72742538907619
 10
242.4042867598473
 20
68.32642538907617
 10
243.2350867598474
 20
68.95342538907619
 10
244.0235867598474
 20
69.60742538907618
 10
244.7679867598473
 20
70.28642538907618
 10
245.4666867598473
 20
70.98842538907618
 10
246.1182867598473
 20
71.71442538907618
 10
246.7211867598473
 20
72.45942538907619
 10
247.2741867598474
 20
73.22442538907617
 10
247.7759867598473
 20
74.00742538907616
 10
248.2255867598474
 20
74.80542538907619
 10
248.6219867598474
 20
75.61742538907617
 10
248.9642867598474
 20
76.44242538907616
 10
249.2516867598474
 20
77.2764253890762
 10
249.4836867598474
 20
78.12042538907618
 10
249.6596867598474
 20
78.97042538907621
 10
249.7792867598473
 20
79.8254253890762
 10
249.8422867598474
 20
80.68342538907618
 10
249.8485867598474
 20
81.54242538907615
 10
249.7980867598474
 20
82.40042538907619
 10
249.6908867598474
 20
83.25642538907619
 10
249.5273867598474
 20
84.10742538907616
 10
249.3076867598473
 20
84.95242538907618
 10
249.0324867598474
 20
85.78942538907616
 10
248.7021867598474
 20
86.61642538907617
  0
LWPOLYLINE
  5
13C
330
B4C
100
AcDbEntity
  8
0
100
AcDbPolyline
 90
       41
 70
     0
 43
0.0
 10
248.7021867598474
 20
86.61642538907617
 10
248.1656867598474
 20
87.72242538907617
 10
247.5308867598474
 20
88.80242538907618
 10
246.8002867598474
 20
89.8504253890762
 10
245.9768867598473
 20
90.86442538907618
 10
245.0639867598474
 20
91.83942538907619
 10
244.0652867598473
 20
92.77142538907616
 10
242.9848867598474
 20
93.6564253890762
 10
241.8270867598474
 20
94.49142538907617
 10
240.5964867598473
 20
95.27242538907618
 10
239.2982867598474
 20
95.9964253890762
 10
237.9375867598473
 20
96.66142538907619
 10
236.5198867598473
 20
97.26242538907616
 10
235.0508867598473
 20
97.79942538907617
 10
233.5366867598474
 20
98.26942538907619
 10
231.9832867598474
 20
98.6704253890762
 10
230.3970867598474
 20
99.00042538907619
 10
228.7842867598474
 20
99.2584253890762
 10
227.1515867598473
 20
99.44342538907619
 10
225.5055867598473
 20
99.5554253890762
 10
223.8528867598474
 20
99.59242538907616
 10
222.2001867598474
 20
99.5554253890762
 10
220.5541867598474
 20
99.44342538907619
 10
218.9214867598474
 20
99.2584253890762
 10
217.3086867598474
 20
99.00042538907619
 10
215.7224867598474
 20
98.6704253890762
 10
214.1690867598474
 20
98.26942538907619
 10
212.6548867598474
 20
97.79942538907617
 10
211.1858867598474
 20
97.26242538907616
 10
209.7682867598473
 20
96.66142538907619
 10
208.4074867598474
 20
95.9964253890762
 10
207.1087867598474
 20
95.27242538907618
 10
205.8787867598474
 20
94.49142538907617
 10
204.7207867598474
 20
93.6564253890762
 10
203.6407867598474
 20
92.77142538907616
 10
202.6417867598473
 20
91.83942538907619
 10
201.7287867598474
 20
90.86442538907618
 10
200.9057867598474
 20
89.8504253890762
 10
200.1747867598474
 20
88.80142538907618
 10
199.5397867598473
 20
87.72242538907617
 10
199.0037867598473
 20
86.61642538907617
  0
LINE
  5
167
330
B4C
100
AcDbEntity
  8
0
100
AcDbLine
 10
226.3529867598474
 20
86.61642538907617
 30
0.0
 11
256.8531867598474
 21
86.61642538907617
 31
0.0
  0
LINE
  5
168
330
B4C
100
AcDbEntity
  8
0
100
AcDbLine
 10
256.8531867598474
 20
59.04242538907618
 30
0.0
 11
226.3529867598474
 21
59.04242538907618
 31
0.0
  0
LINE
  5
169
330
B4C
100
AcDbEntity
  8
0
100
AcDbLine
 10
256.8531867598474
 20
74.04342538907619
 30
0.0
 11
226.3529867598474
 21
74.04342538907619
 31
0.0
  0
LINE
  5
16A
330
B4C
100
AcDbEntity
  8
0
 62
     1
100
AcDbLine
 10
2.971786759847361
 20
51.61642538907617
 30
0.0
 11
279.3051867598474
 21
51.61642538907617
 31
0.0
  0
LWPOLYLINE
  5
16B
330
B4C
100
AcDbEntity
  8
0
100
AcDbPolyline
 90
       41
 70
     0
 43
0.0
 10
67.77478675984733
 20
81.61642538907617
 10
67.66278675984736
 20
82.19942538907616
 10
67.50078675984735
 20
82.77742538907617
 10
67.29178675984735
 20
83.34642538907619
 10
67.03478675984735
 20
83.90642538907618
 10
66.73078675984737
 20
84.45442538907617
 10
66.38178675984736
 20
84.98942538907618
 10
65.98778675984738
 20
85.5084253890762
 10
65.55178675984734
 20
86.00942538907617
 10
65.07378675984736
 20
86.49142538907616
 10
64.55678675984734
 20
86.95242538907619
 10
64.00078675984736
 20
87.39142538907618
 10
63.40978675984735
 20
87.80542538907619
 10
62.78478675984735
 20
88.19442538907617
 10
62.12778675984736
 20
88.5564253890762
 10
61.44278675984736
 20
88.8904253890762
 10
60.72978675984734
 20
89.19442538907617
 10
59.99278675984737
 20
89.4684253890762
 10
59.23378675984736
 20
89.71042538907619
 10
58.45578675984737
 20
89.9204253890762
 10
57.66178675984736
 20
90.09742538907616
 10
56.85478675984734
 20
90.2404253890762
 10
56.03678675984736
 20
90.34942538907618
 10
55.21078675984736
 20
90.42442538907616
 10
54.37978675984735
 20
90.46442538907617
 10
53.54778675984738
 20
90.4684253890762
 10
52.71578675984736
 20
90.4384253890762
 10
51.88878675984733
 20
90.37342538907621
 10
51.06778675984736
 20
90.27342538907618
 10
50.25778675984736
 20
90.13942538907617
 10
49.45978675984736
 20
89.97042538907621
 10
48.67778675984737
 20
89.7694253890762
 10
47.91378675984737
 20
89.53542538907621
 10
47.16978675984734
 20
89.27042538907619
 10
46.45078675984734
 20
88.97442538907617
 10
45.75778675984736
 20
88.64842538907618
 10
45.0927867598474
 20
88.29342538907619
 10
44.45978675984735
 20
87.91142538907619
 10
43.85878675984736
 20
87.5034253890762
 10
43.29378675984736
 20
87.07142538907618
 10
42.76578675984734
 20
86.61642538907617
  0
LINE
  5
196
330
B4C
100
AcDbEntity
  8
0
100
AcDbLine
 10
51.35278675984739
 20
59.04242538907618
 30
0.0
 11
20.85278675984739
 21
59.04242538907618
 31
0.0
  0
LINE
  5
197
330
B4C
100
AcDbEntity
  8
0
100
AcDbLine
 10
51.35278675984739
 20
86.61642538907617
 30
0.0
 11
20.85278675984739
 21
86.61642538907617
 31
0.0
  0
LINE
  5
198
330
B4C
100
AcDbEntity
  8
0
100
AcDbLine
 10
20.85278675984739
 20
74.04342538907619
 30
0.0
 11
51.35278675984739
 21
74.04342538907619
 31
0.0
  0
LINE
  5
199
330
B4C
100
AcDbEntity
  8
0
100
AcDbLine
 10
20.85278675984739
 20
59.04242538907618
 30
0.0
 11
51.35278675984739
 21
59.04242538907618
 31
0.0
  0
LWPOLYLINE
  5
19A
330
B4C
100
AcDbEntity
  8
0
100
AcDbPolyline
 90
       41
 70
     0
 43
0.0
 10
78.70178675984735
 20
86.61642538907617
 10
78.16578675984738
 20
87.72242538907617
 10
77.53078675984736
 20
88.80242538907618
 10
76.80078675984737
 20
89.8504253890762
 10
75.97678675984735
 20
90.86442538907618
 10
75.06378675984734
 20
91.83942538907619
 10
74.06578675984736
 20
92.77142538907616
 10
72.98478675984734
 20
93.6564253890762
 10
71.82678675984735
 20
94.49142538907617
 10
70.59678675984736
 20
95.27242538907618
 10
69.29778675984739
 20
95.9964253890762
 10
67.93778675984737
 20
96.66142538907619
 10
66.51978675984733
 20
97.26242538907616
 10
65.05078675984737
 20
97.79942538907617
 10
63.53678675984736
 20
98.26942538907619
 10
61.98378675984736
 20
98.6704253890762
 10
60.39678675984735
 20
99.00042538907619
 10
58.78478675984735
 20
99.2584253890762
 10
57.15178675984734
 20
99.44342538907619
 10
55.50578675984735
 20
99.5554253890762
 10
53.85278675984736
 20
99.59242538907616
 10
52.19978675984737
 20
99.5554253890762
 10
50.55378675984735
 20
99.44342538907619
 10
48.92178675984735
 20
99.2584253890762
 10
47.30878675984735
 20
99.00042538907619
 10
45.7227867598474
 20
98.6704253890762
 10
44.16878675984736
 20
98.26942538907619
 10
42.65478675984735
 20
97.79942538907617
 10
41.18578675984736
 20
97.26242538907616
 10
39.76778675984736
 20
96.66142538907619
 10
38.4077867598474
 20
95.9964253890762
 10
37.10878675984736
 20
95.27242538907618
 10
35.87878675984735
 20
94.49142538907617
 10
34.72078675984739
 20
93.6564253890762
 10
33.64078675984734
 20
92.77142538907616
 10
32.64178675984738
 20
91.83942538907619
 10
31.72878675984737
 20
90.86442538907618
 10
30.90578675984739
 20
89.8504253890762
 10
30.17478675984734
 20
88.80142538907618
 10
29.53978675984735
 20
87.72242538907617
 10
29.00378675984735
 20
86.61642538907617
  0
LWPOLYLINE
  5
1C5
330
B4C
100
AcDbEntity
  8
0
100
AcDbPolyline
 90
       74
 70
     0
 43
0.0
 10
29.00378675984735
 20
86.61642538907617
 10
28.67378675984736
 20
85.78942538907616
 10
28.39778675984735
 20
84.95242538907618
 10
28.17878675984736
 20
84.10742538907616
 10
28.01478675984737
 20
83.25642538907619
 10
27.9077867598474
 20
82.40042538907619
 10
27.85678675984736
 20
81.54242538907615
 10
27.86378675984736
 20
80.68342538907618
 10
27.92678675984735
 20
79.8254253890762
 10
28.04578675984738
 20
78.97042538907621
 10
28.22178675984736
 20
78.12042538907618
 10
28.45378675984733
 20
77.2764253890762
 10
28.74178675984735
 20
76.44242538907616
 10
29.08378675984739
 20
75.61742538907617
 10
29.47978675984734
 20
74.80542538907619
 10
29.92978675984733
 20
74.00742538907616
 10
30.43178675984734
 20
73.22442538907617
 10
30.98478675984734
 20
72.45942538907619
 10
31.58778675984735
 20
71.71442538907618
 10
32.23878675984736
 20
70.98842538907618
 10
32.93778675984737
 20
70.28642538907618
 10
33.68178675984734
 20
69.60742538907618
 10
34.47078675984739
 20
68.95342538907619
 10
35.30178675984735
 20
68.32642538907617
 10
36.17278675984739
 20
67.72742538907619
 10
37.08278675984735
 20
67.1584253890762
 10
38.02978675984736
 20
66.61942538907618
 10
39.01078675984735
 20
66.11242538907617
 10
40.02378675984738
 20
65.63942538907617
 10
41.06778675984736
 20
65.19942538907617
 10
42.13878675984733
 20
64.79442538907616
 10
43.23678675984734
 20
64.42542538907616
 10
44.35678675984735
 20
64.09242538907619
 10
45.49778675984737
 20
63.79742538907618
 10
47.83278675984734
 20
63.32242538907618
 10
50.21978675984735
 20
63.0034253890762
 10
52.63778675984736
 20
62.84242538907619
 10
55.06778675984737
 20
62.84242538907619
 10
57.48678675984734
 20
63.0034253890762
 10
59.87378675984735
 20
63.32242538907618
 10
62.20778675984738
 20
63.79742538907618
 10
63.34878675984737
 20
64.09242538907619
 10
64.46978675984735
 20
64.42542538907616
 10
65.56678675984736
 20
64.79442538907616
 10
66.63778675984736
 20
65.19942538907617
 10
67.68178675984734
 20
65.63942538907617
 10
68.69578675984735
 20
66.11242538907617
 10
69.67678675984735
 20
66.61942538907618
 10
70.62278675984737
 20
67.1584253890762
 10
71.53278675984736
 20
67.72742538907619
 10
72.40378675984735
 20
68.32642538907617
 10
73.23478675984734
 20
68.95342538907619
 10
74.02378675984735
 20
69.60742538907618
 10
74.76778675984738
 20
70.28642538907618
 10
75.46678675984733
 20
70.98842538907618
 10
76.11778675984737
 20
71.71442538907618
 10
76.72078675984735
 20
72.45942538907619
 10
77.27378675984735
 20
73.22442538907617
 10
77.77578675984736
 20
74.00742538907616
 10
78.22578675984735
 20
74.80542538907619
 10
78.62178675984734
 20
75.61742538907617
 10
78.96378675984735
 20
76.44242538907616
 10
79.25178675984736
 20
77.2764253890762
 10
79.48378675984736
 20
78.12042538907618
 10
79.65978675984735
 20
78.97042538907621
 10
79.77978675984735
 20
79.8254253890762
 10
79.84278675984737
 20
80.68342538907618
 10
79.84878675984737
 20
81.54242538907615
 10
79.79778675984738
 20
82.40042538907619
 10
79.69078675984736
 20
83.25642538907619
 10
79.52778675984737
 20
84.10742538907616
 10
79.30778675984737
 20
84.95242538907618
 10
79.03278675984736
 20
85.78942538907616
 10
78.70178675984735
 20
86.61642538907617
  0
LINE
  5
211
330
B4C
100
AcDbEntity
  8
0
100
AcDbLine
 10
26.35278675984739
 20
48.20142538907617
 30
0.0
 11
81.35278675984736
 21
48.20142538907617
 31
0.0
  0
LWPOLYLINE
  5
212
330
B4C
100
AcDbEntity
  8
0
100
AcDbPolyline
 90
       46
 70
     0
 43
0.0
 10
45.85478675984734
 20
31.71142538907619
 10
45.85478675984734
 20
31.93442538907618
 10
45.86778675984738
 20
32.15742538907618
 10
45.89278675984735
 20
32.37942538907617
 10
45.93078675984736
 20
32.60142538907619
 10
45.97978675984734
 20
32.82142538907618
 10
46.11678675984734
 20
33.25642538907619
 10
46.30078675984736
 20
33.68342538907621
 10
46.53278675984739
 20
34.0984253890762
 10
46.80978675984732
 20
34.49942538907618
 10
47.12978675984731
 20
34.8834253890762
 10
47.49278675984737
 20
35.2484253890762
 10
47.89478675984736
 20
35.5924253890762
 10
48.33378675984739
 20
35.91242538907619
 10
48.80678675984734
 20
36.20742538907621
 10
49.31178675984734
 20
36.47442538907617
 10
49.84478675984735
 20
36.71342538907618
 10
50.40278675984734
 20
36.92142538907618
 10
50.98278675984738
 20
37.09742538907619
 10
51.57978675984736
 20
37.24142538907617
 10
52.19078675984736
 20
37.35042538907618
 10
52.81278675984736
 20
37.42642538907617
 10
53.44078675984736
 20
37.46642538907619
 10
54.07178675984735
 20
37.47242538907619
 10
54.70078675984737
 20
37.44242538907619
 10
55.32478675984734
 20
37.3774253890762
 10
55.93978675984735
 20
37.27842538907621
 10
56.54178675984735
 20
37.14542538907617
 10
57.12678675984736
 20
36.97842538907619
 10
57.69178675984736
 20
36.78042538907619
 10
58.23278675984738
 20
36.55042538907617
 10
58.74678675984734
 20
36.29242538907619
 10
59.23078675984737
 20
36.00542538907618
 10
59.67978675984733
 20
35.6934253890762
 10
60.09378675984734
 20
35.35642538907618
 10
60.46878675984735
 20
34.99742538907617
 10
60.80278675984738
 20
34.61942538907619
 10
61.09278675984737
 20
34.2234253890762
 10
61.33878675984735
 20
33.81242538907617
 10
61.53778675984736
 20
33.38942538907617
 10
61.68878675984735
 20
32.95642538907618
 10
61.74678675984734
 20
32.73642538907619
 10
61.79178675984736
 20
32.51542538907619
 10
61.82478675984734
 20
32.29442538907618
 10
61.84478675984735
 20
32.07142538907618
 10
61.85278675984736
 20
31.8484253890762
  0
LWPOLYLINE
  5
242
330
B4C
100
AcDbEntity
  8
0
100
AcDbPolyline
 90
       33
 70
     0
 43
0.0
 10
46.10678675984735
 20
31.81742538907619
 10
46.25578675984735
 20
32.17542538907618
 10
46.43678675984733
 20
32.52542538907618
 10
46.65078675984739
 20
32.86542538907618
 10
46.89578675984733
 20
33.19542538907618
 10
47.17078675984737
 20
33.51342538907619
 10
47.47578675984738
 20
33.8184253890762
 10
47.80678675984733
 20
34.10742538907618
 10
48.16578675984738
 20
34.38142538907619
 10
48.54778675984738
 20
34.63742538907619
 10
48.95378675984733
 20
34.87542538907618
 10
49.38078675984735
 20
35.09342538907617
 10
49.82778675984736
 20
35.29142538907618
 10
50.77178675984737
 20
35.6234253890762
 10
51.76878675984733
 20
35.86442538907619
 10
52.80178675984735
 20
36.01142538907618
 10
53.85278675984736
 20
36.06042538907619
 10
54.90478675984736
 20
36.01142538907618
 10
55.93778675984736
 20
35.86442538907619
 10
56.93478675984735
 20
35.6234253890762
 10
57.87778675984736
 20
35.29142538907618
 10
58.32478675984734
 20
35.09342538907617
 10
58.75178675984736
 20
34.87542538907618
 10
59.15778675984737
 20
34.63742538907619
 10
59.54078675984738
 20
34.38142538907619
 10
59.89878675984735
 20
34.10742538907618
 10
60.23078675984738
 20
33.8184253890762
 10
60.53478675984734
 20
33.51342538907619
 10
60.80978675984735
 20
33.19542538907618
 10
61.05478675984733
 20
32.86542538907618
 10
61.26878675984736
 20
32.52542538907618
 10
61.45078675984738
 20
32.17542538907618
 10
61.59878675984737
 20
31.81742538907619
  0
LINE
  5
265
330
B4C
100
AcDbEntity
  8
0
100
AcDbLine
 10
113.3527867598473
 20
16.61642538907618
 30
0.0
 11
20.85278675984739
 21
16.61642538907618
 31
0.0
  0
LWPOLYLINE
  5
266
330
B4C
100
AcDbEntity
  8
0
100
AcDbPolyline
 90
       91
 70
     0
 43
0.0
 10
53.85278675984736
 20
28.98942538907617
 10
54.48078675984738
 20
28.97142538907619
 10
55.10478675984734
 20
28.91942538907618
 10
55.72078675984736
 20
28.83242538907619
 10
56.32478675984734
 20
28.71242538907619
 10
56.91478675984734
 20
28.55842538907619
 10
57.48478675984734
 20
28.37242538907619
 10
58.03278675984737
 20
28.15542538907619
 10
58.55478675984733
 20
27.90842538907619
 10
59.04878675984736
 20
27.6334253890762
 10
59.50978675984734
 20
27.3324253890762
 10
59.93578675984736
 20
27.00642538907619
 10
60.32478675984734
 20
26.65742538907618
 10
60.67378675984736
 20
26.28742538907619
 10
60.98078675984737
 20
25.90042538907618
 10
61.24378675984735
 20
25.49642538907618
 10
61.46178675984734
 20
25.08042538907619
 10
61.63178675984736
 20
24.65242538907619
 10
61.69878675984737
 20
24.43542538907619
 10
61.75478675984734
 20
24.21742538907619
 10
61.79778675984739
 20
23.99642538907618
 10
61.82778675984739
 20
23.77542538907618
 10
61.84678675984736
 20
23.55442538907617
 10
61.85278675984736
 20
23.33242538907619
 10
61.84678675984736
 20
23.10942538907618
 10
61.82778675984739
 20
22.88842538907619
 10
61.79778675984739
 20
22.66742538907619
 10
61.75478675984734
 20
22.44742538907619
 10
61.69878675984737
 20
22.22842538907619
 10
61.55278675984738
 20
21.79642538907618
 10
61.35878675984736
 20
21.37442538907618
 10
61.11778675984737
 20
20.96342538907619
 10
60.83278675984738
 20
20.56742538907619
 10
60.50478675984734
 20
20.18942538907618
 10
60.13578675984738
 20
19.82942538907618
 10
59.72778675984736
 20
19.49242538907619
 10
59.28378675984735
 20
19.17742538907619
 10
58.80578675984736
 20
18.88942538907618
 10
58.29778675984738
 20
18.62842538907618
 10
57.76178675984735
 20
18.39642538907618
 10
57.20178675984735
 20
18.19442538907617
 10
56.62178675984733
 20
18.02442538907617
 10
56.02478675984733
 20
17.88742538907618
 10
55.41378675984737
 20
17.78342538907618
 10
54.79378675984737
 20
17.71442538907618
 10
54.16678675984735
 20
17.67942538907617
 10
53.53878675984737
 20
17.67942538907617
 10
52.91278675984736
 20
17.71442538907618
 10
52.29278675984739
 20
17.78342538907618
 10
51.68178675984734
 20
17.88742538907618
 10
51.08378675984738
 20
18.02442538907617
 10
50.50378675984735
 20
18.19442538907617
 10
49.94378675984734
 20
18.39642538907618
 10
49.40878675984738
 20
18.62842538907618
 10
48.90078675984739
 20
18.88942538907618
 10
48.42278675984738
 20
19.17742538907619
 10
47.97878675984736
 20
19.49242538907619
 10
47.57078675984735
 20
19.82942538907618
 10
47.20178675984732
 20
20.18942538907618
 10
46.87278675984737
 20
20.56742538907619
 10
46.58778675984734
 20
20.96342538907619
 10
46.3477867598474
 20
21.37442538907618
 10
46.15378675984738
 20
21.79642538907618
 10
46.00678675984733
 20
22.22842538907619
 10
45.95178675984732
 20
22.44742538907619
 10
45.90878675984737
 20
22.66742538907619
 10
45.87778675984736
 20
22.88842538907619
 10
45.85978675984733
 20
23.10942538907618
 10
45.85278675984739
 20
23.33242538907619
 10
45.85978675984733
 20
23.55442538907617
 10
45.87778675984736
 20
23.77542538907618
 10
45.90878675984737
 20
23.99642538907618
 10
45.95178675984732
 20
24.21742538907619
 10
46.00678675984733
 20
24.43542538907619
 10
46.15378675984738
 20
24.86742538907619
 10
46.3477867598474
 20
25.29042538907618
 10
46.58778675984734
 20
25.70042538907618
 10
46.87278675984737
 20
26.09642538907619
 10
47.20178675984732
 20
26.47442538907617
 10
47.57078675984735
 20
26.83442538907617
 10
47.97878675984736
 20
27.17242538907618
 10
48.42278675984738
 20
27.48642538907619
 10
48.90078675984739
 20
27.77442538907617
 10
49.40878675984738
 20
28.03542538907618
 10
49.94378675984734
 20
28.26742538907618
 10
50.50378675984735
 20
28.46942538907618
 10
51.08378675984738
 20
28.63942538907618
 10
51.68178675984734
 20
28.77642538907618
 10
52.29278675984739
 20
28.88042538907618
 10
52.91278675984736
 20
28.94942538907618
 10
53.85278675984736
 20
28.98942538907617
  0
LINE
  5
2C3
330
B4C
100
AcDbEntity
  8
0
100
AcDbLine
 10
51.60278675984739
 20
26.22942538907617
 30
0.0
 11
49.35278675984739
 21
23.33242538907619
 31
0.0
  0
LINE
  5
2C4
330
B4C
100
AcDbEntity
  8
0
100
AcDbLine
 10
49.35278675984739
 20
23.33242538907619
 30
0.0
 11
51.60278675984739
 21
20.43442538907618
 31
0.0
  0
LINE
  5
2C5
330
B4C
100
AcDbEntity
  8
0
 62
     1
100
AcDbLine
 10
60.25378675984734
 20
31.81742538907619
 30
0.0
 11
48.14778675984735
 21
31.81742538907619
 31
0.0
  0
LINE
  5
2C6
330
B4C
100
AcDbEntity
  8
0
100
AcDbLine
 10
20.85278675984739
 20
86.61642538907617
 30
0.0
 11
20.85278675984739
 21
16.61642538907618
 31
0.0
  0
LINE
  5
2C7
330
B4C
100
AcDbEntity
  8
0
100
AcDbLine
 10
16.85278675984739
 20
21.61642538907619
 30
0.0
 11
16.85278675984739
 21
81.61642538907617
 31
0.0
  0
LINE
  5
2C8
330
B4C
100
AcDbEntity
  8
0
100
AcDbLine
 10
26.35278675984739
 20
48.20142538907617
 30
0.0
 11
26.35278675984739
 21
16.61642538907618
 31
0.0
  0
LINE
  5
2C9
330
B4C
100
AcDbEntity
  8
0
100
AcDbLine
 10
20.85278675984739
 20
21.61642538907619
 30
0.0
 11
16.85278675984739
 21
21.61642538907619
 31
0.0
  0
LINE
  5
2CA
330
B4C
100
AcDbEntity
  8
0
100
AcDbLine
 10
45.85278675984739
 20
31.84442538907618
 30
0.0
 11
45.85278675984739
 21
23.31942538907617
 31
0.0
  0
LINE
  5
2CB
330
B4C
100
AcDbEntity
  8
0
100
AcDbLine
 10
15.85278675984739
 20
46.61642538907616
 30
0.0
 11
15.85278675984739
 21
56.61642538907617
 31
0.0
  0
LINE
  5
2CC
330
B4C
100
AcDbEntity
  8
0
100
AcDbLine
 10
9.853786759847366
 20
46.61642538907616
 30
0.0
 11
9.853786759847366
 21
56.61642538907617
 31
0.0
  0
LINE
  5
2CD
330
B4C
100
AcDbEntity
  8
0
100
AcDbLine
 10
16.85278675984739
 20
46.61642538907616
 30
0.0
 11
9.853786759847366
 21
46.61642538907616
 31
0.0
  0
LINE
  5
2CE
330
B4C
100
AcDbEntity
  8
0
100
AcDbLine
 10
26.35278675984739
 20
44.19042538907618
 30
0.0
 11
20.85278675984739
 21
44.19042538907618
 31
0.0
  0
LINE
  5
2CF
330
B4C
100
AcDbEntity
  8
0
100
AcDbLine
 10
9.853786759847366
 20
56.61642538907617
 30
0.0
 11
16.85278675984739
 21
56.61642538907617
 31
0.0
  0
LINE
  5
2D0
330
B4C
100
AcDbEntity
  8
0
100
AcDbLine
 10
16.85278675984739
 20
81.61642538907617
 30
0.0
 11
20.85278675984739
 21
81.61642538907617
 31
0.0
  0
LINE
  5
2D1
330
B4C
100
AcDbEntity
  8
0
100
AcDbLine
 10
27.85278675984739
 20
95.13842538907619
 30
0.0
 11
27.85278675984739
 21
85.51342538907618
 31
0.0
  0
LINE
  5
2D2
330
B4C
100
AcDbEntity
  8
0
100
AcDbLine
 10
171.3527867598473
 20
59.04242538907618
 30
0.0
 11
106.3527867598473
 21
59.04242538907618
 31
0.0
  0
LINE
  5
2D3
330
B4C
100
AcDbEntity
  8
0
100
AcDbLine
 10
113.3527867598473
 20
71.61642538907617
 30
0.0
 11
164.3527867598473
 21
71.61642538907617
 31
0.0
  0
LINE
  5
2D4
330
B4C
100
AcDbEntity
  8
0
100
AcDbLine
 10
196.3527867598473
 20
44.19042538907618
 30
0.0
 11
81.35278675984736
 21
44.19042538907618
 31
0.0
  0
LINE
  5
2D5
330
B4C
100
AcDbEntity
  8
0
100
AcDbLine
 10
164.3527867598473
 20
31.61642538907619
 30
0.0
 11
113.3527867598473
 21
31.61642538907619
 31
0.0
  0
LINE
  5
2D6
330
B4C
100
AcDbEntity
  8
0
100
AcDbLine
 10
51.35278675984739
 20
55.03142538907619
 30
0.0
 11
51.35278675984739
 21
86.61642538907617
 31
0.0
  0
LINE
  5
2D7
330
B4C
100
AcDbEntity
  8
0
100
AcDbLine
 10
106.3527867598473
 20
55.03142538907619
 30
0.0
 11
106.3527867598473
 21
86.61642538907617
 31
0.0
  0
LINE
  5
2D8
330
B4C
100
AcDbEntity
  8
0
 62
     1
100
AcDbLine
 10
53.85278675984736
 20
20.43442538907618
 30
0.0
 11
53.85278675984736
 21
96.50442538907618
 31
0.0
  0
LINE
  5
2D9
330
B4C
100
AcDbEntity
  8
0
100
AcDbLine
 10
70.85278675984736
 20
71.41542538907618
 30
0.0
 11
70.85278675984736
 21
79.90042538907619
 31
0.0
  0
LINE
  5
2DA
330
B4C
100
AcDbEntity
  8
0
100
AcDbLine
 10
86.85278675984736
 20
71.38842538907619
 30
0.0
 11
86.85278675984736
 21
79.9134253890762
 31
0.0
  0
LINE
  5
2DB
330
B4C
100
AcDbEntity
  8
0
100
AcDbLine
 10
113.3527867598473
 20
71.61642538907617
 30
0.0
 11
113.3527867598473
 21
86.61642538907617
 31
0.0
  0
LWPOLYLINE
  5
2DC
330
B4C
100
AcDbEntity
  8
0
100
AcDbPolyline
 90
       74
 70
     0
 43
0.0
 10
103.7027867598474
 20
16.61642538907618
 10
104.0327867598473
 20
17.44342538907619
 10
104.3077867598473
 20
18.28042538907618
 10
104.5277867598473
 20
19.12442538907618
 10
104.6907867598473
 20
19.97642538907618
 10
104.7987867598473
 20
20.83242538907619
 10
104.8487867598473
 20
21.69042538907618
 10
104.8427867598473
 20
22.54942538907618
 10
104.7797867598473
 20
23.40742538907618
 10
104.6597867598473
 20
24.26242538907619
 10
104.4837867598473
 20
25.1124253890762
 10
104.2517867598473
 20
25.95542538907618
 10
103.9647867598473
 20
26.79042538907618
 10
103.6217867598473
 20
27.61542538907618
 10
103.2257867598473
 20
28.42742538907619
 10
102.7757867598473
 20
29.22542538907618
 10
102.2747867598473
 20
30.00742538907619
 10
101.7217867598473
 20
30.77242538907619
 10
101.1187867598473
 20
31.51842538907619
 10
100.4667867598473
 20
32.24342538907619
 10
99.76778675984739
 20
32.94642538907619
 10
99.02378675984735
 20
33.62542538907618
 10
98.23578675984737
 20
34.27942538907618
 10
97.40478675984736
 20
34.90642538907619
 10
96.53278675984736
 20
35.50542538907618
 10
95.62278675984737
 20
36.07442538907617
 10
94.67678675984734
 20
36.61342538907618
 10
93.69578675984735
 20
37.11942538907619
 10
92.68178675984733
 20
37.5934253890762
 10
91.63878675984737
 20
38.0334253890762
 10
90.56678675984736
 20
38.4384253890762
 10
89.46978675984736
 20
38.8074253890762
 10
88.34878675984738
 20
39.13942538907617
 10
87.20778675984737
 20
39.43442538907618
 10
84.87378675984734
 20
39.91042538907618
 10
82.48678675984734
 20
40.22942538907616
 10
80.06778675984737
 20
40.38942538907616
 10
77.63878675984736
 20
40.38942538907616
 10
75.21978675984735
 20
40.22942538907616
 10
72.83278675984738
 20
39.91042538907618
 10
70.49778675984737
 20
39.43442538907618
 10
69.35678675984735
 20
39.13942538907617
 10
68.23678675984734
 20
38.8074253890762
 10
67.13978675984733
 20
38.4384253890762
 10
66.06778675984736
 20
38.0334253890762
 10
65.02378675984735
 20
37.5934253890762
 10
64.01078675984738
 20
37.11942538907619
 10
63.02978675984736
 20
36.61342538907618
 10
62.08278675984738
 20
36.07442538907617
 10
61.17278675984739
 20
35.50542538907618
 10
60.30178675984735
 20
34.90642538907619
 10
59.47078675984736
 20
34.27942538907618
 10
58.68278675984737
 20
33.62542538907618
 10
57.93778675984737
 20
32.94642538907619
 10
57.23978675984733
 20
32.24342538907619
 10
56.58778675984738
 20
31.51842538907619
 10
55.98478675984734
 20
30.77242538907619
 10
55.43178675984734
 20
30.00742538907619
 10
54.92978675984733
 20
29.22542538907618
 10
54.48078675984738
 20
28.42742538907619
 10
54.08378675984735
 20
27.61542538907618
 10
53.74178675984734
 20
26.79042538907618
 10
53.45478675984733
 20
25.95542538907618
 10
53.22278675984737
 20
25.1124253890762
 10
53.04678675984735
 20
24.26242538907619
 10
52.92678675984735
 20
23.40742538907618
 10
52.86378675984735
 20
22.54942538907618
 10
52.85778675984738
 20
21.69042538907618
 10
52.90778675984737
 20
20.83242538907619
 10
53.01478675984734
 20
19.97642538907618
 10
53.17878675984736
 20
19.12442538907618
 10
53.39878675984735
 20
18.28042538907618
 10
53.67378675984736
 20
17.44342538907619
 10
54.00378675984734
 20
16.61642538907618
  0
LINE
  5
328
330
B4C
100
AcDbEntity
  8
0
100
AcDbLine
 10
106.3527867598473
 20
55.03142538907619
 30
0.0
 11
51.35278675984739
 21
55.03142538907619
 31
0.0
  0
LINE
  5
329
330
B4C
100
AcDbEntity
  8
0
100
AcDbLine
 10
81.35278675984736
 20
48.20142538907617
 30
0.0
 11
81.35278675984736
 21
16.61642538907618
 31
0.0
  0
LWPOLYLINE
  5
32A
330
B4C
100
AcDbEntity
  8
0
100
AcDbPolyline
 90
       21
 70
     0
 43
0.0
 10
67.76578675984737
 20
16.61642538907618
 10
68.59278675984737
 20
15.92642538907618
 10
69.50478675984735
 20
15.29242538907618
 10
70.49478675984733
 20
14.71942538907618
 10
71.55478675984733
 20
14.21342538907619
 10
72.67578675984736
 20
13.77742538907618
 10
73.84778675984737
 20
13.41542538907617
 10
75.06278675984737
 20
13.13142538907618
 10
76.30778675984737
 20
12.92642538907619
 10
77.57478675984734
 20
12.80342538907619
 10
78.85278675984736
 20
12.76142538907618
 10
80.13078675984734
 20
12.80342538907619
 10
81.39778675984738
 20
12.92642538907619
 10
82.64378675984735
 20
13.13142538907618
 10
83.85778675984738
 20
13.41542538907617
 10
85.03078675984736
 20
13.77742538907618
 10
86.15078675984737
 20
14.21342538907619
 10
87.21078675984736
 20
14.71942538907618
 10
88.20178675984735
 20
15.29242538907618
 10
89.11378675984735
 20
15.92642538907618
 10
89.93978675984735
 20
16.61642538907618
  0
LINE
  5
341
330
B4C
100
AcDbEntity
  8
0
100
AcDbLine
 10
56.10278675984736
 20
20.43442538907618
 30
0.0
 11
58.35278675984736
 21
23.33242538907619
 31
0.0
  0
LINE
  5
342
330
B4C
100
AcDbEntity
  8
0
 62
     1
100
AcDbLine
 10
56.10278675984736
 20
20.43442538907618
 30
0.0
 11
56.10278675984736
 21
26.22942538907617
 31
0.0
  0
LINE
  5
343
330
B4C
100
AcDbEntity
  8
0
 62
     1
100
AcDbLine
 10
51.60278675984739
 20
20.43442538907618
 30
0.0
 11
51.60278675984739
 21
26.22942538907617
 31
0.0
  0
LINE
  5
344
330
B4C
100
AcDbEntity
  8
0
100
AcDbLine
 10
51.60278675984739
 20
20.43442538907618
 30
0.0
 11
56.10278675984736
 21
20.43442538907618
 31
0.0
  0
LINE
  5
345
330
B4C
100
AcDbEntity
  8
0
100
AcDbLine
 10
52.85278675984736
 20
21.62242538907618
 30
0.0
 11
52.85278675984736
 21
8.094525389076181
 31
0.0
  0
LINE
  5
346
330
B4C
100
AcDbEntity
  8
0
100
AcDbLine
 10
58.35278675984736
 20
23.33242538907619
 30
0.0
 11
56.10278675984736
 21
26.22942538907617
 31
0.0
  0
LINE
  5
347
330
B4C
100
AcDbEntity
  8
0
100
AcDbLine
 10
56.10278675984736
 20
26.22942538907617
 30
0.0
 11
51.60278675984739
 21
26.22942538907617
 31
0.0
  0
LINE
  5
348
330
B4C
100
AcDbEntity
  8
0
100
AcDbLine
 10
61.85278675984736
 20
31.81742538907619
 30
0.0
 11
61.85278675984736
 21
23.33242538907619
 31
0.0
  0
LWPOLYLINE
  5
349
330
B4C
100
AcDbEntity
  8
0
100
AcDbPolyline
 90
       33
 70
     0
 43
0.0
 10
86.59878675984737
 20
71.41542538907618
 10
86.45078675984738
 20
71.0574253890762
 10
86.26878675984736
 20
70.70742538907618
 10
86.05478675984732
 20
70.36742538907617
 10
85.80978675984736
 20
70.03642538907619
 10
85.53478675984734
 20
69.71942538907618
 10
85.23078675984738
 20
69.41442538907617
 10
84.89878675984735
 20
69.12442538907618
 10
84.54078675984737
 20
68.85142538907619
 10
84.15778675984737
 20
68.59542538907618
 10
83.75178675984736
 20
68.35742538907618
 10
83.32478675984734
 20
68.13842538907619
 10
82.87778675984737
 20
67.94042538907618
 10
81.93478675984735
 20
67.60942538907617
 10
80.93778675984736
 20
67.36842538907618
 10
79.90478675984736
 20
67.22142538907618
 10
78.85278675984736
 20
67.17242538907618
 10
77.80178675984735
 20
67.22142538907618
 10
76.76878675984736
 20
67.36842538907618
 10
75.77178675984734
 20
67.60942538907617
 10
74.82778675984739
 20
67.94042538907618
 10
74.38078675984735
 20
68.13842538907619
 10
73.95378675984736
 20
68.35742538907618
 10
73.54778675984738
 20
68.59542538907618
 10
73.16578675984738
 20
68.85142538907619
 10
72.80678675984734
 20
69.12442538907618
 10
72.47578675984735
 20
69.41442538907617
 10
72.17078675984737
 20
69.71942538907618
 10
71.89578675984737
 20
70.03642538907619
 10
71.65078675984736
 20
70.36742538907617
 10
71.43678675984734
 20
70.70742538907618
 10
71.25578675984735
 20
71.0574253890762
 10
71.10678675984735
 20
71.41542538907618
  0
LWPOLYLINE
  5
36C
330
B4C
100
AcDbEntity
  8
0
100
AcDbPolyline
 90
       46
 70
     0
 43
0.0
 10
86.85178675984735
 20
71.52142538907617
 10
86.85078675984735
 20
71.29842538907618
 10
86.83878675984734
 20
71.07542538907617
 10
86.81278675984737
 20
70.85342538907619
 10
86.77578675984737
 20
70.63142538907619
 10
86.72578675984736
 20
70.41142538907618
 10
86.58978675984736
 20
69.97542538907618
 10
86.40478675984736
 20
69.54942538907616
 10
86.17378675984737
 20
69.13442538907617
 10
85.89678675984734
 20
68.73342538907619
 10
85.57578675984737
 20
68.34942538907617
 10
85.21378675984735
 20
67.98442538907616
 10
84.81178675984734
 20
67.64042538907617
 10
84.37178675984734
 20
67.32042538907617
 10
83.89878675984736
 20
67.02542538907619
 10
83.39378675984736
 20
66.7584253890762
 10
82.86078675984738
 20
66.51942538907618
 10
82.30278675984738
 20
66.31142538907619
 10
81.72378675984736
 20
66.13542538907617
 10
81.12678675984737
 20
65.99142538907617
 10
80.51478675984734
 20
65.88142538907618
 10
79.89378675984736
 20
65.80642538907619
 10
79.26478675984734
 20
65.76642538907617
 10
78.63478675984734
 20
65.76042538907618
 10
78.00478675984734
 20
65.79042538907618
 10
77.38078675984735
 20
65.85542538907617
 10
76.76578675984737
 20
65.95442538907616
 10
76.16378675984737
 20
66.08742538907617
 10
75.57878675984736
 20
66.25442538907617
 10
75.01378675984736
 20
66.45242538907618
 10
74.47278675984737
 20
66.6814253890762
 10
73.95878675984736
 20
66.94042538907618
 10
73.47578675984735
 20
67.22742538907619
 10
73.02578675984737
 20
67.53942538907617
 10
72.61178675984734
 20
67.87642538907618
 10
72.23678675984735
 20
68.23542538907616
 10
71.90378675984735
 20
68.61342538907618
 10
71.61278675984738
 20
69.00942538907617
 10
71.36678675984734
 20
69.42042538907617
 10
71.16778675984736
 20
69.8434253890762
 10
71.01678675984735
 20
70.2764253890762
 10
70.95978675984733
 20
70.49642538907619
 10
70.91478675984735
 20
70.71642538907619
 10
70.88178675984735
 20
70.9384253890762
 10
70.86078675984737
 20
71.16142538907618
 10
70.85278675984736
 20
71.38442538907617
  0
LINE
  5
39C
330
B4C
100
AcDbEntity
  8
0
 62
     1
100
AcDbLine
 10
72.45178675984735
 20
71.41542538907618
 30
0.0
 11
84.55778675984737
 21
71.41542538907618
 31
0.0
  0
LINE
  5
39D
330
B4C
100
AcDbEntity
  8
0
100
AcDbLine
 10
123.3527867598473
 20
71.61642538907617
 30
0.0
 11
123.3527867598473
 21
31.61642538907619
 31
0.0
  0
LINE
  5
39E
330
B4C
100
AcDbEntity
  8
0
 62
     1
100
AcDbLine
 10
140.3527867598473
 20
31.61642538907619
 30
0.0
 11
140.3527867598473
 21
71.61642538907617
 31
0.0
  0
LINE
  5
39F
330
B4C
100
AcDbEntity
  8
0
100
AcDbLine
 10
113.3527867598473
 20
16.61642538907618
 30
0.0
 11
113.3527867598473
 21
31.61642538907619
 31
0.0
  0
LINE
  5
3A0
330
B4C
100
AcDbEntity
  8
0
100
AcDbLine
 10
104.8527867598473
 20
8.094525389076181
 30
0.0
 11
104.8527867598473
 21
16.61742538907619
 31
0.0
  0
LINE
  5
3A1
330
B4C
100
AcDbEntity
  8
0
100
AcDbLine
 10
106.3527867598473
 20
81.61642538907617
 30
0.0
 11
86.47578675984735
 21
81.61642538907617
 31
0.0
  0
LINE
  5
3A2
330
B4C
100
AcDbEntity
  8
0
100
AcDbLine
 10
113.3527867598473
 20
86.61642538907617
 30
0.0
 11
81.35278675984736
 21
86.61642538907617
 31
0.0
  0
LWPOLYLINE
  5
3A3
330
B4C
100
AcDbEntity
  8
0
100
AcDbPolyline
 90
       91
 70
     0
 43
0.0
 10
78.85278675984736
 20
74.24342538907618
 10
78.22578675984735
 20
74.26142538907618
 10
77.60178675984736
 20
74.3134253890762
 10
76.98578675984737
 20
74.39942538907619
 10
76.38078675984735
 20
74.52042538907619
 10
75.79178675984735
 20
74.67442538907616
 10
75.22078675984736
 20
74.8604253890762
 10
74.67278675984738
 20
75.07742538907618
 10
74.15078675984736
 20
75.32442538907616
 10
73.65778675984737
 20
75.59942538907617
 10
73.19578675984735
 20
75.90042538907619
 10
72.76978675984733
 20
76.22642538907618
 10
72.38078675984735
 20
76.5754253890762
 10
72.03178675984736
 20
76.94442538907617
 10
71.72478675984734
 20
77.33242538907617
 10
71.46178675984734
 20
77.73542538907619
 10
71.24478675984732
 20
78.15242538907617
 10
71.07378675984737
 20
78.5804253890762
 10
71.00678675984736
 20
78.79742538907618
 10
70.95178675984735
 20
79.01542538907619
 10
70.90878675984734
 20
79.2354253890762
 10
70.87778675984736
 20
79.45642538907617
 10
70.85978675984733
 20
79.67842538907618
 10
70.85278675984736
 20
79.90042538907619
 10
70.85978675984733
 20
80.12242538907617
 10
70.87778675984736
 20
80.34442538907617
 10
70.90878675984734
 20
80.56542538907621
 10
70.95178675984735
 20
80.78542538907621
 10
71.00678675984736
 20
81.00442538907618
 10
71.15378675984735
 20
81.43642538907618
 10
71.34778675984737
 20
81.85842538907619
 10
71.58778675984738
 20
82.2694253890762
 10
71.87278675984737
 20
82.66442538907616
 10
72.20178675984735
 20
83.04342538907619
 10
72.57078675984735
 20
83.40242538907617
 10
72.97878675984737
 20
83.7404253890762
 10
73.42278675984738
 20
84.05442538907619
 10
73.90078675984736
 20
84.34342538907619
 10
74.40878675984734
 20
84.60442538907617
 10
74.94378675984737
 20
84.8364253890762
 10
75.50378675984735
 20
85.03842538907619
 10
76.08378675984735
 20
85.20842538907619
 10
76.68178675984734
 20
85.3454253890762
 10
77.29278675984736
 20
85.44942538907617
 10
77.91278675984736
 20
85.51842538907619
 10
78.53878675984737
 20
85.55342538907618
 10
79.16678675984735
 20
85.55342538907618
 10
79.79378675984737
 20
85.51842538907619
 10
80.41378675984736
 20
85.44942538907617
 10
81.02478675984732
 20
85.3454253890762
 10
81.62178675984733
 20
85.20842538907619
 10
82.20178675984735
 20
85.03842538907619
 10
82.76178675984736
 20
84.8364253890762
 10
83.29778675984739
 20
84.60442538907617
 10
83.80578675984736
 20
84.34342538907619
 10
84.28378675984735
 20
84.05442538907619
 10
84.72778675984736
 20
83.7404253890762
 10
85.13578675984737
 20
83.40242538907617
 10
85.50478675984734
 20
83.04342538907619
 10
85.83278675984738
 20
82.66442538907616
 10
86.11778675984737
 20
82.2694253890762
 10
86.35878675984736
 20
81.85842538907619
 10
86.55278675984737
 20
81.43642538907618
 10
86.69878675984737
 20
81.00442538907618
 10
86.75478675984734
 20
80.78542538907621
 10
86.79778675984739
 20
80.56542538907621
 10
86.82778675984739
 20
80.34442538907617
 10
86.84678675984736
 20
80.12242538907617
 10
86.85278675984736
 20
79.90042538907619
 10
86.84678675984736
 20
79.67842538907618
 10
86.82778675984739
 20
79.45642538907617
 10
86.79778675984739
 20
79.2354253890762
 10
86.75478675984734
 20
79.01542538907619
 10
86.69878675984737
 20
78.79742538907618
 10
86.55278675984737
 20
78.36542538907619
 10
86.35878675984736
 20
77.94242538907616
 10
86.11778675984737
 20
77.53242538907617
 10
85.83278675984738
 20
77.13642538907618
 10
85.50478675984734
 20
76.75742538907616
 10
85.13578675984737
 20
76.39842538907618
 10
84.72778675984736
 20
76.06042538907619
 10
84.28378675984735
 20
75.74642538907619
 10
83.80578675984736
 20
75.45842538907618
 10
83.29778675984739
 20
75.19742538907616
 10
82.76178675984736
 20
74.96442538907619
 10
82.20178675984735
 20
74.76342538907619
 10
81.62178675984733
 20
74.5934253890762
 10
81.02478675984732
 20
74.45642538907617
 10
80.41378675984736
 20
74.35242538907615
 10
79.79378675984737
 20
74.28242538907617
 10
78.85278675984736
 20
74.24342538907618
  0
LINE
  5
400
330
B4C
100
AcDbEntity
  8
0
100
AcDbLine
 10
71.22978675984734
 20
81.61642538907617
 30
0.0
 11
51.35278675984739
 21
81.61642538907617
 31
0.0
  0
LINE
  5
401
330
B4C
100
AcDbEntity
  8
0
100
AcDbLine
 10
79.85278675984736
 20
81.6104253890762
 30
0.0
 11
79.85278675984736
 21
95.13842538907619
 31
0.0
  0
LINE
  5
402
330
B4C
100
AcDbEntity
  8
0
100
AcDbLine
 10
76.60278675984736
 20
82.79742538907617
 30
0.0
 11
74.35278675984736
 21
79.90042538907619
 31
0.0
  0
LINE
  5
403
330
B4C
100
AcDbEntity
  8
0
100
AcDbLine
 10
81.10278675984735
 20
82.79742538907617
 30
0.0
 11
76.60278675984736
 21
82.79742538907617
 31
0.0
  0
LINE
  5
404
330
B4C
100
AcDbEntity
  8
0
100
AcDbLine
 10
83.35278675984737
 20
79.90042538907619
 30
0.0
 11
81.10278675984735
 21
82.79742538907617
 31
0.0
  0
LINE
  5
405
330
B4C
100
AcDbEntity
  8
0
100
AcDbLine
 10
81.35278675984736
 20
86.61642538907617
 30
0.0
 11
81.35278675984736
 21
85.27442538907619
 31
0.0
  0
LINE
  5
406
330
B4C
100
AcDbEntity
  8
0
100
AcDbLine
 10
76.60278675984736
 20
77.00342538907619
 30
0.0
 11
81.10278675984735
 21
77.00342538907619
 31
0.0
  0
LINE
  5
407
330
B4C
100
AcDbEntity
  8
0
100
AcDbLine
 10
74.35278675984736
 20
79.90042538907619
 30
0.0
 11
76.60278675984736
 21
77.00342538907619
 31
0.0
  0
LINE
  5
408
330
B4C
100
AcDbEntity
  8
0
100
AcDbLine
 10
81.10278675984735
 20
77.00342538907619
 30
0.0
 11
83.35278675984737
 21
79.90042538907619
 31
0.0
  0
LINE
  5
409
330
B4C
100
AcDbEntity
  8
0
 62
     1
100
AcDbLine
 10
81.10278675984735
 20
82.79742538907617
 30
0.0
 11
81.10278675984735
 21
77.00342538907619
 31
0.0
  0
LINE
  5
40A
330
B4C
100
AcDbEntity
  8
0
 62
     1
100
AcDbLine
 10
76.60278675984736
 20
82.79742538907617
 30
0.0
 11
76.60278675984736
 21
77.00342538907619
 31
0.0
  0
LINE
  5
40B
330
B4C
100
AcDbEntity
  8
0
100
AcDbLine
 10
106.3527867598473
 20
74.04242538907616
 30
0.0
 11
113.3527867598473
 21
74.04242538907616
 31
0.0
  0
LINE
  5
40C
330
B4C
100
AcDbEntity
  8
0
100
AcDbLine
 10
171.3527867598473
 20
55.03142538907619
 30
0.0
 11
171.3527867598473
 21
86.61642538907617
 31
0.0
  0
LINE
  5
40D
330
B4C
100
AcDbEntity
  8
0
100
AcDbLine
 10
226.3529867598474
 20
55.03142538907619
 30
0.0
 11
226.3529867598474
 21
86.61642538907617
 31
0.0
  0
LINE
  5
40E
330
B4C
100
AcDbEntity
  8
0
 62
     1
100
AcDbLine
 10
223.8529867598473
 20
22.02542538907618
 30
0.0
 11
223.8529867598473
 21
97.7304253890762
 31
0.0
  0
LINE
  5
40F
330
B4C
100
AcDbEntity
  8
0
100
AcDbLine
 10
164.3527867598473
 20
86.61642538907617
 30
0.0
 11
164.3527867598473
 21
71.61642538907617
 31
0.0
  0
LINE
  5
410
330
B4C
100
AcDbEntity
  8
0
100
AcDbLine
 10
190.8527867598473
 20
71.41542538907618
 30
0.0
 11
190.8527867598473
 21
79.90042538907619
 31
0.0
  0
LINE
  5
411
330
B4C
100
AcDbEntity
  8
0
100
AcDbLine
 10
206.8527867598473
 20
71.38842538907619
 30
0.0
 11
206.8527867598473
 21
79.9134253890762
 31
0.0
  0
LWPOLYLINE
  5
412
330
B4C
100
AcDbEntity
  8
0
100
AcDbPolyline
 90
       74
 70
     0
 43
0.0
 10
223.7024867598474
 20
16.61642538907618
 10
224.0326867598473
 20
17.44342538907619
 10
224.3079867598474
 20
18.28042538907618
 10
224.5275867598473
 20
19.12442538907618
 10
224.6911867598474
 20
19.97642538907618
 10
224.7982867598474
 20
20.83242538907619
 10
224.8487867598474
 20
21.69042538907618
 10
224.8425867598474
 20
22.54942538907618
 10
224.7794867598474
 20
23.40742538907618
 10
224.6598867598474
 20
24.26242538907619
 10
224.4838867598474
 20
25.1124253890762
 10
224.2518867598473
 20
25.95542538907618
 10
223.9644867598474
 20
26.79042538907618
 10
223.6221867598473
 20
27.61542538907618
 10
223.2257867598474
 20
28.42742538907619
 10
222.7761867598474
 20
29.22542538907618
 10
222.2743867598473
 20
30.00742538907619
 10
221.7213867598474
 20
30.77242538907619
 10
221.1184867598474
 20
31.51842538907619
 10
220.4669867598474
 20
32.24342538907619
 10
219.7681867598474
 20
32.94642538907619
 10
219.0237867598474
 20
33.62542538907618
 10
218.2352867598474
 20
34.27942538907618
 10
217.4044867598474
 20
34.90642538907619
 10
216.5331867598474
 20
35.50542538907618
 10
215.6232867598474
 20
36.07442538907617
 10
214.6767867598474
 20
36.61342538907618
 10
213.6956867598474
 20
37.11942538907619
 10
212.6820867598473
 20
37.5934253890762
 10
211.6383867598474
 20
38.0334253890762
 10
210.5667867598473
 20
38.4384253890762
 10
209.4695867598474
 20
38.8074253890762
 10
208.3487867598474
 20
39.13942538907617
 10
207.2077867598474
 20
39.43442538907618
 10
204.8737867598473
 20
39.91042538907618
 10
202.4867867598473
 20
40.22942538907616
 10
200.0677867598473
 20
40.38942538907616
 10
197.6387867598473
 20
40.38942538907616
 10
195.2197867598473
 20
40.22942538907616
 10
192.8327867598473
 20
39.91042538907618
 10
190.4977867598473
 20
39.43442538907618
 10
189.3567867598473
 20
39.13942538907617
 10
188.2367867598473
 20
38.8074253890762
 10
187.1397867598473
 20
38.4384253890762
 10
186.0677867598473
 20
38.0334253890762
 10
185.0237867598473
 20
37.5934253890762
 10
184.0107867598473
 20
37.11942538907619
 10
183.0297867598473
 20
36.61342538907618
 10
182.0827867598473
 20
36.07442538907617
 10
181.1727867598473
 20
35.50542538907618
 10
180.3017867598473
 20
34.90642538907619
 10
179.4707867598473
 20
34.27942538907618
 10
178.6827867598473
 20
33.62542538907618
 10
177.9377867598473
 20
32.94642538907619
 10
177.2397867598473
 20
32.24342538907619
 10
176.5877867598473
 20
31.51842538907619
 10
175.9847867598473
 20
30.77242538907619
 10
175.4317867598473
 20
30.00742538907619
 10
174.9297867598473
 20
29.22542538907618
 10
174.4807867598473
 20
28.42742538907619
 10
174.0837867598473
 20
27.61542538907618
 10
173.7417867598473
 20
26.79042538907618
 10
173.4547867598474
 20
25.95542538907618
 10
173.2227867598473
 20
25.1124253890762
 10
173.0467867598473
 20
24.26242538907619
 10
172.9267867598473
 20
23.40742538907618
 10
172.8637867598473
 20
22.54942538907618
 10
172.8577867598473
 20
21.69042538907618
 10
172.9077867598473
 20
20.83242538907619
 10
173.0147867598473
 20
19.97642538907618
 10
173.1787867598473
 20
19.12442538907618
 10
173.3987867598473
 20
18.28042538907618
 10
173.6737867598473
 20
17.44342538907619
 10
174.0037867598473
 20
16.61642538907618
  0
LWPOLYLINE
  5
45E
330
B4C
100
AcDbEntity
  8
0
100
AcDbPolyline
 90
       21
 70
     0
 43
0.0
 10
187.7657867598473
 20
16.61642538907618
 10
188.5927867598473
 20
15.92642538907618
 10
189.5047867598474
 20
15.29242538907618
 10
190.4947867598473
 20
14.71942538907618
 10
191.5547867598473
 20
14.21342538907619
 10
192.6757867598474
 20
13.77742538907618
 10
193.8477867598473
 20
13.41542538907617
 10
195.0627867598474
 20
13.13142538907618
 10
196.3077867598473
 20
12.92642538907619
 10
197.5747867598473
 20
12.80342538907619
 10
198.8527867598473
 20
12.76142538907618
 10
200.1307867598474
 20
12.80342538907619
 10
201.3977867598474
 20
12.92642538907619
 10
202.6437867598473
 20
13.13142538907618
 10
203.8577867598474
 20
13.41542538907617
 10
205.0307867598474
 20
13.77742538907618
 10
206.1507867598474
 20
14.21342538907619
 10
207.2107867598474
 20
14.71942538907618
 10
208.2017867598473
 20
15.29242538907618
 10
209.1134867598474
 20
15.92642538907618
 10
209.9399867598473
 20
16.61642538907618
  0
LINE
  5
475
330
B4C
100
AcDbEntity
  8
0
100
AcDbLine
 10
171.3527867598473
 20
55.03142538907619
 30
0.0
 11
226.3529867598474
 21
55.03142538907619
 31
0.0
  0
LINE
  5
476
330
B4C
100
AcDbEntity
  8
0
100
AcDbLine
 10
157.3527867598473
 20
31.61642538907619
 30
0.0
 11
157.3527867598473
 21
71.61642538907617
 31
0.0
  0
LINE
  5
477
330
B4C
100
AcDbEntity
  8
0
100
AcDbLine
 10
164.3527867598473
 20
31.61642538907619
 30
0.0
 11
164.3527867598473
 21
16.61642538907618
 31
0.0
  0
LINE
  5
478
330
B4C
100
AcDbEntity
  8
0
100
AcDbLine
 10
172.8527867598473
 20
21.62242538907618
 30
0.0
 11
172.8527867598473
 21
8.094525389076181
 31
0.0
  0
LINE
  5
479
330
B4C
100
AcDbEntity
  8
0
100
AcDbLine
 10
196.3527867598473
 20
48.20142538907617
 30
0.0
 11
196.3527867598473
 21
16.61642538907618
 31
0.0
  0
LINE
  5
47A
330
B4C
100
AcDbEntity
  8
0
100
AcDbLine
 10
226.1029867598473
 20
20.43442538907618
 30
0.0
 11
228.3529867598474
 21
23.33242538907619
 31
0.0
  0
LINE
  5
47B
330
B4C
100
AcDbEntity
  8
0
 62
     1
100
AcDbLine
 10
226.1029867598473
 20
20.43442538907618
 30
0.0
 11
226.1029867598473
 21
26.22942538907617
 31
0.0
  0
LINE
  5
47C
330
B4C
100
AcDbEntity
  8
0
100
AcDbLine
 10
219.3529867598473
 20
23.33242538907619
 30
0.0
 11
221.6029867598473
 21
20.43442538907618
 31
0.0
  0
LINE
  5
47D
330
B4C
100
AcDbEntity
  8
0
 62
     1
100
AcDbLine
 10
221.6029867598473
 20
20.43442538907618
 30
0.0
 11
221.6029867598473
 21
26.22942538907617
 31
0.0
  0
LWPOLYLINE
  5
47E
330
B4C
100
AcDbEntity
  8
0
100
AcDbPolyline
 90
       91
 70
     0
 43
0.0
 10
223.8529867598473
 20
28.98942538907617
 10
224.4806867598474
 20
28.97142538907619
 10
225.1044867598474
 20
28.91942538907618
 10
225.7205867598474
 20
28.83242538907619
 10
226.3250867598474
 20
28.71242538907619
 10
226.9144867598474
 20
28.55842538907619
 10
227.4848867598474
 20
28.37242538907619
 10
228.0329867598474
 20
28.15542538907619
 10
228.5551867598473
 20
27.90842538907619
 10
229.0484867598474
 20
27.6334253890762
 10
229.5097867598474
 20
27.3324253890762
 10
229.9361867598474
 20
27.00642538907619
 10
230.3250867598474
 20
26.65742538907618
 10
230.6740867598473
 20
26.28742538907619
 10
230.9809867598473
 20
25.90042538907618
 10
231.2439867598474
 20
25.49642538907618
 10
231.4613867598473
 20
25.08042538907619
 10
231.6318867598474
 20
24.65242538907619
 10
231.6991867598474
 20
24.43542538907619
 10
231.7543867598474
 20
24.21742538907619
 10
231.7974867598473
 20
23.99642538907618
 10
231.8282867598473
 20
23.77542538907618
 10
231.8466867598473
 20
23.55442538907617
 10
231.8528867598474
 20
23.33242538907619
 10
231.8466867598473
 20
23.10942538907618
 10
231.8282867598473
 20
22.88842538907619
 10
231.7974867598473
 20
22.66742538907619
 10
231.7543867598474
 20
22.44742538907619
 10
231.6991867598474
 20
22.22842538907619
 10
231.5525867598474
 20
21.79642538907618
 10
231.3584867598474
 20
21.37442538907618
 10
231.1180867598474
 20
20.96342538907619
 10
230.8328867598473
 20
20.56742538907619
 10
230.5046867598473
 20
20.18942538907618
 10
230.1354867598474
 20
19.82942538907618
 10
229.7274867598474
 20
19.49242538907619
 10
229.2833867598474
 20
19.17742538907619
 10
228.8056867598474
 20
18.88942538907618
 10
228.2974867598473
 20
18.62842538907618
 10
227.7618867598473
 20
18.39642538907618
 10
227.2022867598474
 20
18.19442538907617
 10
226.6218867598474
 20
18.02442538907617
 10
226.0244867598474
 20
17.88742538907618
 10
225.4136867598473
 20
17.78342538907618
 10
224.7932867598474
 20
17.71442538907618
 10
224.1670867598474
 20
17.67942538907617
 10
223.5389867598474
 20
17.67942538907617
 10
222.9127867598474
 20
17.71442538907618
 10
222.2922867598474
 20
17.78342538907618
 10
221.6814867598474
 20
17.88742538907618
 10
221.0840867598474
 20
18.02442538907617
 10
220.5037867598473
 20
18.19442538907617
 10
219.9440867598474
 20
18.39642538907618
 10
219.4084867598474
 20
18.62842538907618
 10
218.9003867598474
 20
18.88942538907618
 10
218.4226867598474
 20
19.17742538907619
 10
217.9784867598474
 20
19.49242538907619
 10
217.5705867598473
 20
19.82942538907618
 10
217.2013867598474
 20
20.18942538907618
 10
216.8731867598474
 20
20.56742538907619
 10
216.5879867598473
 20
20.96342538907619
 10
216.3475867598473
 20
21.37442538907618
 10
216.1534867598474
 20
21.79642538907618
 10
216.0068867598474
 20
22.22842538907619
 10
215.9516867598473
 20
22.44742538907619
 10
215.9085867598474
 20
22.66742538907619
 10
215.8777867598474
 20
22.88842538907619
 10
215.8592867598474
 20
23.10942538907618
 10
215.8531867598473
 20
23.33242538907619
 10
215.8592867598474
 20
23.55442538907617
 10
215.8777867598474
 20
23.77542538907618
 10
215.9085867598474
 20
23.99642538907618
 10
215.9516867598473
 20
24.21742538907619
 10
216.0068867598474
 20
24.43542538907619
 10
216.1534867598474
 20
24.86742538907619
 10
216.3475867598473
 20
25.29042538907618
 10
216.5879867598473
 20
25.70042538907618
 10
216.8731867598474
 20
26.09642538907619
 10
217.2013867598474
 20
26.47442538907617
 10
217.5705867598473
 20
26.83442538907617
 10
217.9784867598474
 20
27.17242538907618
 10
218.4226867598474
 20
27.48642538907619
 10
218.9003867598474
 20
27.77442538907617
 10
219.4084867598474
 20
28.03542538907618
 10
219.9440867598474
 20
28.26742538907618
 10
220.5037867598473
 20
28.46942538907618
 10
221.0840867598474
 20
28.63942538907618
 10
221.6814867598474
 20
28.77642538907618
 10
222.2922867598474
 20
28.88042538907618
 10
222.9127867598474
 20
28.94942538907618
 10
223.8529867598473
 20
28.98942538907617
  0
LINE
  5
4DB
330
B4C
100
AcDbEntity
  8
0
100
AcDbLine
 10
221.6029867598473
 20
20.43442538907618
 30
0.0
 11
226.1029867598473
 21
20.43442538907618
 31
0.0
  0
LINE
  5
4DC
330
B4C
100
AcDbEntity
  8
0
100
AcDbLine
 10
224.8531867598473
 20
8.094525389076181
 30
0.0
 11
224.8531867598473
 21
16.61742538907619
 31
0.0
  0
LWPOLYLINE
  5
4DD
330
B4C
100
AcDbEntity
  8
0
100
AcDbPolyline
 90
       46
 70
     0
 43
0.0
 10
215.8545867598473
 20
31.71142538907619
 10
215.8548867598474
 20
31.93442538907618
 10
215.8675867598474
 20
32.15742538907618
 10
215.8927867598474
 20
32.37942538907617
 10
215.9303867598473
 20
32.60142538907619
 10
215.9801867598474
 20
32.82142538907618
 10
216.1165867598473
 20
33.25642538907619
 10
216.3009867598474
 20
33.68342538907621
 10
216.5324867598473
 20
34.0984253890762
 10
216.8093867598474
 20
34.49942538907618
 10
217.1300867598473
 20
34.8834253890762
 10
217.4925867598474
 20
35.2484253890762
 10
217.8946867598474
 20
35.5924253890762
 10
218.3337867598474
 20
35.91242538907619
 10
218.8071867598473
 20
36.20742538907621
 10
219.3119867598473
 20
36.47442538907617
 10
219.8449867598474
 20
36.71342538907618
 10
220.4028867598474
 20
36.92142538907618
 10
220.9822867598473
 20
37.09742538907619
 10
221.5795867598473
 20
37.24142538907617
 10
222.1908867598473
 20
37.35042538907618
 10
222.8125867598474
 20
37.42642538907617
 10
223.4407867598473
 20
37.46642538907619
 10
224.0714867598474
 20
37.47242538907619
 10
224.7008867598474
 20
37.44242538907619
 10
225.3249867598474
 20
37.3774253890762
 10
225.9399867598474
 20
37.27842538907621
 10
226.5419867598474
 20
37.14542538907617
 10
227.1271867598473
 20
36.97842538907619
 10
227.6920867598474
 20
36.78042538907619
 10
228.2331867598474
 20
36.55042538907617
 10
228.7469867598474
 20
36.29242538907619
 10
229.2302867598474
 20
36.00542538907618
 10
229.6802867598474
 20
35.6934253890762
 10
230.0939867598474
 20
35.35642538907618
 10
230.4688867598474
 20
34.99742538907617
 10
230.8026867598473
 20
34.61942538907619
 10
231.0932867598474
 20
34.2234253890762
 10
231.3388867598474
 20
33.81242538907617
 10
231.5378867598474
 20
33.38942538907617
 10
231.6890867598473
 20
32.95642538907618
 10
231.7464867598474
 20
32.73642538907619
 10
231.7916867598473
 20
32.51542538907619
 10
231.8243867598474
 20
32.29442538907618
 10
231.8447867598473
 20
32.07142538907618
 10
231.8527867598473
 20
31.8484253890762
  0
LWPOLYLINE
  5
50D
330
B4C
100
AcDbEntity
  8
0
100
AcDbPolyline
 90
       33
 70
     0
 43
0.0
 10
216.1071867598474
 20
31.81742538907619
 10
216.2556867598474
 20
32.17542538907618
 10
216.4371867598473
 20
32.52542538907618
 10
216.6509867598473
 20
32.86542538907618
 10
216.8959867598474
 20
33.19542538907618
 10
217.1711867598474
 20
33.51342538907619
 10
217.4753867598474
 20
33.8184253890762
 10
217.8072867598474
 20
34.10742538907618
 10
218.1653867598474
 20
34.38142538907619
 10
218.5482867598474
 20
34.63742538907619
 10
218.9540867598473
 20
34.87542538907618
 10
219.3812867598473
 20
35.09342538907617
 10
219.8278867598474
 20
35.29142538907618
 10
220.7713867598473
 20
35.6234253890762
 10
221.7683867598474
 20
35.86442538907619
 10
222.8015867598474
 20
36.01142538907618
 10
223.8529867598473
 20
36.06042538907619
 10
224.9044867598474
 20
36.01142538907618
 10
225.9375867598474
 20
35.86442538907619
 10
226.9346867598474
 20
35.6234253890762
 10
227.8781867598473
 20
35.29142538907618
 10
228.3247867598474
 20
35.09342538907617
 10
228.7518867598474
 20
34.87542538907618
 10
229.1577867598473
 20
34.63742538907619
 10
229.5406867598473
 20
34.38142538907619
 10
229.8987867598473
 20
34.10742538907618
 10
230.2306867598474
 20
33.8184253890762
 10
230.5348867598473
 20
33.51342538907619
 10
230.8100867598473
 20
33.19542538907618
 10
231.0550867598474
 20
32.86542538907618
 10
231.2687867598473
 20
32.52542538907618
 10
231.4502867598474
 20
32.17542538907618
 10
231.5988867598473
 20
31.81742538907619
  0
LINE
  5
530
330
B4C
100
AcDbEntity
  8
0
 62
     1
100
AcDbLine
 10
230.2537867598474
 20
31.81742538907619
 30
0.0
 11
218.1482867598473
 21
31.81742538907619
 31
0.0
  0
LINE
  5
531
330
B4C
100
AcDbEntity
  8
0
100
AcDbLine
 10
226.1029867598473
 20
26.22942538907617
 30
0.0
 11
221.6029867598473
 21
26.22942538907617
 31
0.0
  0
LINE
  5
532
330
B4C
100
AcDbEntity
  8
0
100
AcDbLine
 10
221.6029867598473
 20
26.22942538907617
 30
0.0
 11
219.3529867598473
 21
23.33242538907619
 31
0.0
  0
LINE
  5
533
330
B4C
100
AcDbEntity
  8
0
100
AcDbLine
 10
215.8529867598474
 20
31.84442538907618
 30
0.0
 11
215.8529867598474
 21
23.31942538907617
 31
0.0
  0
LINE
  5
534
330
B4C
100
AcDbEntity
  8
0
100
AcDbLine
 10
228.3529867598474
 20
23.33242538907619
 30
0.0
 11
226.1029867598473
 21
26.22942538907617
 31
0.0
  0
LINE
  5
535
330
B4C
100
AcDbEntity
  8
0
100
AcDbLine
 10
231.8529867598473
 20
31.81742538907619
 30
0.0
 11
231.8529867598473
 21
23.33242538907619
 31
0.0
  0
LWPOLYLINE
  5
536
330
B4C
100
AcDbEntity
  8
0
100
AcDbPolyline
 90
       46
 70
     0
 43
0.0
 10
206.8517867598473
 20
71.52142538907617
 10
206.8507867598474
 20
71.29842538907618
 10
206.8387867598473
 20
71.07542538907617
 10
206.8127867598474
 20
70.85342538907619
 10
206.7757867598474
 20
70.63142538907619
 10
206.7257867598474
 20
70.41142538907618
 10
206.5897867598474
 20
69.97542538907618
 10
206.4047867598473
 20
69.54942538907616
 10
206.1737867598473
 20
69.13442538907617
 10
205.8967867598473
 20
68.73342538907619
 10
205.5757867598473
 20
68.34942538907617
 10
205.2137867598474
 20
67.98442538907616
 10
204.8117867598473
 20
67.64042538907617
 10
204.3717867598473
 20
67.32042538907617
 10
203.8987867598474
 20
67.02542538907619
 10
203.3937867598474
 20
66.7584253890762
 10
202.8607867598474
 20
66.51942538907618
 10
202.3027867598473
 20
66.31142538907619
 10
201.7237867598474
 20
66.13542538907617
 10
201.1267867598473
 20
65.99142538907617
 10
200.5147867598473
 20
65.88142538907618
 10
199.8937867598473
 20
65.80642538907619
 10
199.2647867598473
 20
65.76642538907617
 10
198.6347867598474
 20
65.76042538907618
 10
198.0047867598474
 20
65.79042538907618
 10
197.3807867598473
 20
65.85542538907617
 10
196.7657867598473
 20
65.95442538907616
 10
196.1637867598474
 20
66.08742538907617
 10
195.5787867598473
 20
66.25442538907617
 10
195.0137867598473
 20
66.45242538907618
 10
194.4727867598473
 20
66.6814253890762
 10
193.9587867598473
 20
66.94042538907618
 10
193.4757867598474
 20
67.22742538907619
 10
193.0257867598473
 20
67.53942538907617
 10
192.6117867598473
 20
67.87642538907618
 10
192.2367867598473
 20
68.23542538907616
 10
191.9037867598474
 20
68.61342538907618
 10
191.6127867598473
 20
69.00942538907617
 10
191.3667867598473
 20
69.42042538907617
 10
191.1677867598473
 20
69.8434253890762
 10
191.0167867598473
 20
70.2764253890762
 10
190.9597867598473
 20
70.49642538907619
 10
190.9147867598473
 20
70.71642538907619
 10
190.8817867598473
 20
70.9384253890762
 10
190.8607867598473
 20
71.16142538907618
 10
190.8527867598473
 20
71.38442538907617
  0
LWPOLYLINE
  5
566
330
B4C
100
AcDbEntity
  8
0
100
AcDbPolyline
 90
       33
 70
     0
 43
0.0
 10
206.5987867598474
 20
71.41542538907618
 10
206.4507867598473
 20
71.0574253890762
 10
206.2687867598473
 20
70.70742538907618
 10
206.0547867598474
 20
70.36742538907617
 10
205.8097867598474
 20
70.03642538907619
 10
205.5347867598473
 20
69.71942538907618
 10
205.2307867598474
 20
69.41442538907617
 10
204.8987867598473
 20
69.12442538907618
 10
204.5407867598474
 20
68.85142538907619
 10
204.1577867598473
 20
68.59542538907618
 10
203.7517867598473
 20
68.35742538907618
 10
203.3247867598474
 20
68.13842538907619
 10
202.8777867598474
 20
67.94042538907618
 10
201.9347867598474
 20
67.60942538907617
 10
200.9377867598474
 20
67.36842538907618
 10
199.9047867598473
 20
67.22142538907618
 10
198.8527867598473
 20
67.17242538907618
 10
197.8017867598473
 20
67.22142538907618
 10
196.7687867598473
 20
67.36842538907618
 10
195.7717867598473
 20
67.60942538907617
 10
194.8277867598473
 20
67.94042538907618
 10
194.3807867598473
 20
68.13842538907619
 10
193.9537867598473
 20
68.35742538907618
 10
193.5477867598473
 20
68.59542538907618
 10
193.1657867598474
 20
68.85142538907619
 10
192.8067867598473
 20
69.12442538907618
 10
192.4757867598474
 20
69.41442538907617
 10
192.1707867598474
 20
69.71942538907618
 10
191.8957867598473
 20
70.03642538907619
 10
191.6507867598473
 20
70.36742538907617
 10
191.4367867598473
 20
70.70742538907618
 10
191.2557867598473
 20
71.0574253890762
 10
191.1067867598473
 20
71.41542538907618
  0
LINE
  5
589
330
B4C
100
AcDbEntity
  8
0
 62
     1
100
AcDbLine
 10
192.4517867598473
 20
71.41542538907618
 30
0.0
 11
204.5577867598474
 21
71.41542538907618
 31
0.0
  0
LINE
  5
58A
330
B4C
100
AcDbEntity
  8
0
100
AcDbLine
 10
171.3527867598473
 20
81.61642538907617
 30
0.0
 11
191.2297867598473
 21
81.61642538907617
 31
0.0
  0
LINE
  5
58B
330
B4C
100
AcDbEntity
  8
0
100
AcDbLine
 10
164.3527867598473
 20
86.61642538907617
 30
0.0
 11
196.3527867598473
 21
86.61642538907617
 31
0.0
  0
LINE
  5
58C
330
B4C
100
AcDbEntity
  8
0
100
AcDbLine
 10
171.3527867598473
 20
74.04242538907616
 30
0.0
 11
164.3527867598473
 21
74.04242538907616
 31
0.0
  0
LINE
  5
58D
330
B4C
100
AcDbEntity
  8
0
100
AcDbLine
 10
206.4757867598474
 20
81.61642538907617
 30
0.0
 11
226.3529867598474
 21
81.61642538907617
 31
0.0
  0
LWPOLYLINE
  5
58E
330
B4C
100
AcDbEntity
  8
0
100
AcDbPolyline
 90
       41
 70
     0
 43
0.0
 10
234.9399867598473
 20
86.61642538907617
 10
234.4121867598474
 20
87.07142538907618
 10
233.8471867598474
 20
87.5034253890762
 10
233.2466867598474
 20
87.91142538907619
 10
232.6130867598473
 20
88.29342538907619
 10
231.9484867598474
 20
88.64842538907618
 10
231.2551867598473
 20
88.97442538907617
 10
230.5357867598473
 20
89.27042538907619
 10
229.7927867598474
 20
89.53542538907621
 10
229.0286867598473
 20
89.7694253890762
 10
228.2462867598474
 20
89.97042538907621
 10
227.4483867598473
 20
90.13942538907617
 10
226.6377867598474
 20
90.27342538907618
 10
225.8173867598474
 20
90.37342538907621
 10
224.9899867598474
 20
90.4384253890762
 10
224.1584867598473
 20
90.4684253890762
 10
223.3259867598473
 20
90.46442538907617
 10
222.4953867598474
 20
90.42442538907616
 10
221.6694867598473
 20
90.34942538907618
 10
220.8513867598473
 20
90.2404253890762
 10
220.0438867598474
 20
90.09742538907616
 10
219.2498867598474
 20
89.9204253890762
 10
218.4720867598473
 20
89.71042538907619
 10
217.7133867598474
 20
89.4684253890762
 10
216.9763867598474
 20
89.19442538907617
 10
216.2636867598473
 20
88.8904253890762
 10
215.5777867598474
 20
88.5564253890762
 10
214.9211867598474
 20
88.19442538907617
 10
214.2961867598474
 20
87.80542538907619
 10
213.7049867598474
 20
87.39142538907618
 10
213.1496867598474
 20
86.95242538907619
 10
212.6321867598473
 20
86.49142538907616
 10
212.1543867598473
 20
86.00942538907617
 10
211.7178867598474
 20
85.5084253890762
 10
211.3243867598474
 20
84.98942538907618
 10
210.9751867598474
 20
84.45442538907617
 10
210.6714867598474
 20
83.90642538907618
 10
210.4144867598474
 20
83.34642538907619
 10
210.2048867598473
 20
82.77742538907617
 10
210.0436867598474
 20
82.19942538907616
 10
209.9311867598474
 20
81.61642538907617
  0
LINE
  5
5B9
330
B4C
100
AcDbEntity
  8
0
100
AcDbLine
 10
197.8527867598473
 20
95.13842538907619
 30
0.0
 11
197.8527867598473
 21
85.51342538907618
 31
0.0
  0
LINE
  5
5BA
330
B4C
100
AcDbEntity
  8
0
100
AcDbLine
 10
201.1027867598473
 20
82.79742538907617
 30
0.0
 11
196.6027867598473
 21
82.79742538907617
 31
0.0
  0
LINE
  5
5BB
330
B4C
100
AcDbEntity
  8
0
100
AcDbLine
 10
196.6027867598473
 20
77.00342538907619
 30
0.0
 11
201.1027867598473
 21
77.00342538907619
 31
0.0
  0
LWPOLYLINE
  5
5BC
330
B4C
100
AcDbEntity
  8
0
100
AcDbPolyline
 90
       91
 70
     0
 43
0.0
 10
198.8527867598473
 20
74.24342538907618
 10
198.2257867598474
 20
74.26142538907618
 10
197.6017867598473
 20
74.3134253890762
 10
196.9857867598473
 20
74.39942538907619
 10
196.3807867598473
 20
74.52042538907619
 10
195.7917867598473
 20
74.67442538907616
 10
195.2207867598474
 20
74.8604253890762
 10
194.6727867598473
 20
75.07742538907618
 10
194.1507867598473
 20
75.32442538907616
 10
193.6577867598473
 20
75.59942538907617
 10
193.1957867598473
 20
75.90042538907619
 10
192.7697867598473
 20
76.22642538907618
 10
192.3807867598473
 20
76.5754253890762
 10
192.0317867598473
 20
76.94442538907617
 10
191.7247867598473
 20
77.33242538907617
 10
191.4617867598473
 20
77.73542538907619
 10
191.2447867598473
 20
78.15242538907617
 10
191.0737867598473
 20
78.5804253890762
 10
191.0067867598473
 20
78.79742538907618
 10
190.9517867598473
 20
79.01542538907619
 10
190.9087867598474
 20
79.2354253890762
 10
190.8777867598473
 20
79.45642538907617
 10
190.8597867598473
 20
79.67842538907618
 10
190.8527867598473
 20
79.90042538907619
 10
190.8597867598473
 20
80.12242538907617
 10
190.8777867598473
 20
80.34442538907617
 10
190.9087867598474
 20
80.56542538907621
 10
190.9517867598473
 20
80.78542538907621
 10
191.0067867598473
 20
81.00442538907618
 10
191.1537867598473
 20
81.43642538907618
 10
191.3477867598473
 20
81.85842538907619
 10
191.5877867598473
 20
82.2694253890762
 10
191.8727867598473
 20
82.66442538907616
 10
192.2017867598473
 20
83.04342538907619
 10
192.5707867598473
 20
83.40242538907617
 10
192.9787867598473
 20
83.7404253890762
 10
193.4227867598473
 20
84.05442538907619
 10
193.9007867598473
 20
84.34342538907619
 10
194.4087867598474
 20
84.60442538907617
 10
194.9437867598473
 20
84.8364253890762
 10
195.5037867598473
 20
85.03842538907619
 10
196.0837867598473
 20
85.20842538907619
 10
196.6817867598473
 20
85.3454253890762
 10
197.2927867598473
 20
85.44942538907617
 10
197.9127867598473
 20
85.51842538907619
 10
198.5387867598474
 20
85.55342538907618
 10
199.1667867598473
 20
85.55342538907618
 10
199.7937867598473
 20
85.51842538907619
 10
200.4137867598474
 20
85.44942538907617
 10
201.0247867598474
 20
85.3454253890762
 10
201.6217867598473
 20
85.20842538907619
 10
202.2017867598473
 20
85.03842538907619
 10
202.7617867598474
 20
84.8364253890762
 10
203.2977867598474
 20
84.60442538907617
 10
203.8057867598474
 20
84.34342538907619
 10
204.2837867598474
 20
84.05442538907619
 10
204.7277867598473
 20
83.7404253890762
 10
205.1357867598473
 20
83.40242538907617
 10
205.5047867598474
 20
83.04342538907619
 10
205.8327867598474
 20
82.66442538907616
 10
206.1177867598473
 20
82.2694253890762
 10
206.3587867598474
 20
81.85842538907619
 10
206.5527867598473
 20
81.43642538907618
 10
206.6987867598473
 20
81.00442538907618
 10
206.7547867598474
 20
80.78542538907621
 10
206.7977867598473
 20
80.56542538907621
 10
206.8277867598474
 20
80.34442538907617
 10
206.8467867598474
 20
80.12242538907617
 10
206.8527867598473
 20
79.90042538907619
 10
206.8467867598474
 20
79.67842538907618
 10
206.8277867598474
 20
79.45642538907617
 10
206.7977867598473
 20
79.2354253890762
 10
206.7547867598474
 20
79.01542538907619
 10
206.6987867598473
 20
78.79742538907618
 10
206.5527867598473
 20
78.36542538907619
 10
206.3587867598474
 20
77.94242538907616
 10
206.1177867598473
 20
77.53242538907617
 10
205.8327867598474
 20
77.13642538907618
 10
205.5047867598474
 20
76.75742538907616
 10
205.1357867598473
 20
76.39842538907618
 10
204.7277867598473
 20
76.06042538907619
 10
204.2837867598474
 20
75.74642538907619
 10
203.8057867598474
 20
75.45842538907618
 10
203.2977867598474
 20
75.19742538907616
 10
202.7617867598474
 20
74.96442538907619
 10
202.2017867598473
 20
74.76342538907619
 10
201.6217867598473
 20
74.5934253890762
 10
201.0247867598474
 20
74.45642538907617
 10
200.4137867598474
 20
74.35242538907615
 10
199.7937867598473
 20
74.28242538907617
 10
198.8527867598473
 20
74.24342538907618
  0
LINE
  5
619
330
B4C
100
AcDbEntity
  8
0
100
AcDbLine
 10
196.6027867598473
 20
82.79742538907617
 30
0.0
 11
194.3527867598473
 21
79.90042538907619
 31
0.0
  0
LINE
  5
61A
330
B4C
100
AcDbEntity
  8
0
100
AcDbLine
 10
196.3527867598473
 20
86.61642538907617
 30
0.0
 11
196.3527867598473
 21
85.27442538907619
 31
0.0
  0
LINE
  5
61B
330
B4C
100
AcDbEntity
  8
0
100
AcDbLine
 10
194.3527867598473
 20
79.90042538907619
 30
0.0
 11
196.6027867598473
 21
77.00342538907619
 31
0.0
  0
LINE
  5
61C
330
B4C
100
AcDbEntity
  8
0
 62
     1
100
AcDbLine
 10
196.6027867598473
 20
82.79742538907617
 30
0.0
 11
196.6027867598473
 21
77.00342538907619
 31
0.0
  0
LINE
  5
61D
330
B4C
100
AcDbEntity
  8
0
100
AcDbLine
 10
203.3527867598473
 20
79.90042538907619
 30
0.0
 11
201.1027867598473
 21
82.79742538907617
 31
0.0
  0
LINE
  5
61E
330
B4C
100
AcDbEntity
  8
0
100
AcDbLine
 10
201.1027867598473
 20
77.00342538907619
 30
0.0
 11
203.3527867598473
 21
79.90042538907619
 31
0.0
  0
LINE
  5
61F
330
B4C
100
AcDbEntity
  8
0
 62
     1
100
AcDbLine
 10
201.1027867598473
 20
82.79742538907617
 30
0.0
 11
201.1027867598473
 21
77.00342538907619
 31
0.0
  0
LINE
  5
620
330
B4C
100
AcDbEntity
  8
0
100
AcDbLine
 10
256.8531867598474
 20
86.61642538907617
 30
0.0
 11
256.8531867598474
 21
16.61842538907619
 31
0.0
  0
LINE
  5
621
330
B4C
100
AcDbEntity
  8
0
100
AcDbLine
 10
260.8530867598474
 20
21.61642538907619
 30
0.0
 11
260.8530867598474
 21
81.61642538907617
 31
0.0
  0
LINE
  5
622
330
B4C
100
AcDbEntity
  8
0
100
AcDbLine
 10
251.3529867598474
 20
48.20142538907617
 30
0.0
 11
251.3529867598474
 21
16.61642538907618
 31
0.0
  0
LINE
  5
623
330
B4C
100
AcDbEntity
  8
0
100
AcDbLine
 10
256.8531867598474
 20
21.61642538907619
 30
0.0
 11
260.8530867598474
 21
21.61642538907619
 31
0.0
  0
LINE
  5
624
330
B4C
100
AcDbEntity
  8
0
100
AcDbLine
 10
256.8531867598474
 20
44.19042538907618
 30
0.0
 11
251.3529867598474
 21
44.19042538907618
 31
0.0
  0
LINE
  5
625
330
B4C
100
AcDbEntity
  8
0
100
AcDbLine
 10
267.8526867598474
 20
46.61642538907616
 30
0.0
 11
267.8526867598474
 21
56.61642538907617
 31
0.0
  0
LINE
  5
626
330
B4C
100
AcDbEntity
  8
0
100
AcDbLine
 10
261.8529867598474
 20
46.61642538907616
 30
0.0
 11
261.8529867598474
 21
56.61642538907617
 31
0.0
  0
LINE
  5
627
330
B4C
100
AcDbEntity
  8
0
100
AcDbLine
 10
260.8528867598474
 20
46.61642538907616
 30
0.0
 11
267.8526867598474
 21
46.61642538907616
 31
0.0
  0
LINE
  5
628
330
B4C
100
AcDbEntity
  8
0
100
AcDbLine
 10
267.8526867598474
 20
56.61642538907617
 30
0.0
 11
260.8528867598474
 21
56.61642538907617
 31
0.0
  0
LINE
  5
629
330
B4C
100
AcDbEntity
  8
0
100
AcDbLine
 10
260.8530867598474
 20
81.61642538907617
 30
0.0
 11
256.8531867598474
 21
81.61642538907617
 31
0.0
  0
LINE
  5
62A
330
B4C
100
AcDbEntity
  8
0
100
AcDbLine
 10
249.8529867598473
 20
81.6104253890762
 30
0.0
 11
249.8529867598473
 21
95.13842538907619
 31
0.0
  0
LWPOLYLINE
  5
62B
330
B4C
100
AcDbEntity
  8
0
100
AcDbPolyline
 90
       57
 70
     0
 43
0.0
 10
249.8528867598474
 20
95.13842538907619
 10
249.8328867598473
 20
95.85942538907616
 10
249.7727867598474
 20
96.5804253890762
 10
249.6726867598474
 20
97.29942538907616
 10
249.5327867598474
 20
98.01442538907616
 10
249.3532867598474
 20
98.72442538907618
 10
249.1344867598474
 20
99.43042538907619
 10
248.8767867598474
 20
100.1284253890762
 10
248.5803867598474
 20
100.8194253890762
 10
248.2458867598474
 20
101.5014253890762
 10
247.8737867598474
 20
102.1734253890762
 10
247.4645867598474
 20
102.8354253890762
 10
247.0190867598474
 20
103.4844253890761
 10
246.5377867598474
 20
104.1214253890762
 10
246.0215867598474
 20
104.7444253890762
 10
245.4710867598474
 20
105.3524253890761
 10
244.8873867598473
 20
105.9444253890762
 10
243.6234867598474
 20
107.0784253890762
 10
242.2376867598473
 20
108.1384253890762
 10
240.7385867598474
 20
109.1184253890762
 10
239.1352867598474
 20
110.0114253890762
 10
237.4378867598474
 20
110.8134253890762
 10
235.6566867598473
 20
111.5194253890762
 10
233.8026867598474
 20
112.1234253890762
 10
231.8872867598474
 20
112.6234253890762
 10
229.9224867598474
 20
113.0144253890762
 10
227.9201867598473
 20
113.2964253890762
 10
225.8927867598473
 20
113.4664253890762
 10
223.8528867598474
 20
113.5224253890761
 10
221.8129867598474
 20
113.4664253890762
 10
219.7855867598474
 20
113.2964253890762
 10
217.7832867598473
 20
113.0144253890762
 10
215.8184867598474
 20
112.6234253890762
 10
213.9030867598473
 20
112.1234253890762
 10
212.0490867598473
 20
111.5194253890762
 10
210.2678867598473
 20
110.8134253890762
 10
208.5704867598474
 20
110.0114253890762
 10
206.9667867598474
 20
109.1184253890762
 10
205.4677867598473
 20
108.1384253890762
 10
204.0827867598474
 20
107.0784253890762
 10
202.8187867598473
 20
105.9444253890762
 10
202.2347867598474
 20
105.3524253890761
 10
201.6837867598474
 20
104.7444253890762
 10
201.1677867598474
 20
104.1214253890762
 10
200.6867867598473
 20
103.4844253890761
 10
200.2407867598474
 20
102.8354253890762
 10
199.8317867598473
 20
102.1734253890762
 10
199.4597867598473
 20
101.5014253890762
 10
199.1257867598473
 20
100.8194253890762
 10
198.8287867598473
 20
100.1284253890762
 10
198.5707867598473
 20
99.43042538907619
 10
198.3527867598473
 20
98.72442538907618
 10
198.1727867598473
 20
98.01442538907616
 10
198.0327867598473
 20
97.29942538907616
 10
197.9327867598474
 20
96.5804253890762
 10
197.8727867598474
 20
95.85942538907616
 10
197.8527867598473
 20
95.13842538907619
  0
LWPOLYLINE
  5
666
330
B4C
100
AcDbEntity
  8
0
100
AcDbPolyline
 90
       57
 70
     0
 43
0.0
 10
79.85278675984736
 20
95.13842538907619
 10
79.83278675984738
 20
95.85942538907616
 10
79.77278675984738
 20
96.5804253890762
 10
79.67278675984738
 20
97.29942538907616
 10
79.53278675984737
 20
98.01442538907616
 10
79.35378675984736
 20
98.72442538907618
 10
79.13478675984734
 20
99.43042538907619
 10
78.87678675984736
 20
100.1284253890762
 10
78.58078675984737
 20
100.8194253890762
 10
78.24578675984736
 20
101.5014253890762
 10
77.87378675984735
 20
102.1734253890762
 10
77.46478675984736
 20
102.8354253890762
 10
77.01878675984736
 20
103.4844253890761
 10
76.53778675984736
 20
104.1214253890762
 10
76.02178675984735
 20
104.7444253890762
 10
75.47078675984735
 20
105.3524253890761
 10
74.88778675984736
 20
105.9444253890762
 10
73.62378675984735
 20
107.0784253890762
 10
72.23778675984738
 20
108.1384253890762
 10
70.73878675984736
 20
109.1184253890762
 10
69.13578675984737
 20
110.0114253890762
 10
67.43778675984737
 20
110.8134253890762
 10
65.65678675984736
 20
111.5194253890762
 10
63.80278675984738
 20
112.1234253890762
 10
61.88778675984735
 20
112.6234253890762
 10
59.92278675984739
 20
113.0144253890762
 10
57.91978675984734
 20
113.2964253890762
 10
55.89278675984738
 20
113.4664253890762
 10
53.85278675984736
 20
113.5224253890761
 10
51.81278675984737
 20
113.4664253890762
 10
49.78578675984739
 20
113.2964253890762
 10
47.78378675984737
 20
113.0144253890762
 10
45.81878675984734
 20
112.6234253890762
 10
43.90278675984734
 20
112.1234253890762
 10
42.04878675984736
 20
111.5194253890762
 10
40.26778675984735
 20
110.8134253890762
 10
38.57078675984735
 20
110.0114253890762
 10
36.96678675984737
 20
109.1184253890762
 10
35.4677867598474
 20
108.1384253890762
 10
34.08278675984735
 20
107.0784253890762
 10
32.81878675984734
 20
105.9444253890762
 10
32.23478675984734
 20
105.3524253890761
 10
31.68378675984735
 20
104.7444253890762
 10
31.16778675984739
 20
104.1214253890762
 10
30.68678675984734
 20
103.4844253890761
 10
30.24078675984737
 20
102.8354253890762
 10
29.83178675984738
 20
102.1734253890762
 10
29.45978675984736
 20
101.5014253890762
 10
29.12578675984736
 20
100.8194253890762
 10
28.82878675984733
 20
100.1284253890762
 10
28.57078675984735
 20
99.43042538907619
 10
28.35278675984739
 20
98.72442538907618
 10
28.17278675984738
 20
98.01442538907616
 10
28.0327867598474
 20
97.29942538907616
 10
27.93278675984737
 20
96.5804253890762
 10
27.87278675984737
 20
95.85942538907616
 10
27.85278675984739
 20
95.13842538907619
  0
ENDBLK
  5
6A2
330
B4C
100
AcDbEntity
  8
0
  6
Continuous
100
AcDbBlockEnd
  0
BLOCK
  5
ACA
330
B4D
100
AcDbEntity
  8
0
  6
Continuous
100
AcDbBlockBegin
  2
A$CC303
 70
     0
 10
0.0
 20
0.0
 30
0.0
  3
A$CC303
  1

  0
LINE
  5
A6C
330
B4D
100
AcDbEntity
  8
0
100
AcDbLine
 10
38.82624405437077
 20
95.30677097609496
 30
0.0
 11
28.21964405437078
 21
84.69977097609492
 31
0.0
  0
LINE
  5
A6D
330
B4D
100
AcDbEntity
  8
0
100
AcDbLine
 10
31.57524405437078
 20
71.48677097609496
 30
0.0
 11
26.80684405437078
 21
71.48677097609496
 31
0.0
  0
LINE
  5
A6E
330
B4D
100
AcDbEntity
  8
0
100
AcDbLine
 10
26.80684405437078
 20
81.71877097609494
 30
0.0
 11
39.38054405437077
 21
81.71877097609494
 31
0.0
  0
LINE
  5
A6F
330
B4D
100
AcDbEntity
  8
0
100
AcDbLine
 10
26.80684405437078
 20
51.48677097609496
 30
0.0
 11
31.57524405437078
 21
51.48677097609496
 31
0.0
  0
LINE
  5
A70
330
B4D
100
AcDbEntity
  8
0
100
AcDbLine
 10
26.80684405437078
 20
41.71877097609493
 30
0.0
 11
39.38064405437078
 21
41.71877097609493
 31
0.0
  0
LINE
  5
A71
330
B4D
100
AcDbEntity
  8
0
100
AcDbLine
 10
15.23554405437077
 20
50.37977097609493
 30
0.0
 11
50.46784405437078
 21
15.14677097609492
 31
0.0
  0
LINE
  5
A72
330
B4D
100
AcDbEntity
  8
0
 62
     1
100
AcDbLine
 10
87.36514405437077
 20
87.27777097609495
 30
0.0
 11
10.99614405437077
 21
10.90777097609495
 31
0.0
  0
LINE
  5
A73
330
B4D
100
AcDbEntity
  8
0
100
AcDbLine
 10
35.90154405437078
 20
0.5807709760949536
 30
0.0
 11
0.6691440543707757
 21
35.81377097609496
 31
0.0
  0
LINE
  5
A74
330
B4D
100
AcDbEntity
  8
0
 62
     1
100
AcDbLine
 10
19.86464405437078
 20
61.71877097609493
 30
0.0
 11
100.9601440543707
 21
61.71877097609493
 31
0.0
  0
LINE
  5
A75
330
B4D
100
AcDbEntity
  8
0
100
AcDbLine
 10
8.663544054370774
 20
27.81877097609495
 30
0.0
 11
5.669144054370775
 21
24.82477097609493
 31
0.0
  0
LINE
  5
A76
330
B4D
100
AcDbEntity
  8
0
100
AcDbLine
 10
22.70404405437078
 20
6.707770976094963
 30
0.0
 11
7.147744054370775
 21
22.26377097609494
 31
0.0
  0
LINE
  5
A77
330
B4D
100
AcDbEntity
  8
0
100
AcDbLine
 10
5.669144054370775
 20
24.82477097609493
 30
0.0
 11
7.147744054370775
 21
22.26377097609494
 31
0.0
  0
LINE
  5
A78
330
B4D
100
AcDbEntity
  8
0
100
AcDbLine
 10
20.71434405437078
 20
9.779770976094937
 30
0.0
 11
18.15364405437077
 21
11.25777097609494
 31
0.0
  0
LINE
  5
A79
330
B4D
100
AcDbEntity
  8
0
100
AcDbLine
 10
28.25944405437077
 20
8.222770976094949
 30
0.0
 11
25.26514405437078
 21
5.228770976094949
 31
0.0
  0
LINE
  5
A7A
330
B4D
100
AcDbEntity
  8
0
100
AcDbLine
 10
20.71434405437078
 20
9.779770976094937
 30
0.0
 11
22.19264405437078
 21
7.21877097609493
 31
0.0
  0
LINE
  5
A7B
330
B4D
100
AcDbEntity
  8
0
100
AcDbLine
 10
23.70874405437078
 20
12.77377097609494
 30
0.0
 11
20.71434405437078
 21
9.779770976094937
 31
0.0
  0
LINE
  5
A7C
330
B4D
100
AcDbEntity
  8
0
100
AcDbLine
 10
25.26514405437078
 20
5.228770976094949
 30
0.0
 11
22.70404405437078
 21
6.707770976094963
 31
0.0
  0
LINE
  5
A7D
330
B4D
100
AcDbEntity
  8
0
100
AcDbLine
 10
10.21994405437077
 20
20.27377097609494
 30
0.0
 11
7.659244054370773
 21
21.75277097609498
 31
0.0
  0
LINE
  5
A7E
330
B4D
100
AcDbEntity
  8
0
100
AcDbLine
 10
10.21994405437077
 20
20.27377097609494
 30
0.0
 11
11.69854405437077
 21
17.71277097609496
 31
0.0
  0
LINE
  5
A7F
330
B4D
100
AcDbEntity
  8
0
100
AcDbLine
 10
13.21434405437077
 20
23.26777097609497
 30
0.0
 11
10.21994405437077
 21
20.27377097609494
 31
0.0
  0
ARC
  5
A80
330
B4D
100
AcDbEntity
  8
0
100
AcDbCircle
 10
360.7381440543708
 20
-309.687629023905
 30
0.0
 40
500.0
100
AcDbArc
 50
133.932
 51
136.068
  0
ARC
  5
A81
330
B4D
100
AcDbEntity
  8
0
100
AcDbCircle
 10
1.376244054370776
 20
36.52077097609495
 30
0.0
 40
1.0
100
AcDbArc
 50
136.067
 51
225.0
  0
LINE
  5
A82
330
B4D
100
AcDbEntity
  8
0
100
AcDbLine
 10
26.80684405437078
 20
51.48677097609496
 30
0.0
 11
26.80684405437078
 21
41.71877097609493
 31
0.0
  0
LINE
  5
A83
330
B4D
100
AcDbEntity
  8
0
100
AcDbLine
 10
26.80684405437078
 20
42.71877097609492
 30
0.0
 11
26.80684405437078
 21
41.71877097609493
 31
0.0
  0
LINE
  5
A84
330
B4D
100
AcDbEntity
  8
0
100
AcDbLine
 10
26.80684405437078
 20
46.51677097609493
 30
0.0
 11
22.95254405437078
 21
42.66277097609495
 31
0.0
  0
ARC
  5
A85
330
B4D
100
AcDbEntity
  8
0
100
AcDbCircle
 10
14.52834405437078
 20
49.67277097609493
 30
0.0
 40
1.0
100
AcDbArc
 50
44.9998
 51
133.932
  0
LINE
  5
A86
330
B4D
100
AcDbEntity
  8
0
100
AcDbLine
 10
28.21964405437078
 20
83.99277097609493
 30
0.0
 11
30.49334405437078
 21
81.71877097609494
 31
0.0
  0
LINE
  5
A87
330
B4D
100
AcDbEntity
  8
0
100
AcDbLine
 10
26.80684405437078
 20
80.71877097609492
 30
0.0
 11
26.80684405437078
 21
81.71877097609494
 31
0.0
  0
LINE
  5
A88
330
B4D
100
AcDbEntity
  8
0
100
AcDbLine
 10
26.80684405437078
 20
81.71877097609494
 30
0.0
 11
26.80684405437078
 21
71.48677097609496
 31
0.0
  0
LINE
  5
A89
330
B4D
100
AcDbEntity
  8
0
100
AcDbLine
 10
26.80684405437078
 20
71.48677097609496
 30
0.0
 11
26.80684405437078
 21
72.71877097609493
 31
0.0
  0
ARC
  5
A8A
330
B4D
100
AcDbEntity
  8
0
100
AcDbCircle
 10
28.57314405437077
 20
84.34677097609492
 30
0.0
 40
0.5
100
AcDbArc
 50
135.0
 51
225.0
  0
LINE
  5
A8B
330
B4D
100
AcDbEntity
  8
0
100
AcDbLine
 10
96.80714405437079
 20
54.29277097609494
 30
0.0
 11
96.80714405437079
 21
69.14477097609491
 31
0.0
  0
LINE
  5
A8C
330
B4D
100
AcDbEntity
  8
0
100
AcDbLine
 10
41.80684405437077
 20
39.29277097609494
 30
0.0
 11
41.80684405437077
 21
84.14477097609491
 31
0.0
  0
LINE
  5
A8D
330
B4D
100
AcDbEntity
  8
0
100
AcDbLine
 10
81.80714405437077
 20
39.29277097609494
 30
0.0
 11
81.80714405437077
 21
84.14577097609495
 31
0.0
  0
LINE
  5
A8E
330
B4D
100
AcDbEntity
  8
0
 62
     1
100
AcDbLine
 10
61.80684405437077
 20
102.4897709760949
 30
0.0
 11
61.80684405437077
 21
5.267770976094965
 31
0.0
  0
CIRCLE
  5
A8F
330
B4D
100
AcDbEntity
  8
0
100
AcDbCircle
 10
61.80684405437077
 20
61.71877097609493
 30
0.0
 40
15.0
  0
LINE
  5
A90
330
B4D
100
AcDbEntity
  8
0
100
AcDbLine
 10
31.57524405437078
 20
51.48677097609496
 30
0.0
 11
31.57524405437078
 21
71.48677097609496
 31
0.0
  0
LINE
  5
A91
330
B4D
100
AcDbEntity
  8
0
 62
     1
100
AcDbLine
 10
35.09584405437077
 20
88.42977097609495
 30
0.0
 11
111.7531440543707
 21
11.77277097609496
 31
0.0
  0
LINE
  5
A92
330
B4D
100
AcDbEntity
  8
0
100
AcDbLine
 10
73.12064405437077
 20
30.60577097609493
 30
0.0
 11
80.86304405437076
 21
22.86477097609495
 31
0.0
  0
ARC
  5
A93
330
B4D
100
AcDbEntity
  8
0
100
AcDbCircle
 10
433.2141440543707
 20
360.648770976095
 30
0.0
 40
500.0
100
AcDbArc
 50
223.932
 51
226.068
  0
LINE
  5
A94
330
B4D
100
AcDbEntity
  8
0
100
AcDbLine
 10
81.80714405437077
 20
44.71877097609493
 30
0.0
 11
41.80684405437077
 21
44.71877097609493
 31
0.0
  0
LINE
  5
A95
330
B4D
100
AcDbEntity
  8
0
100
AcDbLine
 10
108.3781440543708
 20
50.37977097609493
 30
0.0
 11
73.1461440543708
 21
15.14677097609492
 31
0.0
  0
LINE
  5
A96
330
B4D
100
AcDbEntity
  8
0
100
AcDbLine
 10
96.80714405437079
 20
54.29277097609494
 30
0.0
 11
69.23324405437078
 21
26.71877097609493
 31
0.0
  0
LINE
  5
A97
330
B4D
100
AcDbEntity
  8
0
100
AcDbLine
 10
39.38064405437078
 20
41.71877097609493
 30
0.0
 11
54.38064405437077
 21
26.71877097609493
 31
0.0
  0
LINE
  5
A98
330
B4D
100
AcDbEntity
  8
0
100
AcDbLine
 10
51.16104405437077
 20
14.45377097609494
 30
0.0
 11
57.91514405437077
 21
21.20777097609496
 31
0.0
  0
LINE
  5
A99
330
B4D
100
AcDbEntity
  8
0
100
AcDbLine
 10
31.80684405437078
 20
21.34577097609494
 30
0.0
 11
31.80684405437078
 21
1.352770976094944
 31
0.0
  0
ARC
  5
A9A
330
B4D
100
AcDbEntity
  8
0
100
AcDbCircle
 10
-309.5998559456293
 20
360.648770976095
 30
0.0
 40
500.0
100
AcDbArc
 50
313.932
 51
316.0680000000001
  0
ARC
  5
A9B
330
B4D
100
AcDbEntity
  8
0
100
AcDbCircle
 10
36.60864405437078
 20
1.287770976094947
 30
0.0
 40
1.0
100
AcDbArc
 50
225.0
 51
313.9340000000001
  0
LINE
  5
A9C
330
B4D
100
AcDbEntity
  8
0
100
AcDbLine
 10
31.80684405437078
 20
1.352770976094944
 30
0.0
 11
38.11544405437078
 21
1.352770976094944
 31
0.0
  0
ARC
  5
A9D
330
B4D
100
AcDbEntity
  8
0
100
AcDbCircle
 10
49.76074405437077
 20
14.43977097609493
 30
0.0
 40
1.0
100
AcDbArc
 50
316.0680000000001
 51
44.9992
  0
LINE
  5
A9E
330
B4D
100
AcDbEntity
  8
0
100
AcDbLine
 10
50.49314405437076
 20
30.60677097609497
 30
0.0
 11
42.75104405437077
 21
22.86377097609497
 31
0.0
  0
LINE
  5
A9F
330
B4D
100
AcDbEntity
  8
0
100
AcDbLine
 10
72.45264405437076
 20
14.45377097609494
 30
0.0
 11
65.69854405437077
 21
21.20777097609496
 31
0.0
  0
ARC
  5
AA0
330
B4D
100
AcDbEntity
  8
0
100
AcDbCircle
 10
73.85314405437076
 20
14.43977097609493
 30
0.0
 40
1.0
100
AcDbArc
 50
135.001
 51
223.932
  0
LINE
  5
AA1
330
B4D
100
AcDbEntity
  8
0
100
AcDbLine
 10
57.91514405437077
 20
21.20777097609496
 30
0.0
 11
65.69854405437077
 21
21.20777097609496
 31
0.0
  0
LINE
  5
AA2
330
B4D
100
AcDbEntity
  8
0
100
AcDbLine
 10
69.23324405437078
 20
26.71877097609493
 30
0.0
 11
54.38064405437077
 21
26.71877097609493
 31
0.0
  0
LINE
  5
AA3
330
B4D
100
AcDbEntity
  8
0
 62
     1
100
AcDbLine
 10
69.06514405437078
 20
41.71877097609493
 30
0.0
 11
55.00564405437077
 21
41.71877097609493
 31
0.0
  0
CIRCLE
  5
AA4
330
B4D
100
AcDbEntity
  8
0
100
AcDbCircle
 10
61.80684405437077
 20
41.71877097609493
 30
0.0
 40
0.5
  0
LINE
  5
AA5
330
B4D
100
AcDbEntity
  8
0
100
AcDbLine
 10
62.04544405437077
 20
42.15877097609492
 30
0.0
 11
61.36734405437077
 21
41.48077097609493
 31
0.0
  0
LINE
  5
AA6
330
B4D
100
AcDbEntity
  8
0
100
AcDbLine
 10
87.71214405437076
 20
0.5807709760949536
 30
0.0
 11
122.9451440543707
 21
35.81377097609496
 31
0.0
  0
LINE
  5
AA7
330
B4D
100
AcDbEntity
  8
0
100
AcDbLine
 10
98.34914405437078
 20
5.228770976094949
 30
0.0
 11
100.9101440543708
 21
6.707770976094963
 31
0.0
  0
LINE
  5
AA8
330
B4D
100
AcDbEntity
  8
0
100
AcDbLine
 10
99.90514405437076
 20
12.77377097609494
 30
0.0
 11
102.8991440543707
 21
9.779770976094937
 31
0.0
  0
LINE
  5
AA9
330
B4D
100
AcDbEntity
  8
0
100
AcDbLine
 10
91.80714405437077
 20
22.99977097609493
 30
0.0
 11
91.80714405437077
 21
1.352770976094944
 31
0.0
  0
LINE
  5
AAA
330
B4D
100
AcDbEntity
  8
0
100
AcDbLine
 10
85.49814405437079
 20
1.352770976094944
 30
0.0
 11
91.80714405437077
 21
1.352770976094944
 31
0.0
  0
ARC
  5
AAB
330
B4D
100
AcDbEntity
  8
0
100
AcDbCircle
 10
87.00514405437079
 20
1.287770976094947
 30
0.0
 40
1.0
100
AcDbArc
 50
226.066
 51
315.0
  0
LINE
  5
AAC
330
B4D
100
AcDbEntity
  8
0
100
AcDbLine
 10
95.35414405437078
 20
8.222770976094949
 30
0.0
 11
98.34914405437078
 21
5.228770976094949
 31
0.0
  0
LINE
  5
AAD
330
B4D
100
AcDbEntity
  8
0
100
AcDbLine
 10
100.9101440543708
 20
6.707770976094963
 30
0.0
 11
116.4661440543707
 21
22.26377097609494
 31
0.0
  0
LINE
  5
AAE
330
B4D
100
AcDbEntity
  8
0
100
AcDbLine
 10
102.8991440543707
 20
9.779770976094937
 30
0.0
 11
105.4601440543707
 21
11.25777097609494
 31
0.0
  0
LINE
  5
AAF
330
B4D
100
AcDbEntity
  8
0
100
AcDbLine
 10
102.8991440543707
 20
9.779770976094937
 30
0.0
 11
101.4211440543708
 21
7.21877097609493
 31
0.0
  0
LINE
  5
AB0
330
B4D
100
AcDbEntity
  8
0
100
AcDbLine
 10
110.3991440543707
 20
23.26777097609497
 30
0.0
 11
113.3941440543708
 21
20.27377097609494
 31
0.0
  0
LINE
  5
AB1
330
B4D
100
AcDbEntity
  8
0
100
AcDbLine
 10
113.3941440543708
 20
20.27377097609494
 30
0.0
 11
111.9151440543708
 21
17.71277097609496
 31
0.0
  0
LINE
  5
AB2
330
B4D
100
AcDbEntity
  8
0
100
AcDbLine
 10
113.3941440543708
 20
20.27377097609494
 30
0.0
 11
115.9551440543707
 21
21.75277097609498
 31
0.0
  0
LINE
  5
AB3
330
B4D
100
AcDbEntity
  8
0
100
AcDbLine
 10
117.9451440543707
 20
24.82477097609493
 30
0.0
 11
116.4661440543707
 21
22.26377097609494
 31
0.0
  0
LINE
  5
AB4
330
B4D
100
AcDbEntity
  8
0
100
AcDbLine
 10
114.9501440543708
 20
27.81877097609495
 30
0.0
 11
117.9451440543707
 21
24.82477097609493
 31
0.0
  0
LINE
  5
AB5
330
B4D
100
AcDbEntity
  8
0
100
AcDbLine
 10
92.91914405437077
 20
50.40477097609491
 30
0.0
 11
100.6611440543708
 21
42.66277097609495
 31
0.0
  0
ARC
  5
AB6
330
B4D
100
AcDbEntity
  8
0
100
AcDbCircle
 10
-237.1238559456293
 20
-309.687629023905
 30
0.0
 40
500.0
100
AcDbArc
 50
43.93199999999999
 51
46.06779999999999
  0
ARC
  5
AB7
330
B4D
100
AcDbEntity
  8
0
100
AcDbCircle
 10
122.2381440543707
 20
36.52077097609495
 30
0.0
 40
1.0
100
AcDbArc
 50
315.0
 51
43.9334
  0
ARC
  5
AB8
330
B4D
100
AcDbEntity
  8
0
100
AcDbCircle
 10
109.0851440543707
 20
49.67277097609493
 30
0.0
 40
1.0
100
AcDbArc
 50
46.06779999999999
 51
135.0
  0
LINE
  5
AB9
330
B4D
100
AcDbEntity
  8
0
100
AcDbLine
 10
64.57644405437078
 20
95.71877097609492
 30
0.0
 11
77.68584405437076
 21
82.60977097609496
 31
0.0
  0
LINE
  5
ABA
330
B4D
100
AcDbEntity
  8
0
100
AcDbLine
 10
41.80684405437077
 20
78.71877097609493
 30
0.0
 11
81.80714405437077
 21
78.71877097609493
 31
0.0
  0
LINE
  5
ABB
330
B4D
100
AcDbEntity
  8
0
100
AcDbLine
 10
69.23324405437078
 20
96.71877097609494
 30
0.0
 11
96.80714405437079
 21
69.14477097609491
 31
0.0
  0
LINE
  5
ABC
330
B4D
100
AcDbEntity
  8
0
100
AcDbLine
 10
40.31804405437077
 20
76.99977097609494
 30
0.0
 11
59.03714405437078
 21
95.71877097609492
 31
0.0
  0
LINE
  5
ABD
330
B4D
100
AcDbEntity
  8
0
100
AcDbLine
 10
39.38054405437077
 20
81.71877097609494
 30
0.0
 11
54.38034405437077
 21
96.71877097609494
 31
0.0
  0
LINE
  5
ABE
330
B4D
100
AcDbEntity
  8
0
100
AcDbLine
 10
39.53334405437077
 20
95.30677097609496
 30
0.0
 11
46.25084405437077
 21
88.58877097609493
 31
0.0
  0
ARC
  5
ABF
330
B4D
100
AcDbEntity
  8
0
100
AcDbCircle
 10
39.17974405437077
 20
94.95277097609497
 30
0.0
 40
0.5
100
AcDbArc
 50
44.99989999999999
 51
135.0
  0
LINE
  5
AC0
330
B4D
100
AcDbEntity
  8
0
 62
     1
100
AcDbLine
 10
54.05254405437077
 20
81.71877097609494
 30
0.0
 11
68.11204405437077
 21
81.71877097609494
 31
0.0
  0
CIRCLE
  5
AC1
330
B4D
100
AcDbEntity
  8
0
100
AcDbCircle
 10
61.80684405437077
 20
81.71877097609494
 30
0.0
 40
0.5
  0
LINE
  5
AC2
330
B4D
100
AcDbEntity
  8
0
100
AcDbLine
 10
62.04544405437077
 20
81.27977097609491
 30
0.0
 11
61.36734405437077
 21
81.95677097609493
 31
0.0
  0
LINE
  5
AC3
330
B4D
100
AcDbEntity
  8
0
100
AcDbLine
 10
54.38034405437077
 20
96.71877097609494
 30
0.0
 11
69.23324405437078
 21
96.71877097609494
 31
0.0
  0
LINE
  5
AC4
330
B4D
100
AcDbEntity
  8
0
100
AcDbLine
 10
59.03714405437078
 20
95.71877097609492
 30
0.0
 11
64.57644405437078
 21
95.71877097609492
 31
0.0
  0
LINE
  5
AC5
330
B4D
100
AcDbEntity
  8
0
100
AcDbLine
 10
95.39414405437076
 20
83.99277097609493
 30
0.0
 11
88.67714405437075
 21
77.27477097609491
 31
0.0
  0
LINE
  5
AC6
330
B4D
100
AcDbEntity
  8
0
100
AcDbLine
 10
95.39414405437076
 20
84.69977097609492
 30
0.0
 11
84.78814405437077
 21
95.30577097609493
 31
0.0
  0
ARC
  5
AC7
330
B4D
100
AcDbEntity
  8
0
100
AcDbCircle
 10
84.43414405437076
 20
94.95277097609497
 30
0.0
 40
0.5
100
AcDbArc
 50
45.0
 51
135.0
  0
LINE
  5
AC8
330
B4D
100
AcDbEntity
  8
0
100
AcDbLine
 10
84.08014405437077
 20
95.30577097609493
 30
0.0
 11
77.36324405437077
 21
88.58877097609493
 31
0.0
  0
ARC
  5
AC9
330
B4D
100
AcDbEntity
  8
0
100
AcDbCircle
 10
95.04114405437078
 20
84.34577097609494
 30
0.0
 40
0.5
100
AcDbArc
 50
315.0
 51
45.0
  0
ENDBLK
  5
ACB
330
B4D
100
AcDbEntity
  8
0
  6
Continuous
100
AcDbBlockEnd
  0
ENDSEC
  0
SECTION
  2
ENTITIES
  0
INSERT
  5
1D
330
B47
100
AcDbEntity
  8
0
  6
Continuous
100
AcDbBlockReference
  2
A$CC005
 10
-9.85278675984739
 20
-228.2634253890762
 30
0.0
  0
INSERT
  5
6A3
330
B47
100
AcDbEntity
  8
0
  6
Continuous
100
AcDbBlockReference
  2
A$CB182
 10
-11.60148530540857
 20
-403.9884404582513
 30
0.0
  0
INSERT
  5
A6A
330
B47
100
AcDbEntity
  8
0
  6
Continuous
100
AcDbBlockReference
  2
A$CC303
 10
288.0242034734908
 20
-86.7187709760949
 30
0.0
  0
ENDSEC
  0
SECTION
  2
OBJECTS
  0
DICTIONARY
  5
ADF
330
0
100
AcDbDictionary
281
     1
  3
ACAD_COLOR
350
B3D
  3
ACAD_GROUP
350
AE0
  3
ACAD_LAYOUT
350
B3C
  3
ACAD_MATERIAL
350
AE3
  3
ACAD_MLEADERSTYLE
350
B40
  3
ACAD_MLINESTYLE
350
B39
  3
ACAD_PLOTSETTINGS
350
B3B
  3
ACAD_PLOTSTYLENAME
350
AE1
  3
ACAD_SCALELIST
350
B0D
  3
ACAD_TABLESTYLE
350
B3E
  3
ACAD_VISUALSTYLE
350
AFC
  3
ACDB_RECOMPOSE_DATA
350
B5F
  3
AcDbVariableDictionary
350
B57
  0
DICTIONARY
  5
B55
330
B2F
100
AcDbDictionary
280
     1
281
     1
  3
ADSK_XREC_LAYER_RECONCILED
360
B56
  0
DICTIONARY
  5
B3D
102
{ACAD_REACTORS
330
ADF
102
}
330
ADF
100
AcDbDictionary
281
     1
  0
DICTIONARY
  5
AE0
102
{ACAD_REACTORS
330
ADF
102
}
330
ADF
100
AcDbDictionary
281
     1
  0
DICTIONARY
  5
B3C
102
{ACAD_REACTORS
330
ADF
102
}
330
ADF
100
AcDbDictionary
281
     1
  3
Layout1
350
B46
  3
Model
350
B4A
  0
DICTIONARY
  5
AE3
102
{ACAD_REACTORS
330
ADF
102
}
330
ADF
100
AcDbDictionary
281
     1
  3
ByBlock
350
AEC
  3
ByLayer
350
AE4
  3
Global
350
AF4
  0
DICTIONARY
  5
B40
102
{ACAD_REACTORS
330
ADF
102
}
330
ADF
100
AcDbDictionary
281
     1
  3
Standard
350
B41
  0
DICTIONARY
  5
B39
102
{ACAD_REACTORS
330
ADF
102
}
330
ADF
100
AcDbDictionary
281
     1
  3
Standard
350
B3A
  0
DICTIONARY
  5
B3B
102
{ACAD_REACTORS
330
ADF
102
}
330
ADF
100
AcDbDictionary
281
     1
  0
ACDBDICTIONARYWDFLT
  5
AE1
102
{ACAD_REACTORS
330
ADF
102
}
330
ADF
100
AcDbDictionary
281
     1
  3
Normal
350
AE2
100
AcDbDictionaryWithDefault
340
AE2
  0
DICTIONARY
  5
B0D
102
{ACAD_REACTORS
330
ADF
102
}
330
ADF
100
AcDbDictionary
281
     1
  3
A0
350
B0E
  3
A1
350
B0F
  3
A2
350
B10
  3
A3
350
B11
  3
A4
350
B12
  3
A5
350
B13
  3
A6
350
B14
  3
A7
350
B15
  3
A8
350
B16
  3
A9
350
B17
  3
B0
350
B18
  3
B1
350
B19
  3
B2
350
B1A
  3
B3
350
B1B
  3
B4
350
B1C
  3
B5
350
B1D
  3
B6
350
B1E
  3
B7
350
B1F
  3
B8
350
B20
  3
B9
350
B21
  3
C0
350
B22
  3
C1
350
B23
  3
C2
350
B24
  3
C3
350
B25
  3
C4
350
B26
  3
C5
350
B27
  3
C6
350
B28
  3
C7
350
B29
  3
C8
350
B2A
  3
C9
350
B2B
  3
D0
350
B2C
  3
D1
350
B2D
  3
D2
350
B2E
  0
DICTIONARY
  5
B3E
102
{ACAD_REACTORS
330
ADF
102
}
330
ADF
100
AcDbDictionary
281
     1
  3
Standard
350
B3F
  0
DICTIONARY
  5
AFC
102
{ACAD_REACTORS
330
ADF
102
}
330
ADF
100
AcDbDictionary
281
     1
  3
2dWireframe
350
B02
  3
3D Hidden
350
B04
  3
3dWireframe
350
B03
  3
Basic
350
B01
  3
Brighten
350
B08
  3
ColorChange
350
B0C
  3
Conceptual
350
B05
  3
Dim
350
B07
  3
Facepattern
350
B0B
  3
Flat
350
AFD
  3
FlatWithEdges
350
AFE
  3
Gouraud
350
AFF
  3
GouraudWithEdges
350
B00
  3
Linepattern
350
B0A
  3
Realistic
350
B06
  3
Thicken
350
B09
  0
XRECORD
  5
B5F
102
{ACAD_REACTORS
330
ADF
102
}
330
ADF
100
AcDbXrecord
280
     1
 90
        1
330
B3F
  0
DICTIONARY
  5
B57
102
{ACAD_REACTORS
330
ADF
102
}
330
ADF
100
AcDbDictionary
281
     1
  3
CANNOSCALE
350
B5B
  3
CMLEADERSTYLE
350
B59
  3
CTABLESTYLE
350
B58
  3
LIGHTINGUNITS
350
B5C
  3
MSLTSCALE
350
B5A
  0
XRECORD
  5
B56
102
{ACAD_REACTORS
330
B55
102
}
330
B55
100
AcDbXrecord
280
     1
290
     1
  0
LAYOUT
  5
B46
102
{ACAD_REACTORS
330
B3C
102
}
330
B3C
100
AcDbPlotSettings
  1

  2
Brother HL-5140
  4

  6

 40
0.0
 41
0.0
 42
0.0
 43
0.0
 44
0.0
 45
0.0
 46
0.0
 47
0.0
 48
0.0
 49
0.0
140
0.0
141
0.0
142
1.0
143
1.0
 70
   688
 72
     0
 73
     0
 74
     5
  7

 75
    16
147
1.0
 76
     0
 77
     2
 78
   300
148
0.0
149
0.0
100
AcDbLayout
  1
Layout1
 70
     1
 71
     1
 10
0.0
 20
0.0
 11
12.0
 21
9.0
 12
0.0
 22
0.0
 32
0.0
 14
1.000000000000000E+20
 24
1.000000000000000E+20
 34
1.000000000000000E+20
 15
-1.000000000000000E+20
 25
-1.000000000000000E+20
 35
-1.000000000000000E+20
146
0.0
 13
0.0
 23
0.0
 33
0.0
 16
1.0
 26
0.0
 36
0.0
 17
0.0
 27
1.0
 37
0.0
 76
     0
330
B43
  0
LAYOUT
  5
B4A
102
{ACAD_REACTORS
330
B3C
102
}
330
B3C
100
AcDbPlotSettings
  1

  2
Brother HL-5140
  4

  6

 40
0.0
 41
0.0
 42
0.0
 43
0.0
 44
0.0
 45
0.0
 46
0.0
 47
0.0
 48
0.0
 49
0.0
140
0.0
141
0.0
142
1.0
143
1.0
 70
  1712
 72
     0
 73
     0
 74
     0
  7

 75
     0
147
1.0
 76
     0
 77
     2
 78
   300
148
0.0
149
0.0
100
AcDbLayout
  1
Model
 70
     1
 71
     0
 10
0.0
 20
0.0
 11
12.0
 21
9.0
 12
0.0
 22
0.0
 32
0.0
 14
0.0
 24
0.0
 34
0.0
 15
0.0
 25
0.0
 35
0.0
146
0.0
 13
0.0
 23
0.0
 33
0.0
 16
1.0
 26
0.0
 36
0.0
 17
0.0
 27
1.0
 37
0.0
 76
     0
330
B47
331
B4E
  0
MATERIAL
  5
AEC
102
{ACAD_XDICTIONARY
360
AED
102
}
102
{ACAD_REACTORS
330
AE3
102
}
330
AE3
100
AcDbMaterial
  1
ByBlock
 72
     0
 43
0.0208333333333333
 43
0.0
 43
0.0
 43
0.0
 43
0.0
 43
0.0208333333333333
 43
0.0
 43
0.0
 43
0.0
 43
0.0
 43
1.0
 43
0.0
 43
0.0
 43
0.0
 43
0.0
 43
1.0
 77
     0
 47
0.0208333333333333
 47
0.0
 47
0.0
 47
0.0
 47
0.0
 47
0.0208333333333333
 47
0.0
 47
0.0
 47
0.0
 47
0.0
 47
1.0
 47
0.0
 47
0.0
 47
0.0
 47
0.0
 47
1.0
171
     0
 49
0.0208333333333333
 49
0.0
 49
0.0
 49
0.0
 49
0.0
 49
0.0208333333333333
 49
0.0
 49
0.0
 49
0.0
 49
0.0
 49
1.0
 49
0.0
 49
0.0
 49
0.0
 49
0.0
 49
1.0
175
     0
142
0.0208333333333333
142
0.0
142
0.0
142
0.0
142
0.0
142
0.0208333333333333
142
0.0
142
0.0
142
0.0
142
0.0
142
1.0
142
0.0
142
0.0
142
0.0
142
0.0
142
1.0
179
     0
144
0.0208333333333333
144
0.0
144
0.0
144
0.0
144
0.0
144
0.0208333333333333
144
0.0
144
0.0
144
0.0
144
0.0
144
1.0
144
0.0
144
0.0
144
0.0
144
0.0
144
1.0
147
0.0208333333333333
147
0.0
147
0.0
147
0.0
147
0.0
147
0.0208333333333333
147
0.0
147
0.0
147
0.0
147
0.0
147
1.0
147
0.0
147
0.0
147
0.0
147
0.0
147
1.0
  0
MATERIAL
  5
AE4
102
{ACAD_XDICTIONARY
360
AE5
102
}
102
{ACAD_REACTORS
330
AE3
102
}
330
AE3
100
AcDbMaterial
  1
ByLayer
 72
     0
 43
0.0208333333333333
 43
0.0
 43
0.0
 43
0.0
 43
0.0
 43
0.0208333333333333
 43
0.0
 43
0.0
 43
0.0
 43
0.0
 43
1.0
 43
0.0
 43
0.0
 43
0.0
 43
0.0
 43
1.0
 77
     0
 47
0.0208333333333333
 47
0.0
 47
0.0
 47
0.0
 47
0.0
 47
0.0208333333333333
 47
0.0
 47
0.0
 47
0.0
 47
0.0
 47
1.0
 47
0.0
 47
0.0
 47
0.0
 47
0.0
 47
1.0
171
     0
 49
0.0208333333333333
 49
0.0
 49
0.0
 49
0.0
 49
0.0
 49
0.0208333333333333
 49
0.0
 49
0.0
 49
0.0
 49
0.0
 49
1.0
 49
0.0
 49
0.0
 49
0.0
 49
0.0
 49
1.0
175
     0
142
0.0208333333333333
142
0.0
142
0.0
142
0.0
142
0.0
142
0.0208333333333333
142
0.0
142
0.0
142
0.0
142
0.0
142
1.0
142
0.0
142
0.0
142
0.0
142
0.0
142
1.0
179
     0
144
0.0208333333333333
144
0.0
144
0.0
144
0.0
144
0.0
144
0.0208333333333333
144
0.0
144
0.0
144
0.0
144
0.0
144
1.0
144
0.0
144
0.0
144
0.0
144
0.0
144
1.0
147
0.0208333333333333
147
0.0
147
0.0
147
0.0
147
0.0
147
0.0208333333333333
147
0.0
147
0.0
147
0.0
147
0.0
147
1.0
147
0.0
147
0.0
147
0.0
147
0.0
147
1.0
  0
MATERIAL
  5
AF4
102
{ACAD_XDICTIONARY
360
AF5
102
}
102
{ACAD_REACTORS
330
AE3
102
}
330
AE3
100
AcDbMaterial
  1
Global
 72
     0
 43
0.0208333333333333
 43
0.0
 43
0.0
 43
0.0
 43
0.0
 43
0.0208333333333333
 43
0.0
 43
0.0
 43
0.0
 43
0.0
 43
1.0
 43
0.0
 43
0.0
 43
0.0
 43
0.0
 43
1.0
 77
     0
 47
0.0208333333333333
 47
0.0
 47
0.0
 47
0.0
 47
0.0
 47
0.0208333333333333
 47
0.0
 47
0.0
 47
0.0
 47
0.0
 47
1.0
 47
0.0
 47
0.0
 47
0.0
 47
0.0
 47
1.0
171
     0
 49
0.0208333333333333
 49
0.0
 49
0.0
 49
0.0
 49
0.0
 49
0.0208333333333333
 49
0.0
 49
0.0
 49
0.0
 49
0.0
 49
1.0
 49
0.0
 49
0.0
 49
0.0
 49
0.0
 49
1.0
175
     0
142
0.0208333333333333
142
0.0
142
0.0
142
0.0
142
0.0
142
0.0208333333333333
142
0.0
142
0.0
142
0.0
142
0.0
142
1.0
142
0.0
142
0.0
142
0.0
142
0.0
142
1.0
179
     0
144
0.0208333333333333
144
0.0
144
0.0
144
0.0
144
0.0
144
0.0208333333333333
144
0.0
144
0.0
144
0.0
144
0.0
144
1.0
144
0.0
144
0.0
144
0.0
144
0.0
144
1.0
147
0.0208333333333333
147
0.0
147
0.0
147
0.0
147
0.0
147
0.0208333333333333
147
0.0
147
0.0
147
0.0
147
0.0
147
1.0
147
0.0
147
0.0
147
0.0
147
0.0
147
1.0
  0
MLEADERSTYLE
  5
B41
102
{ACAD_REACTORS
330
B40
102
}
330
B40
100
AcDbMLeaderStyle
170
     2
171
     1
172
     0
 90
        2
 40
0.0
 41
0.0
173
     1
 91
-1056964608
340
B35
 92
       -2
290
     1
 42
0.09
291
     1
 43
0.36
  3
Standard
 44
0.18
300

342
B30
174
     1
178
     6
175
     1
176
     0
 93
-1056964608
 45
0.18
292
     0
297
     0
 46
0.18
 94
-1056964608
 47
1.0
 49
1.0
140
1.0
293
     1
141
0.0
294
     1
177
     0
142
1.0
295
     0
296
     0
143
0.125
1001
ACAD_MLEADERVER
1070
     2
  0
MLINESTYLE
  5
B3A
102
{ACAD_REACTORS
330
B39
102
}
330
B39
100
AcDbMlineStyle
  2
STANDARD
 70
     0
  3

 62
   256
 51
90.0
 52
90.0
 71
     2
 49
0.5
 62
   256
  6
BYLAYER
 49
-0.5
 62
   256
  6
BYLAYER
  0
ACDBPLACEHOLDER
  5
AE2
102
{ACAD_REACTORS
330
AE1
102
}
330
AE1
  0
SCALE
  5
B0E
102
{ACAD_REACTORS
330
B0D
102
}
330
B0D
100
AcDbScale
 70
     0
300
1:1
140
1.0
141
1.0
290
     1
  0
SCALE
  5
B0F
102
{ACAD_REACTORS
330
B0D
102
}
330
B0D
100
AcDbScale
 70
     0
300
1:2
140
1.0
141
2.0
290
     0
  0
SCALE
  5
B10
102
{ACAD_REACTORS
330
B0D
102
}
330
B0D
100
AcDbScale
 70
     0
300
1:4
140
1.0
141
4.0
290
     0
  0
SCALE
  5
B11
102
{ACAD_REACTORS
330
B0D
102
}
330
B0D
100
AcDbScale
 70
     0
300
1:5
140
1.0
141
5.0
290
     0
  0
SCALE
  5
B12
102
{ACAD_REACTORS
330
B0D
102
}
330
B0D
100
AcDbScale
 70
     0
300
1:8
140
1.0
141
8.0
290
     0
  0
SCALE
  5
B13
102
{ACAD_REACTORS
330
B0D
102
}
330
B0D
100
AcDbScale
 70
     0
300
1:10
140
1.0
141
10.0
290
     0
  0
SCALE
  5
B14
102
{ACAD_REACTORS
330
B0D
102
}
330
B0D
100
AcDbScale
 70
     0
300
1:16
140
1.0
141
16.0
290
     0
  0
SCALE
  5
B15
102
{ACAD_REACTORS
330
B0D
102
}
330
B0D
100
AcDbScale
 70
     0
300
1:20
140
1.0
141
20.0
290
     0
  0
SCALE
  5
B16
102
{ACAD_REACTORS
330
B0D
102
}
330
B0D
100
AcDbScale
 70
     0
300
1:30
140
1.0
141
30.0
290
     0
  0
SCALE
  5
B17
102
{ACAD_REACTORS
330
B0D
102
}
330
B0D
100
AcDbScale
 70
     0
300
1:40
140
1.0
141
40.0
290
     0
  0
SCALE
  5
B18
102
{ACAD_REACTORS
330
B0D
102
}
330
B0D
100
AcDbScale
 70
     0
300
1:50
140
1.0
141
50.0
290
     0
  0
SCALE
  5
B19
102
{ACAD_REACTORS
330
B0D
102
}
330
B0D
100
AcDbScale
 70
     0
300
1:100
140
1.0
141
100.0
290
     0
  0
SCALE
  5
B1A
102
{ACAD_REACTORS
330
B0D
102
}
330
B0D
100
AcDbScale
 70
     0
300
2:1
140
2.0
141
1.0
290
     0
  0
SCALE
  5
B1B
102
{ACAD_REACTORS
330
B0D
102
}
330
B0D
100
AcDbScale
 70
     0
300
4:1
140
4.0
141
1.0
290
     0
  0
SCALE
  5
B1C
102
{ACAD_REACTORS
330
B0D
102
}
330
B0D
100
AcDbScale
 70
     0
300
8:1
140
8.0
141
1.0
290
     0
  0
SCALE
  5
B1D
102
{ACAD_REACTORS
330
B0D
102
}
330
B0D
100
AcDbScale
 70
     0
300
10:1
140
10.0
141
1.0
290
     0
  0
SCALE
  5
B1E
102
{ACAD_REACTORS
330
B0D
102
}
330
B0D
100
AcDbScale
 70
     0
300
100:1
140
100.0
141
1.0
290
     0
  0
SCALE
  5
B1F
102
{ACAD_REACTORS
330
B0D
102
}
330
B0D
100
AcDbScale
 70
     0
300
1/128" = 1'-0"
140
0.0078125
141
12.0
290
     0
  0
SCALE
  5
B20
102
{ACAD_REACTORS
330
B0D
102
}
330
B0D
100
AcDbScale
 70
     0
300
1/64" = 1'-0"
140
0.015625
141
12.0
290
     0
  0
SCALE
  5
B21
102
{ACAD_REACTORS
330
B0D
102
}
330
B0D
100
AcDbScale
 70
     0
300
1/32" = 1'-0"
140
0.03125
141
12.0
290
     0
  0
SCALE
  5
B22
102
{ACAD_REACTORS
330
B0D
102
}
330
B0D
100
AcDbScale
 70
     0
300
1/16" = 1'-0"
140
0.0625
141
12.0
290
     0
  0
SCALE
  5
B23
102
{ACAD_REACTORS
330
B0D
102
}
330
B0D
100
AcDbScale
 70
     0
300
3/32" = 1'-0"
140
0.09375
141
12.0
290
     0
  0
SCALE
  5
B24
102
{ACAD_REACTORS
330
B0D
102
}
330
B0D
100
AcDbScale
 70
     0
300
1/8" = 1'-0"
140
0.125
141
12.0
290
     0
  0
SCALE
  5
B25
102
{ACAD_REACTORS
330
B0D
102
}
330
B0D
100
AcDbScale
 70
     0
300
3/16" = 1'-0"
140
0.1875
141
12.0
290
     0
  0
SCALE
  5
B26
102
{ACAD_REACTORS
330
B0D
102
}
330
B0D
100
AcDbScale
 70
     0
300
1/4" = 1'-0"
140
0.25
141
12.0
290
     0
  0
SCALE
  5
B27
102
{ACAD_REACTORS
330
B0D
102
}
330
B0D
100
AcDbScale
 70
     0
300
3/8" = 1'-0"
140
0.375
141
12.0
290
     0
  0
SCALE
  5
B28
102
{ACAD_REACTORS
330
B0D
102
}
330
B0D
100
AcDbScale
 70
     0
300
1/2" = 1'-0"
140
0.5
141
12.0
290
     0
  0
SCALE
  5
B29
102
{ACAD_REACTORS
330
B0D
102
}
330
B0D
100
AcDbScale
 70
     0
300
3/4" = 1'-0"
140
0.75
141
12.0
290
     0
  0
SCALE
  5
B2A
102
{ACAD_REACTORS
330
B0D
102
}
330
B0D
100
AcDbScale
 70
     0
300
1" = 1'-0"
140
1.0
141
12.0
290
     0
  0
SCALE
  5
B2B
102
{ACAD_REACTORS
330
B0D
102
}
330
B0D
100
AcDbScale
 70
     0
300
1-1/2" = 1'-0"
140
1.5
141
12.0
290
     0
  0
SCALE
  5
B2C
102
{ACAD_REACTORS
330
B0D
102
}
330
B0D
100
AcDbScale
 70
     0
300
3" = 1'-0"
140
3.0
141
12.0
290
     0
  0
SCALE
  5
B2D
102
{ACAD_REACTORS
330
B0D
102
}
330
B0D
100
AcDbScale
 70
     0
300
6" = 1'-0"
140
6.0
141
12.0
290
     0
  0
SCALE
  5
B2E
102
{ACAD_REACTORS
330
B0D
102
}
330
B0D
100
AcDbScale
 70
     0
300
1'-0" = 1'-0"
140
12.0
141
12.0
290
     0
  0
TABLESTYLE
  5
B3F
102
{ACAD_XDICTIONARY
360
B5D
102
}
102
{ACAD_REACTORS
330
B3E
102
}
330
B3E
100
AcDbTableStyle
  3
Standard
 70
     0
 71
     0
 40
0.06
 41
0.06
280
     0
281
     0
  7
STANDARD
140
0.18
170
     2
 62
     0
 63
     7
283
     0
274
    -2
284
     1
 64
     0
275
    -2
285
     1
 65
     0
276
    -2
286
     1
 66
     0
277
    -2
287
     1
 67
     0
278
    -2
288
     1
 68
     0
279
    -2
289
     1
 69
     0
  7
STANDARD
140
0.25
170
     5
 62
     0
 63
     7
283
     0
274
    -2
284
     1
 64
     0
275
    -2
285
     1
 65
     0
276
    -2
286
     1
 66
     0
277
    -2
287
     1
 67
     0
278
    -2
288
     1
 68
     0
279
    -2
289
     1
 69
     0
  7
STANDARD
140
0.18
170
     5
 62
     0
 63
     7
283
     0
274
    -2
284
     1
 64
     0
275
    -2
285
     1
 65
     0
276
    -2
286
     1
 66
     0
277
    -2
287
     1
 67
     0
278
    -2
288
     1
 68
     0
279
    -2
289
     1
 69
     0
  0
VISUALSTYLE
  5
B02
102
{ACAD_REACTORS
330
AFC
102
}
330
AFC
100
AcDbVisualStyle
  2
2dWireframe
 70
     4
 71
     0
 72
     2
 73
     0
 90
        0
 40
-0.6
 41
-30.0
 62
     5
 63
     7
421
 16777215
 74
     1
 91
        4
 64
     7
 65
   257
 75
     1
175
     1
 42
1.0
 92
        0
 66
   257
 43
1.0
 76
     1
 77
     6
 78
     2
 67
     7
 79
     5
170
     0
171
     0
290
     0
174
     0
 93
        1
 44
0.0
173
     0
291
     0
 45
0.0
1001
ACAD
1000
AcDbSavedByObjectVersion
1070
     0
  0
VISUALSTYLE
  5
B04
102
{ACAD_REACTORS
330
AFC
102
}
330
AFC
100
AcDbVisualStyle
  2
3D Hidden
 70
     6
 71
     1
 72
     2
 73
     2
 90
        0
 40
-0.6
 41
-30.0
 62
     5
 63
     7
421
 16777215
 74
     2
 91
        2
 64
     7
 65
   257
 75
     2
175
     1
 42
40.0
 92
        0
 66
   257
 43
1.0
 76
     1
 77
     6
 78
     2
 67
     7
 79
     3
170
     0
171
     0
290
     0
174
     0
 93
        1
 44
0.0
173
     0
291
     0
 45
0.0
1001
ACAD
1000
AcDbSavedByObjectVersion
1070
     0
  0
VISUALSTYLE
  5
B03
102
{ACAD_REACTORS
330
AFC
102
}
330
AFC
100
AcDbVisualStyle
  2
3dWireframe
 70
     5
 71
     0
 72
     2
 73
     0
 90
        0
 40
-0.6
 41
-30.0
 62
     5
 63
     7
421
 16777215
 74
     1
 91
        4
 64
     7
 65
   257
 75
     1
175
     1
 42
1.0
 92
        0
 66
   257
 43
1.0
 76
     1
 77
     6
 78
     2
 67
     7
 79
     5
170
     0
171
     0
290
     0
174
     0
 93
        1
 44
0.0
173
     0
291
     0
 45
0.0
1001
ACAD
1000
AcDbSavedByObjectVersion
1070
     0
  0
VISUALSTYLE
  5
B01
102
{ACAD_REACTORS
330
AFC
102
}
330
AFC
100
AcDbVisualStyle
  2
Basic
 70
     7
 71
     1
 72
     0
 73
     1
 90
        0
 40
-0.6
 41
-30.0
 62
     5
 63
     7
421
 16777215
 74
     0
 91
        4
 64
     7
 65
   257
 75
     1
175
     1
 42
1.0
 92
        8
 66
     7
 43
1.0
 76
     1
 77
     6
 78
     2
 67
     7
 79
     5
170
     0
171
     0
290
     0
174
     0
 93
        1
 44
0.0
173
     0
291
     1
 45
0.0
1001
ACAD
1000
AcDbSavedByObjectVersion
1070
     0
  0
VISUALSTYLE
  5
B08
102
{ACAD_REACTORS
330
AFC
102
}
330
AFC
100
AcDbVisualStyle
  2
Brighten
 70
    12
 71
     2
 72
     2
 73
     0
 90
        0
 40
-0.6
 41
-30.0
 62
     5
 63
     7
421
 16777215
 74
     1
 91
        4
 64
     7
 65
   257
 75
     1
175
     1
 42
1.0
 92
        8
 66
     7
 43
1.0
 76
     1
 77
     6
 78
     2
 67
     7
 79
     5
170
     0
171
     0
290
     0
174
     0
 93
        1
 44
50.0
173
     0
291
     1
 45
0.0
1001
ACAD
1000
AcDbSavedByObjectVersion
1070
     0
  0
VISUALSTYLE
  5
B0C
102
{ACAD_REACTORS
330
AFC
102
}
330
AFC
100
AcDbVisualStyle
  2
ColorChange
 70
    16
 71
     2
 72
     2
 73
     3
 90
        0
 40
-0.6
 41
-30.0
 62
     5
 63
     8
421
  8421504
 74
     1
 91
        4
 64
     7
 65
   257
 75
     1
175
     1
 42
1.0
 92
        8
 66
     8
424
  8421504
 43
1.0
 76
     1
 77
     6
 78
     2
 67
     7
 79
     5
170
     0
171
     0
290
     0
174
     0
 93
        1
 44
0.0
173
     0
291
     1
 45
0.0
1001
ACAD
1000
AcDbSavedByObjectVersion
1070
     0
  0
VISUALSTYLE
  5
B05
102
{ACAD_REACTORS
330
AFC
102
}
330
AFC
100
AcDbVisualStyle
  2
Conceptual
 70
     9
 71
     3
 72
     2
 73
     0
 90
        0
 40
-0.6
 41
-30.0
 62
     5
 63
     7
421
 16777215
 74
     2
 91
        2
 64
     7
 65
   257
 75
     1
175
     1
 42
40.0
 92
        8
 66
     7
 43
1.0
 76
     1
 77
     6
 78
     2
 67
     7
 79
     3
170
     0
171
     0
290
     0
174
     0
 93
        1
 44
0.0
173
     0
291
     0
 45
0.0
1001
ACAD
1000
AcDbSavedByObjectVersion
1070
     0
  0
VISUALSTYLE
  5
B07
102
{ACAD_REACTORS
330
AFC
102
}
330
AFC
100
AcDbVisualStyle
  2
Dim
 70
    11
 71
     2
 72
     2
 73
     0
 90
        0
 40
-0.6
 41
-30.0
 62
     5
 63
     7
421
 16777215
 74
     1
 91
        4
 64
     7
 65
   257
 75
     1
175
     1
 42
1.0
 92
        8
 66
     7
 43
1.0
 76
     1
 77
     6
 78
     2
 67
     7
 79
     5
170
     0
171
     0
290
     0
174
     0
 93
        1
 44
-50.0
173
     0
291
     1
 45
0.0
1001
ACAD
1000
AcDbSavedByObjectVersion
1070
     0
  0
VISUALSTYLE
  5
B0B
102
{ACAD_REACTORS
330
AFC
102
}
330
AFC
100
AcDbVisualStyle
  2
Facepattern
 70
    15
 71
     2
 72
     2
 73
     0
 90
        0
 40
-0.6
 41
-30.0
 62
     5
 63
     7
421
 16777215
 74
     1
 91
        4
 64
     7
 65
   257
 75
     1
175
     1
 42
1.0
 92
        8
 66
     7
 43
1.0
 76
     1
 77
     6
 78
     2
 67
     7
 79
     5
170
     0
171
     0
290
     0
174
     0
 93
        1
 44
0.0
173
     0
291
     1
 45
0.0
1001
ACAD
1000
AcDbSavedByObjectVersion
1070
     0
  0
VISUALSTYLE
  5
AFD
102
{ACAD_REACTORS
330
AFC
102
}
330
AFC
100
AcDbVisualStyle
  2
Flat
 70
     0
 71
     2
 72
     1
 73
     1
 90
        2
 40
-0.6
 41
30.0
 62
     5
 63
     7
421
 16777215
 74
     0
 91
        4
 64
     7
 65
   257
 75
     1
175
     1
 42
1.0
 92
        8
 66
     7
 43
1.0
 76
     1
 77
     6
 78
     2
 67
     7
 79
     5
170
     0
171
     0
290
     0
174
     0
 93
       13
 44
0.0
173
     0
291
     1
 45
0.0
1001
ACAD
1000
AcDbSavedByObjectVersion
1070
     0
  0
VISUALSTYLE
  5
AFE
102
{ACAD_REACTORS
330
AFC
102
}
330
AFC
100
AcDbVisualStyle
  2
FlatWithEdges
 70
     1
 71
     2
 72
     1
 73
     1
 90
        2
 40
-0.6
 41
30.0
 62
     5
 63
     7
421
 16777215
 74
     1
 91
        4
 64
     7
 65
   257
 75
     1
175
     1
 42
1.0
 92
        0
 66
   257
 43
1.0
 76
     1
 77
     6
 78
     2
 67
     7
 79
     5
170
     0
171
     0
290
     0
174
     0
 93
       13
 44
0.0
173
     0
291
     1
 45
0.0
1001
ACAD
1000
AcDbSavedByObjectVersion
1070
     0
  0
VISUALSTYLE
  5
AFF
102
{ACAD_REACTORS
330
AFC
102
}
330
AFC
100
AcDbVisualStyle
  2
Gouraud
 70
     2
 71
     2
 72
     2
 73
     1
 90
        2
 40
-0.6
 41
30.0
 62
     5
 63
     7
421
 16777215
 74
     0
 91
        4
 64
     7
 65
   257
 75
     1
175
     1
 42
1.0
 92
        0
 66
     7
 43
1.0
 76
     1
 77
     6
 78
     2
 67
     7
 79
     5
170
     0
171
     0
290
     0
174
     0
 93
       13
 44
0.0
173
     0
291
     1
 45
0.0
1001
ACAD
1000
AcDbSavedByObjectVersion
1070
     0
  0
VISUALSTYLE
  5
B00
102
{ACAD_REACTORS
330
AFC
102
}
330
AFC
100
AcDbVisualStyle
  2
GouraudWithEdges
 70
     3
 71
     2
 72
     2
 73
     1
 90
        2
 40
-0.6
 41
30.0
 62
     5
 63
     7
421
 16777215
 74
     1
 91
        4
 64
     7
 65
   257
 75
     1
175
     1
 42
1.0
 92
        0
 66
   257
 43
1.0
 76
     1
 77
     6
 78
     2
 67
     7
 79
     5
170
     0
171
     0
290
     0
174
     0
 93
       13
 44
0.0
173
     0
291
     1
 45
0.0
1001
ACAD
1000
AcDbSavedByObjectVersion
1070
     0
  0
VISUALSTYLE
  5
B0A
102
{ACAD_REACTORS
330
AFC
102
}
330
AFC
100
AcDbVisualStyle
  2
Linepattern
 70
    14
 71
     2
 72
     2
 73
     0
 90
        0
 40
-0.6
 41
-30.0
 62
     5
 63
     7
421
 16777215
 74
     1
 91
        4
 64
     7
 65
   257
 75
     7
175
     7
 42
1.0
 92
        8
 66
     7
 43
1.0
 76
     1
 77
     6
 78
     2
 67
     7
 79
     5
170
     0
171
     0
290
     0
174
     0
 93
        1
 44
0.0
173
     0
291
     1
 45
0.0
1001
ACAD
1000
AcDbSavedByObjectVersion
1070
     0
  0
VISUALSTYLE
  5
B06
102
{ACAD_REACTORS
330
AFC
102
}
330
AFC
100
AcDbVisualStyle
  2
Realistic
 70
     8
 71
     2
 72
     2
 73
     0
 90
        0
 40
-0.6
 41
-30.0
 62
     5
 63
     7
421
 16777215
 74
     1
 91
        0
 64
     7
 65
   257
 75
     1
175
     1
 42
1.0
 92
        8
 66
     8
424
  7895160
 43
1.0
 76
     1
 77
     6
 78
     2
 67
     7
 79
     5
170
     0
171
     0
290
     0
174
     0
 93
       13
 44
0.0
173
     0
291
     0
 45
0.0
1001
ACAD
1000
AcDbSavedByObjectVersion
1070
     0
  0
VISUALSTYLE
  5
B09
102
{ACAD_REACTORS
330
AFC
102
}
330
AFC
100
AcDbVisualStyle
  2
Thicken
 70
    13
 71
     2
 72
     2
 73
     0
 90
        0
 40
-0.6
 41
-30.0
 62
     5
 63
     7
421
 16777215
 74
     1
 91
        4
 64
     7
 65
   257
 75
     1
175
     1
 42
1.0
 92
       12
 66
     7
 43
1.0
 76
     1
 77
     6
 78
     2
 67
     7
 79
     5
170
     0
171
     0
290
     0
174
     0
 93
        1
 44
0.0
173
     0
291
     1
 45
0.0
1001
ACAD
1000
AcDbSavedByObjectVersion
1070
     0
  0
DICTIONARYVAR
  5
B5B
102
{ACAD_REACTORS
330
B57
102
}
330
B57
100
DictionaryVariables
280
     0
  1
1:1
  0
DICTIONARYVAR
  5
B59
102
{ACAD_REACTORS
330
B57
102
}
330
B57
100
DictionaryVariables
280
     0
  1
STANDARD
  0
DICTIONARYVAR
  5
B58
102
{ACAD_REACTORS
330
B57
102
}
330
B57
100
DictionaryVariables
280
     0
  1
STANDARD
  0
DICTIONARYVAR
  5
B5C
102
{ACAD_REACTORS
330
B57
102
}
330
B57
100
DictionaryVariables
280
     0
  1
2
  0
DICTIONARYVAR
  5
B5A
102
{ACAD_REACTORS
330
B57
102
}
330
B57
100
DictionaryVariables
280
     0
  1
1
  0
DICTIONARY
  5
AED
330
AEC
100
AcDbDictionary
280
     1
281
     1
  3
ACAD_XREC_ROUNDTRIP
360
B61
  3
BUMPTILE
360
AEF
  3
DIFFUSETILE
360
AEE
  3
OPACITYTILE
360
AF2
  3
REFLECTIONTILE
360
AF1
  3
REFRACTIONTILE
360
AF3
  3
SPECULARTILE
360
AF0
  0
DICTIONARY
  5
AE5
330
AE4
100
AcDbDictionary
280
     1
281
     1
  3
ACAD_XREC_ROUNDTRIP
360
B60
  3
BUMPTILE
360
AE7
  3
DIFFUSETILE
360
AE6
  3
OPACITYTILE
360
AEA
  3
REFLECTIONTILE
360
AE9
  3
REFRACTIONTILE
360
AEB
  3
SPECULARTILE
360
AE8
  0
DICTIONARY
  5
AF5
330
AF4
100
AcDbDictionary
280
     1
281
     1
  3
ACAD_XREC_ROUNDTRIP
360
B62
  3
BUMPTILE
360
AF7
  3
DIFFUSETILE
360
AF6
  3
OPACITYTILE
360
AFA
  3
REFLECTIONTILE
360
AF9
  3
REFRACTIONTILE
360
AFB
  3
SPECULARTILE
360
AF8
  0
DICTIONARY
  5
B5D
330
B3F
100
AcDbDictionary
280
     1
281
     1
  3
ACAD_ROUNDTRIP_2008_TABLESTYLE_CELLSTYLEMAP
360
B5E
  3
ACAD_XREC_ROUNDTRIP
360
B63
  0
XRECORD
  5
B61
102
{ACAD_REACTORS
330
AED
102
}
330
AED
100
AcDbXrecord
280
     1
102
MATERIAL
148
0.0
149
0.0
149
0.0
 93
        0
 94
      127
282
     0
 72
     0
 77
     0
171
     0
175
     0
179
     0
273
     0
  0
XRECORD
  5
AEF
102
{ACAD_REACTORS
330
AED
102
}
330
AED
100
AcDbXrecord
280
     1
270
     1
271
     1
  0
XRECORD
  5
AEE
102
{ACAD_REACTORS
330
AED
102
}
330
AED
100
AcDbXrecord
280
     1
270
     1
271
     1
  0
XRECORD
  5
AF2
102
{ACAD_REACTORS
330
AED
102
}
330
AED
100
AcDbXrecord
280
     1
270
     1
271
     1
  0
XRECORD
  5
AF1
102
{ACAD_REACTORS
330
AED
102
}
330
AED
100
AcDbXrecord
280
     1
270
     1
271
     1
  0
XRECORD
  5
AF3
102
{ACAD_REACTORS
330
AED
102
}
330
AED
100
AcDbXrecord
280
     1
270
     1
271
     1
  0
XRECORD
  5
AF0
102
{ACAD_REACTORS
330
AED
102
}
330
AED
100
AcDbXrecord
280
     1
270
     1
271
     1
  0
XRECORD
  5
B60
102
{ACAD_REACTORS
330
AE5
102
}
330
AE5
100
AcDbXrecord
280
     1
102
MATERIAL
148
0.0
149
0.0
149
0.0
 93
        0
 94
      127
282
     0
 72
     0
 77
     0
171
     0
175
     0
179
     0
273
     0
  0
XRECORD
  5
AE7
102
{ACAD_REACTORS
330
AE5
102
}
330
AE5
100
AcDbXrecord
280
     1
270
     1
271
     1
  0
XRECORD
  5
AE6
102
{ACAD_REACTORS
330
AE5
102
}
330
AE5
100
AcDbXrecord
280
     1
270
     1
271
     1
  0
XRECORD
  5
AEA
102
{ACAD_REACTORS
330
AE5
102
}
330
AE5
100
AcDbXrecord
280
     1
270
     1
271
     1
  0
XRECORD
  5
AE9
102
{ACAD_REACTORS
330
AE5
102
}
330
AE5
100
AcDbXrecord
280
     1
270
     1
271
     1
  0
XRECORD
  5
AEB
102
{ACAD_REACTORS
330
AE5
102
}
330
AE5
100
AcDbXrecord
280
     1
270
     1
271
     1
  0
XRECORD
  5
AE8
102
{ACAD_REACTORS
330
AE5
102
}
330
AE5
100
AcDbXrecord
280
     1
270
     1
271
     1
  0
XRECORD
  5
B62
102
{ACAD_REACTORS
330
AF5
102
}
330
AF5
100
AcDbXrecord
280
     1
102
MATERIAL
148
0.0
149
0.0
149
0.0
 93
        0
 94
      127
282
     0
 72
     0
 77
     0
171
     0
175
     0
179
     0
273
     0
  0
XRECORD
  5
AF7
102
{ACAD_REACTORS
330
AF5
102
}
330
AF5
100
AcDbXrecord
280
     1
270
     1
271
     1
  0
XRECORD
  5
AF6
102
{ACAD_REACTORS
330
AF5
102
}
330
AF5
100
AcDbXrecord
280
     1
270
     1
271
     1
  0
XRECORD
  5
AFA
102
{ACAD_REACTORS
330
AF5
102
}
330
AF5
100
AcDbXrecord
280
     1
270
     1
271
     1
  0
XRECORD
  5
AF9
102
{ACAD_REACTORS
330
AF5
102
}
330
AF5
100
AcDbXrecord
280
     1
270
     1
271
     1
  0
XRECORD
  5
AFB
102
{ACAD_REACTORS
330
AF5
102
}
330
AF5
100
AcDbXrecord
280
     1
270
     1
271
     1
  0
XRECORD
  5
AF8
102
{ACAD_REACTORS
330
AF5
102
}
330
AF5
100
AcDbXrecord
280
     1
270
     1
271
     1
  0
CELLSTYLEMAP
  5
B5E
102
{ACAD_REACTORS
330
B5D
102
}
330
B5D
100
AcDbCellStyleMap
 90
        3
300
CELLSTYLE
  1
TABLEFORMAT_BEGIN
 90
        5
170
     1
 91
        0
 92
    32768
 62
   257
 93
        1
300
CONTENTFORMAT
  1
CONTENTFORMAT_BEGIN
 90
        0
 91
        0
 92
      512
 93
        0
300

 40
0.0
140
1.0
 94
        5
 62
     0
340
B30
144
0.25
309
CONTENTFORMAT_END
171
     0
 94
        0
309
TABLEFORMAT_END
  1
CELLSTYLE_BEGIN
 90
        1
 91
        1
300
_TITLE
309
CELLSTYLE_END
300
CELLSTYLE
  1
TABLEFORMAT_BEGIN
 90
        5
170
     1
 91
        0
 92
        0
 62
   257
 93
        1
300
CONTENTFORMAT
  1
CONTENTFORMAT_BEGIN
 90
        0
 91
        0
 92
      512
 93
        0
300

 40
0.0
140
1.0
 94
        5
 62
     0
340
B30
144
0.18
309
CONTENTFORMAT_END
171
     0
 94
        0
309
TABLEFORMAT_END
  1
CELLSTYLE_BEGIN
 90
        2
 91
        1
300
_HEADER
309
CELLSTYLE_END
300
CELLSTYLE
  1
TABLEFORMAT_BEGIN
 90
        5
170
     1
 91
        0
 92
        0
 62
   257
 93
        1
300
CONTENTFORMAT
  1
CONTENTFORMAT_BEGIN
 90
        0
 91
        0
 92
      512
 93
        0
300

 40
0.0
140
1.0
 94
        2
 62
     0
340
B30
144
0.18
309
CONTENTFORMAT_END
171
     0
 94
        0
309
TABLEFORMAT_END
  1
CELLSTYLE_BEGIN
 90
        3
 91
        2
300
_DATA
309
CELLSTYLE_END
  0
XRECORD
  5
B63
102
{ACAD_REACTORS
330
B5D
102
}
330
B5D
100
AcDbXrecord
280
     1
102
ACAD_ROUNDTRIP_PRE2007_TABLESTYLE
 90
      512
 91
        0
  1

 92
      512
 93
        0
  2

 94
      512
 95
        0
  3

  0
ENDSEC
  0
EOF
