  0
SECTION
  2
HEADER
  9
$ACADVER
  1
AC1012
  9
$DWGCODEPAGE
  3
ansi_1252
  9
$INSBASE
 10
-170.256
 20
205.931
 30
0.0
  9
$EXTMIN
 10
-14.443
 20
-387.2875
 30
0.0
  9
$EXTMAX
 10
321.104
 20
13.908
 30
0.0
  9
$LIMMIN
 10
0.0
 20
0.0
  9
$LIMMAX
 10
10.0
 20
10.0
  9
$ORTHOMODE
 70
     1
  9
$REGENMODE
 70
     1
  9
$FILLMODE
 70
     1
  9
$QTEXTMODE
 70
     0
  9
$MIRRTEXT
 70
     1
  9
$DRAGMODE
 70
     2
  9
$LTSCALE
 40
6.0
  9
$OSMODE
 70
     0
  9
$ATTMODE
 70
     1
  9
$TEXTSIZE
 40
0.2
  9
$TRACEWID
 40
0.05
  9
$TEXTSTYLE
  7
STANDARD
  9
$CLAYER
  8
0
  9
$CELTYPE
  6
CONTINUOUS
  9
$CECOLOR
 62
   256
  9
$CELTSCALE
 40
1.0
  9
$DELOBJ
 70
     1
  9
$DISPSILH
 70
     0
  9
$DIMSCALE
 40
1.0
  9
$DIMASZ
 40
0.18
  9
$DIMEXO
 40
0.0625
  9
$DIMDLI
 40
0.38
  9
$DIMRND
 40
0.0
  9
$DIMDLE
 40
0.0
  9
$DIMEXE
 40
0.18
  9
$DIMTP
 40
0.0
  9
$DIMTM
 40
0.0
  9
$DIMTXT
 40
0.18
  9
$DIMCEN
 40
0.09
  9
$DIMTSZ
 40
0.0
  9
$DIMTOL
 70
     0
  9
$DIMLIM
 70
     0
  9
$DIMTIH
 70
     1
  9
$DIMTOH
 70
     1
  9
$DIMSE1
 70
     0
  9
$DIMSE2
 70
     0
  9
$DIMTAD
 70
     0
  9
$DIMZIN
 70
     0
  9
$DIMBLK
  1

  9
$DIMASO
 70
     1
  9
$DIMSHO
 70
     1
  9
$DIMPOST
  1

  9
$DIMAPOST
  1

  9
$DIMALT
 70
     0
  9
$DIMALTD
 70
     2
  9
$DIMALTF
 40
25.4
  9
$DIMLFAC
 40
1.0
  9
$DIMTOFL
 70
     0
  9
$DIMTVP
 40
0.0
  9
$DIMTIX
 70
     0
  9
$DIMSOXD
 70
     0
  9
$DIMSAH
 70
     0
  9
$DIMBLK1
  1

  9
$DIMBLK2
  1

  9
$DIMSTYLE
  2
STANDARD
  9
$DIMCLRD
 70
     0
  9
$DIMCLRE
 70
     0
  9
$DIMCLRT
 70
     0
  9
$DIMTFAC
 40
1.0
  9
$DIMGAP
 40
0.09
  9
$DIMJUST
 70
     0
  9
$DIMSD1
 70
     0
  9
$DIMSD2
 70
     0
  9
$DIMTOLJ
 70
     1
  9
$DIMTZIN
 70
     0
  9
$DIMALTZ
 70
     0
  9
$DIMALTTZ
 70
     0
  9
$DIMFIT
 70
     3
  9
$DIMUPT
 70
     0
  9
$DIMUNIT
 70
     2
  9
$DIMDEC
 70
     4
  9
$DIMTDEC
 70
     4
  9
$DIMALTU
 70
     2
  9
$DIMALTTD
 70
     2
  9
$DIMTXSTY
  7
STANDARD
  9
$DIMAUNIT
 70
     0
  9
$LUNITS
 70
     2
  9
$LUPREC
 70
     4
  9
$SKETCHINC
 40
0.1
  9
$FILLETRAD
 40
0.0
  9
$AUNITS
 70
     0
  9
$AUPREC
 70
     0
  9
$MENU
  1
.
  9
$ELEVATION
 40
0.0
  9
$PELEVATION
 40
0.0
  9
$THICKNESS
 40
0.0
  9
$LIMCHECK
 70
     0
  9
$BLIPMODE
 70
     1
  9
$CHAMFERA
 40
0.0
  9
$CHAMFERB
 40
0.0
  9
$CHAMFERC
 40
0.0
  9
$CHAMFERD
 40
0.0
  9
$SKPOLY
 70
     0
  9
$TDCREATE
 40
2450771.385543865
  9
$TDUPDATE
 40
2450771.385543865
  9
$TDINDWG
 40
0.0000000000
  9
$TDUSRTIMER
 40
0.0000000000
  9
$USRTIMER
 70
     1
  9
$ANGBASE
 50
0.0
  9
$ANGDIR
 70
     0
  9
$PDMODE
 70
     0
  9
$PDSIZE
 40
0.0
  9
$PLINEWID
 40
0.0
  9
$COORDS
 70
     1
  9
$SPLFRAME
 70
     0
  9
$SPLINETYPE
 70
     6
  9
$SPLINESEGS
 70
     8
  9
$ATTDIA
 70
     0
  9
$ATTREQ
 70
     1
  9
$HANDLING
 70
     1
  9
$HANDSEED
  5
731
  9
$SURFTAB1
 70
     6
  9
$SURFTAB2
 70
     6
  9
$SURFTYPE
 70
     6
  9
$SURFU
 70
     6
  9
$SURFV
 70
     6
  9
$UCSNAME
  2

  9
$UCSORG
 10
0.0
 20
0.0
 30
0.0
  9
$UCSXDIR
 10
1.0
 20
0.0
 30
0.0
  9
$UCSYDIR
 10
0.0
 20
1.0
 30
0.0
  9
$PUCSNAME
  2

  9
$PUCSORG
 10
0.0
 20
0.0
 30
0.0
  9
$PUCSXDIR
 10
1.0
 20
0.0
 30
0.0
  9
$PUCSYDIR
 10
0.0
 20
1.0
 30
0.0
  9
$USERI1
 70
     0
  9
$USERI2
 70
     0
  9
$USERI3
 70
     0
  9
$USERI4
 70
     0
  9
$USERI5
 70
     0
  9
$USERR1
 40
0.0
  9
$USERR2
 40
0.0
  9
$USERR3
 40
0.0
  9
$USERR4
 40
0.0
  9
$USERR5
 40
0.0
  9
$WORLDVIEW
 70
     1
  9
$SHADEDGE
 70
     3
  9
$SHADEDIF
 70
    70
  9
$TILEMODE
 70
     1
  9
$MAXACTVP
 70
    16
  9
$PINSBASE
 10
0.0
 20
0.0
 30
0.0
  9
$PLIMCHECK
 70
     0
  9
$PEXTMIN
 10
1.000000E+20
 20
1.000000E+20
 30
1.000000E+20
  9
$PEXTMAX
 10
-1.000000E+20
 20
-1.000000E+20
 30
-1.000000E+20
  9
$PLIMMIN
 10
0.0
 20
0.0
  9
$PLIMMAX
 10
12.0
 20
9.0
  9
$UNITMODE
 70
     0
  9
$VISRETAIN
 70
     0
  9
$PLINEGEN
 70
     0
  9
$PSLTSCALE
 70
     1
  9
$TREEDEPTH
 70
  3020
  9
$PICKSTYLE
 70
     1
  9
$CMLSTYLE
  2
STANDARD
  9
$CMLJUST
 70
     0
  9
$CMLSCALE
 40
1.0
  9
$SAVEIMAGES
 70
     0
  0
ENDSEC
  0
SECTION
  2
CLASSES
  0
ENDSEC
  0
SECTION
  2
TABLES
  0
TABLE
  2
VPORT
  5
12
100
AcDbSymbolTable
 70
     2
  0
VPORT
  5
730
100
AcDbSymbolTableRecord
100
AcDbViewportTableRecord
  2
*ACTIVE
 70
     0
 10
0.0
 20
0.0
 11
1.0
 21
1.0
 12
342.37566
 22
-186.68975
 13
0.0
 23
0.0
 14
1.0
 24
1.0
 15
0.0
 25
0.0
 16
0.0
 26
0.0
 36
1.0
 17
0.0
 27
0.0
 37
0.0
 40
401.1955
 41
1.778777
 42
50.0
 43
0.0
 44
0.0
 50
0.0
 51
0.0
 71
     0
 72
   100
 73
     1
 74
     1
 75
     0
 76
     0
 77
     0
 78
     0
  0
ENDTAB
  0
TABLE
  2
LTYPE
  5
E
100
AcDbSymbolTable
 70
     4
  0
LTYPE
  5
F
100
AcDbSymbolTableRecord
100
AcDbLinetypeTableRecord
  2
BYBLOCK
 70
     0
  3

 72
    65
 73
     0
 40
0.0
  0
LTYPE
  5
6
100
AcDbSymbolTableRecord
100
AcDbLinetypeTableRecord
  2
BYLAYER
 70
     0
  3

 72
    65
 73
     0
 40
0.0
  0
LTYPE
  5
5
100
AcDbSymbolTableRecord
100
AcDbLinetypeTableRecord
  2
CONTINUOUS
 70
    64
  3

 72
    65
 73
     0
 40
0.0
  0
LTYPE
  5
27
100
AcDbSymbolTableRecord
100
AcDbLinetypeTableRecord
  2
DASHED
 70
    64
  3

 72
    65
 73
     2
 40
0.75
 49
0.5
 74
     0
 49
-0.25
 74
     0
  0
LTYPE
  5
2A
100
AcDbSymbolTableRecord
100
AcDbLinetypeTableRecord
  2
CENTER
 70
    64
  3

 72
    65
 73
     4
 40
2.0
 49
1.25
 74
     0
 49
-0.25
 74
     0
 49
0.25
 74
     0
 49
-0.25
 74
     0
  0
LTYPE
  5
57
100
AcDbSymbolTableRecord
100
AcDbLinetypeTableRecord
  2
DIVIDE
 70
    64
  3

 72
    65
 73
     6
 40
1.25
 49
0.5
 74
     0
 49
-0.25
 74
     0
 49
0.0
 74
     0
 49
-0.25
 74
     0
 49
0.0
 74
     0
 49
-0.25
 74
     0
  0
ENDTAB
  0
TABLE
  2
LAYER
  5
B
100
AcDbSymbolTable
 70
     1
  0
LAYER
  5
4
100
AcDbSymbolTableRecord
100
AcDbLayerTableRecord
  2
0
 70
    64
 62
     7
  6
CONTINUOUS
  0
ENDTAB
  0
TABLE
  2
STYLE
  5
C
100
AcDbSymbolTable
 70
     1
  0
STYLE
  5
D
100
AcDbSymbolTableRecord
100
AcDbTextStyleTableRecord
  2
STANDARD
 70
     0
 40
0.0
 41
1.0
 50
0.0
 71
     0
 42
0.2
  3
TXT
  4

  0
ENDTAB
  0
TABLE
  2
VIEW
  5
10
100
AcDbSymbolTable
 70
     0
  0
ENDTAB
  0
TABLE
  2
UCS
  5
11
100
AcDbSymbolTable
 70
     0
  0
ENDTAB
  0
TABLE
  2
APPID
  5
14
100
AcDbSymbolTable
 70
     1
  0
APPID
  5
15
100
AcDbSymbolTableRecord
100
AcDbRegAppTableRecord
  2
ACAD
 70
     0
  0
ENDTAB
  0
TABLE
  2
DIMSTYLE
  5
16
100
AcDbSymbolTable
 70
     1
  0
DIMSTYLE
105
1C
100
AcDbSymbolTableRecord
100
AcDbDimStyleTableRecord
  2
STANDARD
 70
     0
  3

  4

  5

  6

  7

 40
1.0
 41
0.18
 42
0.0625
 43
0.38
 44
0.18
 45
0.0
 46
0.0
 47
0.0
 48
0.0
140
0.18
141
0.09
142
0.0
143
25.4
144
1.0
145
0.0
146
1.0
147
0.09
 71
     0
 72
     0
 73
     1
 74
     1
 75
     0
 76
     0
 77
     0
 78
     0
170
     0
171
     2
172
     0
173
     0
174
     0
175
     0
176
     0
177
     0
178
     0
270
     2
271
     4
272
     4
273
     2
274
     2
340
D
275
     0
280
     0
281
     0
282
     0
283
     1
284
     0
285
     0
286
     0
287
     3
288
     0
  0
ENDTAB
  0
TABLE
  2
BLOCK_RECORD
  5
1
100
AcDbSymbolTable
 70
     3
  0
BLOCK_RECORD
  5
2
100
AcDbSymbolTableRecord
100
AcDbBlockTableRecord
  2
*MODEL_SPACE
  0
BLOCK_RECORD
  5
8
100
AcDbSymbolTableRecord
100
AcDbBlockTableRecord
  2
*PAPER_SPACE
  0
BLOCK_RECORD
  5
126
100
AcDbSymbolTableRecord
100
AcDbBlockTableRecord
  2
A$CB055
  0
BLOCK_RECORD
  5
1E
100
AcDbSymbolTableRecord
100
AcDbBlockTableRecord
  2
A$CC011
  0
BLOCK_RECORD
  5
4AF
100
AcDbSymbolTableRecord
100
AcDbBlockTableRecord
  2
A$CC225
  0
ENDTAB
  0
ENDSEC
  0
SECTION
  2
BLOCKS
  0
BLOCK
  5
3
100
AcDbEntity
  8
0
100
AcDbBlockBegin
  2
*MODEL_SPACE
 70
     0
 10
0.0
 20
0.0
 30
0.0
  3
*MODEL_SPACE
  1

  0
ENDBLK
  5
7
100
AcDbEntity
  8
0
100
AcDbBlockEnd
  0
BLOCK
  5
9
100
AcDbEntity
 67
     1
  8
0
100
AcDbBlockBegin
  2
*PAPER_SPACE
 70
     0
 10
0.0
 20
0.0
 30
0.0
  3
*PAPER_SPACE
  1

  0
ENDBLK
  5
A
100
AcDbEntity
 67
     1
  8
0
100
AcDbBlockEnd
  0
BLOCK
  5
4AC
100
AcDbEntity
  8
0
  6
CONTINUOUS
100
AcDbBlockBegin
  2
A$CB055
 70
     0
 10
0.0
 20
0.0
 30
0.0
  3
A$CB055
  1

  0
LINE
  5
127
100
AcDbEntity
  8
0
  6
CONTINUOUS
 62
     1
100
AcDbLine
 10
14.756913
 20
302.744591
 30
0.0
 11
14.756913
 21
163.176061
 31
0.0
  0
LINE
  5
128
100
AcDbEntity
  8
0
  6
CONTINUOUS
 62
     1
100
AcDbLine
 10
154.757113
 20
302.744591
 30
0.0
 11
154.757113
 21
163.176061
 31
0.0
  0
LINE
  5
129
100
AcDbEntity
  8
0
  6
CENTER
 62
     1
100
AcDbLine
 10
24.757913
 20
368.497591
 30
0.0
 11
24.779913
 21
103.176091
 31
0.0
  0
LINE
  5
12A
100
AcDbEntity
  8
0
  6
CENTER
 62
     1
100
AcDbLine
 10
144.780813
 20
103.176091
 30
0.0
 11
144.757513
 21
369.812591
 31
0.0
  0
LINE
  5
12B
100
AcDbEntity
  8
0
  6
CONTINUOUS
100
AcDbLine
 10
154.757113
 20
103.176091
 30
0.0
 11
127.757113
 21
103.176091
 31
0.0
  0
LINE
  5
12C
100
AcDbEntity
  8
0
  6
CONTINUOUS
100
AcDbLine
 10
154.757113
 20
109.176091
 30
0.0
 11
135.257113
 21
109.176091
 31
0.0
  0
LINE
  5
12D
100
AcDbEntity
  8
0
  6
CONTINUOUS
100
AcDbLine
 10
127.757113
 20
163.176061
 30
0.0
 11
154.757113
 21
163.176061
 31
0.0
  0
LINE
  5
12E
100
AcDbEntity
  8
0
  6
CENTER
 62
     1
100
AcDbLine
 10
136.125313
 20
123.176091
 30
0.0
 11
152.658513
 21
123.176091
 31
0.0
  0
LINE
  5
12F
100
AcDbEntity
  8
0
  6
CONTINUOUS
100
AcDbLine
 10
36.256913
 20
130.176091
 30
0.0
 11
133.257113
 21
130.176091
 31
0.0
  0
LINE
  5
130
100
AcDbEntity
  8
0
  6
CONTINUOUS
100
AcDbLine
 10
133.257113
 20
132.176091
 30
0.0
 11
36.256913
 21
132.176091
 31
0.0
  0
LINE
  5
131
100
AcDbEntity
  8
0
  6
CONTINUOUS
100
AcDbLine
 10
43.256913
 20
107.841591
 30
0.0
 11
126.257113
 21
107.841591
 31
0.0
  0
POLYLINE
  5
132
100
AcDbEntity
  8
0
  6
CONTINUOUS
100
AcDb2dPolyline
 66
     1
 10
0.0
 20
0.0
 30
0.0
  0
VERTEX
  5
133
100
AcDbEntity
  8
0
  6
CONTINUOUS
100
AcDbVertex
100
AcDb2dVertex
 10
84.756913
 20
150.621381
 30
0.0
  0
VERTEX
  5
134
100
AcDbEntity
  8
0
  6
CONTINUOUS
100
AcDbVertex
100
AcDb2dVertex
 10
83.187913
 20
150.664971
 30
0.0
  0
VERTEX
  5
135
100
AcDbEntity
  8
0
  6
CONTINUOUS
100
AcDbVertex
100
AcDb2dVertex
 10
81.628913
 20
150.795491
 30
0.0
  0
VERTEX
  5
136
100
AcDbEntity
  8
0
  6
CONTINUOUS
100
AcDbVertex
100
AcDb2dVertex
 10
80.087913
 20
151.012121
 30
0.0
  0
VERTEX
  5
137
100
AcDbEntity
  8
0
  6
CONTINUOUS
100
AcDbVertex
100
AcDb2dVertex
 10
78.576913
 20
151.313541
 30
0.0
  0
VERTEX
  5
138
100
AcDbEntity
  8
0
  6
CONTINUOUS
100
AcDbVertex
100
AcDb2dVertex
 10
77.103913
 20
151.697881
 30
0.0
  0
VERTEX
  5
139
100
AcDbEntity
  8
0
  6
CONTINUOUS
100
AcDbVertex
100
AcDb2dVertex
 10
75.676913
 20
152.162771
 30
0.0
  0
VERTEX
  5
13A
100
AcDbEntity
  8
0
  6
CONTINUOUS
100
AcDbVertex
100
AcDb2dVertex
 10
74.306913
 20
152.705351
 30
0.0
  0
VERTEX
  5
13B
100
AcDbEntity
  8
0
  6
CONTINUOUS
100
AcDbVertex
100
AcDb2dVertex
 10
73.001913
 20
153.322271
 30
0.0
  0
VERTEX
  5
13C
100
AcDbEntity
  8
0
  6
CONTINUOUS
100
AcDbVertex
100
AcDb2dVertex
 10
71.767913
 20
154.009741
 30
0.0
  0
VERTEX
  5
13D
100
AcDbEntity
  8
0
  6
CONTINUOUS
100
AcDbVertex
100
AcDb2dVertex
 10
70.614913
 20
154.763501
 30
0.0
  0
VERTEX
  5
13E
100
AcDbEntity
  8
0
  6
CONTINUOUS
100
AcDbVertex
100
AcDb2dVertex
 10
69.548913
 20
155.578911
 30
0.0
  0
VERTEX
  5
13F
100
AcDbEntity
  8
0
  6
CONTINUOUS
100
AcDbVertex
100
AcDb2dVertex
 10
68.576913
 20
156.450955
 30
0.0
  0
VERTEX
  5
140
100
AcDbEntity
  8
0
  6
CONTINUOUS
100
AcDbVertex
100
AcDb2dVertex
 10
67.703913
 20
157.374245
 30
0.0
  0
VERTEX
  5
141
100
AcDbEntity
  8
0
  6
CONTINUOUS
100
AcDbVertex
100
AcDb2dVertex
 10
66.936913
 20
158.343091
 30
0.0
  0
VERTEX
  5
142
100
AcDbEntity
  8
0
  6
CONTINUOUS
100
AcDbVertex
100
AcDb2dVertex
 10
66.279913
 20
159.351521
 30
0.0
  0
VERTEX
  5
143
100
AcDbEntity
  8
0
  6
CONTINUOUS
100
AcDbVertex
100
AcDb2dVertex
 10
65.992913
 20
159.868651
 30
0.0
  0
VERTEX
  5
144
100
AcDbEntity
  8
0
  6
CONTINUOUS
100
AcDbVertex
100
AcDb2dVertex
 10
65.735913
 20
160.393321
 30
0.0
  0
VERTEX
  5
145
100
AcDbEntity
  8
0
  6
CONTINUOUS
100
AcDbVertex
100
AcDb2dVertex
 10
65.507913
 20
160.924731
 30
0.0
  0
VERTEX
  5
146
100
AcDbEntity
  8
0
  6
CONTINUOUS
100
AcDbVertex
100
AcDb2dVertex
 10
65.309913
 20
161.462061
 30
0.0
  0
VERTEX
  5
147
100
AcDbEntity
  8
0
  6
CONTINUOUS
100
AcDbVertex
100
AcDb2dVertex
 10
65.141913
 20
162.004481
 30
0.0
  0
VERTEX
  5
148
100
AcDbEntity
  8
0
  6
CONTINUOUS
100
AcDbVertex
100
AcDb2dVertex
 10
65.002913
 20
162.551151
 30
0.0
  0
VERTEX
  5
149
100
AcDbEntity
  8
0
  6
CONTINUOUS
100
AcDbVertex
100
AcDb2dVertex
 10
64.895913
 20
163.101241
 30
0.0
  0
VERTEX
  5
14A
100
AcDbEntity
  8
0
  6
CONTINUOUS
100
AcDbVertex
100
AcDb2dVertex
 10
64.818913
 20
163.653891
 30
0.0
  0
VERTEX
  5
14B
100
AcDbEntity
  8
0
  6
CONTINUOUS
100
AcDbVertex
100
AcDb2dVertex
 10
64.772913
 20
164.208251
 30
0.0
  0
VERTEX
  5
14C
100
AcDbEntity
  8
0
  6
CONTINUOUS
100
AcDbVertex
100
AcDb2dVertex
 10
64.756913
 20
164.763461
 30
0.0
  0
VERTEX
  5
14D
100
AcDbEntity
  8
0
  6
CONTINUOUS
100
AcDbVertex
100
AcDb2dVertex
 10
64.772913
 20
165.318681
 30
0.0
  0
VERTEX
  5
14E
100
AcDbEntity
  8
0
  6
CONTINUOUS
100
AcDbVertex
100
AcDb2dVertex
 10
64.818913
 20
165.873041
 30
0.0
  0
VERTEX
  5
14F
100
AcDbEntity
  8
0
  6
CONTINUOUS
100
AcDbVertex
100
AcDb2dVertex
 10
64.895913
 20
166.425691
 30
0.0
  0
VERTEX
  5
150
100
AcDbEntity
  8
0
  6
CONTINUOUS
100
AcDbVertex
100
AcDb2dVertex
 10
65.002913
 20
166.975791
 30
0.0
  0
VERTEX
  5
151
100
AcDbEntity
  8
0
  6
CONTINUOUS
100
AcDbVertex
100
AcDb2dVertex
 10
65.141913
 20
167.522491
 30
0.0
  0
VERTEX
  5
152
100
AcDbEntity
  8
0
  6
CONTINUOUS
100
AcDbVertex
100
AcDb2dVertex
 10
65.309913
 20
168.064891
 30
0.0
  0
VERTEX
  5
153
100
AcDbEntity
  8
0
  6
CONTINUOUS
100
AcDbVertex
100
AcDb2dVertex
 10
65.507913
 20
168.602191
 30
0.0
  0
VERTEX
  5
154
100
AcDbEntity
  8
0
  6
CONTINUOUS
100
AcDbVertex
100
AcDb2dVertex
 10
65.735913
 20
169.133591
 30
0.0
  0
VERTEX
  5
155
100
AcDbEntity
  8
0
  6
CONTINUOUS
100
AcDbVertex
100
AcDb2dVertex
 10
65.992913
 20
169.658291
 30
0.0
  0
VERTEX
  5
156
100
AcDbEntity
  8
0
  6
CONTINUOUS
100
AcDbVertex
100
AcDb2dVertex
 10
66.593913
 20
170.684191
 30
0.0
  0
VERTEX
  5
157
100
AcDbEntity
  8
0
  6
CONTINUOUS
100
AcDbVertex
100
AcDb2dVertex
 10
67.306913
 20
171.673591
 30
0.0
  0
VERTEX
  5
158
100
AcDbEntity
  8
0
  6
CONTINUOUS
100
AcDbVertex
100
AcDb2dVertex
 10
68.127913
 20
172.620391
 30
0.0
  0
VERTEX
  5
159
100
AcDbEntity
  8
0
  6
CONTINUOUS
100
AcDbVertex
100
AcDb2dVertex
 10
69.050913
 20
173.518791
 30
0.0
  0
VERTEX
  5
15A
100
AcDbEntity
  8
0
  6
CONTINUOUS
100
AcDbVertex
100
AcDb2dVertex
 10
70.070913
 20
174.363091
 30
0.0
  0
VERTEX
  5
15B
100
AcDbEntity
  8
0
  6
CONTINUOUS
100
AcDbVertex
100
AcDb2dVertex
 10
71.180913
 20
175.148291
 30
0.0
  0
VERTEX
  5
15C
100
AcDbEntity
  8
0
  6
CONTINUOUS
100
AcDbVertex
100
AcDb2dVertex
 10
72.374913
 20
175.869491
 30
0.0
  0
VERTEX
  5
15D
100
AcDbEntity
  8
0
  6
CONTINUOUS
100
AcDbVertex
100
AcDb2dVertex
 10
73.645913
 20
176.522191
 30
0.0
  0
VERTEX
  5
15E
100
AcDbEntity
  8
0
  6
CONTINUOUS
100
AcDbVertex
100
AcDb2dVertex
 10
74.984913
 20
177.102391
 30
0.0
  0
VERTEX
  5
15F
100
AcDbEntity
  8
0
  6
CONTINUOUS
100
AcDbVertex
100
AcDb2dVertex
 10
76.383913
 20
177.606491
 30
0.0
  0
VERTEX
  5
160
100
AcDbEntity
  8
0
  6
CONTINUOUS
100
AcDbVertex
100
AcDb2dVertex
 10
77.834913
 20
178.031491
 30
0.0
  0
VERTEX
  5
161
100
AcDbEntity
  8
0
  6
CONTINUOUS
100
AcDbVertex
100
AcDb2dVertex
 10
79.327913
 20
178.374591
 30
0.0
  0
VERTEX
  5
162
100
AcDbEntity
  8
0
  6
CONTINUOUS
100
AcDbVertex
100
AcDb2dVertex
 10
80.854913
 20
178.633791
 30
0.0
  0
VERTEX
  5
163
100
AcDbEntity
  8
0
  6
CONTINUOUS
100
AcDbVertex
100
AcDb2dVertex
 10
82.405913
 20
178.807491
 30
0.0
  0
VERTEX
  5
164
100
AcDbEntity
  8
0
  6
CONTINUOUS
100
AcDbVertex
100
AcDb2dVertex
 10
83.971913
 20
178.894691
 30
0.0
  0
VERTEX
  5
165
100
AcDbEntity
  8
0
  6
CONTINUOUS
100
AcDbVertex
100
AcDb2dVertex
 10
85.542313
 20
178.894691
 30
0.0
  0
VERTEX
  5
166
100
AcDbEntity
  8
0
  6
CONTINUOUS
100
AcDbVertex
100
AcDb2dVertex
 10
87.107913
 20
178.807491
 30
0.0
  0
VERTEX
  5
167
100
AcDbEntity
  8
0
  6
CONTINUOUS
100
AcDbVertex
100
AcDb2dVertex
 10
88.658913
 20
178.633791
 30
0.0
  0
VERTEX
  5
168
100
AcDbEntity
  8
0
  6
CONTINUOUS
100
AcDbVertex
100
AcDb2dVertex
 10
90.185913
 20
178.374591
 30
0.0
  0
VERTEX
  5
169
100
AcDbEntity
  8
0
  6
CONTINUOUS
100
AcDbVertex
100
AcDb2dVertex
 10
91.679413
 20
178.031491
 30
0.0
  0
VERTEX
  5
16A
100
AcDbEntity
  8
0
  6
CONTINUOUS
100
AcDbVertex
100
AcDb2dVertex
 10
93.130313
 20
177.606491
 30
0.0
  0
VERTEX
  5
16B
100
AcDbEntity
  8
0
  6
CONTINUOUS
100
AcDbVertex
100
AcDb2dVertex
 10
94.529513
 20
177.102391
 30
0.0
  0
VERTEX
  5
16C
100
AcDbEntity
  8
0
  6
CONTINUOUS
100
AcDbVertex
100
AcDb2dVertex
 10
95.868513
 20
176.522191
 30
0.0
  0
VERTEX
  5
16D
100
AcDbEntity
  8
0
  6
CONTINUOUS
100
AcDbVertex
100
AcDb2dVertex
 10
97.139013
 20
175.869491
 30
0.0
  0
VERTEX
  5
16E
100
AcDbEntity
  8
0
  6
CONTINUOUS
100
AcDbVertex
100
AcDb2dVertex
 10
98.333113
 20
175.148291
 30
0.0
  0
VERTEX
  5
16F
100
AcDbEntity
  8
0
  6
CONTINUOUS
100
AcDbVertex
100
AcDb2dVertex
 10
99.443613
 20
174.363091
 30
0.0
  0
VERTEX
  5
170
100
AcDbEntity
  8
0
  6
CONTINUOUS
100
AcDbVertex
100
AcDb2dVertex
 10
100.463413
 20
173.518791
 30
0.0
  0
VERTEX
  5
171
100
AcDbEntity
  8
0
  6
CONTINUOUS
100
AcDbVertex
100
AcDb2dVertex
 10
101.386513
 20
172.620391
 30
0.0
  0
VERTEX
  5
172
100
AcDbEntity
  8
0
  6
CONTINUOUS
100
AcDbVertex
100
AcDb2dVertex
 10
102.207013
 20
171.673591
 30
0.0
  0
VERTEX
  5
173
100
AcDbEntity
  8
0
  6
CONTINUOUS
100
AcDbVertex
100
AcDb2dVertex
 10
102.920013
 20
170.684191
 30
0.0
  0
VERTEX
  5
174
100
AcDbEntity
  8
0
  6
CONTINUOUS
100
AcDbVertex
100
AcDb2dVertex
 10
103.520913
 20
169.658291
 30
0.0
  0
VERTEX
  5
175
100
AcDbEntity
  8
0
  6
CONTINUOUS
100
AcDbVertex
100
AcDb2dVertex
 10
103.778213
 20
169.133591
 30
0.0
  0
VERTEX
  5
176
100
AcDbEntity
  8
0
  6
CONTINUOUS
100
AcDbVertex
100
AcDb2dVertex
 10
104.006213
 20
168.602191
 30
0.0
  0
VERTEX
  5
177
100
AcDbEntity
  8
0
  6
CONTINUOUS
100
AcDbVertex
100
AcDb2dVertex
 10
104.204513
 20
168.064891
 30
0.0
  0
VERTEX
  5
178
100
AcDbEntity
  8
0
  6
CONTINUOUS
100
AcDbVertex
100
AcDb2dVertex
 10
104.372813
 20
167.522491
 30
0.0
  0
VERTEX
  5
179
100
AcDbEntity
  8
0
  6
CONTINUOUS
100
AcDbVertex
100
AcDb2dVertex
 10
104.510913
 20
166.975791
 30
0.0
  0
VERTEX
  5
17A
100
AcDbEntity
  8
0
  6
CONTINUOUS
100
AcDbVertex
100
AcDb2dVertex
 10
104.618513
 20
166.425691
 30
0.0
  0
VERTEX
  5
17B
100
AcDbEntity
  8
0
  6
CONTINUOUS
100
AcDbVertex
100
AcDb2dVertex
 10
104.695513
 20
165.873041
 30
0.0
  0
VERTEX
  5
17C
100
AcDbEntity
  8
0
  6
CONTINUOUS
100
AcDbVertex
100
AcDb2dVertex
 10
104.741713
 20
165.318681
 30
0.0
  0
VERTEX
  5
17D
100
AcDbEntity
  8
0
  6
CONTINUOUS
100
AcDbVertex
100
AcDb2dVertex
 10
104.757113
 20
164.763461
 30
0.0
  0
VERTEX
  5
17E
100
AcDbEntity
  8
0
  6
CONTINUOUS
100
AcDbVertex
100
AcDb2dVertex
 10
104.741713
 20
164.208251
 30
0.0
  0
VERTEX
  5
17F
100
AcDbEntity
  8
0
  6
CONTINUOUS
100
AcDbVertex
100
AcDb2dVertex
 10
104.695513
 20
163.653891
 30
0.0
  0
VERTEX
  5
180
100
AcDbEntity
  8
0
  6
CONTINUOUS
100
AcDbVertex
100
AcDb2dVertex
 10
104.618513
 20
163.101241
 30
0.0
  0
VERTEX
  5
181
100
AcDbEntity
  8
0
  6
CONTINUOUS
100
AcDbVertex
100
AcDb2dVertex
 10
104.510913
 20
162.551151
 30
0.0
  0
VERTEX
  5
182
100
AcDbEntity
  8
0
  6
CONTINUOUS
100
AcDbVertex
100
AcDb2dVertex
 10
104.372813
 20
162.004481
 30
0.0
  0
VERTEX
  5
183
100
AcDbEntity
  8
0
  6
CONTINUOUS
100
AcDbVertex
100
AcDb2dVertex
 10
104.204513
 20
161.462061
 30
0.0
  0
VERTEX
  5
184
100
AcDbEntity
  8
0
  6
CONTINUOUS
100
AcDbVertex
100
AcDb2dVertex
 10
104.006213
 20
160.924731
 30
0.0
  0
VERTEX
  5
185
100
AcDbEntity
  8
0
  6
CONTINUOUS
100
AcDbVertex
100
AcDb2dVertex
 10
103.778213
 20
160.393321
 30
0.0
  0
VERTEX
  5
186
100
AcDbEntity
  8
0
  6
CONTINUOUS
100
AcDbVertex
100
AcDb2dVertex
 10
103.520913
 20
159.868651
 30
0.0
  0
VERTEX
  5
187
100
AcDbEntity
  8
0
  6
CONTINUOUS
100
AcDbVertex
100
AcDb2dVertex
 10
102.920013
 20
158.842741
 30
0.0
  0
VERTEX
  5
188
100
AcDbEntity
  8
0
  6
CONTINUOUS
100
AcDbVertex
100
AcDb2dVertex
 10
102.207013
 20
157.853341
 30
0.0
  0
VERTEX
  5
189
100
AcDbEntity
  8
0
  6
CONTINUOUS
100
AcDbVertex
100
AcDb2dVertex
 10
101.386513
 20
156.906542
 30
0.0
  0
VERTEX
  5
18A
100
AcDbEntity
  8
0
  6
CONTINUOUS
100
AcDbVertex
100
AcDb2dVertex
 10
100.463413
 20
156.008184
 30
0.0
  0
VERTEX
  5
18B
100
AcDbEntity
  8
0
  6
CONTINUOUS
100
AcDbVertex
100
AcDb2dVertex
 10
99.443613
 20
155.163801
 30
0.0
  0
VERTEX
  5
18C
100
AcDbEntity
  8
0
  6
CONTINUOUS
100
AcDbVertex
100
AcDb2dVertex
 10
98.333113
 20
154.378611
 30
0.0
  0
VERTEX
  5
18D
100
AcDbEntity
  8
0
  6
CONTINUOUS
100
AcDbVertex
100
AcDb2dVertex
 10
97.139013
 20
153.657441
 30
0.0
  0
VERTEX
  5
18E
100
AcDbEntity
  8
0
  6
CONTINUOUS
100
AcDbVertex
100
AcDb2dVertex
 10
95.868513
 20
153.004751
 30
0.0
  0
VERTEX
  5
18F
100
AcDbEntity
  8
0
  6
CONTINUOUS
100
AcDbVertex
100
AcDb2dVertex
 10
94.529513
 20
152.424551
 30
0.0
  0
VERTEX
  5
190
100
AcDbEntity
  8
0
  6
CONTINUOUS
100
AcDbVertex
100
AcDb2dVertex
 10
93.130313
 20
151.920421
 30
0.0
  0
VERTEX
  5
191
100
AcDbEntity
  8
0
  6
CONTINUOUS
100
AcDbVertex
100
AcDb2dVertex
 10
91.679413
 20
151.495481
 30
0.0
  0
VERTEX
  5
192
100
AcDbEntity
  8
0
  6
CONTINUOUS
100
AcDbVertex
100
AcDb2dVertex
 10
90.185913
 20
151.152341
 30
0.0
  0
VERTEX
  5
193
100
AcDbEntity
  8
0
  6
CONTINUOUS
100
AcDbVertex
100
AcDb2dVertex
 10
88.658913
 20
150.893111
 30
0.0
  0
VERTEX
  5
194
100
AcDbEntity
  8
0
  6
CONTINUOUS
100
AcDbVertex
100
AcDb2dVertex
 10
87.107913
 20
150.719401
 30
0.0
  0
VERTEX
  5
195
100
AcDbEntity
  8
0
  6
CONTINUOUS
100
AcDbVertex
100
AcDb2dVertex
 10
85.934513
 20
150.645901
 30
0.0
  0
VERTEX
  5
196
100
AcDbEntity
  8
0
  6
CONTINUOUS
100
AcDbVertex
100
AcDb2dVertex
 10
84.756913
 20
150.621381
 30
0.0
  0
SEQEND
  5
197
100
AcDbEntity
  8
0
  0
POLYLINE
  5
198
100
AcDbEntity
  8
0
  6
CONTINUOUS
100
AcDb2dPolyline
 66
     1
 10
0.0
 20
0.0
 30
0.0
  0
VERTEX
  5
199
100
AcDbEntity
  8
0
  6
CONTINUOUS
100
AcDbVertex
100
AcDb2dVertex
 10
64.756913
 20
150.668981
 30
0.0
  0
VERTEX
  5
19A
100
AcDbEntity
  8
0
  6
CONTINUOUS
100
AcDbVertex
100
AcDb2dVertex
 10
64.772913
 20
150.111901
 30
0.0
  0
VERTEX
  5
19B
100
AcDbEntity
  8
0
  6
CONTINUOUS
100
AcDbVertex
100
AcDb2dVertex
 10
64.818913
 20
149.555681
 30
0.0
  0
VERTEX
  5
19C
100
AcDbEntity
  8
0
  6
CONTINUOUS
100
AcDbVertex
100
AcDb2dVertex
 10
64.895913
 20
149.001181
 30
0.0
  0
VERTEX
  5
19D
100
AcDbEntity
  8
0
  6
CONTINUOUS
100
AcDbVertex
100
AcDb2dVertex
 10
65.002913
 20
148.449251
 30
0.0
  0
VERTEX
  5
19E
100
AcDbEntity
  8
0
  6
CONTINUOUS
100
AcDbVertex
100
AcDb2dVertex
 10
65.140913
 20
147.900741
 30
0.0
  0
VERTEX
  5
19F
100
AcDbEntity
  8
0
  6
CONTINUOUS
100
AcDbVertex
100
AcDb2dVertex
 10
65.309913
 20
147.356501
 30
0.0
  0
VERTEX
  5
1A0
100
AcDbEntity
  8
0
  6
CONTINUOUS
100
AcDbVertex
100
AcDb2dVertex
 10
65.507913
 20
146.817361
 30
0.0
  0
VERTEX
  5
1A1
100
AcDbEntity
  8
0
  6
CONTINUOUS
100
AcDbVertex
100
AcDb2dVertex
 10
65.735913
 20
146.284191
 30
0.0
  0
VERTEX
  5
1A2
100
AcDbEntity
  8
0
  6
CONTINUOUS
100
AcDbVertex
100
AcDb2dVertex
 10
65.992913
 20
145.757691
 30
0.0
  0
VERTEX
  5
1A3
100
AcDbEntity
  8
0
  6
CONTINUOUS
100
AcDbVertex
100
AcDb2dVertex
 10
66.593913
 20
144.728391
 30
0.0
  0
VERTEX
  5
1A4
100
AcDbEntity
  8
0
  6
CONTINUOUS
100
AcDbVertex
100
AcDb2dVertex
 10
67.306913
 20
143.735691
 30
0.0
  0
VERTEX
  5
1A5
100
AcDbEntity
  8
0
  6
CONTINUOUS
100
AcDbVertex
100
AcDb2dVertex
 10
68.127913
 20
142.785691
 30
0.0
  0
VERTEX
  5
1A6
100
AcDbEntity
  8
0
  6
CONTINUOUS
100
AcDbVertex
100
AcDb2dVertex
 10
69.050913
 20
141.884291
 30
0.0
  0
VERTEX
  5
1A7
100
AcDbEntity
  8
0
  6
CONTINUOUS
100
AcDbVertex
100
AcDb2dVertex
 10
70.070913
 20
141.037091
 30
0.0
  0
VERTEX
  5
1A8
100
AcDbEntity
  8
0
  6
CONTINUOUS
100
AcDbVertex
100
AcDb2dVertex
 10
71.180913
 20
140.249191
 30
0.0
  0
VERTEX
  5
1A9
100
AcDbEntity
  8
0
  6
CONTINUOUS
100
AcDbVertex
100
AcDb2dVertex
 10
72.374913
 20
139.525591
 30
0.0
  0
VERTEX
  5
1AA
100
AcDbEntity
  8
0
  6
CONTINUOUS
100
AcDbVertex
100
AcDb2dVertex
 10
73.645913
 20
138.870691
 30
0.0
  0
VERTEX
  5
1AB
100
AcDbEntity
  8
0
  6
CONTINUOUS
100
AcDbVertex
100
AcDb2dVertex
 10
74.984913
 20
138.288591
 30
0.0
  0
VERTEX
  5
1AC
100
AcDbEntity
  8
0
  6
CONTINUOUS
100
AcDbVertex
100
AcDb2dVertex
 10
76.383913
 20
137.782791
 30
0.0
  0
VERTEX
  5
1AD
100
AcDbEntity
  8
0
  6
CONTINUOUS
100
AcDbVertex
100
AcDb2dVertex
 10
77.834913
 20
137.356391
 30
0.0
  0
VERTEX
  5
1AE
100
AcDbEntity
  8
0
  6
CONTINUOUS
100
AcDbVertex
100
AcDb2dVertex
 10
79.327913
 20
137.012091
 30
0.0
  0
VERTEX
  5
1AF
100
AcDbEntity
  8
0
  6
CONTINUOUS
100
AcDbVertex
100
AcDb2dVertex
 10
80.854913
 20
136.751991
 30
0.0
  0
VERTEX
  5
1B0
100
AcDbEntity
  8
0
  6
CONTINUOUS
100
AcDbVertex
100
AcDb2dVertex
 10
82.405913
 20
136.577691
 30
0.0
  0
VERTEX
  5
1B1
100
AcDbEntity
  8
0
  6
CONTINUOUS
100
AcDbVertex
100
AcDb2dVertex
 10
83.971913
 20
136.490191
 30
0.0
  0
VERTEX
  5
1B2
100
AcDbEntity
  8
0
  6
CONTINUOUS
100
AcDbVertex
100
AcDb2dVertex
 10
85.542113
 20
136.490191
 30
0.0
  0
VERTEX
  5
1B3
100
AcDbEntity
  8
0
  6
CONTINUOUS
100
AcDbVertex
100
AcDb2dVertex
 10
87.107713
 20
136.577591
 30
0.0
  0
VERTEX
  5
1B4
100
AcDbEntity
  8
0
  6
CONTINUOUS
100
AcDbVertex
100
AcDb2dVertex
 10
88.658813
 20
136.751891
 30
0.0
  0
VERTEX
  5
1B5
100
AcDbEntity
  8
0
  6
CONTINUOUS
100
AcDbVertex
100
AcDb2dVertex
 10
90.185813
 20
137.011991
 30
0.0
  0
VERTEX
  5
1B6
100
AcDbEntity
  8
0
  6
CONTINUOUS
100
AcDbVertex
100
AcDb2dVertex
 10
91.679313
 20
137.356291
 30
0.0
  0
VERTEX
  5
1B7
100
AcDbEntity
  8
0
  6
CONTINUOUS
100
AcDbVertex
100
AcDb2dVertex
 10
93.130213
 20
137.782691
 30
0.0
  0
VERTEX
  5
1B8
100
AcDbEntity
  8
0
  6
CONTINUOUS
100
AcDbVertex
100
AcDb2dVertex
 10
94.529413
 20
138.288491
 30
0.0
  0
VERTEX
  5
1B9
100
AcDbEntity
  8
0
  6
CONTINUOUS
100
AcDbVertex
100
AcDb2dVertex
 10
95.868413
 20
138.870591
 30
0.0
  0
VERTEX
  5
1BA
100
AcDbEntity
  8
0
  6
CONTINUOUS
100
AcDbVertex
100
AcDb2dVertex
 10
97.138913
 20
139.525491
 30
0.0
  0
VERTEX
  5
1BB
100
AcDbEntity
  8
0
  6
CONTINUOUS
100
AcDbVertex
100
AcDb2dVertex
 10
98.333113
 20
140.249091
 30
0.0
  0
VERTEX
  5
1BC
100
AcDbEntity
  8
0
  6
CONTINUOUS
100
AcDbVertex
100
AcDb2dVertex
 10
99.443513
 20
141.036891
 30
0.0
  0
VERTEX
  5
1BD
100
AcDbEntity
  8
0
  6
CONTINUOUS
100
AcDbVertex
100
AcDb2dVertex
 10
100.463413
 20
141.884091
 30
0.0
  0
VERTEX
  5
1BE
100
AcDbEntity
  8
0
  6
CONTINUOUS
100
AcDbVertex
100
AcDb2dVertex
 10
101.386513
 20
142.785491
 30
0.0
  0
VERTEX
  5
1BF
100
AcDbEntity
  8
0
  6
CONTINUOUS
100
AcDbVertex
100
AcDb2dVertex
 10
102.207013
 20
143.735391
 30
0.0
  0
VERTEX
  5
1C0
100
AcDbEntity
  8
0
  6
CONTINUOUS
100
AcDbVertex
100
AcDb2dVertex
 10
102.920013
 20
144.728191
 30
0.0
  0
VERTEX
  5
1C1
100
AcDbEntity
  8
0
  6
CONTINUOUS
100
AcDbVertex
100
AcDb2dVertex
 10
103.520913
 20
145.757491
 30
0.0
  0
VERTEX
  5
1C2
100
AcDbEntity
  8
0
  6
CONTINUOUS
100
AcDbVertex
100
AcDb2dVertex
 10
103.778213
 20
146.283891
 30
0.0
  0
VERTEX
  5
1C3
100
AcDbEntity
  8
0
  6
CONTINUOUS
100
AcDbVertex
100
AcDb2dVertex
 10
104.006213
 20
146.817131
 30
0.0
  0
VERTEX
  5
1C4
100
AcDbEntity
  8
0
  6
CONTINUOUS
100
AcDbVertex
100
AcDb2dVertex
 10
104.204513
 20
147.356261
 30
0.0
  0
VERTEX
  5
1C5
100
AcDbEntity
  8
0
  6
CONTINUOUS
100
AcDbVertex
100
AcDb2dVertex
 10
104.372813
 20
147.900501
 30
0.0
  0
VERTEX
  5
1C6
100
AcDbEntity
  8
0
  6
CONTINUOUS
100
AcDbVertex
100
AcDb2dVertex
 10
104.510913
 20
148.449011
 30
0.0
  0
VERTEX
  5
1C7
100
AcDbEntity
  8
0
  6
CONTINUOUS
100
AcDbVertex
100
AcDb2dVertex
 10
104.618513
 20
149.000941
 30
0.0
  0
VERTEX
  5
1C8
100
AcDbEntity
  8
0
  6
CONTINUOUS
100
AcDbVertex
100
AcDb2dVertex
 10
104.695513
 20
149.555441
 30
0.0
  0
VERTEX
  5
1C9
100
AcDbEntity
  8
0
  6
CONTINUOUS
100
AcDbVertex
100
AcDb2dVertex
 10
104.741713
 20
150.111661
 30
0.0
  0
VERTEX
  5
1CA
100
AcDbEntity
  8
0
  6
CONTINUOUS
100
AcDbVertex
100
AcDb2dVertex
 10
104.757113
 20
150.668741
 30
0.0
  0
SEQEND
  5
1CB
100
AcDbEntity
  8
0
  0
POLYLINE
  5
1CC
100
AcDbEntity
  8
0
  6
CONTINUOUS
100
AcDb2dPolyline
 66
     1
 10
0.0
 20
0.0
 30
0.0
  0
VERTEX
  5
1CD
100
AcDbEntity
  8
0
  6
CONTINUOUS
100
AcDbVertex
100
AcDb2dVertex
 10
43.756913
 20
164.763461
 30
0.0
  0
VERTEX
  5
1CE
100
AcDbEntity
  8
0
  6
CONTINUOUS
100
AcDbVertex
100
AcDb2dVertex
 10
43.784913
 20
165.514151
 30
0.0
  0
VERTEX
  5
1CF
100
AcDbEntity
  8
0
  6
CONTINUOUS
100
AcDbVertex
100
AcDb2dVertex
 10
43.869913
 20
166.262711
 30
0.0
  0
VERTEX
  5
1D0
100
AcDbEntity
  8
0
  6
CONTINUOUS
100
AcDbVertex
100
AcDb2dVertex
 10
44.009913
 20
167.007091
 30
0.0
  0
VERTEX
  5
1D1
100
AcDbEntity
  8
0
  6
CONTINUOUS
100
AcDbVertex
100
AcDb2dVertex
 10
44.206913
 20
167.745091
 30
0.0
  0
VERTEX
  5
1D2
100
AcDbEntity
  8
0
  6
CONTINUOUS
100
AcDbVertex
100
AcDb2dVertex
 10
44.457913
 20
168.474691
 30
0.0
  0
VERTEX
  5
1D3
100
AcDbEntity
  8
0
  6
CONTINUOUS
100
AcDbVertex
100
AcDb2dVertex
 10
44.763913
 20
169.193791
 30
0.0
  0
VERTEX
  5
1D4
100
AcDbEntity
  8
0
  6
CONTINUOUS
100
AcDbVertex
100
AcDb2dVertex
 10
45.122913
 20
169.900491
 30
0.0
  0
VERTEX
  5
1D5
100
AcDbEntity
  8
0
  6
CONTINUOUS
100
AcDbVertex
100
AcDb2dVertex
 10
45.534913
 20
170.592591
 30
0.0
  0
VERTEX
  5
1D6
100
AcDbEntity
  8
0
  6
CONTINUOUS
100
AcDbVertex
100
AcDb2dVertex
 10
45.997913
 20
171.268391
 30
0.0
  0
VERTEX
  5
1D7
100
AcDbEntity
  8
0
  6
CONTINUOUS
100
AcDbVertex
100
AcDb2dVertex
 10
46.511913
 20
171.925691
 30
0.0
  0
VERTEX
  5
1D8
100
AcDbEntity
  8
0
  6
CONTINUOUS
100
AcDbVertex
100
AcDb2dVertex
 10
47.073913
 20
172.562891
 30
0.0
  0
VERTEX
  5
1D9
100
AcDbEntity
  8
0
  6
CONTINUOUS
100
AcDbVertex
100
AcDb2dVertex
 10
47.682913
 20
173.178091
 30
0.0
  0
VERTEX
  5
1DA
100
AcDbEntity
  8
0
  6
CONTINUOUS
100
AcDbVertex
100
AcDb2dVertex
 10
48.336913
 20
173.769591
 30
0.0
  0
VERTEX
  5
1DB
100
AcDbEntity
  8
0
  6
CONTINUOUS
100
AcDbVertex
100
AcDb2dVertex
 10
49.034913
 20
174.335691
 30
0.0
  0
VERTEX
  5
1DC
100
AcDbEntity
  8
0
  6
CONTINUOUS
100
AcDbVertex
100
AcDb2dVertex
 10
49.773913
 20
174.874791
 30
0.0
  0
VERTEX
  5
1DD
100
AcDbEntity
  8
0
  6
CONTINUOUS
100
AcDbVertex
100
AcDb2dVertex
 10
50.552913
 20
175.385391
 30
0.0
  0
VERTEX
  5
1DE
100
AcDbEntity
  8
0
  6
CONTINUOUS
100
AcDbVertex
100
AcDb2dVertex
 10
51.368913
 20
175.865991
 30
0.0
  0
VERTEX
  5
1DF
100
AcDbEntity
  8
0
  6
CONTINUOUS
100
AcDbVertex
100
AcDb2dVertex
 10
52.219913
 20
176.315291
 30
0.0
  0
VERTEX
  5
1E0
100
AcDbEntity
  8
0
  6
CONTINUOUS
100
AcDbVertex
100
AcDb2dVertex
 10
53.102913
 20
176.732091
 30
0.0
  0
VERTEX
  5
1E1
100
AcDbEntity
  8
0
  6
CONTINUOUS
100
AcDbVertex
100
AcDb2dVertex
 10
54.016913
 20
177.115091
 30
0.0
  0
VERTEX
  5
1E2
100
AcDbEntity
  8
0
  6
CONTINUOUS
100
AcDbVertex
100
AcDb2dVertex
 10
54.957913
 20
177.463291
 30
0.0
  0
VERTEX
  5
1E3
100
AcDbEntity
  8
0
  6
CONTINUOUS
100
AcDbVertex
100
AcDb2dVertex
 10
55.922913
 20
177.775691
 30
0.0
  0
VERTEX
  5
1E4
100
AcDbEntity
  8
0
  6
CONTINUOUS
100
AcDbVertex
100
AcDb2dVertex
 10
56.910913
 20
178.051391
 30
0.0
  0
VERTEX
  5
1E5
100
AcDbEntity
  8
0
  6
CONTINUOUS
100
AcDbVertex
100
AcDb2dVertex
 10
57.917913
 20
178.289591
 30
0.0
  0
VERTEX
  5
1E6
100
AcDbEntity
  8
0
  6
CONTINUOUS
100
AcDbVertex
100
AcDb2dVertex
 10
58.941913
 20
178.489691
 30
0.0
  0
VERTEX
  5
1E7
100
AcDbEntity
  8
0
  6
CONTINUOUS
100
AcDbVertex
100
AcDb2dVertex
 10
59.978913
 20
178.651091
 30
0.0
  0
VERTEX
  5
1E8
100
AcDbEntity
  8
0
  6
CONTINUOUS
100
AcDbVertex
100
AcDb2dVertex
 10
61.026913
 20
178.773291
 30
0.0
  0
VERTEX
  5
1E9
100
AcDbEntity
  8
0
  6
CONTINUOUS
100
AcDbVertex
100
AcDb2dVertex
 10
62.081913
 20
178.855991
 30
0.0
  0
VERTEX
  5
1EA
100
AcDbEntity
  8
0
  6
CONTINUOUS
100
AcDbVertex
100
AcDb2dVertex
 10
63.142913
 20
178.898991
 30
0.0
  0
VERTEX
  5
1EB
100
AcDbEntity
  8
0
  6
CONTINUOUS
100
AcDbVertex
100
AcDb2dVertex
 10
64.204913
 20
178.902091
 30
0.0
  0
VERTEX
  5
1EC
100
AcDbEntity
  8
0
  6
CONTINUOUS
100
AcDbVertex
100
AcDb2dVertex
 10
65.264913
 20
178.865391
 30
0.0
  0
VERTEX
  5
1ED
100
AcDbEntity
  8
0
  6
CONTINUOUS
100
AcDbVertex
100
AcDb2dVertex
 10
66.321913
 20
178.788891
 30
0.0
  0
VERTEX
  5
1EE
100
AcDbEntity
  8
0
  6
CONTINUOUS
100
AcDbVertex
100
AcDb2dVertex
 10
67.370913
 20
178.672891
 30
0.0
  0
VERTEX
  5
1EF
100
AcDbEntity
  8
0
  6
CONTINUOUS
100
AcDbVertex
100
AcDb2dVertex
 10
68.409913
 20
178.517591
 30
0.0
  0
VERTEX
  5
1F0
100
AcDbEntity
  8
0
  6
CONTINUOUS
100
AcDbVertex
100
AcDb2dVertex
 10
69.435913
 20
178.323591
 30
0.0
  0
VERTEX
  5
1F1
100
AcDbEntity
  8
0
  6
CONTINUOUS
100
AcDbVertex
100
AcDb2dVertex
 10
70.445913
 20
178.091291
 30
0.0
  0
VERTEX
  5
1F2
100
AcDbEntity
  8
0
  6
CONTINUOUS
100
AcDbVertex
100
AcDb2dVertex
 10
71.436913
 20
177.821491
 30
0.0
  0
VERTEX
  5
1F3
100
AcDbEntity
  8
0
  6
CONTINUOUS
100
AcDbVertex
100
AcDb2dVertex
 10
72.405913
 20
177.514791
 30
0.0
  0
VERTEX
  5
1F4
100
AcDbEntity
  8
0
  6
CONTINUOUS
100
AcDbVertex
100
AcDb2dVertex
 10
73.351913
 20
177.172191
 30
0.0
  0
VERTEX
  5
1F5
100
AcDbEntity
  8
0
  6
CONTINUOUS
100
AcDbVertex
100
AcDb2dVertex
 10
74.268913
 20
176.794591
 30
0.0
  0
SEQEND
  5
1F6
100
AcDbEntity
  8
0
  0
LINE
  5
1F7
100
AcDbEntity
  8
0
  6
CONTINUOUS
 62
     1
100
AcDbLine
 10
41.756913
 20
103.176091
 30
0.0
 11
125.802813
 21
103.176091
 31
0.0
  0
LINE
  5
1F8
100
AcDbEntity
  8
0
  6
CONTINUOUS
100
AcDbLine
 10
35.756913
 20
163.176061
 30
0.0
 11
35.756913
 21
110.676091
 31
0.0
  0
LINE
  5
1F9
100
AcDbEntity
  8
0
  6
DASHED
100
AcDbLine
 10
41.756913
 20
106.341591
 30
0.0
 11
41.756913
 21
154.510781
 31
0.0
  0
LINE
  5
1FA
100
AcDbEntity
  8
0
  6
CONTINUOUS
100
AcDbLine
 10
14.515913
 20
163.220371
 30
0.0
 11
14.515913
 21
103.099491
 31
0.0
  0
LINE
  5
1FB
100
AcDbEntity
  8
0
  6
CONTINUOUS
 62
     1
100
AcDbLine
 10
67.756913
 20
143.194091
 30
0.0
 11
67.756913
 21
157.313759
 31
0.0
  0
LINE
  5
1FC
100
AcDbEntity
  8
0
  6
CONTINUOUS
100
AcDbLine
 10
41.756913
 20
103.176091
 30
0.0
 11
14.756913
 21
103.176091
 31
0.0
  0
ARC
  5
1FD
100
AcDbEntity
  8
0
  6
CONTINUOUS
100
AcDbCircle
 10
34.256913
 20
110.676091
 30
0.0
 40
1.5
100
AcDbArc
 50
270.0
 51
0.0
  0
LINE
  5
1FE
100
AcDbEntity
  8
0
  6
CONTINUOUS
100
AcDbLine
 10
20.506913
 20
121.676091
 30
0.0
 11
20.506913
 21
124.676091
 31
0.0
  0
LINE
  5
1FF
100
AcDbEntity
  8
0
  6
CONTINUOUS
100
AcDbLine
 10
29.006913
 20
121.676091
 30
0.0
 11
29.006913
 21
124.676091
 31
0.0
  0
LINE
  5
200
100
AcDbEntity
  8
0
  6
CONTINUOUS
100
AcDbLine
 10
34.256913
 20
109.176091
 30
0.0
 11
14.756913
 21
109.176091
 31
0.0
  0
ARC
  5
201
100
AcDbEntity
  8
0
  6
CONTINUOUS
100
AcDbCircle
 10
24.756913
 20
121.676091
 30
0.0
 40
4.25
100
AcDbArc
 50
180.0
 51
0.0
  0
LINE
  5
202
100
AcDbEntity
  8
0
  6
CENTER
 62
     1
100
AcDbLine
 10
33.114913
 20
138.176091
 30
0.0
 11
17.160913
 21
138.176091
 31
0.0
  0
LINE
  5
203
100
AcDbEntity
  8
0
  6
CENTER
 62
     1
100
AcDbLine
 10
17.044913
 20
123.176091
 30
0.0
 11
33.361913
 21
123.176091
 31
0.0
  0
ARC
  5
204
100
AcDbEntity
  8
0
  6
CONTINUOUS
100
AcDbCircle
 10
24.756913
 20
124.676091
 30
0.0
 40
4.25
100
AcDbArc
 50
0.0
 51
180.0
  0
CIRCLE
  5
205
100
AcDbEntity
  8
0
  6
CONTINUOUS
100
AcDbCircle
 10
24.795913
 20
138.176091
 30
0.0
 40
3.0
  0
LINE
  5
206
100
AcDbEntity
  8
0
  6
CONTINUOUS
100
AcDbLine
 10
21.795913
 20
138.176091
 30
0.0
 11
27.795913
 21
138.176091
 31
0.0
  0
LINE
  5
207
100
AcDbEntity
  8
0
  6
CONTINUOUS
100
AcDbLine
 10
27.685913
 20
137.372591
 30
0.0
 11
25.598913
 21
135.285691
 31
0.0
  0
LINE
  5
208
100
AcDbEntity
  8
0
  6
CONTINUOUS
100
AcDbLine
 10
24.782913
 20
135.176091
 30
0.0
 11
27.782913
 21
138.176091
 31
0.0
  0
LINE
  5
209
100
AcDbEntity
  8
0
  6
CONTINUOUS
100
AcDbLine
 10
27.074913
 20
138.176091
 30
0.0
 11
24.756913
 21
135.857791
 31
0.0
  0
LINE
  5
20A
100
AcDbEntity
  8
0
  6
CONTINUOUS
100
AcDbLine
 10
22.125913
 20
138.176091
 30
0.0
 11
24.756913
 21
140.807591
 31
0.0
  0
LINE
  5
20B
100
AcDbEntity
  8
0
  6
CONTINUOUS
100
AcDbLine
 10
24.390913
 20
141.148691
 30
0.0
 11
21.822913
 21
138.580691
 31
0.0
  0
LINE
  5
20C
100
AcDbEntity
  8
0
  6
CONTINUOUS
100
AcDbLine
 10
22.179913
 20
139.644091
 30
0.0
 11
23.327913
 21
140.792291
 31
0.0
  0
LINE
  5
20D
100
AcDbEntity
  8
0
  6
CONTINUOUS
100
AcDbLine
 10
24.756913
 20
135.176591
 30
0.0
 11
24.756913
 21
141.176091
 31
0.0
  0
LINE
  5
20E
100
AcDbEntity
  8
0
  6
CONTINUOUS
100
AcDbLine
 10
24.756913
 20
136.564991
 30
0.0
 11
26.367913
 21
138.176091
 31
0.0
  0
LINE
  5
20F
100
AcDbEntity
  8
0
  6
CONTINUOUS
100
AcDbLine
 10
24.756913
 20
138.686291
 30
0.0
 11
24.246913
 21
138.176091
 31
0.0
  0
LINE
  5
210
100
AcDbEntity
  8
0
  6
CONTINUOUS
100
AcDbLine
 10
23.539913
 20
138.176091
 30
0.0
 11
24.756913
 21
139.393391
 31
0.0
  0
LINE
  5
211
100
AcDbEntity
  8
0
  6
CONTINUOUS
100
AcDbLine
 10
24.756913
 20
140.100491
 30
0.0
 11
22.832913
 21
138.176091
 31
0.0
  0
LINE
  5
212
100
AcDbEntity
  8
0
  6
CONTINUOUS
100
AcDbLine
 10
25.660913
 20
138.176091
 30
0.0
 11
24.756913
 21
137.272091
 31
0.0
  0
LINE
  5
213
100
AcDbEntity
  8
0
  6
CONTINUOUS
100
AcDbLine
 10
24.756913
 20
137.979191
 30
0.0
 11
24.953913
 21
138.176091
 31
0.0
  0
ARC
  5
214
100
AcDbEntity
  8
0
  6
CONTINUOUS
100
AcDbCircle
 10
43.256913
 20
106.341591
 30
0.0
 40
1.5
100
AcDbArc
 50
90.0
 51
180.0
  0
LINE
  5
215
100
AcDbEntity
  8
0
  6
CONTINUOUS
100
AcDbLine
 10
41.756913
 20
103.176091
 30
0.0
 11
41.756913
 21
106.341591
 31
0.0
  0
ARC
  5
216
100
AcDbEntity
  8
0
  6
CONTINUOUS
100
AcDbCircle
 10
36.256913
 20
129.676091
 30
0.0
 40
0.5
100
AcDbArc
 50
90.0
 51
180.0
  0
ARC
  5
217
100
AcDbEntity
  8
0
  6
CONTINUOUS
100
AcDbCircle
 10
36.256913
 20
132.676091
 30
0.0
 40
0.5
100
AcDbArc
 50
180.0
 51
270.0
  0
LINE
  5
218
100
AcDbEntity
  8
0
  6
CONTINUOUS
100
AcDbLine
 10
14.756913
 20
163.176061
 30
0.0
 11
41.756913
 21
163.176061
 31
0.0
  0
LINE
  5
219
100
AcDbEntity
  8
0
  6
CENTER
 62
     1
100
AcDbLine
 10
33.106913
 20
153.176061
 30
0.0
 11
17.171913
 21
153.176061
 31
0.0
  0
LINE
  5
21A
100
AcDbEntity
  8
0
  6
CONTINUOUS
100
AcDbLine
 10
20.506913
 20
151.676061
 30
0.0
 11
20.506913
 21
154.676061
 31
0.0
  0
LINE
  5
21B
100
AcDbEntity
  8
0
  6
CONTINUOUS
100
AcDbLine
 10
29.006913
 20
151.676061
 30
0.0
 11
29.006913
 21
154.676061
 31
0.0
  0
ARC
  5
21C
100
AcDbEntity
  8
0
  6
CONTINUOUS
100
AcDbCircle
 10
24.756913
 20
151.676061
 30
0.0
 40
4.25
100
AcDbArc
 50
180.0
 51
0.0
  0
ARC
  5
21D
100
AcDbEntity
  8
0
  6
CONTINUOUS
100
AcDbCircle
 10
24.756913
 20
154.676061
 30
0.0
 40
4.25
100
AcDbArc
 50
0.0
 51
180.0
  0
LINE
  5
21E
100
AcDbEntity
  8
0
  6
CONTINUOUS
100
AcDbLine
 10
64.756913
 20
150.668981
 30
0.0
 11
64.756913
 21
165.460241
 31
0.0
  0
LINE
  5
21F
100
AcDbEntity
  8
0
  6
CONTINUOUS
 62
     1
100
AcDbLine
 10
46.756913
 20
158.071331
 30
0.0
 11
46.756913
 21
172.213391
 31
0.0
  0
LINE
  5
220
100
AcDbEntity
  8
0
  6
CONTINUOUS
 62
     1
100
AcDbLine
 10
58.756913
 20
164.314731
 30
0.0
 11
58.756913
 21
178.456791
 31
0.0
  0
LINE
  5
221
100
AcDbEntity
  8
0
  6
CONTINUOUS
 62
     1
100
AcDbLine
 10
51.756913
 20
161.935341
 30
0.0
 11
51.756913
 21
176.077391
 31
0.0
  0
LINE
  5
222
100
AcDbEntity
  8
0
  6
CONTINUOUS
 62
     1
100
AcDbLine
 10
63.756913
 20
178.456791
 30
0.0
 11
63.756913
 21
164.763461
 31
0.0
  0
LINE
  5
223
100
AcDbEntity
  8
0
  6
CONTINUOUS
100
AcDbLine
 10
35.756913
 20
154.510781
 30
0.0
 11
64.756913
 21
154.510781
 31
0.0
  0
POLYLINE
  5
224
100
AcDbEntity
  8
0
  6
CONTINUOUS
100
AcDb2dPolyline
 66
     1
 10
0.0
 20
0.0
 30
0.0
  0
VERTEX
  5
225
100
AcDbEntity
  8
0
  6
CONTINUOUS
100
AcDbVertex
100
AcDb2dVertex
 10
64.756913
 20
164.745781
 30
0.0
  0
VERTEX
  5
226
100
AcDbEntity
  8
0
  6
CONTINUOUS
100
AcDbVertex
100
AcDb2dVertex
 10
63.414913
 20
164.761401
 30
0.0
  0
VERTEX
  5
227
100
AcDbEntity
  8
0
  6
CONTINUOUS
100
AcDbVertex
100
AcDb2dVertex
 10
62.074913
 20
164.713361
 30
0.0
  0
VERTEX
  5
228
100
AcDbEntity
  8
0
  6
CONTINUOUS
100
AcDbVertex
100
AcDb2dVertex
 10
60.742913
 20
164.601891
 30
0.0
  0
VERTEX
  5
229
100
AcDbEntity
  8
0
  6
CONTINUOUS
100
AcDbVertex
100
AcDb2dVertex
 10
59.423913
 20
164.427471
 30
0.0
  0
VERTEX
  5
22A
100
AcDbEntity
  8
0
  6
CONTINUOUS
100
AcDbVertex
100
AcDb2dVertex
 10
58.123913
 20
164.190901
 30
0.0
  0
VERTEX
  5
22B
100
AcDbEntity
  8
0
  6
CONTINUOUS
100
AcDbVertex
100
AcDb2dVertex
 10
56.849913
 20
163.893241
 30
0.0
  0
VERTEX
  5
22C
100
AcDbEntity
  8
0
  6
CONTINUOUS
100
AcDbVertex
100
AcDb2dVertex
 10
55.606913
 20
163.535831
 30
0.0
  0
VERTEX
  5
22D
100
AcDbEntity
  8
0
  6
CONTINUOUS
100
AcDbVertex
100
AcDb2dVertex
 10
54.399913
 20
163.120281
 30
0.0
  0
VERTEX
  5
22E
100
AcDbEntity
  8
0
  6
CONTINUOUS
100
AcDbVertex
100
AcDb2dVertex
 10
53.235913
 20
162.648461
 30
0.0
  0
VERTEX
  5
22F
100
AcDbEntity
  8
0
  6
CONTINUOUS
100
AcDbVertex
100
AcDb2dVertex
 10
52.118913
 20
162.122501
 30
0.0
  0
VERTEX
  5
230
100
AcDbEntity
  8
0
  6
CONTINUOUS
100
AcDbVertex
100
AcDb2dVertex
 10
51.054913
 20
161.544751
 30
0.0
  0
VERTEX
  5
231
100
AcDbEntity
  8
0
  6
CONTINUOUS
100
AcDbVertex
100
AcDb2dVertex
 10
50.046913
 20
160.917841
 30
0.0
  0
VERTEX
  5
232
100
AcDbEntity
  8
0
  6
CONTINUOUS
100
AcDbVertex
100
AcDb2dVertex
 10
49.101913
 20
160.244561
 30
0.0
  0
VERTEX
  5
233
100
AcDbEntity
  8
0
  6
CONTINUOUS
100
AcDbVertex
100
AcDb2dVertex
 10
48.221913
 20
159.527961
 30
0.0
  0
VERTEX
  5
234
100
AcDbEntity
  8
0
  6
CONTINUOUS
100
AcDbVertex
100
AcDb2dVertex
 10
47.411913
 20
158.771271
 30
0.0
  0
VERTEX
  5
235
100
AcDbEntity
  8
0
  6
CONTINUOUS
100
AcDbVertex
100
AcDb2dVertex
 10
46.675913
 20
157.977881
 30
0.0
  0
VERTEX
  5
236
100
AcDbEntity
  8
0
  6
CONTINUOUS
100
AcDbVertex
100
AcDb2dVertex
 10
46.016913
 20
157.151381
 30
0.0
  0
VERTEX
  5
237
100
AcDbEntity
  8
0
  6
CONTINUOUS
100
AcDbVertex
100
AcDb2dVertex
 10
45.437913
 20
156.295479
 30
0.0
  0
VERTEX
  5
238
100
AcDbEntity
  8
0
  6
CONTINUOUS
100
AcDbVertex
100
AcDb2dVertex
 10
44.940913
 20
155.414031
 30
0.0
  0
VERTEX
  5
239
100
AcDbEntity
  8
0
  6
CONTINUOUS
100
AcDbVertex
100
AcDb2dVertex
 10
44.528913
 20
154.511011
 30
0.0
  0
SEQEND
  5
23A
100
AcDbEntity
  8
0
  0
LINE
  5
23B
100
AcDbEntity
  8
0
  6
CONTINUOUS
100
AcDbLine
 10
41.756913
 20
154.510781
 30
0.0
 11
41.756913
 21
163.176061
 31
0.0
  0
LINE
  5
23C
100
AcDbEntity
  8
0
  6
CONTINUOUS
100
AcDbLine
 10
43.756913
 20
154.510781
 30
0.0
 11
43.756913
 21
164.763461
 31
0.0
  0
LINE
  5
23D
100
AcDbEntity
  8
0
  6
CONTINUOUS
 62
     1
100
AcDbLine
 10
68.756913
 20
178.456791
 30
0.0
 11
68.756913
 21
173.248791
 31
0.0
  0
LINE
  5
23E
100
AcDbEntity
  8
0
  6
CONTINUOUS
100
AcDbLine
 10
133.757113
 20
110.676091
 30
0.0
 11
133.757113
 21
163.176061
 31
0.0
  0
LINE
  5
23F
100
AcDbEntity
  8
0
  6
DASHED
100
AcDbLine
 10
127.757113
 20
106.341591
 30
0.0
 11
127.757113
 21
154.510781
 31
0.0
  0
LINE
  5
240
100
AcDbEntity
  8
0
  6
CONTINUOUS
 62
     1
100
AcDbLine
 10
79.756913
 20
136.929991
 30
0.0
 11
79.756913
 21
151.070591
 31
0.0
  0
LINE
  5
241
100
AcDbEntity
  8
0
  6
CONTINUOUS
 62
     1
100
AcDbLine
 10
72.756913
 20
139.317391
 30
0.0
 11
72.756913
 21
153.449991
 31
0.0
  0
LINE
  5
242
100
AcDbEntity
  8
0
  6
CONTINUOUS
 62
     1
100
AcDbLine
 10
89.757113
 20
151.070591
 30
0.0
 11
89.757113
 21
136.929991
 31
0.0
  0
LINE
  5
243
100
AcDbEntity
  8
0
  6
CONTINUOUS
 62
     1
100
AcDbLine
 10
96.757113
 20
153.449991
 30
0.0
 11
96.757113
 21
139.317191
 31
0.0
  0
LINE
  5
244
100
AcDbEntity
  8
0
  6
CONTINUOUS
 62
     1
100
AcDbLine
 10
101.757113
 20
157.313759
 30
0.0
 11
101.757113
 21
143.194091
 31
0.0
  0
LINE
  5
245
100
AcDbEntity
  8
0
  6
CENTER
 62
     1
100
AcDbLine
 10
84.756913
 20
172.921991
 30
0.0
 11
84.756913
 21
104.686291
 31
0.0
  0
ARC
  5
246
100
AcDbEntity
  8
0
  6
CONTINUOUS
100
AcDbCircle
 10
126.257113
 20
106.341591
 30
0.0
 40
1.5
100
AcDbArc
 50
0.0
 51
90.0
  0
LINE
  5
247
100
AcDbEntity
  8
0
  6
CONTINUOUS
100
AcDbLine
 10
127.757113
 20
106.341591
 30
0.0
 11
127.757113
 21
103.176091
 31
0.0
  0
ARC
  5
248
100
AcDbEntity
  8
0
  6
CONTINUOUS
100
AcDbCircle
 10
135.257113
 20
110.676091
 30
0.0
 40
1.5
100
AcDbArc
 50
180.0
 51
270.0
  0
ARC
  5
249
100
AcDbEntity
  8
0
  6
CONTINUOUS
100
AcDbCircle
 10
135.257113
 20
110.676091
 30
0.0
 40
1.5
100
AcDbArc
 50
180.005
 51
270.005
  0
ARC
  5
24A
100
AcDbEntity
  8
0
  6
CONTINUOUS
100
AcDbCircle
 10
133.257113
 20
129.676091
 30
0.0
 40
0.5
100
AcDbArc
 50
0.0
 51
90.0
  0
ARC
  5
24B
100
AcDbEntity
  8
0
  6
CONTINUOUS
100
AcDbCircle
 10
133.257113
 20
132.676091
 30
0.0
 40
0.5
100
AcDbArc
 50
270.0
 51
0.0
  0
POLYLINE
  5
24C
100
AcDbEntity
  8
0
  6
CONTINUOUS
100
AcDb2dPolyline
 66
     1
 10
0.0
 20
0.0
 30
0.0
  0
VERTEX
  5
24D
100
AcDbEntity
  8
0
  6
CONTINUOUS
100
AcDbVertex
100
AcDb2dVertex
 10
125.757113
 20
164.763401
 30
0.0
  0
VERTEX
  5
24E
100
AcDbEntity
  8
0
  6
CONTINUOUS
100
AcDbVertex
100
AcDb2dVertex
 10
125.728913
 20
165.514101
 30
0.0
  0
VERTEX
  5
24F
100
AcDbEntity
  8
0
  6
CONTINUOUS
100
AcDbVertex
100
AcDb2dVertex
 10
125.644413
 20
166.262691
 30
0.0
  0
VERTEX
  5
250
100
AcDbEntity
  8
0
  6
CONTINUOUS
100
AcDbVertex
100
AcDb2dVertex
 10
125.503913
 20
167.007091
 30
0.0
  0
VERTEX
  5
251
100
AcDbEntity
  8
0
  6
CONTINUOUS
100
AcDbVertex
100
AcDb2dVertex
 10
125.307613
 20
167.745091
 30
0.0
  0
VERTEX
  5
252
100
AcDbEntity
  8
0
  6
CONTINUOUS
100
AcDbVertex
100
AcDb2dVertex
 10
125.056213
 20
168.474691
 30
0.0
  0
VERTEX
  5
253
100
AcDbEntity
  8
0
  6
CONTINUOUS
100
AcDbVertex
100
AcDb2dVertex
 10
124.750413
 20
169.193891
 30
0.0
  0
VERTEX
  5
254
100
AcDbEntity
  8
0
  6
CONTINUOUS
100
AcDbVertex
100
AcDb2dVertex
 10
124.391013
 20
169.900491
 30
0.0
  0
VERTEX
  5
255
100
AcDbEntity
  8
0
  6
CONTINUOUS
100
AcDbVertex
100
AcDb2dVertex
 10
123.979113
 20
170.592691
 30
0.0
  0
VERTEX
  5
256
100
AcDbEntity
  8
0
  6
CONTINUOUS
100
AcDbVertex
100
AcDb2dVertex
 10
123.515813
 20
171.268491
 30
0.0
  0
VERTEX
  5
257
100
AcDbEntity
  8
0
  6
CONTINUOUS
100
AcDbVertex
100
AcDb2dVertex
 10
123.002513
 20
171.925891
 30
0.0
  0
VERTEX
  5
258
100
AcDbEntity
  8
0
  6
CONTINUOUS
100
AcDbVertex
100
AcDb2dVertex
 10
122.440513
 20
172.563091
 30
0.0
  0
VERTEX
  5
259
100
AcDbEntity
  8
0
  6
CONTINUOUS
100
AcDbVertex
100
AcDb2dVertex
 10
121.831413
 20
173.178291
 30
0.0
  0
VERTEX
  5
25A
100
AcDbEntity
  8
0
  6
CONTINUOUS
100
AcDbVertex
100
AcDb2dVertex
 10
121.177113
 20
173.769791
 30
0.0
  0
VERTEX
  5
25B
100
AcDbEntity
  8
0
  6
CONTINUOUS
100
AcDbVertex
100
AcDb2dVertex
 10
120.479213
 20
174.335891
 30
0.0
  0
VERTEX
  5
25C
100
AcDbEntity
  8
0
  6
CONTINUOUS
100
AcDbVertex
100
AcDb2dVertex
 10
119.739913
 20
174.874991
 30
0.0
  0
VERTEX
  5
25D
100
AcDbEntity
  8
0
  6
CONTINUOUS
100
AcDbVertex
100
AcDb2dVertex
 10
118.961113
 20
175.385591
 30
0.0
  0
VERTEX
  5
25E
100
AcDbEntity
  8
0
  6
CONTINUOUS
100
AcDbVertex
100
AcDb2dVertex
 10
118.145113
 20
175.866191
 30
0.0
  0
VERTEX
  5
25F
100
AcDbEntity
  8
0
  6
CONTINUOUS
100
AcDbVertex
100
AcDb2dVertex
 10
117.294213
 20
176.315491
 30
0.0
  0
VERTEX
  5
260
100
AcDbEntity
  8
0
  6
CONTINUOUS
100
AcDbVertex
100
AcDb2dVertex
 10
116.410713
 20
176.732291
 30
0.0
  0
VERTEX
  5
261
100
AcDbEntity
  8
0
  6
CONTINUOUS
100
AcDbVertex
100
AcDb2dVertex
 10
115.497213
 20
177.115291
 30
0.0
  0
VERTEX
  5
262
100
AcDbEntity
  8
0
  6
CONTINUOUS
100
AcDbVertex
100
AcDb2dVertex
 10
114.556213
 20
177.463491
 30
0.0
  0
VERTEX
  5
263
100
AcDbEntity
  8
0
  6
CONTINUOUS
100
AcDbVertex
100
AcDb2dVertex
 10
113.590413
 20
177.775891
 30
0.0
  0
VERTEX
  5
264
100
AcDbEntity
  8
0
  6
CONTINUOUS
100
AcDbVertex
100
AcDb2dVertex
 10
112.602613
 20
178.051491
 30
0.0
  0
VERTEX
  5
265
100
AcDbEntity
  8
0
  6
CONTINUOUS
100
AcDbVertex
100
AcDb2dVertex
 10
111.595413
 20
178.289791
 30
0.0
  0
VERTEX
  5
266
100
AcDbEntity
  8
0
  6
CONTINUOUS
100
AcDbVertex
100
AcDb2dVertex
 10
110.571713
 20
178.489791
 30
0.0
  0
VERTEX
  5
267
100
AcDbEntity
  8
0
  6
CONTINUOUS
100
AcDbVertex
100
AcDb2dVertex
 10
109.534513
 20
178.651191
 30
0.0
  0
VERTEX
  5
268
100
AcDbEntity
  8
0
  6
CONTINUOUS
100
AcDbVertex
100
AcDb2dVertex
 10
108.486713
 20
178.773391
 30
0.0
  0
VERTEX
  5
269
100
AcDbEntity
  8
0
  6
CONTINUOUS
100
AcDbVertex
100
AcDb2dVertex
 10
107.431113
 20
178.856091
 30
0.0
  0
VERTEX
  5
26A
100
AcDbEntity
  8
0
  6
CONTINUOUS
100
AcDbVertex
100
AcDb2dVertex
 10
106.370813
 20
178.899091
 30
0.0
  0
VERTEX
  5
26B
100
AcDbEntity
  8
0
  6
CONTINUOUS
100
AcDbVertex
100
AcDb2dVertex
 10
105.308813
 20
178.902191
 30
0.0
  0
VERTEX
  5
26C
100
AcDbEntity
  8
0
  6
CONTINUOUS
100
AcDbVertex
100
AcDb2dVertex
 10
104.248113
 20
178.865391
 30
0.0
  0
VERTEX
  5
26D
100
AcDbEntity
  8
0
  6
CONTINUOUS
100
AcDbVertex
100
AcDb2dVertex
 10
103.191613
 20
178.788891
 30
0.0
  0
VERTEX
  5
26E
100
AcDbEntity
  8
0
  6
CONTINUOUS
100
AcDbVertex
100
AcDb2dVertex
 10
102.142313
 20
178.672791
 30
0.0
  0
VERTEX
  5
26F
100
AcDbEntity
  8
0
  6
CONTINUOUS
100
AcDbVertex
100
AcDb2dVertex
 10
101.103213
 20
178.517491
 30
0.0
  0
VERTEX
  5
270
100
AcDbEntity
  8
0
  6
CONTINUOUS
100
AcDbVertex
100
AcDb2dVertex
 10
100.077313
 20
178.323391
 30
0.0
  0
VERTEX
  5
271
100
AcDbEntity
  8
0
  6
CONTINUOUS
100
AcDbVertex
100
AcDb2dVertex
 10
99.067413
 20
178.091091
 30
0.0
  0
VERTEX
  5
272
100
AcDbEntity
  8
0
  6
CONTINUOUS
100
AcDbVertex
100
AcDb2dVertex
 10
98.076313
 20
177.821191
 30
0.0
  0
VERTEX
  5
273
100
AcDbEntity
  8
0
  6
CONTINUOUS
100
AcDbVertex
100
AcDb2dVertex
 10
97.106913
 20
177.514491
 30
0.0
  0
VERTEX
  5
274
100
AcDbEntity
  8
0
  6
CONTINUOUS
100
AcDbVertex
100
AcDb2dVertex
 10
96.161913
 20
177.171891
 30
0.0
  0
VERTEX
  5
275
100
AcDbEntity
  8
0
  6
CONTINUOUS
100
AcDbVertex
100
AcDb2dVertex
 10
95.243913
 20
176.794191
 30
0.0
  0
SEQEND
  5
276
100
AcDbEntity
  8
0
  0
LINE
  5
277
100
AcDbEntity
  8
0
  6
CENTER
 62
     1
100
AcDbLine
 10
93.956813
 20
165.460241
 30
0.0
 11
74.256913
 21
165.460241
 31
0.0
  0
LINE
  5
278
100
AcDbEntity
  8
0
  6
CENTER
 62
     1
100
AcDbLine
 10
74.256913
 20
166.860191
 30
0.0
 11
93.956813
 21
166.860191
 31
0.0
  0
LINE
  5
279
100
AcDbEntity
  8
0
  6
CONTINUOUS
 62
     1
100
AcDbLine
 10
100.757113
 20
178.456791
 30
0.0
 11
100.757113
 21
173.248791
 31
0.0
  0
LINE
  5
27A
100
AcDbEntity
  8
0
  6
CONTINUOUS
100
AcDbLine
 10
104.757113
 20
165.460241
 30
0.0
 11
104.757113
 21
150.668741
 31
0.0
  0
LINE
  5
27B
100
AcDbEntity
  8
0
  6
CONTINUOUS
 62
     1
100
AcDbLine
 10
105.757113
 20
178.456791
 30
0.0
 11
105.757113
 21
164.763461
 31
0.0
  0
LINE
  5
27C
100
AcDbEntity
  8
0
  6
CONTINUOUS
 62
     1
100
AcDbLine
 10
110.757113
 20
164.314731
 30
0.0
 11
110.757113
 21
178.456791
 31
0.0
  0
LINE
  5
27D
100
AcDbEntity
  8
0
  6
CONTINUOUS
 62
     1
100
AcDbLine
 10
122.757113
 20
158.071331
 30
0.0
 11
122.757113
 21
172.213391
 31
0.0
  0
LINE
  5
27E
100
AcDbEntity
  8
0
  6
CONTINUOUS
 62
     1
100
AcDbLine
 10
117.757113
 20
161.935341
 30
0.0
 11
117.757113
 21
176.077391
 31
0.0
  0
LINE
  5
27F
100
AcDbEntity
  8
0
  6
CONTINUOUS
100
AcDbLine
 10
104.757113
 20
154.510781
 30
0.0
 11
133.757113
 21
154.510781
 31
0.0
  0
POLYLINE
  5
280
100
AcDbEntity
  8
0
  6
CONTINUOUS
100
AcDb2dPolyline
 66
     1
 10
0.0
 20
0.0
 30
0.0
  0
VERTEX
  5
281
100
AcDbEntity
  8
0
  6
CONTINUOUS
100
AcDbVertex
100
AcDb2dVertex
 10
124.985713
 20
154.511011
 30
0.0
  0
VERTEX
  5
282
100
AcDbEntity
  8
0
  6
CONTINUOUS
100
AcDbVertex
100
AcDb2dVertex
 10
124.573613
 20
155.414031
 30
0.0
  0
VERTEX
  5
283
100
AcDbEntity
  8
0
  6
CONTINUOUS
100
AcDbVertex
100
AcDb2dVertex
 10
124.076713
 20
156.295476
 30
0.0
  0
VERTEX
  5
284
100
AcDbEntity
  8
0
  6
CONTINUOUS
100
AcDbVertex
100
AcDb2dVertex
 10
123.497413
 20
157.151376
 30
0.0
  0
VERTEX
  5
285
100
AcDbEntity
  8
0
  6
CONTINUOUS
100
AcDbVertex
100
AcDb2dVertex
 10
122.838213
 20
157.977881
 30
0.0
  0
VERTEX
  5
286
100
AcDbEntity
  8
0
  6
CONTINUOUS
100
AcDbVertex
100
AcDb2dVertex
 10
122.102013
 20
158.771261
 30
0.0
  0
VERTEX
  5
287
100
AcDbEntity
  8
0
  6
CONTINUOUS
100
AcDbVertex
100
AcDb2dVertex
 10
121.292413
 20
159.527961
 30
0.0
  0
VERTEX
  5
288
100
AcDbEntity
  8
0
  6
CONTINUOUS
100
AcDbVertex
100
AcDb2dVertex
 10
120.412713
 20
160.244551
 30
0.0
  0
VERTEX
  5
289
100
AcDbEntity
  8
0
  6
CONTINUOUS
100
AcDbVertex
100
AcDb2dVertex
 10
119.467113
 20
160.917821
 30
0.0
  0
VERTEX
  5
28A
100
AcDbEntity
  8
0
  6
CONTINUOUS
100
AcDbVertex
100
AcDb2dVertex
 10
118.459813
 20
161.544741
 30
0.0
  0
VERTEX
  5
28B
100
AcDbEntity
  8
0
  6
CONTINUOUS
100
AcDbVertex
100
AcDb2dVertex
 10
117.395313
 20
162.122491
 30
0.0
  0
VERTEX
  5
28C
100
AcDbEntity
  8
0
  6
CONTINUOUS
100
AcDbVertex
100
AcDb2dVertex
 10
116.278313
 20
162.648451
 30
0.0
  0
VERTEX
  5
28D
100
AcDbEntity
  8
0
  6
CONTINUOUS
100
AcDbVertex
100
AcDb2dVertex
 10
115.114113
 20
163.120271
 30
0.0
  0
VERTEX
  5
28E
100
AcDbEntity
  8
0
  6
CONTINUOUS
100
AcDbVertex
100
AcDb2dVertex
 10
113.907613
 20
163.535821
 30
0.0
  0
VERTEX
  5
28F
100
AcDbEntity
  8
0
  6
CONTINUOUS
100
AcDbVertex
100
AcDb2dVertex
 10
112.664513
 20
163.893231
 30
0.0
  0
VERTEX
  5
290
100
AcDbEntity
  8
0
  6
CONTINUOUS
100
AcDbVertex
100
AcDb2dVertex
 10
111.390413
 20
164.190891
 30
0.0
  0
VERTEX
  5
291
100
AcDbEntity
  8
0
  6
CONTINUOUS
100
AcDbVertex
100
AcDb2dVertex
 10
110.090813
 20
164.427461
 30
0.0
  0
VERTEX
  5
292
100
AcDbEntity
  8
0
  6
CONTINUOUS
100
AcDbVertex
100
AcDb2dVertex
 10
108.771713
 20
164.601871
 30
0.0
  0
VERTEX
  5
293
100
AcDbEntity
  8
0
  6
CONTINUOUS
100
AcDbVertex
100
AcDb2dVertex
 10
107.439113
 20
164.713351
 30
0.0
  0
VERTEX
  5
294
100
AcDbEntity
  8
0
  6
CONTINUOUS
100
AcDbVertex
100
AcDb2dVertex
 10
106.098913
 20
164.761391
 30
0.0
  0
VERTEX
  5
295
100
AcDbEntity
  8
0
  6
CONTINUOUS
100
AcDbVertex
100
AcDb2dVertex
 10
104.757113
 20
164.745761
 30
0.0
  0
SEQEND
  5
296
100
AcDbEntity
  8
0
  0
LINE
  5
297
100
AcDbEntity
  8
0
  6
CONTINUOUS
100
AcDbLine
 10
127.757113
 20
154.510781
 30
0.0
 11
127.757113
 21
163.176061
 31
0.0
  0
LINE
  5
298
100
AcDbEntity
  8
0
  6
CONTINUOUS
100
AcDbLine
 10
125.757113
 20
154.510781
 30
0.0
 11
125.757113
 21
164.763461
 31
0.0
  0
LINE
  5
299
100
AcDbEntity
  8
0
  6
CONTINUOUS
100
AcDbLine
 10
154.757113
 20
163.176061
 30
0.0
 11
154.757113
 21
103.468391
 31
0.0
  0
LINE
  5
29A
100
AcDbEntity
  8
0
  6
CONTINUOUS
100
AcDbLine
 10
140.507113
 20
121.676091
 30
0.0
 11
140.507113
 21
124.676091
 31
0.0
  0
LINE
  5
29B
100
AcDbEntity
  8
0
  6
CONTINUOUS
100
AcDbLine
 10
149.007113
 20
121.676091
 30
0.0
 11
149.007113
 21
124.676091
 31
0.0
  0
ARC
  5
29C
100
AcDbEntity
  8
0
  6
CONTINUOUS
100
AcDbCircle
 10
144.757113
 20
121.676091
 30
0.0
 40
4.25
100
AcDbArc
 50
180.0
 51
0.0
  0
ARC
  5
29D
100
AcDbEntity
  8
0
  6
CONTINUOUS
100
AcDbCircle
 10
144.757113
 20
124.676091
 30
0.0
 40
4.25
100
AcDbArc
 50
0.0
 51
180.0
  0
CIRCLE
  5
29E
100
AcDbEntity
  8
0
  6
CONTINUOUS
100
AcDbCircle
 10
144.795713
 20
138.176091
 30
0.0
 40
3.0
  0
LINE
  5
29F
100
AcDbEntity
  8
0
  6
CONTINUOUS
100
AcDbLine
 10
141.795713
 20
138.176091
 30
0.0
 11
147.795713
 21
138.176091
 31
0.0
  0
LINE
  5
2A0
100
AcDbEntity
  8
0
  6
CONTINUOUS
100
AcDbLine
 10
144.757113
 20
139.892291
 30
0.0
 11
143.040813
 21
138.176091
 31
0.0
  0
LINE
  5
2A1
100
AcDbEntity
  8
0
  6
CONTINUOUS
100
AcDbLine
 10
142.333713
 20
138.176091
 30
0.0
 11
144.757113
 21
140.599391
 31
0.0
  0
LINE
  5
2A2
100
AcDbEntity
  8
0
  6
CONTINUOUS
100
AcDbLine
 10
144.621613
 20
141.170991
 30
0.0
 11
141.800713
 21
138.350191
 31
0.0
  0
LINE
  5
2A3
100
AcDbEntity
  8
0
  6
CONTINUOUS
100
AcDbLine
 10
144.757113
 20
138.478091
 30
0.0
 11
144.455113
 21
138.176091
 31
0.0
  0
LINE
  5
2A4
100
AcDbEntity
  8
0
  6
CONTINUOUS
100
AcDbLine
 10
143.748013
 20
138.176091
 30
0.0
 11
144.757113
 21
139.185191
 31
0.0
  0
LINE
  5
2A5
100
AcDbEntity
  8
0
  6
CENTER
 62
     1
100
AcDbLine
 10
150.818113
 20
138.176091
 30
0.0
 11
137.854513
 21
138.176091
 31
0.0
  0
LINE
  5
2A6
100
AcDbEntity
  8
0
  6
CONTINUOUS
100
AcDbLine
 10
141.995113
 20
139.251691
 30
0.0
 11
143.720113
 21
140.976591
 31
0.0
  0
LINE
  5
2A7
100
AcDbEntity
  8
0
  6
CONTINUOUS
100
AcDbLine
 10
144.997413
 20
135.182891
 30
0.0
 11
147.788913
 21
137.974391
 31
0.0
  0
LINE
  5
2A8
100
AcDbEntity
  8
0
  6
CONTINUOUS
100
AcDbLine
 10
147.283513
 20
138.176091
 30
0.0
 11
144.757113
 21
135.649691
 31
0.0
  0
LINE
  5
2A9
100
AcDbEntity
  8
0
  6
CONTINUOUS
100
AcDbLine
 10
144.757113
 20
136.356791
 30
0.0
 11
146.576413
 21
138.176091
 31
0.0
  0
LINE
  5
2AA
100
AcDbEntity
  8
0
  6
CONTINUOUS
100
AcDbLine
 10
145.869313
 20
138.176091
 30
0.0
 11
144.757113
 21
137.063891
 31
0.0
  0
LINE
  5
2AB
100
AcDbEntity
  8
0
  6
CONTINUOUS
100
AcDbLine
 10
144.757113
 20
135.176591
 30
0.0
 11
144.757113
 21
141.176091
 31
0.0
  0
LINE
  5
2AC
100
AcDbEntity
  8
0
  6
CONTINUOUS
100
AcDbLine
 10
144.757113
 20
137.770991
 30
0.0
 11
145.162213
 21
138.176091
 31
0.0
  0
LINE
  5
2AD
100
AcDbEntity
  8
0
  6
CONTINUOUS
100
AcDbLine
 10
147.579513
 20
137.057891
 30
0.0
 11
145.913913
 21
135.392291
 31
0.0
  0
LINE
  5
2AE
100
AcDbEntity
  8
0
  6
CONTINUOUS
100
AcDbLine
 10
140.507113
 20
151.676061
 30
0.0
 11
140.507113
 21
154.676061
 31
0.0
  0
LINE
  5
2AF
100
AcDbEntity
  8
0
  6
CONTINUOUS
100
AcDbLine
 10
149.007113
 20
151.676061
 30
0.0
 11
149.007113
 21
154.676061
 31
0.0
  0
ARC
  5
2B0
100
AcDbEntity
  8
0
  6
CONTINUOUS
100
AcDbCircle
 10
144.757113
 20
151.676061
 30
0.0
 40
4.25
100
AcDbArc
 50
180.0
 51
0.0
  0
LINE
  5
2B1
100
AcDbEntity
  8
0
  6
CENTER
 62
     1
100
AcDbLine
 10
152.438513
 20
153.176061
 30
0.0
 11
136.740513
 21
153.176061
 31
0.0
  0
ARC
  5
2B2
100
AcDbEntity
  8
0
  6
CONTINUOUS
100
AcDbCircle
 10
144.757113
 20
154.676061
 30
0.0
 40
4.25
100
AcDbArc
 50
0.0
 51
180.0
  0
LINE
  5
2B3
100
AcDbEntity
  8
0
  6
CONTINUOUS
100
AcDbLine
 10
133.757113
 20
288.429591
 30
0.0
 11
137.757113
 21
288.429591
 31
0.0
  0
LINE
  5
2B4
100
AcDbEntity
  8
0
  6
CONTINUOUS
100
AcDbLine
 10
154.757113
 20
362.744591
 30
0.0
 11
127.757113
 21
362.744591
 31
0.0
  0
LINE
  5
2B5
100
AcDbEntity
  8
0
  6
CONTINUOUS
100
AcDbLine
 10
154.757113
 20
356.744591
 30
0.0
 11
135.257113
 21
356.744591
 31
0.0
  0
LINE
  5
2B6
100
AcDbEntity
  8
0
  6
CONTINUOUS
100
AcDbLine
 10
137.757113
 20
355.244591
 30
0.0
 11
133.757113
 21
355.244591
 31
0.0
  0
LINE
  5
2B7
100
AcDbEntity
  8
0
  6
CENTER
 62
     1
100
AcDbLine
 10
0.313913
 20
232.960291
 30
0.0
 11
335.860913
 21
232.960291
 31
0.0
  0
LINE
  5
2B8
100
AcDbEntity
  8
0
  6
CENTER
 62
     1
100
AcDbLine
 10
136.125313
 20
342.744591
 30
0.0
 11
152.658513
 21
342.744591
 31
0.0
  0
LINE
  5
2B9
100
AcDbEntity
  8
0
  6
CONTINUOUS
100
AcDbLine
 10
14.756913
 20
362.744591
 30
0.0
 11
14.756913
 21
302.744591
 31
0.0
  0
LINE
  5
2BA
100
AcDbEntity
  8
0
  6
CONTINUOUS
100
AcDbLine
 10
35.756913
 20
288.421591
 30
0.0
 11
35.756913
 21
355.244591
 31
0.0
  0
LINE
  5
2BB
100
AcDbEntity
  8
0
  6
CONTINUOUS
100
AcDbLine
 10
31.763913
 20
355.236591
 30
0.0
 11
31.773913
 21
288.421591
 31
0.0
  0
LINE
  5
2BC
100
AcDbEntity
  8
0
  6
DASHED
100
AcDbLine
 10
41.756913
 20
359.579591
 30
0.0
 11
41.756913
 21
311.410591
 31
0.0
  0
LINE
  5
2BD
100
AcDbEntity
  8
0
  6
CONTINUOUS
100
AcDbLine
 10
133.757113
 20
355.244591
 30
0.0
 11
133.757113
 21
288.429591
 31
0.0
  0
LINE
  5
2BE
100
AcDbEntity
  8
0
  6
DASHED
100
AcDbLine
 10
127.757113
 20
359.579591
 30
0.0
 11
127.757113
 21
311.410591
 31
0.0
  0
LINE
  5
2BF
100
AcDbEntity
  8
0
  6
CENTER
 62
     1
100
AcDbLine
 10
84.758913
 20
376.652591
 30
0.0
 11
84.770913
 21
224.103291
 31
0.0
  0
CIRCLE
  5
2C0
100
AcDbEntity
  8
0
  6
CONTINUOUS
 62
     1
100
AcDbCircle
 10
24.795913
 20
232.960291
 30
0.0
 40
3.0
  0
LINE
  5
2C1
100
AcDbEntity
  8
0
  6
CONTINUOUS
 62
     1
100
AcDbLine
 10
21.795913
 20
232.960291
 30
0.0
 11
27.795913
 21
232.960291
 31
0.0
  0
LINE
  5
2C2
100
AcDbEntity
  8
0
  6
CONTINUOUS
 62
     1
100
AcDbLine
 10
27.672913
 20
232.112091
 30
0.0
 11
25.643913
 21
230.082591
 31
0.0
  0
LINE
  5
2C3
100
AcDbEntity
  8
0
  6
CONTINUOUS
 62
     1
100
AcDbLine
 10
24.813913
 20
229.960291
 30
0.0
 11
27.795913
 21
232.941591
 31
0.0
  0
LINE
  5
2C4
100
AcDbEntity
  8
0
  6
CONTINUOUS
 62
     1
100
AcDbLine
 10
27.106913
 20
232.960291
 30
0.0
 11
24.756913
 21
230.610191
 31
0.0
  0
LINE
  5
2C5
100
AcDbEntity
  8
0
  6
CONTINUOUS
 62
     1
100
AcDbLine
 10
24.756913
 20
229.960691
 30
0.0
 11
24.756913
 21
235.960291
 31
0.0
  0
LINE
  5
2C6
100
AcDbEntity
  8
0
  6
CONTINUOUS
 62
     1
100
AcDbLine
 10
24.427913
 20
235.937591
 30
0.0
 11
21.817913
 21
233.328191
 31
0.0
  0
LINE
  5
2C7
100
AcDbEntity
  8
0
  6
CONTINUOUS
 62
     1
100
AcDbLine
 10
22.157913
 20
232.960291
 30
0.0
 11
24.756913
 21
235.559891
 31
0.0
  0
LINE
  5
2C8
100
AcDbEntity
  8
0
  6
CONTINUOUS
 62
     1
100
AcDbLine
 10
22.141913
 20
234.358391
 30
0.0
 11
23.397913
 21
235.614491
 31
0.0
  0
LINE
  5
2C9
100
AcDbEntity
  8
0
  6
CONTINUOUS
 62
     1
100
AcDbLine
 10
24.756913
 20
233.438591
 30
0.0
 11
24.278913
 21
232.960291
 31
0.0
  0
LINE
  5
2CA
100
AcDbEntity
  8
0
  6
CONTINUOUS
 62
     1
100
AcDbLine
 10
23.571913
 20
232.960291
 30
0.0
 11
24.756913
 21
234.145691
 31
0.0
  0
LINE
  5
2CB
100
AcDbEntity
  8
0
  6
CONTINUOUS
 62
     1
100
AcDbLine
 10
24.756913
 20
234.852791
 30
0.0
 11
22.864913
 21
232.960291
 31
0.0
  0
LINE
  5
2CC
100
AcDbEntity
  8
0
  6
CONTINUOUS
 62
     1
100
AcDbLine
 10
24.756913
 20
231.317291
 30
0.0
 11
26.399913
 21
232.960291
 31
0.0
  0
LINE
  5
2CD
100
AcDbEntity
  8
0
  6
CONTINUOUS
 62
     1
100
AcDbLine
 10
25.692913
 20
232.960291
 30
0.0
 11
24.756913
 21
232.024391
 31
0.0
  0
LINE
  5
2CE
100
AcDbEntity
  8
0
  6
CONTINUOUS
 62
     1
100
AcDbLine
 10
24.756913
 20
232.731491
 30
0.0
 11
24.985913
 21
232.960291
 31
0.0
  0
LINE
  5
2CF
100
AcDbEntity
  8
0
  6
CONTINUOUS
100
AcDbLine
 10
36.256913
 20
335.744591
 30
0.0
 11
133.257113
 21
335.744591
 31
0.0
  0
LINE
  5
2D0
100
AcDbEntity
  8
0
  6
CONTINUOUS
100
AcDbLine
 10
133.257113
 20
333.744591
 30
0.0
 11
36.256913
 21
333.744591
 31
0.0
  0
POLYLINE
  5
2D1
100
AcDbEntity
  8
0
  6
CONTINUOUS
100
AcDb2dPolyline
 66
     1
 10
0.0
 20
0.0
 30
0.0
  0
VERTEX
  5
2D2
100
AcDbEntity
  8
0
  6
CONTINUOUS
100
AcDbVertex
100
AcDb2dVertex
 10
63.756913
 20
287.015591
 30
0.0
  0
VERTEX
  5
2D3
100
AcDbEntity
  8
0
  6
CONTINUOUS
100
AcDbVertex
100
AcDb2dVertex
 10
65.325913
 20
287.058591
 30
0.0
  0
VERTEX
  5
2D4
100
AcDbEntity
  8
0
  6
CONTINUOUS
100
AcDbVertex
100
AcDb2dVertex
 10
66.885913
 20
287.189591
 30
0.0
  0
VERTEX
  5
2D5
100
AcDbEntity
  8
0
  6
CONTINUOUS
100
AcDbVertex
100
AcDb2dVertex
 10
68.425913
 20
287.406591
 30
0.0
  0
VERTEX
  5
2D6
100
AcDbEntity
  8
0
  6
CONTINUOUS
100
AcDbVertex
100
AcDb2dVertex
 10
69.937913
 20
287.707591
 30
0.0
  0
VERTEX
  5
2D7
100
AcDbEntity
  8
0
  6
CONTINUOUS
100
AcDbVertex
100
AcDb2dVertex
 10
71.410913
 20
288.091591
 30
0.0
  0
VERTEX
  5
2D8
100
AcDbEntity
  8
0
  6
CONTINUOUS
100
AcDbVertex
100
AcDb2dVertex
 10
72.836913
 20
288.556591
 30
0.0
  0
VERTEX
  5
2D9
100
AcDbEntity
  8
0
  6
CONTINUOUS
100
AcDbVertex
100
AcDb2dVertex
 10
74.206913
 20
289.099591
 30
0.0
  0
VERTEX
  5
2DA
100
AcDbEntity
  8
0
  6
CONTINUOUS
100
AcDbVertex
100
AcDb2dVertex
 10
75.512913
 20
289.716591
 30
0.0
  0
VERTEX
  5
2DB
100
AcDbEntity
  8
0
  6
CONTINUOUS
100
AcDbVertex
100
AcDb2dVertex
 10
76.745913
 20
290.403591
 30
0.0
  0
VERTEX
  5
2DC
100
AcDbEntity
  8
0
  6
CONTINUOUS
100
AcDbVertex
100
AcDb2dVertex
 10
77.898913
 20
291.157591
 30
0.0
  0
VERTEX
  5
2DD
100
AcDbEntity
  8
0
  6
CONTINUOUS
100
AcDbVertex
100
AcDb2dVertex
 10
78.964913
 20
291.972591
 30
0.0
  0
VERTEX
  5
2DE
100
AcDbEntity
  8
0
  6
CONTINUOUS
100
AcDbVertex
100
AcDb2dVertex
 10
79.937913
 20
292.844591
 30
0.0
  0
VERTEX
  5
2DF
100
AcDbEntity
  8
0
  6
CONTINUOUS
100
AcDbVertex
100
AcDb2dVertex
 10
80.809913
 20
293.768591
 30
0.0
  0
VERTEX
  5
2E0
100
AcDbEntity
  8
0
  6
CONTINUOUS
100
AcDbVertex
100
AcDb2dVertex
 10
81.576913
 20
294.737591
 30
0.0
  0
VERTEX
  5
2E1
100
AcDbEntity
  8
0
  6
CONTINUOUS
100
AcDbVertex
100
AcDb2dVertex
 10
82.234913
 20
295.745591
 30
0.0
  0
VERTEX
  5
2E2
100
AcDbEntity
  8
0
  6
CONTINUOUS
100
AcDbVertex
100
AcDb2dVertex
 10
82.520913
 20
296.262591
 30
0.0
  0
VERTEX
  5
2E3
100
AcDbEntity
  8
0
  6
CONTINUOUS
100
AcDbVertex
100
AcDb2dVertex
 10
82.777913
 20
296.787591
 30
0.0
  0
VERTEX
  5
2E4
100
AcDbEntity
  8
0
  6
CONTINUOUS
100
AcDbVertex
100
AcDb2dVertex
 10
83.005913
 20
297.318591
 30
0.0
  0
VERTEX
  5
2E5
100
AcDbEntity
  8
0
  6
CONTINUOUS
100
AcDbVertex
100
AcDb2dVertex
 10
83.204913
 20
297.856591
 30
0.0
  0
VERTEX
  5
2E6
100
AcDbEntity
  8
0
  6
CONTINUOUS
100
AcDbVertex
100
AcDb2dVertex
 10
83.372913
 20
298.398591
 30
0.0
  0
VERTEX
  5
2E7
100
AcDbEntity
  8
0
  6
CONTINUOUS
100
AcDbVertex
100
AcDb2dVertex
 10
83.510913
 20
298.945591
 30
0.0
  0
VERTEX
  5
2E8
100
AcDbEntity
  8
0
  6
CONTINUOUS
100
AcDbVertex
100
AcDb2dVertex
 10
83.618913
 20
299.495591
 30
0.0
  0
VERTEX
  5
2E9
100
AcDbEntity
  8
0
  6
CONTINUOUS
100
AcDbVertex
100
AcDb2dVertex
 10
83.695913
 20
300.047591
 30
0.0
  0
VERTEX
  5
2EA
100
AcDbEntity
  8
0
  6
CONTINUOUS
100
AcDbVertex
100
AcDb2dVertex
 10
83.741913
 20
300.602591
 30
0.0
  0
VERTEX
  5
2EB
100
AcDbEntity
  8
0
  6
CONTINUOUS
100
AcDbVertex
100
AcDb2dVertex
 10
83.756913
 20
301.157591
 30
0.0
  0
VERTEX
  5
2EC
100
AcDbEntity
  8
0
  6
CONTINUOUS
100
AcDbVertex
100
AcDb2dVertex
 10
83.741913
 20
301.712591
 30
0.0
  0
VERTEX
  5
2ED
100
AcDbEntity
  8
0
  6
CONTINUOUS
100
AcDbVertex
100
AcDb2dVertex
 10
83.695913
 20
302.266591
 30
0.0
  0
VERTEX
  5
2EE
100
AcDbEntity
  8
0
  6
CONTINUOUS
100
AcDbVertex
100
AcDb2dVertex
 10
83.618913
 20
302.819591
 30
0.0
  0
VERTEX
  5
2EF
100
AcDbEntity
  8
0
  6
CONTINUOUS
100
AcDbVertex
100
AcDb2dVertex
 10
83.510913
 20
303.369591
 30
0.0
  0
VERTEX
  5
2F0
100
AcDbEntity
  8
0
  6
CONTINUOUS
100
AcDbVertex
100
AcDb2dVertex
 10
83.372913
 20
303.916591
 30
0.0
  0
VERTEX
  5
2F1
100
AcDbEntity
  8
0
  6
CONTINUOUS
100
AcDbVertex
100
AcDb2dVertex
 10
83.204913
 20
304.458591
 30
0.0
  0
VERTEX
  5
2F2
100
AcDbEntity
  8
0
  6
CONTINUOUS
100
AcDbVertex
100
AcDb2dVertex
 10
83.005913
 20
304.996591
 30
0.0
  0
VERTEX
  5
2F3
100
AcDbEntity
  8
0
  6
CONTINUOUS
100
AcDbVertex
100
AcDb2dVertex
 10
82.777913
 20
305.527591
 30
0.0
  0
VERTEX
  5
2F4
100
AcDbEntity
  8
0
  6
CONTINUOUS
100
AcDbVertex
100
AcDb2dVertex
 10
82.520913
 20
306.052591
 30
0.0
  0
VERTEX
  5
2F5
100
AcDbEntity
  8
0
  6
CONTINUOUS
100
AcDbVertex
100
AcDb2dVertex
 10
81.919913
 20
307.078591
 30
0.0
  0
VERTEX
  5
2F6
100
AcDbEntity
  8
0
  6
CONTINUOUS
100
AcDbVertex
100
AcDb2dVertex
 10
81.206913
 20
308.067591
 30
0.0
  0
VERTEX
  5
2F7
100
AcDbEntity
  8
0
  6
CONTINUOUS
100
AcDbVertex
100
AcDb2dVertex
 10
80.386913
 20
309.014591
 30
0.0
  0
VERTEX
  5
2F8
100
AcDbEntity
  8
0
  6
CONTINUOUS
100
AcDbVertex
100
AcDb2dVertex
 10
79.463913
 20
309.912591
 30
0.0
  0
VERTEX
  5
2F9
100
AcDbEntity
  8
0
  6
CONTINUOUS
100
AcDbVertex
100
AcDb2dVertex
 10
78.443913
 20
310.757591
 30
0.0
  0
VERTEX
  5
2FA
100
AcDbEntity
  8
0
  6
CONTINUOUS
100
AcDbVertex
100
AcDb2dVertex
 10
77.332913
 20
311.542591
 30
0.0
  0
VERTEX
  5
2FB
100
AcDbEntity
  8
0
  6
CONTINUOUS
100
AcDbVertex
100
AcDb2dVertex
 10
76.138913
 20
312.263591
 30
0.0
  0
VERTEX
  5
2FC
100
AcDbEntity
  8
0
  6
CONTINUOUS
100
AcDbVertex
100
AcDb2dVertex
 10
74.868913
 20
312.916591
 30
0.0
  0
VERTEX
  5
2FD
100
AcDbEntity
  8
0
  6
CONTINUOUS
100
AcDbVertex
100
AcDb2dVertex
 10
73.529913
 20
313.496591
 30
0.0
  0
VERTEX
  5
2FE
100
AcDbEntity
  8
0
  6
CONTINUOUS
100
AcDbVertex
100
AcDb2dVertex
 10
72.129913
 20
314.000591
 30
0.0
  0
VERTEX
  5
2FF
100
AcDbEntity
  8
0
  6
CONTINUOUS
100
AcDbVertex
100
AcDb2dVertex
 10
70.679913
 20
314.425591
 30
0.0
  0
VERTEX
  5
300
100
AcDbEntity
  8
0
  6
CONTINUOUS
100
AcDbVertex
100
AcDb2dVertex
 10
69.185913
 20
314.768591
 30
0.0
  0
VERTEX
  5
301
100
AcDbEntity
  8
0
  6
CONTINUOUS
100
AcDbVertex
100
AcDb2dVertex
 10
67.658913
 20
315.027591
 30
0.0
  0
VERTEX
  5
302
100
AcDbEntity
  8
0
  6
CONTINUOUS
100
AcDbVertex
100
AcDb2dVertex
 10
66.107913
 20
315.201591
 30
0.0
  0
VERTEX
  5
303
100
AcDbEntity
  8
0
  6
CONTINUOUS
100
AcDbVertex
100
AcDb2dVertex
 10
64.541913
 20
315.288591
 30
0.0
  0
VERTEX
  5
304
100
AcDbEntity
  8
0
  6
CONTINUOUS
100
AcDbVertex
100
AcDb2dVertex
 10
62.971913
 20
315.288591
 30
0.0
  0
VERTEX
  5
305
100
AcDbEntity
  8
0
  6
CONTINUOUS
100
AcDbVertex
100
AcDb2dVertex
 10
61.405913
 20
315.201591
 30
0.0
  0
VERTEX
  5
306
100
AcDbEntity
  8
0
  6
CONTINUOUS
100
AcDbVertex
100
AcDb2dVertex
 10
59.854913
 20
315.027591
 30
0.0
  0
VERTEX
  5
307
100
AcDbEntity
  8
0
  6
CONTINUOUS
100
AcDbVertex
100
AcDb2dVertex
 10
58.327913
 20
314.768591
 30
0.0
  0
VERTEX
  5
308
100
AcDbEntity
  8
0
  6
CONTINUOUS
100
AcDbVertex
100
AcDb2dVertex
 10
56.834913
 20
314.425591
 30
0.0
  0
VERTEX
  5
309
100
AcDbEntity
  8
0
  6
CONTINUOUS
100
AcDbVertex
100
AcDb2dVertex
 10
55.383913
 20
314.000591
 30
0.0
  0
VERTEX
  5
30A
100
AcDbEntity
  8
0
  6
CONTINUOUS
100
AcDbVertex
100
AcDb2dVertex
 10
53.984913
 20
313.496591
 30
0.0
  0
VERTEX
  5
30B
100
AcDbEntity
  8
0
  6
CONTINUOUS
100
AcDbVertex
100
AcDb2dVertex
 10
52.645913
 20
312.916591
 30
0.0
  0
VERTEX
  5
30C
100
AcDbEntity
  8
0
  6
CONTINUOUS
100
AcDbVertex
100
AcDb2dVertex
 10
51.374913
 20
312.263591
 30
0.0
  0
VERTEX
  5
30D
100
AcDbEntity
  8
0
  6
CONTINUOUS
100
AcDbVertex
100
AcDb2dVertex
 10
50.180913
 20
311.542591
 30
0.0
  0
VERTEX
  5
30E
100
AcDbEntity
  8
0
  6
CONTINUOUS
100
AcDbVertex
100
AcDb2dVertex
 10
49.070913
 20
310.757591
 30
0.0
  0
VERTEX
  5
30F
100
AcDbEntity
  8
0
  6
CONTINUOUS
100
AcDbVertex
100
AcDb2dVertex
 10
48.050913
 20
309.912591
 30
0.0
  0
VERTEX
  5
310
100
AcDbEntity
  8
0
  6
CONTINUOUS
100
AcDbVertex
100
AcDb2dVertex
 10
47.127913
 20
309.014591
 30
0.0
  0
VERTEX
  5
311
100
AcDbEntity
  8
0
  6
CONTINUOUS
100
AcDbVertex
100
AcDb2dVertex
 10
46.306913
 20
308.067591
 30
0.0
  0
VERTEX
  5
312
100
AcDbEntity
  8
0
  6
CONTINUOUS
100
AcDbVertex
100
AcDb2dVertex
 10
45.593913
 20
307.078591
 30
0.0
  0
VERTEX
  5
313
100
AcDbEntity
  8
0
  6
CONTINUOUS
100
AcDbVertex
100
AcDb2dVertex
 10
44.992913
 20
306.052591
 30
0.0
  0
VERTEX
  5
314
100
AcDbEntity
  8
0
  6
CONTINUOUS
100
AcDbVertex
100
AcDb2dVertex
 10
44.735913
 20
305.527591
 30
0.0
  0
VERTEX
  5
315
100
AcDbEntity
  8
0
  6
CONTINUOUS
100
AcDbVertex
100
AcDb2dVertex
 10
44.507913
 20
304.996591
 30
0.0
  0
VERTEX
  5
316
100
AcDbEntity
  8
0
  6
CONTINUOUS
100
AcDbVertex
100
AcDb2dVertex
 10
44.309913
 20
304.458591
 30
0.0
  0
VERTEX
  5
317
100
AcDbEntity
  8
0
  6
CONTINUOUS
100
AcDbVertex
100
AcDb2dVertex
 10
44.141913
 20
303.916591
 30
0.0
  0
VERTEX
  5
318
100
AcDbEntity
  8
0
  6
CONTINUOUS
100
AcDbVertex
100
AcDb2dVertex
 10
44.002913
 20
303.369591
 30
0.0
  0
VERTEX
  5
319
100
AcDbEntity
  8
0
  6
CONTINUOUS
100
AcDbVertex
100
AcDb2dVertex
 10
43.895913
 20
302.819591
 30
0.0
  0
VERTEX
  5
31A
100
AcDbEntity
  8
0
  6
CONTINUOUS
100
AcDbVertex
100
AcDb2dVertex
 10
43.818913
 20
302.267591
 30
0.0
  0
VERTEX
  5
31B
100
AcDbEntity
  8
0
  6
CONTINUOUS
100
AcDbVertex
100
AcDb2dVertex
 10
43.772913
 20
301.712591
 30
0.0
  0
VERTEX
  5
31C
100
AcDbEntity
  8
0
  6
CONTINUOUS
100
AcDbVertex
100
AcDb2dVertex
 10
43.756913
 20
301.157591
 30
0.0
  0
VERTEX
  5
31D
100
AcDbEntity
  8
0
  6
CONTINUOUS
100
AcDbVertex
100
AcDb2dVertex
 10
43.772913
 20
300.602591
 30
0.0
  0
VERTEX
  5
31E
100
AcDbEntity
  8
0
  6
CONTINUOUS
100
AcDbVertex
100
AcDb2dVertex
 10
43.818913
 20
300.047591
 30
0.0
  0
VERTEX
  5
31F
100
AcDbEntity
  8
0
  6
CONTINUOUS
100
AcDbVertex
100
AcDb2dVertex
 10
43.895913
 20
299.495591
 30
0.0
  0
VERTEX
  5
320
100
AcDbEntity
  8
0
  6
CONTINUOUS
100
AcDbVertex
100
AcDb2dVertex
 10
44.002913
 20
298.945591
 30
0.0
  0
VERTEX
  5
321
100
AcDbEntity
  8
0
  6
CONTINUOUS
100
AcDbVertex
100
AcDb2dVertex
 10
44.141913
 20
298.398591
 30
0.0
  0
VERTEX
  5
322
100
AcDbEntity
  8
0
  6
CONTINUOUS
100
AcDbVertex
100
AcDb2dVertex
 10
44.309913
 20
297.856591
 30
0.0
  0
VERTEX
  5
323
100
AcDbEntity
  8
0
  6
CONTINUOUS
100
AcDbVertex
100
AcDb2dVertex
 10
44.507913
 20
297.318591
 30
0.0
  0
VERTEX
  5
324
100
AcDbEntity
  8
0
  6
CONTINUOUS
100
AcDbVertex
100
AcDb2dVertex
 10
44.735913
 20
296.787591
 30
0.0
  0
VERTEX
  5
325
100
AcDbEntity
  8
0
  6
CONTINUOUS
100
AcDbVertex
100
AcDb2dVertex
 10
44.992913
 20
296.262591
 30
0.0
  0
VERTEX
  5
326
100
AcDbEntity
  8
0
  6
CONTINUOUS
100
AcDbVertex
100
AcDb2dVertex
 10
45.593913
 20
295.236591
 30
0.0
  0
VERTEX
  5
327
100
AcDbEntity
  8
0
  6
CONTINUOUS
100
AcDbVertex
100
AcDb2dVertex
 10
46.306913
 20
294.247591
 30
0.0
  0
VERTEX
  5
328
100
AcDbEntity
  8
0
  6
CONTINUOUS
100
AcDbVertex
100
AcDb2dVertex
 10
47.127913
 20
293.300591
 30
0.0
  0
VERTEX
  5
329
100
AcDbEntity
  8
0
  6
CONTINUOUS
100
AcDbVertex
100
AcDb2dVertex
 10
48.050913
 20
292.402591
 30
0.0
  0
VERTEX
  5
32A
100
AcDbEntity
  8
0
  6
CONTINUOUS
100
AcDbVertex
100
AcDb2dVertex
 10
49.070913
 20
291.557591
 30
0.0
  0
VERTEX
  5
32B
100
AcDbEntity
  8
0
  6
CONTINUOUS
100
AcDbVertex
100
AcDb2dVertex
 10
50.180913
 20
290.772591
 30
0.0
  0
VERTEX
  5
32C
100
AcDbEntity
  8
0
  6
CONTINUOUS
100
AcDbVertex
100
AcDb2dVertex
 10
51.374913
 20
290.051591
 30
0.0
  0
VERTEX
  5
32D
100
AcDbEntity
  8
0
  6
CONTINUOUS
100
AcDbVertex
100
AcDb2dVertex
 10
52.645913
 20
289.398591
 30
0.0
  0
VERTEX
  5
32E
100
AcDbEntity
  8
0
  6
CONTINUOUS
100
AcDbVertex
100
AcDb2dVertex
 10
53.984913
 20
288.818591
 30
0.0
  0
VERTEX
  5
32F
100
AcDbEntity
  8
0
  6
CONTINUOUS
100
AcDbVertex
100
AcDb2dVertex
 10
55.383913
 20
288.314591
 30
0.0
  0
VERTEX
  5
330
100
AcDbEntity
  8
0
  6
CONTINUOUS
100
AcDbVertex
100
AcDb2dVertex
 10
56.834913
 20
287.889591
 30
0.0
  0
VERTEX
  5
331
100
AcDbEntity
  8
0
  6
CONTINUOUS
100
AcDbVertex
100
AcDb2dVertex
 10
58.327913
 20
287.546591
 30
0.0
  0
VERTEX
  5
332
100
AcDbEntity
  8
0
  6
CONTINUOUS
100
AcDbVertex
100
AcDb2dVertex
 10
59.854913
 20
287.287591
 30
0.0
  0
VERTEX
  5
333
100
AcDbEntity
  8
0
  6
CONTINUOUS
100
AcDbVertex
100
AcDb2dVertex
 10
61.405913
 20
287.113591
 30
0.0
  0
VERTEX
  5
334
100
AcDbEntity
  8
0
  6
CONTINUOUS
100
AcDbVertex
100
AcDb2dVertex
 10
62.579913
 20
287.039591
 30
0.0
  0
VERTEX
  5
335
100
AcDbEntity
  8
0
  6
CONTINUOUS
100
AcDbVertex
100
AcDb2dVertex
 10
63.756913
 20
287.015591
 30
0.0
  0
SEQEND
  5
336
100
AcDbEntity
  8
0
  0
POLYLINE
  5
337
100
AcDbEntity
  8
0
  6
CONTINUOUS
100
AcDb2dPolyline
 66
     1
 10
0.0
 20
0.0
 30
0.0
  0
VERTEX
  5
338
100
AcDbEntity
  8
0
  6
CONTINUOUS
100
AcDbVertex
100
AcDb2dVertex
 10
83.756913
 20
314.961591
 30
0.0
  0
VERTEX
  5
339
100
AcDbEntity
  8
0
  6
CONTINUOUS
100
AcDbVertex
100
AcDb2dVertex
 10
83.741913
 20
315.503591
 30
0.0
  0
VERTEX
  5
33A
100
AcDbEntity
  8
0
  6
CONTINUOUS
100
AcDbVertex
100
AcDb2dVertex
 10
83.695913
 20
316.044591
 30
0.0
  0
VERTEX
  5
33B
100
AcDbEntity
  8
0
  6
CONTINUOUS
100
AcDbVertex
100
AcDb2dVertex
 10
83.618913
 20
316.584591
 30
0.0
  0
VERTEX
  5
33C
100
AcDbEntity
  8
0
  6
CONTINUOUS
100
AcDbVertex
100
AcDb2dVertex
 10
83.510913
 20
317.121591
 30
0.0
  0
VERTEX
  5
33D
100
AcDbEntity
  8
0
  6
CONTINUOUS
100
AcDbVertex
100
AcDb2dVertex
 10
83.372913
 20
317.654591
 30
0.0
  0
VERTEX
  5
33E
100
AcDbEntity
  8
0
  6
CONTINUOUS
100
AcDbVertex
100
AcDb2dVertex
 10
83.204913
 20
318.184591
 30
0.0
  0
VERTEX
  5
33F
100
AcDbEntity
  8
0
  6
CONTINUOUS
100
AcDbVertex
100
AcDb2dVertex
 10
83.005913
 20
318.708591
 30
0.0
  0
VERTEX
  5
340
100
AcDbEntity
  8
0
  6
CONTINUOUS
100
AcDbVertex
100
AcDb2dVertex
 10
82.777913
 20
319.227591
 30
0.0
  0
VERTEX
  5
341
100
AcDbEntity
  8
0
  6
CONTINUOUS
100
AcDbVertex
100
AcDb2dVertex
 10
82.520913
 20
319.739591
 30
0.0
  0
VERTEX
  5
342
100
AcDbEntity
  8
0
  6
CONTINUOUS
100
AcDbVertex
100
AcDb2dVertex
 10
81.919913
 20
320.740591
 30
0.0
  0
VERTEX
  5
343
100
AcDbEntity
  8
0
  6
CONTINUOUS
100
AcDbVertex
100
AcDb2dVertex
 10
81.206913
 20
321.706591
 30
0.0
  0
VERTEX
  5
344
100
AcDbEntity
  8
0
  6
CONTINUOUS
100
AcDbVertex
100
AcDb2dVertex
 10
80.386913
 20
322.630591
 30
0.0
  0
VERTEX
  5
345
100
AcDbEntity
  8
0
  6
CONTINUOUS
100
AcDbVertex
100
AcDb2dVertex
 10
79.463913
 20
323.507591
 30
0.0
  0
VERTEX
  5
346
100
AcDbEntity
  8
0
  6
CONTINUOUS
100
AcDbVertex
100
AcDb2dVertex
 10
78.443913
 20
324.332591
 30
0.0
  0
VERTEX
  5
347
100
AcDbEntity
  8
0
  6
CONTINUOUS
100
AcDbVertex
100
AcDb2dVertex
 10
77.332913
 20
325.098591
 30
0.0
  0
VERTEX
  5
348
100
AcDbEntity
  8
0
  6
CONTINUOUS
100
AcDbVertex
100
AcDb2dVertex
 10
76.138913
 20
325.802591
 30
0.0
  0
VERTEX
  5
349
100
AcDbEntity
  8
0
  6
CONTINUOUS
100
AcDbVertex
100
AcDb2dVertex
 10
74.868913
 20
326.439591
 30
0.0
  0
VERTEX
  5
34A
100
AcDbEntity
  8
0
  6
CONTINUOUS
100
AcDbVertex
100
AcDb2dVertex
 10
73.529913
 20
327.005591
 30
0.0
  0
VERTEX
  5
34B
100
AcDbEntity
  8
0
  6
CONTINUOUS
100
AcDbVertex
100
AcDb2dVertex
 10
72.129913
 20
327.498591
 30
0.0
  0
VERTEX
  5
34C
100
AcDbEntity
  8
0
  6
CONTINUOUS
100
AcDbVertex
100
AcDb2dVertex
 10
70.679913
 20
327.912591
 30
0.0
  0
VERTEX
  5
34D
100
AcDbEntity
  8
0
  6
CONTINUOUS
100
AcDbVertex
100
AcDb2dVertex
 10
69.185913
 20
328.247591
 30
0.0
  0
VERTEX
  5
34E
100
AcDbEntity
  8
0
  6
CONTINUOUS
100
AcDbVertex
100
AcDb2dVertex
 10
67.658913
 20
328.500591
 30
0.0
  0
VERTEX
  5
34F
100
AcDbEntity
  8
0
  6
CONTINUOUS
100
AcDbVertex
100
AcDb2dVertex
 10
66.107913
 20
328.670591
 30
0.0
  0
VERTEX
  5
350
100
AcDbEntity
  8
0
  6
CONTINUOUS
100
AcDbVertex
100
AcDb2dVertex
 10
64.541913
 20
328.755591
 30
0.0
  0
VERTEX
  5
351
100
AcDbEntity
  8
0
  6
CONTINUOUS
100
AcDbVertex
100
AcDb2dVertex
 10
62.971913
 20
328.755591
 30
0.0
  0
VERTEX
  5
352
100
AcDbEntity
  8
0
  6
CONTINUOUS
100
AcDbVertex
100
AcDb2dVertex
 10
61.406913
 20
328.670591
 30
0.0
  0
VERTEX
  5
353
100
AcDbEntity
  8
0
  6
CONTINUOUS
100
AcDbVertex
100
AcDb2dVertex
 10
59.854913
 20
328.500591
 30
0.0
  0
VERTEX
  5
354
100
AcDbEntity
  8
0
  6
CONTINUOUS
100
AcDbVertex
100
AcDb2dVertex
 10
58.327913
 20
328.247591
 30
0.0
  0
VERTEX
  5
355
100
AcDbEntity
  8
0
  6
CONTINUOUS
100
AcDbVertex
100
AcDb2dVertex
 10
56.834913
 20
327.912591
 30
0.0
  0
VERTEX
  5
356
100
AcDbEntity
  8
0
  6
CONTINUOUS
100
AcDbVertex
100
AcDb2dVertex
 10
55.383913
 20
327.498591
 30
0.0
  0
VERTEX
  5
357
100
AcDbEntity
  8
0
  6
CONTINUOUS
100
AcDbVertex
100
AcDb2dVertex
 10
53.984913
 20
327.005591
 30
0.0
  0
VERTEX
  5
358
100
AcDbEntity
  8
0
  6
CONTINUOUS
100
AcDbVertex
100
AcDb2dVertex
 10
52.645913
 20
326.439591
 30
0.0
  0
VERTEX
  5
359
100
AcDbEntity
  8
0
  6
CONTINUOUS
100
AcDbVertex
100
AcDb2dVertex
 10
51.374913
 20
325.802591
 30
0.0
  0
VERTEX
  5
35A
100
AcDbEntity
  8
0
  6
CONTINUOUS
100
AcDbVertex
100
AcDb2dVertex
 10
50.180913
 20
325.098591
 30
0.0
  0
VERTEX
  5
35B
100
AcDbEntity
  8
0
  6
CONTINUOUS
100
AcDbVertex
100
AcDb2dVertex
 10
49.070913
 20
324.332591
 30
0.0
  0
VERTEX
  5
35C
100
AcDbEntity
  8
0
  6
CONTINUOUS
100
AcDbVertex
100
AcDb2dVertex
 10
48.050913
 20
323.507591
 30
0.0
  0
VERTEX
  5
35D
100
AcDbEntity
  8
0
  6
CONTINUOUS
100
AcDbVertex
100
AcDb2dVertex
 10
47.127913
 20
322.631591
 30
0.0
  0
VERTEX
  5
35E
100
AcDbEntity
  8
0
  6
CONTINUOUS
100
AcDbVertex
100
AcDb2dVertex
 10
46.306913
 20
321.706591
 30
0.0
  0
VERTEX
  5
35F
100
AcDbEntity
  8
0
  6
CONTINUOUS
100
AcDbVertex
100
AcDb2dVertex
 10
45.593913
 20
320.741591
 30
0.0
  0
VERTEX
  5
360
100
AcDbEntity
  8
0
  6
CONTINUOUS
100
AcDbVertex
100
AcDb2dVertex
 10
44.992913
 20
319.739591
 30
0.0
  0
VERTEX
  5
361
100
AcDbEntity
  8
0
  6
CONTINUOUS
100
AcDbVertex
100
AcDb2dVertex
 10
44.735913
 20
319.227591
 30
0.0
  0
VERTEX
  5
362
100
AcDbEntity
  8
0
  6
CONTINUOUS
100
AcDbVertex
100
AcDb2dVertex
 10
44.507913
 20
318.708591
 30
0.0
  0
VERTEX
  5
363
100
AcDbEntity
  8
0
  6
CONTINUOUS
100
AcDbVertex
100
AcDb2dVertex
 10
44.309913
 20
318.184591
 30
0.0
  0
VERTEX
  5
364
100
AcDbEntity
  8
0
  6
CONTINUOUS
100
AcDbVertex
100
AcDb2dVertex
 10
44.141913
 20
317.654591
 30
0.0
  0
VERTEX
  5
365
100
AcDbEntity
  8
0
  6
CONTINUOUS
100
AcDbVertex
100
AcDb2dVertex
 10
44.002913
 20
317.121591
 30
0.0
  0
VERTEX
  5
366
100
AcDbEntity
  8
0
  6
CONTINUOUS
100
AcDbVertex
100
AcDb2dVertex
 10
43.895913
 20
316.584591
 30
0.0
  0
VERTEX
  5
367
100
AcDbEntity
  8
0
  6
CONTINUOUS
100
AcDbVertex
100
AcDb2dVertex
 10
43.818913
 20
316.044591
 30
0.0
  0
VERTEX
  5
368
100
AcDbEntity
  8
0
  6
CONTINUOUS
100
AcDbVertex
100
AcDb2dVertex
 10
43.772913
 20
315.503591
 30
0.0
  0
VERTEX
  5
369
100
AcDbEntity
  8
0
  6
CONTINUOUS
100
AcDbVertex
100
AcDb2dVertex
 10
43.756913
 20
314.961591
 30
0.0
  0
SEQEND
  5
36A
100
AcDbEntity
  8
0
  0
LINE
  5
36B
100
AcDbEntity
  8
0
  6
CENTER
 62
     1
100
AcDbLine
 10
102.108913
 20
347.119591
 30
0.0
 11
68.824913
 21
347.119591
 31
0.0
  0
LINE
  5
36C
100
AcDbEntity
  8
0
  6
CENTER
 62
     1
100
AcDbLine
 10
70.157913
 20
301.157591
 30
0.0
 11
57.307913
 21
301.157591
 31
0.0
  0
LINE
  5
36D
100
AcDbEntity
  8
0
  6
CONTINUOUS
100
AcDbLine
 10
43.756913
 20
301.157591
 30
0.0
 11
43.756913
 21
314.961591
 31
0.0
  0
LINE
  5
36E
100
AcDbEntity
  8
0
  6
CONTINUOUS
100
AcDbLine
 10
20.506913
 20
314.244591
 30
0.0
 11
20.506913
 21
311.244591
 31
0.0
  0
LINE
  5
36F
100
AcDbEntity
  8
0
  6
CONTINUOUS
100
AcDbLine
 10
29.006913
 20
314.244591
 30
0.0
 11
29.006913
 21
311.244591
 31
0.0
  0
LINE
  5
370
100
AcDbEntity
  8
0
  6
CONTINUOUS
 62
     1
100
AcDbLine
 10
45.256913
 20
306.530591
 30
0.0
 11
45.256913
 21
320.206591
 31
0.0
  0
LINE
  5
371
100
AcDbEntity
  8
0
  6
CONTINUOUS
 62
     1
100
AcDbLine
 10
49.256913
 20
310.897591
 30
0.0
 11
49.256913
 21
324.469591
 31
0.0
  0
LINE
  5
372
100
AcDbEntity
  8
0
  6
CONTINUOUS
100
AcDbLine
 10
35.756913
 20
288.421591
 30
0.0
 11
31.773913
 21
288.421591
 31
0.0
  0
LINE
  5
373
100
AcDbEntity
  8
0
  6
CONTINUOUS
100
AcDbLine
 10
14.756913
 20
302.744591
 30
0.0
 11
31.771913
 21
302.744591
 31
0.0
  0
ARC
  5
374
100
AcDbEntity
  8
0
  6
CONTINUOUS
100
AcDbCircle
 10
24.756913
 20
311.244591
 30
0.0
 40
4.25
100
AcDbArc
 50
180.0
 51
0.0
  0
LINE
  5
375
100
AcDbEntity
  8
0
  6
CONTINUOUS
100
AcDbLine
 10
41.756913
 20
311.410591
 30
0.0
 11
41.756913
 21
302.744591
 31
0.0
  0
LINE
  5
376
100
AcDbEntity
  8
0
  6
CONTINUOUS
100
AcDbLine
 10
35.756913
 20
302.744591
 30
0.0
 11
41.756913
 21
302.744591
 31
0.0
  0
LINE
  5
377
100
AcDbEntity
  8
0
  6
CONTINUOUS
100
AcDbLine
 10
35.756913
 20
311.410591
 30
0.0
 11
43.756913
 21
311.410591
 31
0.0
  0
LINE
  5
378
100
AcDbEntity
  8
0
  6
CENTER
 62
     1
100
AcDbLine
 10
63.756913
 20
308.900591
 30
0.0
 11
63.756913
 21
292.583591
 31
0.0
  0
LINE
  5
379
100
AcDbEntity
  8
0
  6
CENTER
 62
     1
100
AcDbLine
 10
32.030913
 20
312.744591
 30
0.0
 11
16.998913
 21
312.744591
 31
0.0
  0
LINE
  5
37A
100
AcDbEntity
  8
0
  6
CENTER
 62
     1
100
AcDbLine
 10
33.114913
 20
327.744591
 30
0.0
 11
10.161913
 21
327.744591
 31
0.0
  0
ARC
  5
37B
100
AcDbEntity
  8
0
  6
CONTINUOUS
100
AcDbCircle
 10
24.756913
 20
314.244591
 30
0.0
 40
4.25
100
AcDbArc
 50
0.0
 51
180.0
  0
CIRCLE
  5
37C
100
AcDbEntity
  8
0
  6
CONTINUOUS
100
AcDbCircle
 10
24.795913
 20
327.744591
 30
0.0
 40
3.0
  0
LINE
  5
37D
100
AcDbEntity
  8
0
  6
CONTINUOUS
100
AcDbLine
 10
26.432913
 20
327.744591
 30
0.0
 11
27.570913
 21
328.883591
 31
0.0
  0
LINE
  5
37E
100
AcDbEntity
  8
0
  6
CONTINUOUS
100
AcDbLine
 10
27.329913
 20
329.349591
 30
0.0
 11
25.724913
 21
327.744591
 31
0.0
  0
LINE
  5
37F
100
AcDbEntity
  8
0
  6
CONTINUOUS
100
AcDbLine
 10
21.795913
 20
327.744591
 30
0.0
 11
27.795913
 21
327.744591
 31
0.0
  0
LINE
  5
380
100
AcDbEntity
  8
0
  6
CONTINUOUS
100
AcDbLine
 10
24.756913
 20
330.744591
 30
0.0
 11
24.756913
 21
324.744591
 31
0.0
  0
LINE
  5
381
100
AcDbEntity
  8
0
  6
CONTINUOUS
100
AcDbLine
 10
25.017913
 20
327.744591
 30
0.0
 11
27.024913
 21
329.751591
 31
0.0
  0
LINE
  5
382
100
AcDbEntity
  8
0
  6
CONTINUOUS
100
AcDbLine
 10
26.660913
 20
330.094591
 30
0.0
 11
24.756913
 21
328.190591
 31
0.0
  0
LINE
  5
383
100
AcDbEntity
  8
0
  6
CONTINUOUS
100
AcDbLine
 10
24.310913
 20
327.744591
 30
0.0
 11
22.445913
 21
325.879591
 31
0.0
  0
LINE
  5
384
100
AcDbEntity
  8
0
  6
CONTINUOUS
100
AcDbLine
 10
22.163913
 20
326.304591
 30
0.0
 11
23.603913
 21
327.744591
 31
0.0
  0
LINE
  5
385
100
AcDbEntity
  8
0
  6
CONTINUOUS
100
AcDbLine
 10
22.896913
 20
327.744591
 30
0.0
 11
21.948913
 21
326.797591
 31
0.0
  0
LINE
  5
386
100
AcDbEntity
  8
0
  6
CONTINUOUS
100
AcDbLine
 10
21.818913
 20
327.373591
 30
0.0
 11
22.189913
 21
327.744591
 31
0.0
  0
LINE
  5
387
100
AcDbEntity
  8
0
  6
CONTINUOUS
100
AcDbLine
 10
24.756913
 20
325.362591
 30
0.0
 11
24.199913
 21
324.804591
 31
0.0
  0
LINE
  5
388
100
AcDbEntity
  8
0
  6
CONTINUOUS
100
AcDbLine
 10
23.656913
 20
324.969591
 30
0.0
 11
24.756913
 21
326.069591
 31
0.0
  0
LINE
  5
389
100
AcDbEntity
  8
0
  6
CONTINUOUS
100
AcDbLine
 10
24.756913
 20
326.776591
 30
0.0
 11
23.190913
 21
325.210591
 31
0.0
  0
LINE
  5
38A
100
AcDbEntity
  8
0
  6
CONTINUOUS
100
AcDbLine
 10
22.788913
 20
325.515591
 30
0.0
 11
24.756913
 21
327.483591
 31
0.0
  0
LINE
  5
38B
100
AcDbEntity
  8
0
  6
CONTINUOUS
100
AcDbLine
 10
24.756913
 20
328.897591
 30
0.0
 11
26.235913
 21
330.376591
 31
0.0
  0
LINE
  5
38C
100
AcDbEntity
  8
0
  6
CONTINUOUS
100
AcDbLine
 10
25.742913
 20
330.591591
 30
0.0
 11
24.756913
 21
329.605591
 31
0.0
  0
LINE
  5
38D
100
AcDbEntity
  8
0
  6
CONTINUOUS
100
AcDbLine
 10
24.756913
 20
330.312591
 30
0.0
 11
25.166913
 21
330.721591
 31
0.0
  0
LINE
  5
38E
100
AcDbEntity
  8
0
  6
CONTINUOUS
100
AcDbLine
 10
27.735913
 20
328.341591
 30
0.0
 11
27.139913
 21
327.744591
 31
0.0
  0
LINE
  5
38F
100
AcDbEntity
  8
0
  6
CENTER
 62
     1
100
AcDbLine
 10
18.000913
 20
342.744591
 30
0.0
 11
32.907913
 21
342.744591
 31
0.0
  0
LINE
  5
390
100
AcDbEntity
  8
0
  6
CONTINUOUS
100
AcDbLine
 10
20.506913
 20
344.244591
 30
0.0
 11
20.506913
 21
341.244591
 31
0.0
  0
LINE
  5
391
100
AcDbEntity
  8
0
  6
CONTINUOUS
100
AcDbLine
 10
29.006913
 20
344.244591
 30
0.0
 11
29.006913
 21
341.244591
 31
0.0
  0
ARC
  5
392
100
AcDbEntity
  8
0
  6
CONTINUOUS
100
AcDbCircle
 10
24.756913
 20
341.244591
 30
0.0
 40
4.25
100
AcDbArc
 50
180.0
 51
0.0
  0
ARC
  5
393
100
AcDbEntity
  8
0
  6
CONTINUOUS
100
AcDbCircle
 10
24.756913
 20
344.244591
 30
0.0
 40
4.25
100
AcDbArc
 50
0.0
 51
180.0
  0
LINE
  5
394
100
AcDbEntity
  8
0
  6
CONTINUOUS
 62
     1
100
AcDbLine
 10
56.256913
 20
314.267591
 30
0.0
 11
56.256913
 21
327.758591
 31
0.0
  0
LINE
  5
395
100
AcDbEntity
  8
0
  6
CONTINUOUS
 62
     1
100
AcDbLine
 10
63.756913
 20
315.299591
 30
0.0
 11
63.756913
 21
328.742591
 31
0.0
  0
ARC
  5
396
100
AcDbEntity
  8
0
  6
CONTINUOUS
100
AcDbCircle
 10
36.256913
 20
333.244591
 30
0.0
 40
0.5
100
AcDbArc
 50
90.0
 51
180.0
  0
ARC
  5
397
100
AcDbEntity
  8
0
  6
CONTINUOUS
100
AcDbCircle
 10
36.256913
 20
336.244591
 30
0.0
 40
0.5
100
AcDbArc
 50
180.0
 51
270.0
  0
LINE
  5
398
100
AcDbEntity
  8
0
  6
CONTINUOUS
100
AcDbLine
 10
83.756913
 20
314.961591
 30
0.0
 11
83.756913
 21
301.157591
 31
0.0
  0
POLYLINE
  5
399
100
AcDbEntity
  8
0
  6
CONTINUOUS
100
AcDb2dPolyline
 66
     1
 10
0.0
 20
0.0
 30
0.0
  0
VERTEX
  5
39A
100
AcDbEntity
  8
0
  6
CONTINUOUS
100
AcDbVertex
100
AcDb2dVertex
 10
105.757113
 20
287.015591
 30
0.0
  0
VERTEX
  5
39B
100
AcDbEntity
  8
0
  6
CONTINUOUS
100
AcDbVertex
100
AcDb2dVertex
 10
107.326313
 20
287.058591
 30
0.0
  0
VERTEX
  5
39C
100
AcDbEntity
  8
0
  6
CONTINUOUS
100
AcDbVertex
100
AcDb2dVertex
 10
108.885813
 20
287.189591
 30
0.0
  0
VERTEX
  5
39D
100
AcDbEntity
  8
0
  6
CONTINUOUS
100
AcDbVertex
100
AcDb2dVertex
 10
110.426013
 20
287.406591
 30
0.0
  0
VERTEX
  5
39E
100
AcDbEntity
  8
0
  6
CONTINUOUS
100
AcDbVertex
100
AcDb2dVertex
 10
111.937413
 20
287.707591
 30
0.0
  0
VERTEX
  5
39F
100
AcDbEntity
  8
0
  6
CONTINUOUS
100
AcDbVertex
100
AcDb2dVertex
 10
113.410813
 20
288.091591
 30
0.0
  0
VERTEX
  5
3A0
100
AcDbEntity
  8
0
  6
CONTINUOUS
100
AcDbVertex
100
AcDb2dVertex
 10
114.836913
 20
288.556591
 30
0.0
  0
VERTEX
  5
3A1
100
AcDbEntity
  8
0
  6
CONTINUOUS
100
AcDbVertex
100
AcDb2dVertex
 10
116.207113
 20
289.099591
 30
0.0
  0
VERTEX
  5
3A2
100
AcDbEntity
  8
0
  6
CONTINUOUS
100
AcDbVertex
100
AcDb2dVertex
 10
117.512813
 20
289.716591
 30
0.0
  0
VERTEX
  5
3A3
100
AcDbEntity
  8
0
  6
CONTINUOUS
100
AcDbVertex
100
AcDb2dVertex
 10
118.746113
 20
290.403591
 30
0.0
  0
VERTEX
  5
3A4
100
AcDbEntity
  8
0
  6
CONTINUOUS
100
AcDbVertex
100
AcDb2dVertex
 10
119.899213
 20
291.157591
 30
0.0
  0
VERTEX
  5
3A5
100
AcDbEntity
  8
0
  6
CONTINUOUS
100
AcDbVertex
100
AcDb2dVertex
 10
120.965213
 20
291.972591
 30
0.0
  0
VERTEX
  5
3A6
100
AcDbEntity
  8
0
  6
CONTINUOUS
100
AcDbVertex
100
AcDb2dVertex
 10
121.937413
 20
292.844591
 30
0.0
  0
VERTEX
  5
3A7
100
AcDbEntity
  8
0
  6
CONTINUOUS
100
AcDbVertex
100
AcDb2dVertex
 10
122.809913
 20
293.768591
 30
0.0
  0
VERTEX
  5
3A8
100
AcDbEntity
  8
0
  6
CONTINUOUS
100
AcDbVertex
100
AcDb2dVertex
 10
123.577213
 20
294.737591
 30
0.0
  0
VERTEX
  5
3A9
100
AcDbEntity
  8
0
  6
CONTINUOUS
100
AcDbVertex
100
AcDb2dVertex
 10
124.234713
 20
295.745591
 30
0.0
  0
VERTEX
  5
3AA
100
AcDbEntity
  8
0
  6
CONTINUOUS
100
AcDbVertex
100
AcDb2dVertex
 10
124.520913
 20
296.262591
 30
0.0
  0
VERTEX
  5
3AB
100
AcDbEntity
  8
0
  6
CONTINUOUS
100
AcDbVertex
100
AcDb2dVertex
 10
124.778213
 20
296.787591
 30
0.0
  0
VERTEX
  5
3AC
100
AcDbEntity
  8
0
  6
CONTINUOUS
100
AcDbVertex
100
AcDb2dVertex
 10
125.006213
 20
297.318591
 30
0.0
  0
VERTEX
  5
3AD
100
AcDbEntity
  8
0
  6
CONTINUOUS
100
AcDbVertex
100
AcDb2dVertex
 10
125.204513
 20
297.856591
 30
0.0
  0
VERTEX
  5
3AE
100
AcDbEntity
  8
0
  6
CONTINUOUS
100
AcDbVertex
100
AcDb2dVertex
 10
125.372813
 20
298.398591
 30
0.0
  0
VERTEX
  5
3AF
100
AcDbEntity
  8
0
  6
CONTINUOUS
100
AcDbVertex
100
AcDb2dVertex
 10
125.510913
 20
298.945591
 30
0.0
  0
VERTEX
  5
3B0
100
AcDbEntity
  8
0
  6
CONTINUOUS
100
AcDbVertex
100
AcDb2dVertex
 10
125.618513
 20
299.495591
 30
0.0
  0
VERTEX
  5
3B1
100
AcDbEntity
  8
0
  6
CONTINUOUS
100
AcDbVertex
100
AcDb2dVertex
 10
125.695513
 20
300.047591
 30
0.0
  0
VERTEX
  5
3B2
100
AcDbEntity
  8
0
  6
CONTINUOUS
100
AcDbVertex
100
AcDb2dVertex
 10
125.741713
 20
300.602591
 30
0.0
  0
VERTEX
  5
3B3
100
AcDbEntity
  8
0
  6
CONTINUOUS
100
AcDbVertex
100
AcDb2dVertex
 10
125.757113
 20
301.157591
 30
0.0
  0
VERTEX
  5
3B4
100
AcDbEntity
  8
0
  6
CONTINUOUS
100
AcDbVertex
100
AcDb2dVertex
 10
125.741713
 20
301.712591
 30
0.0
  0
VERTEX
  5
3B5
100
AcDbEntity
  8
0
  6
CONTINUOUS
100
AcDbVertex
100
AcDb2dVertex
 10
125.695513
 20
302.266591
 30
0.0
  0
VERTEX
  5
3B6
100
AcDbEntity
  8
0
  6
CONTINUOUS
100
AcDbVertex
100
AcDb2dVertex
 10
125.618513
 20
302.819591
 30
0.0
  0
VERTEX
  5
3B7
100
AcDbEntity
  8
0
  6
CONTINUOUS
100
AcDbVertex
100
AcDb2dVertex
 10
125.510913
 20
303.369591
 30
0.0
  0
VERTEX
  5
3B8
100
AcDbEntity
  8
0
  6
CONTINUOUS
100
AcDbVertex
100
AcDb2dVertex
 10
125.372813
 20
303.916591
 30
0.0
  0
VERTEX
  5
3B9
100
AcDbEntity
  8
0
  6
CONTINUOUS
100
AcDbVertex
100
AcDb2dVertex
 10
125.204513
 20
304.458591
 30
0.0
  0
VERTEX
  5
3BA
100
AcDbEntity
  8
0
  6
CONTINUOUS
100
AcDbVertex
100
AcDb2dVertex
 10
125.006213
 20
304.996591
 30
0.0
  0
VERTEX
  5
3BB
100
AcDbEntity
  8
0
  6
CONTINUOUS
100
AcDbVertex
100
AcDb2dVertex
 10
124.778213
 20
305.527591
 30
0.0
  0
VERTEX
  5
3BC
100
AcDbEntity
  8
0
  6
CONTINUOUS
100
AcDbVertex
100
AcDb2dVertex
 10
124.520913
 20
306.052591
 30
0.0
  0
VERTEX
  5
3BD
100
AcDbEntity
  8
0
  6
CONTINUOUS
100
AcDbVertex
100
AcDb2dVertex
 10
123.920013
 20
307.078591
 30
0.0
  0
VERTEX
  5
3BE
100
AcDbEntity
  8
0
  6
CONTINUOUS
100
AcDbVertex
100
AcDb2dVertex
 10
123.207013
 20
308.067591
 30
0.0
  0
VERTEX
  5
3BF
100
AcDbEntity
  8
0
  6
CONTINUOUS
100
AcDbVertex
100
AcDb2dVertex
 10
122.386513
 20
309.014591
 30
0.0
  0
VERTEX
  5
3C0
100
AcDbEntity
  8
0
  6
CONTINUOUS
100
AcDbVertex
100
AcDb2dVertex
 10
121.463513
 20
309.912591
 30
0.0
  0
VERTEX
  5
3C1
100
AcDbEntity
  8
0
  6
CONTINUOUS
100
AcDbVertex
100
AcDb2dVertex
 10
120.443613
 20
310.757591
 30
0.0
  0
VERTEX
  5
3C2
100
AcDbEntity
  8
0
  6
CONTINUOUS
100
AcDbVertex
100
AcDb2dVertex
 10
119.333113
 20
311.542591
 30
0.0
  0
VERTEX
  5
3C3
100
AcDbEntity
  8
0
  6
CONTINUOUS
100
AcDbVertex
100
AcDb2dVertex
 10
118.139013
 20
312.263591
 30
0.0
  0
VERTEX
  5
3C4
100
AcDbEntity
  8
0
  6
CONTINUOUS
100
AcDbVertex
100
AcDb2dVertex
 10
116.868513
 20
312.916591
 30
0.0
  0
VERTEX
  5
3C5
100
AcDbEntity
  8
0
  6
CONTINUOUS
100
AcDbVertex
100
AcDb2dVertex
 10
115.529513
 20
313.496591
 30
0.0
  0
VERTEX
  5
3C6
100
AcDbEntity
  8
0
  6
CONTINUOUS
100
AcDbVertex
100
AcDb2dVertex
 10
114.130313
 20
314.000591
 30
0.0
  0
VERTEX
  5
3C7
100
AcDbEntity
  8
0
  6
CONTINUOUS
100
AcDbVertex
100
AcDb2dVertex
 10
112.679513
 20
314.425591
 30
0.0
  0
VERTEX
  5
3C8
100
AcDbEntity
  8
0
  6
CONTINUOUS
100
AcDbVertex
100
AcDb2dVertex
 10
111.185913
 20
314.768591
 30
0.0
  0
VERTEX
  5
3C9
100
AcDbEntity
  8
0
  6
CONTINUOUS
100
AcDbVertex
100
AcDb2dVertex
 10
109.658913
 20
315.027591
 30
0.0
  0
VERTEX
  5
3CA
100
AcDbEntity
  8
0
  6
CONTINUOUS
100
AcDbVertex
100
AcDb2dVertex
 10
108.107913
 20
315.201591
 30
0.0
  0
VERTEX
  5
3CB
100
AcDbEntity
  8
0
  6
CONTINUOUS
100
AcDbVertex
100
AcDb2dVertex
 10
106.542313
 20
315.288591
 30
0.0
  0
VERTEX
  5
3CC
100
AcDbEntity
  8
0
  6
CONTINUOUS
100
AcDbVertex
100
AcDb2dVertex
 10
104.971913
 20
315.288591
 30
0.0
  0
VERTEX
  5
3CD
100
AcDbEntity
  8
0
  6
CONTINUOUS
100
AcDbVertex
100
AcDb2dVertex
 10
103.406413
 20
315.201591
 30
0.0
  0
VERTEX
  5
3CE
100
AcDbEntity
  8
0
  6
CONTINUOUS
100
AcDbVertex
100
AcDb2dVertex
 10
101.855313
 20
315.027591
 30
0.0
  0
VERTEX
  5
3CF
100
AcDbEntity
  8
0
  6
CONTINUOUS
100
AcDbVertex
100
AcDb2dVertex
 10
100.328313
 20
314.768591
 30
0.0
  0
VERTEX
  5
3D0
100
AcDbEntity
  8
0
  6
CONTINUOUS
100
AcDbVertex
100
AcDb2dVertex
 10
98.834813
 20
314.425591
 30
0.0
  0
VERTEX
  5
3D1
100
AcDbEntity
  8
0
  6
CONTINUOUS
100
AcDbVertex
100
AcDb2dVertex
 10
97.383913
 20
314.000591
 30
0.0
  0
VERTEX
  5
3D2
100
AcDbEntity
  8
0
  6
CONTINUOUS
100
AcDbVertex
100
AcDb2dVertex
 10
95.984713
 20
313.496591
 30
0.0
  0
VERTEX
  5
3D3
100
AcDbEntity
  8
0
  6
CONTINUOUS
100
AcDbVertex
100
AcDb2dVertex
 10
94.645713
 20
312.916591
 30
0.0
  0
VERTEX
  5
3D4
100
AcDbEntity
  8
0
  6
CONTINUOUS
100
AcDbVertex
100
AcDb2dVertex
 10
93.375213
 20
312.263591
 30
0.0
  0
VERTEX
  5
3D5
100
AcDbEntity
  8
0
  6
CONTINUOUS
100
AcDbVertex
100
AcDb2dVertex
 10
92.181113
 20
311.542591
 30
0.0
  0
VERTEX
  5
3D6
100
AcDbEntity
  8
0
  6
CONTINUOUS
100
AcDbVertex
100
AcDb2dVertex
 10
91.070713
 20
310.757591
 30
0.0
  0
VERTEX
  5
3D7
100
AcDbEntity
  8
0
  6
CONTINUOUS
100
AcDbVertex
100
AcDb2dVertex
 10
90.050813
 20
309.912591
 30
0.0
  0
VERTEX
  5
3D8
100
AcDbEntity
  8
0
  6
CONTINUOUS
100
AcDbVertex
100
AcDb2dVertex
 10
89.127713
 20
309.014591
 30
0.0
  0
VERTEX
  5
3D9
100
AcDbEntity
  8
0
  6
CONTINUOUS
100
AcDbVertex
100
AcDb2dVertex
 10
88.307213
 20
308.067591
 30
0.0
  0
VERTEX
  5
3DA
100
AcDbEntity
  8
0
  6
CONTINUOUS
100
AcDbVertex
100
AcDb2dVertex
 10
87.594313
 20
307.078591
 30
0.0
  0
VERTEX
  5
3DB
100
AcDbEntity
  8
0
  6
CONTINUOUS
100
AcDbVertex
100
AcDb2dVertex
 10
86.993313
 20
306.052591
 30
0.0
  0
VERTEX
  5
3DC
100
AcDbEntity
  8
0
  6
CONTINUOUS
100
AcDbVertex
100
AcDb2dVertex
 10
86.736013
 20
305.527591
 30
0.0
  0
VERTEX
  5
3DD
100
AcDbEntity
  8
0
  6
CONTINUOUS
100
AcDbVertex
100
AcDb2dVertex
 10
86.508013
 20
304.996591
 30
0.0
  0
VERTEX
  5
3DE
100
AcDbEntity
  8
0
  6
CONTINUOUS
100
AcDbVertex
100
AcDb2dVertex
 10
86.309713
 20
304.458591
 30
0.0
  0
VERTEX
  5
3DF
100
AcDbEntity
  8
0
  6
CONTINUOUS
100
AcDbVertex
100
AcDb2dVertex
 10
86.141413
 20
303.916591
 30
0.0
  0
VERTEX
  5
3E0
100
AcDbEntity
  8
0
  6
CONTINUOUS
100
AcDbVertex
100
AcDb2dVertex
 10
86.003313
 20
303.369591
 30
0.0
  0
VERTEX
  5
3E1
100
AcDbEntity
  8
0
  6
CONTINUOUS
100
AcDbVertex
100
AcDb2dVertex
 10
85.895713
 20
302.819591
 30
0.0
  0
VERTEX
  5
3E2
100
AcDbEntity
  8
0
  6
CONTINUOUS
100
AcDbVertex
100
AcDb2dVertex
 10
85.818813
 20
302.267591
 30
0.0
  0
VERTEX
  5
3E3
100
AcDbEntity
  8
0
  6
CONTINUOUS
100
AcDbVertex
100
AcDb2dVertex
 10
85.772513
 20
301.712591
 30
0.0
  0
VERTEX
  5
3E4
100
AcDbEntity
  8
0
  6
CONTINUOUS
100
AcDbVertex
100
AcDb2dVertex
 10
85.757113
 20
301.157591
 30
0.0
  0
VERTEX
  5
3E5
100
AcDbEntity
  8
0
  6
CONTINUOUS
100
AcDbVertex
100
AcDb2dVertex
 10
85.772513
 20
300.602591
 30
0.0
  0
VERTEX
  5
3E6
100
AcDbEntity
  8
0
  6
CONTINUOUS
100
AcDbVertex
100
AcDb2dVertex
 10
85.818813
 20
300.047591
 30
0.0
  0
VERTEX
  5
3E7
100
AcDbEntity
  8
0
  6
CONTINUOUS
100
AcDbVertex
100
AcDb2dVertex
 10
85.895713
 20
299.495591
 30
0.0
  0
VERTEX
  5
3E8
100
AcDbEntity
  8
0
  6
CONTINUOUS
100
AcDbVertex
100
AcDb2dVertex
 10
86.003313
 20
298.945591
 30
0.0
  0
VERTEX
  5
3E9
100
AcDbEntity
  8
0
  6
CONTINUOUS
100
AcDbVertex
100
AcDb2dVertex
 10
86.141413
 20
298.398591
 30
0.0
  0
VERTEX
  5
3EA
100
AcDbEntity
  8
0
  6
CONTINUOUS
100
AcDbVertex
100
AcDb2dVertex
 10
86.309713
 20
297.856591
 30
0.0
  0
VERTEX
  5
3EB
100
AcDbEntity
  8
0
  6
CONTINUOUS
100
AcDbVertex
100
AcDb2dVertex
 10
86.508013
 20
297.318591
 30
0.0
  0
VERTEX
  5
3EC
100
AcDbEntity
  8
0
  6
CONTINUOUS
100
AcDbVertex
100
AcDb2dVertex
 10
86.736013
 20
296.787591
 30
0.0
  0
VERTEX
  5
3ED
100
AcDbEntity
  8
0
  6
CONTINUOUS
100
AcDbVertex
100
AcDb2dVertex
 10
86.993313
 20
296.262591
 30
0.0
  0
VERTEX
  5
3EE
100
AcDbEntity
  8
0
  6
CONTINUOUS
100
AcDbVertex
100
AcDb2dVertex
 10
87.594213
 20
295.236591
 30
0.0
  0
VERTEX
  5
3EF
100
AcDbEntity
  8
0
  6
CONTINUOUS
100
AcDbVertex
100
AcDb2dVertex
 10
88.307213
 20
294.247591
 30
0.0
  0
VERTEX
  5
3F0
100
AcDbEntity
  8
0
  6
CONTINUOUS
100
AcDbVertex
100
AcDb2dVertex
 10
89.127713
 20
293.300591
 30
0.0
  0
VERTEX
  5
3F1
100
AcDbEntity
  8
0
  6
CONTINUOUS
100
AcDbVertex
100
AcDb2dVertex
 10
90.050813
 20
292.402591
 30
0.0
  0
VERTEX
  5
3F2
100
AcDbEntity
  8
0
  6
CONTINUOUS
100
AcDbVertex
100
AcDb2dVertex
 10
91.070713
 20
291.557591
 30
0.0
  0
VERTEX
  5
3F3
100
AcDbEntity
  8
0
  6
CONTINUOUS
100
AcDbVertex
100
AcDb2dVertex
 10
92.181113
 20
290.772591
 30
0.0
  0
VERTEX
  5
3F4
100
AcDbEntity
  8
0
  6
CONTINUOUS
100
AcDbVertex
100
AcDb2dVertex
 10
93.375213
 20
290.051591
 30
0.0
  0
VERTEX
  5
3F5
100
AcDbEntity
  8
0
  6
CONTINUOUS
100
AcDbVertex
100
AcDb2dVertex
 10
94.645713
 20
289.398591
 30
0.0
  0
VERTEX
  5
3F6
100
AcDbEntity
  8
0
  6
CONTINUOUS
100
AcDbVertex
100
AcDb2dVertex
 10
95.984713
 20
288.818591
 30
0.0
  0
VERTEX
  5
3F7
100
AcDbEntity
  8
0
  6
CONTINUOUS
100
AcDbVertex
100
AcDb2dVertex
 10
97.383913
 20
288.314591
 30
0.0
  0
VERTEX
  5
3F8
100
AcDbEntity
  8
0
  6
CONTINUOUS
100
AcDbVertex
100
AcDb2dVertex
 10
98.834813
 20
287.889591
 30
0.0
  0
VERTEX
  5
3F9
100
AcDbEntity
  8
0
  6
CONTINUOUS
100
AcDbVertex
100
AcDb2dVertex
 10
100.328313
 20
287.546591
 30
0.0
  0
VERTEX
  5
3FA
100
AcDbEntity
  8
0
  6
CONTINUOUS
100
AcDbVertex
100
AcDb2dVertex
 10
101.855313
 20
287.287591
 30
0.0
  0
VERTEX
  5
3FB
100
AcDbEntity
  8
0
  6
CONTINUOUS
100
AcDbVertex
100
AcDb2dVertex
 10
103.406413
 20
287.113591
 30
0.0
  0
VERTEX
  5
3FC
100
AcDbEntity
  8
0
  6
CONTINUOUS
100
AcDbVertex
100
AcDb2dVertex
 10
104.579713
 20
287.039591
 30
0.0
  0
VERTEX
  5
3FD
100
AcDbEntity
  8
0
  6
CONTINUOUS
100
AcDbVertex
100
AcDb2dVertex
 10
105.757113
 20
287.015591
 30
0.0
  0
SEQEND
  5
3FE
100
AcDbEntity
  8
0
  0
LINE
  5
3FF
100
AcDbEntity
  8
0
  6
CONTINUOUS
100
AcDbLine
 10
85.757113
 20
301.157591
 30
0.0
 11
85.757113
 21
314.961591
 31
0.0
  0
LINE
  5
400
100
AcDbEntity
  8
0
  6
CONTINUOUS
100
AcDbLine
 10
125.757113
 20
314.961591
 30
0.0
 11
125.757113
 21
301.157591
 31
0.0
  0
LINE
  5
401
100
AcDbEntity
  8
0
  6
CONTINUOUS
 62
     1
100
AcDbLine
 10
78.256913
 20
324.469591
 30
0.0
 11
78.256913
 21
310.897591
 31
0.0
  0
LINE
  5
402
100
AcDbEntity
  8
0
  6
CONTINUOUS
 62
     1
100
AcDbLine
 10
82.256913
 20
320.206591
 30
0.0
 11
82.256913
 21
306.530591
 31
0.0
  0
LINE
  5
403
100
AcDbEntity
  8
0
  6
CONTINUOUS
 62
     1
100
AcDbLine
 10
87.257113
 20
306.530591
 30
0.0
 11
87.257113
 21
320.206591
 31
0.0
  0
LINE
  5
404
100
AcDbEntity
  8
0
  6
CONTINUOUS
 62
     1
100
AcDbLine
 10
91.257113
 20
310.897591
 30
0.0
 11
91.257113
 21
324.469591
 31
0.0
  0
LINE
  5
405
100
AcDbEntity
  8
0
  6
CONTINUOUS
 62
     1
100
AcDbLine
 10
120.257113
 20
324.469591
 30
0.0
 11
120.257113
 21
310.897591
 31
0.0
  0
LINE
  5
406
100
AcDbEntity
  8
0
  6
CONTINUOUS
 62
     1
100
AcDbLine
 10
124.257113
 20
320.206591
 30
0.0
 11
124.257113
 21
306.530591
 31
0.0
  0
LINE
  5
407
100
AcDbEntity
  8
0
  6
CENTER
 62
     1
100
AcDbLine
 10
112.562513
 20
301.157591
 30
0.0
 11
99.070113
 21
301.157591
 31
0.0
  0
LINE
  5
408
100
AcDbEntity
  8
0
  6
CONTINUOUS
 62
     1
100
AcDbLine
 10
92.257113
 20
290.723591
 30
0.0
 11
92.257113
 21
288.047591
 31
0.0
  0
LINE
  5
409
100
AcDbEntity
  8
0
  6
CONTINUOUS
 62
     1
100
AcDbLine
 10
77.256913
 20
288.047591
 30
0.0
 11
77.256913
 21
290.723591
 31
0.0
  0
POLYLINE
  5
40A
100
AcDbEntity
  8
0
  6
CONTINUOUS
100
AcDb2dPolyline
 66
     1
 10
0.0
 20
0.0
 30
0.0
  0
VERTEX
  5
40B
100
AcDbEntity
  8
0
  6
CONTINUOUS
100
AcDbVertex
100
AcDb2dVertex
 10
74.256913
 20
289.121591
 30
0.0
  0
VERTEX
  5
40C
100
AcDbEntity
  8
0
  6
CONTINUOUS
100
AcDbVertex
100
AcDb2dVertex
 10
75.213913
 20
288.729591
 30
0.0
  0
VERTEX
  5
40D
100
AcDbEntity
  8
0
  6
CONTINUOUS
100
AcDbVertex
100
AcDb2dVertex
 10
76.198913
 20
288.375591
 30
0.0
  0
VERTEX
  5
40E
100
AcDbEntity
  8
0
  6
CONTINUOUS
100
AcDbVertex
100
AcDb2dVertex
 10
77.210913
 20
288.060591
 30
0.0
  0
VERTEX
  5
40F
100
AcDbEntity
  8
0
  6
CONTINUOUS
100
AcDbVertex
100
AcDb2dVertex
 10
78.244913
 20
287.785591
 30
0.0
  0
VERTEX
  5
410
100
AcDbEntity
  8
0
  6
CONTINUOUS
100
AcDbVertex
100
AcDb2dVertex
 10
79.299913
 20
287.551591
 30
0.0
  0
VERTEX
  5
411
100
AcDbEntity
  8
0
  6
CONTINUOUS
100
AcDbVertex
100
AcDb2dVertex
 10
80.370913
 20
287.359591
 30
0.0
  0
VERTEX
  5
412
100
AcDbEntity
  8
0
  6
CONTINUOUS
100
AcDbVertex
100
AcDb2dVertex
 10
81.455913
 20
287.209591
 30
0.0
  0
VERTEX
  5
413
100
AcDbEntity
  8
0
  6
CONTINUOUS
100
AcDbVertex
100
AcDb2dVertex
 10
82.550913
 20
287.101591
 30
0.0
  0
VERTEX
  5
414
100
AcDbEntity
  8
0
  6
CONTINUOUS
100
AcDbVertex
100
AcDb2dVertex
 10
83.651913
 20
287.036591
 30
0.0
  0
VERTEX
  5
415
100
AcDbEntity
  8
0
  6
CONTINUOUS
100
AcDbVertex
100
AcDb2dVertex
 10
84.756913
 20
287.015591
 30
0.0
  0
VERTEX
  5
416
100
AcDbEntity
  8
0
  6
CONTINUOUS
100
AcDbVertex
100
AcDb2dVertex
 10
85.862013
 20
287.036591
 30
0.0
  0
VERTEX
  5
417
100
AcDbEntity
  8
0
  6
CONTINUOUS
100
AcDbVertex
100
AcDb2dVertex
 10
86.963513
 20
287.101591
 30
0.0
  0
VERTEX
  5
418
100
AcDbEntity
  8
0
  6
CONTINUOUS
100
AcDbVertex
100
AcDb2dVertex
 10
88.058213
 20
287.209591
 30
0.0
  0
VERTEX
  5
419
100
AcDbEntity
  8
0
  6
CONTINUOUS
100
AcDbVertex
100
AcDb2dVertex
 10
89.142913
 20
287.359591
 30
0.0
  0
VERTEX
  5
41A
100
AcDbEntity
  8
0
  6
CONTINUOUS
100
AcDbVertex
100
AcDb2dVertex
 10
90.214213
 20
287.551591
 30
0.0
  0
VERTEX
  5
41B
100
AcDbEntity
  8
0
  6
CONTINUOUS
100
AcDbVertex
100
AcDb2dVertex
 10
91.268813
 20
287.785591
 30
0.0
  0
VERTEX
  5
41C
100
AcDbEntity
  8
0
  6
CONTINUOUS
100
AcDbVertex
100
AcDb2dVertex
 10
92.303613
 20
288.060591
 30
0.0
  0
VERTEX
  5
41D
100
AcDbEntity
  8
0
  6
CONTINUOUS
100
AcDbVertex
100
AcDb2dVertex
 10
93.315213
 20
288.375591
 30
0.0
  0
VERTEX
  5
41E
100
AcDbEntity
  8
0
  6
CONTINUOUS
100
AcDbVertex
100
AcDb2dVertex
 10
94.300813
 20
288.729591
 30
0.0
  0
VERTEX
  5
41F
100
AcDbEntity
  8
0
  6
CONTINUOUS
100
AcDbVertex
100
AcDb2dVertex
 10
95.257213
 20
289.121591
 30
0.0
  0
SEQEND
  5
420
100
AcDbEntity
  8
0
  0
POLYLINE
  5
421
100
AcDbEntity
  8
0
  6
CONTINUOUS
100
AcDb2dPolyline
 66
     1
 10
0.0
 20
0.0
 30
0.0
  0
VERTEX
  5
422
100
AcDbEntity
  8
0
  6
CONTINUOUS
100
AcDbVertex
100
AcDb2dVertex
 10
85.757113
 20
301.175591
 30
0.0
  0
VERTEX
  5
423
100
AcDbEntity
  8
0
  6
CONTINUOUS
100
AcDbVertex
100
AcDb2dVertex
 10
85.257313
 20
301.161591
 30
0.0
  0
VERTEX
  5
424
100
AcDbEntity
  8
0
  6
CONTINUOUS
100
AcDbVertex
100
AcDb2dVertex
 10
84.756913
 20
301.157591
 30
0.0
  0
VERTEX
  5
425
100
AcDbEntity
  8
0
  6
CONTINUOUS
100
AcDbVertex
100
AcDb2dVertex
 10
84.256913
 20
301.161591
 30
0.0
  0
VERTEX
  5
426
100
AcDbEntity
  8
0
  6
CONTINUOUS
100
AcDbVertex
100
AcDb2dVertex
 10
83.756913
 20
301.175591
 30
0.0
  0
SEQEND
  5
427
100
AcDbEntity
  8
0
  0
LINE
  5
428
100
AcDbEntity
  8
0
  6
CONTINUOUS
100
AcDbLine
 10
83.756913
 20
311.410591
 30
0.0
 11
85.757113
 21
311.410591
 31
0.0
  0
LINE
  5
429
100
AcDbEntity
  8
0
  6
CENTER
 62
     1
100
AcDbLine
 10
105.757113
 20
309.468591
 30
0.0
 11
105.757113
 21
292.583591
 31
0.0
  0
LINE
  5
42A
100
AcDbEntity
  8
0
  6
CONTINUOUS
100
AcDbLine
 10
127.757113
 20
302.744591
 30
0.0
 11
133.757113
 21
302.744591
 31
0.0
  0
LINE
  5
42B
100
AcDbEntity
  8
0
  6
CONTINUOUS
100
AcDbLine
 10
125.757113
 20
311.410591
 30
0.0
 11
133.757113
 21
311.410591
 31
0.0
  0
LINE
  5
42C
100
AcDbEntity
  8
0
  6
CONTINUOUS
100
AcDbLine
 10
127.757113
 20
311.410591
 30
0.0
 11
127.757113
 21
302.744591
 31
0.0
  0
POLYLINE
  5
42D
100
AcDbEntity
  8
0
  6
CONTINUOUS
100
AcDb2dPolyline
 66
     1
 10
0.0
 20
0.0
 30
0.0
  0
VERTEX
  5
42E
100
AcDbEntity
  8
0
  6
CONTINUOUS
100
AcDbVertex
100
AcDb2dVertex
 10
125.757113
 20
314.961591
 30
0.0
  0
VERTEX
  5
42F
100
AcDbEntity
  8
0
  6
CONTINUOUS
100
AcDbVertex
100
AcDb2dVertex
 10
125.741713
 20
315.503591
 30
0.0
  0
VERTEX
  5
430
100
AcDbEntity
  8
0
  6
CONTINUOUS
100
AcDbVertex
100
AcDb2dVertex
 10
125.695513
 20
316.044591
 30
0.0
  0
VERTEX
  5
431
100
AcDbEntity
  8
0
  6
CONTINUOUS
100
AcDbVertex
100
AcDb2dVertex
 10
125.618513
 20
316.584591
 30
0.0
  0
VERTEX
  5
432
100
AcDbEntity
  8
0
  6
CONTINUOUS
100
AcDbVertex
100
AcDb2dVertex
 10
125.510913
 20
317.121591
 30
0.0
  0
VERTEX
  5
433
100
AcDbEntity
  8
0
  6
CONTINUOUS
100
AcDbVertex
100
AcDb2dVertex
 10
125.372813
 20
317.654591
 30
0.0
  0
VERTEX
  5
434
100
AcDbEntity
  8
0
  6
CONTINUOUS
100
AcDbVertex
100
AcDb2dVertex
 10
125.204513
 20
318.184591
 30
0.0
  0
VERTEX
  5
435
100
AcDbEntity
  8
0
  6
CONTINUOUS
100
AcDbVertex
100
AcDb2dVertex
 10
125.006213
 20
318.708591
 30
0.0
  0
VERTEX
  5
436
100
AcDbEntity
  8
0
  6
CONTINUOUS
100
AcDbVertex
100
AcDb2dVertex
 10
124.778213
 20
319.227591
 30
0.0
  0
VERTEX
  5
437
100
AcDbEntity
  8
0
  6
CONTINUOUS
100
AcDbVertex
100
AcDb2dVertex
 10
124.520913
 20
319.739591
 30
0.0
  0
VERTEX
  5
438
100
AcDbEntity
  8
0
  6
CONTINUOUS
100
AcDbVertex
100
AcDb2dVertex
 10
123.920013
 20
320.740591
 30
0.0
  0
VERTEX
  5
439
100
AcDbEntity
  8
0
  6
CONTINUOUS
100
AcDbVertex
100
AcDb2dVertex
 10
123.207013
 20
321.706591
 30
0.0
  0
VERTEX
  5
43A
100
AcDbEntity
  8
0
  6
CONTINUOUS
100
AcDbVertex
100
AcDb2dVertex
 10
122.386513
 20
322.630591
 30
0.0
  0
VERTEX
  5
43B
100
AcDbEntity
  8
0
  6
CONTINUOUS
100
AcDbVertex
100
AcDb2dVertex
 10
121.463513
 20
323.507591
 30
0.0
  0
VERTEX
  5
43C
100
AcDbEntity
  8
0
  6
CONTINUOUS
100
AcDbVertex
100
AcDb2dVertex
 10
120.443613
 20
324.332591
 30
0.0
  0
VERTEX
  5
43D
100
AcDbEntity
  8
0
  6
CONTINUOUS
100
AcDbVertex
100
AcDb2dVertex
 10
119.333213
 20
325.098591
 30
0.0
  0
VERTEX
  5
43E
100
AcDbEntity
  8
0
  6
CONTINUOUS
100
AcDbVertex
100
AcDb2dVertex
 10
118.139013
 20
325.802591
 30
0.0
  0
VERTEX
  5
43F
100
AcDbEntity
  8
0
  6
CONTINUOUS
100
AcDbVertex
100
AcDb2dVertex
 10
116.868613
 20
326.439591
 30
0.0
  0
VERTEX
  5
440
100
AcDbEntity
  8
0
  6
CONTINUOUS
100
AcDbVertex
100
AcDb2dVertex
 10
115.529613
 20
327.005591
 30
0.0
  0
VERTEX
  5
441
100
AcDbEntity
  8
0
  6
CONTINUOUS
100
AcDbVertex
100
AcDb2dVertex
 10
114.130413
 20
327.498591
 30
0.0
  0
VERTEX
  5
442
100
AcDbEntity
  8
0
  6
CONTINUOUS
100
AcDbVertex
100
AcDb2dVertex
 10
112.679513
 20
327.912591
 30
0.0
  0
VERTEX
  5
443
100
AcDbEntity
  8
0
  6
CONTINUOUS
100
AcDbVertex
100
AcDb2dVertex
 10
111.186013
 20
328.247591
 30
0.0
  0
VERTEX
  5
444
100
AcDbEntity
  8
0
  6
CONTINUOUS
100
AcDbVertex
100
AcDb2dVertex
 10
109.659013
 20
328.500591
 30
0.0
  0
VERTEX
  5
445
100
AcDbEntity
  8
0
  6
CONTINUOUS
100
AcDbVertex
100
AcDb2dVertex
 10
108.107913
 20
328.670591
 30
0.0
  0
VERTEX
  5
446
100
AcDbEntity
  8
0
  6
CONTINUOUS
100
AcDbVertex
100
AcDb2dVertex
 10
106.542413
 20
328.755591
 30
0.0
  0
VERTEX
  5
447
100
AcDbEntity
  8
0
  6
CONTINUOUS
100
AcDbVertex
100
AcDb2dVertex
 10
104.972013
 20
328.755591
 30
0.0
  0
VERTEX
  5
448
100
AcDbEntity
  8
0
  6
CONTINUOUS
100
AcDbVertex
100
AcDb2dVertex
 10
103.406413
 20
328.670591
 30
0.0
  0
VERTEX
  5
449
100
AcDbEntity
  8
0
  6
CONTINUOUS
100
AcDbVertex
100
AcDb2dVertex
 10
101.855413
 20
328.500591
 30
0.0
  0
VERTEX
  5
44A
100
AcDbEntity
  8
0
  6
CONTINUOUS
100
AcDbVertex
100
AcDb2dVertex
 10
100.328413
 20
328.247591
 30
0.0
  0
VERTEX
  5
44B
100
AcDbEntity
  8
0
  6
CONTINUOUS
100
AcDbVertex
100
AcDb2dVertex
 10
98.834913
 20
327.912591
 30
0.0
  0
VERTEX
  5
44C
100
AcDbEntity
  8
0
  6
CONTINUOUS
100
AcDbVertex
100
AcDb2dVertex
 10
97.384013
 20
327.498591
 30
0.0
  0
VERTEX
  5
44D
100
AcDbEntity
  8
0
  6
CONTINUOUS
100
AcDbVertex
100
AcDb2dVertex
 10
95.984813
 20
327.005591
 30
0.0
  0
VERTEX
  5
44E
100
AcDbEntity
  8
0
  6
CONTINUOUS
100
AcDbVertex
100
AcDb2dVertex
 10
94.645813
 20
326.439591
 30
0.0
  0
VERTEX
  5
44F
100
AcDbEntity
  8
0
  6
CONTINUOUS
100
AcDbVertex
100
AcDb2dVertex
 10
93.375313
 20
325.802591
 30
0.0
  0
VERTEX
  5
450
100
AcDbEntity
  8
0
  6
CONTINUOUS
100
AcDbVertex
100
AcDb2dVertex
 10
92.181213
 20
325.098591
 30
0.0
  0
VERTEX
  5
451
100
AcDbEntity
  8
0
  6
CONTINUOUS
100
AcDbVertex
100
AcDb2dVertex
 10
91.070713
 20
324.332591
 30
0.0
  0
VERTEX
  5
452
100
AcDbEntity
  8
0
  6
CONTINUOUS
100
AcDbVertex
100
AcDb2dVertex
 10
90.050913
 20
323.507591
 30
0.0
  0
VERTEX
  5
453
100
AcDbEntity
  8
0
  6
CONTINUOUS
100
AcDbVertex
100
AcDb2dVertex
 10
89.127813
 20
322.631591
 30
0.0
  0
VERTEX
  5
454
100
AcDbEntity
  8
0
  6
CONTINUOUS
100
AcDbVertex
100
AcDb2dVertex
 10
88.307313
 20
321.706591
 30
0.0
  0
VERTEX
  5
455
100
AcDbEntity
  8
0
  6
CONTINUOUS
100
AcDbVertex
100
AcDb2dVertex
 10
87.594313
 20
320.741591
 30
0.0
  0
VERTEX
  5
456
100
AcDbEntity
  8
0
  6
CONTINUOUS
100
AcDbVertex
100
AcDb2dVertex
 10
86.993313
 20
319.739591
 30
0.0
  0
VERTEX
  5
457
100
AcDbEntity
  8
0
  6
CONTINUOUS
100
AcDbVertex
100
AcDb2dVertex
 10
86.736013
 20
319.227591
 30
0.0
  0
VERTEX
  5
458
100
AcDbEntity
  8
0
  6
CONTINUOUS
100
AcDbVertex
100
AcDb2dVertex
 10
86.508013
 20
318.708591
 30
0.0
  0
VERTEX
  5
459
100
AcDbEntity
  8
0
  6
CONTINUOUS
100
AcDbVertex
100
AcDb2dVertex
 10
86.309713
 20
318.184591
 30
0.0
  0
VERTEX
  5
45A
100
AcDbEntity
  8
0
  6
CONTINUOUS
100
AcDbVertex
100
AcDb2dVertex
 10
86.141413
 20
317.654591
 30
0.0
  0
VERTEX
  5
45B
100
AcDbEntity
  8
0
  6
CONTINUOUS
100
AcDbVertex
100
AcDb2dVertex
 10
86.003413
 20
317.121591
 30
0.0
  0
VERTEX
  5
45C
100
AcDbEntity
  8
0
  6
CONTINUOUS
100
AcDbVertex
100
AcDb2dVertex
 10
85.895813
 20
316.584591
 30
0.0
  0
VERTEX
  5
45D
100
AcDbEntity
  8
0
  6
CONTINUOUS
100
AcDbVertex
100
AcDb2dVertex
 10
85.818813
 20
316.044591
 30
0.0
  0
VERTEX
  5
45E
100
AcDbEntity
  8
0
  6
CONTINUOUS
100
AcDbVertex
100
AcDb2dVertex
 10
85.772513
 20
315.503591
 30
0.0
  0
VERTEX
  5
45F
100
AcDbEntity
  8
0
  6
CONTINUOUS
100
AcDbVertex
100
AcDb2dVertex
 10
85.757113
 20
314.961591
 30
0.0
  0
SEQEND
  5
460
100
AcDbEntity
  8
0
  0
LINE
  5
461
100
AcDbEntity
  8
0
  6
CONTINUOUS
 62
     1
100
AcDbLine
 10
71.256913
 20
327.758591
 30
0.0
 11
71.256913
 21
314.267591
 31
0.0
  0
LINE
  5
462
100
AcDbEntity
  8
0
  6
CONTINUOUS
 62
     1
100
AcDbLine
 10
98.257113
 20
314.267591
 30
0.0
 11
98.257113
 21
327.758591
 31
0.0
  0
LINE
  5
463
100
AcDbEntity
  8
0
  6
CENTER
 62
     1
100
AcDbLine
 10
94.199513
 20
345.704591
 30
0.0
 11
75.348913
 21
345.704591
 31
0.0
  0
LINE
  5
464
100
AcDbEntity
  8
0
  6
CONTINUOUS
 62
     1
100
AcDbLine
 10
105.757113
 20
315.299591
 30
0.0
 11
105.757113
 21
328.765591
 31
0.0
  0
LINE
  5
465
100
AcDbEntity
  8
0
  6
CONTINUOUS
 62
     1
100
AcDbLine
 10
113.257113
 20
327.758591
 30
0.0
 11
113.257113
 21
314.267591
 31
0.0
  0
ARC
  5
466
100
AcDbEntity
  8
0
  6
CONTINUOUS
100
AcDbCircle
 10
133.257113
 20
336.244591
 30
0.0
 40
0.5
100
AcDbArc
 50
270.0
 51
0.0
  0
ARC
  5
467
100
AcDbEntity
  8
0
  6
CONTINUOUS
100
AcDbCircle
 10
133.257113
 20
333.244591
 30
0.0
 40
0.5
100
AcDbArc
 50
0.0
 51
90.0
  0
LINE
  5
468
100
AcDbEntity
  8
0
  6
CONTINUOUS
100
AcDbLine
 10
43.256913
 20
358.079591
 30
0.0
 11
126.257113
 21
358.079591
 31
0.0
  0
LINE
  5
469
100
AcDbEntity
  8
0
  6
CONTINUOUS
 62
     1
100
AcDbLine
 10
41.756913
 20
362.744591
 30
0.0
 11
127.757113
 21
362.744591
 31
0.0
  0
LINE
  5
46A
100
AcDbEntity
  8
0
  6
CONTINUOUS
100
AcDbLine
 10
41.756913
 20
362.744591
 30
0.0
 11
14.756913
 21
362.744591
 31
0.0
  0
ARC
  5
46B
100
AcDbEntity
  8
0
  6
CONTINUOUS
100
AcDbCircle
 10
34.256913
 20
355.244591
 30
0.0
 40
1.5
100
AcDbArc
 50
0.0
 51
90.0
  0
LINE
  5
46C
100
AcDbEntity
  8
0
  6
CONTINUOUS
100
AcDbLine
 10
31.763913
 20
355.236591
 30
0.0
 11
35.763913
 21
355.237591
 31
0.0
  0
LINE
  5
46D
100
AcDbEntity
  8
0
  6
CONTINUOUS
100
AcDbLine
 10
34.256913
 20
356.744591
 30
0.0
 11
14.756913
 21
356.744591
 31
0.0
  0
POLYLINE
  5
46E
100
AcDbEntity
  8
0
100
AcDb2dPolyline
 66
     1
 10
0.0
 20
0.0
 30
0.0
 40
3.0
 41
3.0
  0
VERTEX
  5
46F
100
AcDbEntity
  8
0
100
AcDbVertex
100
AcDb2dVertex
 10
14.756913
 20
361.244591
 30
0.0
 42
0.414214
  0
VERTEX
  5
470
100
AcDbEntity
  8
0
100
AcDbVertex
100
AcDb2dVertex
 10
16.256913
 20
362.744591
 30
0.0
 42
1.0
  0
SEQEND
  5
471
100
AcDbEntity
  8
0
  0
CIRCLE
  5
472
100
AcDbEntity
  8
0
100
AcDbCircle
 10
14.756913
 20
362.744591
 30
0.0
 40
3.0
  0
POLYLINE
  5
473
100
AcDbEntity
  8
0
100
AcDb2dPolyline
 66
     1
 10
0.0
 20
0.0
 30
0.0
 40
3.0
 41
3.0
  0
VERTEX
  5
474
100
AcDbEntity
  8
0
100
AcDbVertex
100
AcDb2dVertex
 10
14.756913
 20
364.244591
 30
0.0
 42
0.414214
  0
VERTEX
  5
475
100
AcDbEntity
  8
0
100
AcDbVertex
100
AcDb2dVertex
 10
13.256913
 20
362.744591
 30
0.0
 42
1.0
  0
SEQEND
  5
476
100
AcDbEntity
  8
0
  0
ARC
  5
477
100
AcDbEntity
  8
0
  6
CONTINUOUS
100
AcDbCircle
 10
43.256913
 20
359.579591
 30
0.0
 40
1.5
100
AcDbArc
 50
180.0
 51
270.0
  0
LINE
  5
478
100
AcDbEntity
  8
0
  6
CONTINUOUS
100
AcDbLine
 10
41.756913
 20
362.744591
 30
0.0
 11
41.756913
 21
359.579591
 31
0.0
  0
ARC
  5
479
100
AcDbEntity
  8
0
  6
CONTINUOUS
100
AcDbCircle
 10
126.257113
 20
359.579591
 30
0.0
 40
1.5
100
AcDbArc
 50
270.0
 51
0.0
  0
LINE
  5
47A
100
AcDbEntity
  8
0
  6
CONTINUOUS
100
AcDbLine
 10
127.757113
 20
359.579591
 30
0.0
 11
127.757113
 21
362.744591
 31
0.0
  0
ARC
  5
47B
100
AcDbEntity
  8
0
  6
CONTINUOUS
100
AcDbCircle
 10
135.257113
 20
355.244591
 30
0.0
 40
1.5
100
AcDbArc
 50
90.0
 51
180.0
  0
ARC
  5
47C
100
AcDbEntity
  8
0
  6
CONTINUOUS
100
AcDbCircle
 10
135.257113
 20
355.244591
 30
0.0
 40
1.5
100
AcDbArc
 50
89.9953
 51
179.995
  0
LINE
  5
47D
100
AcDbEntity
  8
0
  6
CONTINUOUS
100
AcDbLine
 10
154.757113
 20
302.744591
 30
0.0
 11
154.757113
 21
362.744591
 31
0.0
  0
LINE
  5
47E
100
AcDbEntity
  8
0
  6
CONTINUOUS
100
AcDbLine
 10
137.757113
 20
355.244591
 30
0.0
 11
137.757113
 21
288.429591
 31
0.0
  0
CIRCLE
  5
47F
100
AcDbEntity
  8
0
  6
CONTINUOUS
 62
     1
100
AcDbCircle
 10
144.795713
 20
232.960291
 30
0.0
 40
3.0
  0
LINE
  5
480
100
AcDbEntity
  8
0
  6
CONTINUOUS
 62
     1
100
AcDbLine
 10
141.795713
 20
232.960291
 30
0.0
 11
147.795713
 21
232.960291
 31
0.0
  0
LINE
  5
481
100
AcDbEntity
  8
0
  6
CONTINUOUS
 62
     1
100
AcDbLine
 10
144.655213
 20
235.956991
 30
0.0
 11
141.799013
 21
233.100691
 31
0.0
  0
LINE
  5
482
100
AcDbEntity
  8
0
  6
CONTINUOUS
 62
     1
100
AcDbLine
 10
144.757113
 20
234.644591
 30
0.0
 11
143.072713
 21
232.960291
 31
0.0
  0
LINE
  5
483
100
AcDbEntity
  8
0
  6
CONTINUOUS
 62
     1
100
AcDbLine
 10
142.365613
 20
232.960291
 30
0.0
 11
144.757113
 21
235.351691
 31
0.0
  0
LINE
  5
484
100
AcDbEntity
  8
0
  6
CONTINUOUS
 62
     1
100
AcDbLine
 10
144.757113
 20
233.230391
 30
0.0
 11
144.486913
 21
232.960291
 31
0.0
  0
LINE
  5
485
100
AcDbEntity
  8
0
  6
CONTINUOUS
 62
     1
100
AcDbLine
 10
143.779813
 20
232.960291
 30
0.0
 11
144.757113
 21
233.937491
 31
0.0
  0
LINE
  5
486
100
AcDbEntity
  8
0
  6
CONTINUOUS
 62
     1
100
AcDbLine
 10
141.976113
 20
233.984991
 30
0.0
 11
143.771013
 21
235.779791
 31
0.0
  0
LINE
  5
487
100
AcDbEntity
  8
0
  6
CONTINUOUS
 62
     1
100
AcDbLine
 10
145.031813
 20
229.969591
 30
0.0
 11
147.786413
 21
232.724191
 31
0.0
  0
LINE
  5
488
100
AcDbEntity
  8
0
  6
CONTINUOUS
 62
     1
100
AcDbLine
 10
147.315413
 20
232.960291
 30
0.0
 11
144.757113
 21
230.401991
 31
0.0
  0
LINE
  5
489
100
AcDbEntity
  8
0
  6
CONTINUOUS
 62
     1
100
AcDbLine
 10
144.757113
 20
231.109091
 30
0.0
 11
146.608313
 21
232.960291
 31
0.0
  0
LINE
  5
48A
100
AcDbEntity
  8
0
  6
CONTINUOUS
 62
     1
100
AcDbLine
 10
145.901113
 20
232.960291
 30
0.0
 11
144.757113
 21
231.816191
 31
0.0
  0
LINE
  5
48B
100
AcDbEntity
  8
0
  6
CONTINUOUS
 62
     1
100
AcDbLine
 10
144.757113
 20
229.960691
 30
0.0
 11
144.757113
 21
235.960291
 31
0.0
  0
LINE
  5
48C
100
AcDbEntity
  8
0
  6
CONTINUOUS
 62
     1
100
AcDbLine
 10
144.757113
 20
232.523291
 30
0.0
 11
145.194013
 21
232.960291
 31
0.0
  0
LINE
  5
48D
100
AcDbEntity
  8
0
  6
CONTINUOUS
 62
     1
100
AcDbLine
 10
147.557113
 20
231.787691
 30
0.0
 11
145.968213
 21
230.198891
 31
0.0
  0
LINE
  5
48E
100
AcDbEntity
  8
0
  6
CONTINUOUS
100
AcDbLine
 10
140.507113
 20
314.244591
 30
0.0
 11
140.507113
 21
311.244591
 31
0.0
  0
LINE
  5
48F
100
AcDbEntity
  8
0
  6
CONTINUOUS
100
AcDbLine
 10
149.007113
 20
314.244591
 30
0.0
 11
149.007113
 21
311.244591
 31
0.0
  0
LINE
  5
490
100
AcDbEntity
  8
0
  6
CONTINUOUS
100
AcDbLine
 10
137.757113
 20
302.744591
 30
0.0
 11
154.757113
 21
302.744591
 31
0.0
  0
ARC
  5
491
100
AcDbEntity
  8
0
  6
CONTINUOUS
100
AcDbCircle
 10
144.757113
 20
311.244591
 30
0.0
 40
4.25
100
AcDbArc
 50
180.0
 51
0.0
  0
LINE
  5
492
100
AcDbEntity
  8
0
  6
CENTER
 62
     1
100
AcDbLine
 10
154.757113
 20
327.744591
 30
0.0
 11
137.854513
 21
327.744591
 31
0.0
  0
ARC
  5
493
100
AcDbEntity
  8
0
  6
CONTINUOUS
100
AcDbCircle
 10
144.757113
 20
314.244591
 30
0.0
 40
4.25
100
AcDbArc
 50
0.0
 51
180.0
  0
LINE
  5
494
100
AcDbEntity
  8
0
  6
CENTER
 62
     1
100
AcDbLine
 10
152.438513
 20
312.744591
 30
0.0
 11
136.740513
 21
312.744591
 31
0.0
  0
CIRCLE
  5
495
100
AcDbEntity
  8
0
  6
CONTINUOUS
100
AcDbCircle
 10
144.795713
 20
327.744591
 30
0.0
 40
3.0
  0
LINE
  5
496
100
AcDbEntity
  8
0
  6
CONTINUOUS
100
AcDbLine
 10
141.795713
 20
327.744591
 30
0.0
 11
147.795713
 21
327.744591
 31
0.0
  0
LINE
  5
497
100
AcDbEntity
  8
0
  6
CONTINUOUS
100
AcDbLine
 10
144.757113
 20
326.568591
 30
0.0
 11
143.321013
 21
325.132591
 31
0.0
  0
LINE
  5
498
100
AcDbEntity
  8
0
  6
CONTINUOUS
100
AcDbLine
 10
142.900713
 20
325.419591
 30
0.0
 11
144.757113
 21
327.275591
 31
0.0
  0
LINE
  5
499
100
AcDbEntity
  8
0
  6
CONTINUOUS
100
AcDbLine
 10
144.757113
 20
325.154591
 30
0.0
 11
144.377113
 21
324.774591
 31
0.0
  0
LINE
  5
49A
100
AcDbEntity
  8
0
  6
CONTINUOUS
100
AcDbLine
 10
143.807913
 20
324.912591
 30
0.0
 11
144.757113
 21
325.861591
 31
0.0
  0
LINE
  5
49B
100
AcDbEntity
  8
0
  6
CONTINUOUS
100
AcDbLine
 10
144.519313
 20
327.744591
 30
0.0
 11
142.540713
 21
325.766591
 31
0.0
  0
LINE
  5
49C
100
AcDbEntity
  8
0
  6
CONTINUOUS
100
AcDbLine
 10
142.240413
 20
326.173591
 30
0.0
 11
143.812213
 21
327.744591
 31
0.0
  0
LINE
  5
49D
100
AcDbEntity
  8
0
  6
CONTINUOUS
100
AcDbLine
 10
143.105113
 20
327.744591
 30
0.0
 11
142.004813
 21
326.644591
 31
0.0
  0
LINE
  5
49E
100
AcDbEntity
  8
0
  6
CONTINUOUS
100
AcDbLine
 10
141.846813
 20
327.193591
 30
0.0
 11
142.398013
 21
327.744591
 31
0.0
  0
LINE
  5
49F
100
AcDbEntity
  8
0
  6
CONTINUOUS
100
AcDbLine
 10
145.226413
 20
327.744591
 30
0.0
 11
147.121413
 21
329.639591
 31
0.0
  0
LINE
  5
4A0
100
AcDbEntity
  8
0
  6
CONTINUOUS
100
AcDbLine
 10
146.774313
 20
329.999591
 30
0.0
 11
144.757113
 21
327.982591
 31
0.0
  0
LINE
  5
4A1
100
AcDbEntity
  8
0
  6
CONTINUOUS
100
AcDbLine
 10
144.757113
 20
328.689591
 30
0.0
 11
146.367513
 21
330.300591
 31
0.0
  0
LINE
  5
4A2
100
AcDbEntity
  8
0
  6
CONTINUOUS
100
AcDbLine
 10
145.896013
 20
330.535591
 30
0.0
 11
144.757113
 21
329.396591
 31
0.0
  0
LINE
  5
4A3
100
AcDbEntity
  8
0
  6
CONTINUOUS
100
AcDbLine
 10
144.757113
 20
330.744591
 30
0.0
 11
144.757113
 21
324.744591
 31
0.0
  0
LINE
  5
4A4
100
AcDbEntity
  8
0
  6
CONTINUOUS
100
AcDbLine
 10
144.757113
 20
330.103591
 30
0.0
 11
145.346913
 21
330.693591
 31
0.0
  0
LINE
  5
4A5
100
AcDbEntity
  8
0
  6
CONTINUOUS
100
AcDbLine
 10
146.640613
 20
327.744591
 30
0.0
 11
147.628413
 21
328.732591
 31
0.0
  0
LINE
  5
4A6
100
AcDbEntity
  8
0
  6
CONTINUOUS
100
AcDbLine
 10
147.408213
 20
329.219591
 30
0.0
 11
145.933513
 21
327.744591
 31
0.0
  0
LINE
  5
4A7
100
AcDbEntity
  8
0
  6
CONTINUOUS
100
AcDbLine
 10
147.766313
 20
328.163591
 30
0.0
 11
147.347713
 21
327.744591
 31
0.0
  0
LINE
  5
4A8
100
AcDbEntity
  8
0
  6
CONTINUOUS
100
AcDbLine
 10
140.507113
 20
344.244591
 30
0.0
 11
140.507113
 21
341.244591
 31
0.0
  0
LINE
  5
4A9
100
AcDbEntity
  8
0
  6
CONTINUOUS
100
AcDbLine
 10
149.007113
 20
344.244591
 30
0.0
 11
149.007113
 21
341.244591
 31
0.0
  0
ARC
  5
4AA
100
AcDbEntity
  8
0
  6
CONTINUOUS
100
AcDbCircle
 10
144.757113
 20
341.244591
 30
0.0
 40
4.25
100
AcDbArc
 50
180.0
 51
0.0
  0
ARC
  5
4AB
100
AcDbEntity
  8
0
  6
CONTINUOUS
100
AcDbCircle
 10
144.757113
 20
344.244591
 30
0.0
 40
4.25
100
AcDbArc
 50
0.0
 51
180.0
  0
ENDBLK
  5
4AD
100
AcDbEntity
  8
0
  6
CONTINUOUS
100
AcDbBlockEnd
  0
BLOCK
  5
123
100
AcDbEntity
  8
0
  6
CONTINUOUS
100
AcDbBlockBegin
  2
A$CC011
 70
     0
 10
0.0
 20
0.0
 30
0.0
  3
A$CC011
  1

  0
LINE
  5
1F
100
AcDbEntity
  8
0
  6
CONTINUOUS
 62
     1
100
AcDbLine
 10
20.306233
 20
7.227999
 30
0.0
 11
20.306233
 21
266.796499
 31
0.0
  0
LINE
  5
20
100
AcDbEntity
  8
0
  6
CONTINUOUS
 62
     1
100
AcDbLine
 10
32.306233
 20
203.788499
 30
0.0
 11
32.306233
 21
70.236759
 31
0.0
  0
LINE
  5
21
100
AcDbEntity
  8
0
  6
CONTINUOUS
100
AcDbLine
 10
85.609733
 20
54.673459
 30
0.0
 11
94.094733
 21
63.158879
 31
0.0
  0
LINE
  5
22
100
AcDbEntity
  8
0
  6
CONTINUOUS
100
AcDbLine
 10
85.255733
 20
68.461589
 30
0.0
 11
98.337733
 21
81.543399
 31
0.0
  0
ARC
  5
23
100
AcDbEntity
  8
0
  6
CONTINUOUS
100
AcDbCircle
 10
89.612733
 20
15.511699
 30
0.0
 40
3.978
100
AcDbArc
 50
280.045
 51
353.004
  0
LINE
  5
24
100
AcDbEntity
  8
0
  6
CONTINUOUS
100
AcDbLine
 10
91.305733
 20
17.280199
 30
0.0
 11
93.554733
 21
15.030999
 31
0.0
  0
LINE
  5
25
100
AcDbEntity
  8
0
  6
CONTINUOUS
100
AcDbLine
 10
90.306733
 20
13.227499
 30
0.0
 11
92.680733
 21
22.853199
 31
0.0
  0
LINE
  5
26
100
AcDbEntity
  8
0
  6
DASHED
100
AcDbLine
 10
83.054733
 20
13.227999
 30
0.0
 11
92.680733
 21
22.853899
 31
0.0
  0
ARC
  5
28
100
AcDbEntity
  8
0
  6
CONTINUOUS
100
AcDbCircle
 10
103.797733
 20
11.736499
 30
0.0
 40
14.722
100
AcDbArc
 50
115.511
 51
142.207
  0
LINE
  5
29
100
AcDbEntity
  8
0
  6
CENTER
 62
     1
100
AcDbLine
 10
66.909233
 20
21.831099
 30
0.0
 11
118.231733
 21
73.153399
 31
0.0
  0
LINE
  5
2B
100
AcDbEntity
  8
0
  6
DASHED
100
AcDbLine
 10
97.983733
 20
28.156999
 30
0.0
 11
73.235333
 21
52.905569
 31
0.0
  0
LINE
  5
2C
100
AcDbEntity
  8
0
  6
CONTINUOUS
100
AcDbLine
 10
115.308733
 20
41.945499
 30
0.0
 11
87.023733
 21
70.229679
 31
0.0
  0
LINE
  5
2D
100
AcDbEntity
  8
0
  6
CONTINUOUS
100
AcDbLine
 10
82.054733
 20
58.227969
 30
0.0
 11
103.306733
 21
36.976499
 31
0.0
  0
LINE
  5
2E
100
AcDbEntity
  8
0
  6
CENTER
 62
     1
100
AcDbLine
 10
101.723733
 20
13.810399
 30
0.0
 11
42.568133
 21
72.965899
 31
0.0
  0
LINE
  5
2F
100
AcDbEntity
  8
0
  6
CENTER
 62
     1
100
AcDbLine
 10
38.024233
 20
35.227999
 30
0.0
 11
106.105733
 21
35.227999
 31
0.0
  0
LINE
  5
30
100
AcDbEntity
  8
0
  6
CENTER
 62
     1
100
AcDbLine
 10
65.306233
 20
15.759299
 30
0.0
 11
65.306233
 21
0.546899
 31
0.0
  0
LINE
  5
31
100
AcDbEntity
  8
0
  6
CENTER
 62
     1
100
AcDbLine
 10
50.306233
 20
16.518499
 30
0.0
 11
50.306233
 21
0.546899
 31
0.0
  0
LINE
  5
32
100
AcDbEntity
  8
0
  6
CENTER
 62
     1
100
AcDbLine
 10
12.601533
 20
57.227969
 30
0.0
 11
36.306233
 21
57.227969
 31
0.0
  0
LINE
  5
33
100
AcDbEntity
  8
0
  6
CENTER
 62
     1
100
AcDbLine
 10
12.601533
 20
27.227999
 30
0.0
 11
38.876633
 21
27.227999
 31
0.0
  0
LINE
  5
34
100
AcDbEntity
  8
0
  6
CENTER
 62
     1
100
AcDbLine
 10
12.601533
 20
42.227999
 30
0.0
 11
38.343833
 21
42.227999
 31
0.0
  0
LINE
  5
35
100
AcDbEntity
  8
0
  6
CONTINUOUS
 62
     1
100
AcDbLine
 10
20.306233
 20
7.227999
 30
0.0
 11
30.473233
 21
7.227999
 31
0.0
  0
LINE
  5
36
100
AcDbEntity
  8
0
  6
DASHED
100
AcDbLine
 10
52.375333
 20
49.016799
 30
0.0
 11
60.860833
 21
40.531299
 31
0.0
  0
LINE
  5
37
100
AcDbEntity
  8
0
  6
DASHED
100
AcDbLine
 10
33.990533
 20
53.259159
 30
0.0
 11
45.304233
 21
41.945499
 31
0.0
  0
LINE
  5
38
100
AcDbEntity
  8
0
  6
CONTINUOUS
100
AcDbLine
 10
30.306233
 20
67.236759
 30
0.0
 11
30.306233
 21
7.727999
 31
0.0
  0
LINE
  5
39
100
AcDbEntity
  8
0
  6
CONTINUOUS
100
AcDbLine
 10
36.306233
 20
66.727969
 30
0.0
 11
36.306233
 21
14.727999
 31
0.0
  0
LINE
  5
3A
100
AcDbEntity
  8
0
  6
DASHED
100
AcDbLine
 10
45.304233
 20
41.945499
 30
0.0
 11
65.041033
 21
61.68211
 31
0.0
  0
LINE
  5
3B
100
AcDbEntity
  8
0
  6
DASHED
100
AcDbLine
 10
57.306233
 20
36.976799
 30
0.0
 11
78.557733
 21
58.227969
 31
0.0
  0
LINE
  5
3C
100
AcDbEntity
  8
0
  6
CONTINUOUS
100
AcDbLine
 10
30.806233
 20
7.227999
 30
0.0
 11
89.806733
 21
7.227999
 31
0.0
  0
LINE
  5
3D
100
AcDbEntity
  8
0
  6
CONTINUOUS
100
AcDbLine
 10
37.806233
 20
13.227999
 30
0.0
 11
89.806733
 21
13.227999
 31
0.0
  0
LINE
  5
3E
100
AcDbEntity
  8
0
  6
DASHED
100
AcDbLine
 10
77.557733
 20
13.227999
 30
0.0
 11
57.306233
 21
33.479399
 31
0.0
  0
ARC
  5
3F
100
AcDbEntity
  8
0
  6
CONTINUOUS
100
AcDbCircle
 10
30.806233
 20
7.727999
 30
0.0
 40
0.5
100
AcDbArc
 50
180.0
 51
270.0
  0
ARC
  5
40
100
AcDbEntity
  8
0
  6
CONTINUOUS
100
AcDbCircle
 10
37.806233
 20
14.727999
 30
0.0
 40
1.5
100
AcDbArc
 50
180.0
 51
270.0
  0
LINE
  5
41
100
AcDbEntity
  8
0
  6
DASHED
100
AcDbLine
 10
36.306233
 20
21.477999
 30
0.0
 11
30.306233
 21
21.477999
 31
0.0
  0
LINE
  5
42
100
AcDbEntity
  8
0
  6
DASHED
100
AcDbLine
 10
44.556233
 20
13.227999
 30
0.0
 11
44.556233
 21
7.227999
 31
0.0
  0
LINE
  5
43
100
AcDbEntity
  8
0
  6
DASHED
100
AcDbLine
 10
56.056133
 20
13.227999
 30
0.0
 11
56.056133
 21
7.227999
 31
0.0
  0
LINE
  5
44
100
AcDbEntity
  8
0
  6
DASHED
100
AcDbLine
 10
36.306233
 20
32.977899
 30
0.0
 11
30.306233
 21
32.977899
 31
0.0
  0
LINE
  5
45
100
AcDbEntity
  8
0
  6
DASHED
100
AcDbLine
 10
36.306233
 20
39.227999
 30
0.0
 11
30.306233
 21
39.227999
 31
0.0
  0
LINE
  5
46
100
AcDbEntity
  8
0
  6
DASHED
100
AcDbLine
 10
36.306233
 20
45.227899
 30
0.0
 11
30.306233
 21
45.227899
 31
0.0
  0
LINE
  5
47
100
AcDbEntity
  8
0
  6
DASHED
100
AcDbLine
 10
57.306233
 20
36.976799
 30
0.0
 11
57.306233
 21
33.479399
 31
0.0
  0
CIRCLE
  5
48
100
AcDbEntity
  8
0
  6
CONTINUOUS
100
AcDbCircle
 10
80.305733
 20
27.227499
 30
0.0
 40
2.5
  0
LINE
  5
49
100
AcDbEntity
  8
0
  6
DASHED
100
AcDbLine
 10
62.628533
 20
42.298999
 30
0.0
 11
87.377733
 21
17.550499
 31
0.0
  0
LINE
  5
4A
100
AcDbEntity
  8
0
  6
DASHED
100
AcDbLine
 10
62.306233
 20
13.227999
 30
0.0
 11
62.306233
 21
7.227999
 31
0.0
  0
LINE
  5
4B
100
AcDbEntity
  8
0
  6
DASHED
100
AcDbLine
 10
74.556233
 20
13.227999
 30
0.0
 11
74.556233
 21
7.227999
 31
0.0
  0
LINE
  5
4C
100
AcDbEntity
  8
0
  6
DASHED
100
AcDbLine
 10
68.306133
 20
13.227999
 30
0.0
 11
68.306133
 21
7.227999
 31
0.0
  0
ARC
  5
4D
100
AcDbEntity
  8
0
  6
CONTINUOUS
100
AcDbCircle
 10
89.806733
 20
12.727999
 30
0.0
 40
0.5
100
AcDbArc
 50
0.0
 51
90.0
  0
ARC
  5
4E
100
AcDbEntity
  8
0
  6
CONTINUOUS
100
AcDbCircle
 10
89.806733
 20
7.727999
 30
0.0
 40
0.5
100
AcDbArc
 50
270.0
 51
0.0
  0
LINE
  5
4F
100
AcDbEntity
  8
0
  6
CONTINUOUS
100
AcDbLine
 10
90.306733
 20
12.727999
 30
0.0
 11
90.306733
 21
7.727999
 31
0.0
  0
LINE
  5
50
100
AcDbEntity
  8
0
  6
DASHED
100
AcDbLine
 10
86.055733
 20
13.227999
 30
0.0
 11
86.055733
 21
7.227999
 31
0.0
  0
LINE
  5
51
100
AcDbEntity
  8
0
  6
CENTER
 62
     1
100
AcDbLine
 10
72.306233
 20
43.227499
 30
0.0
 11
85.146733
 21
43.227499
 31
0.0
  0
LINE
  5
52
100
AcDbEntity
  8
0
  6
CENTER
 62
     1
100
AcDbLine
 10
75.002933
 20
27.227499
 30
0.0
 11
88.305733
 21
27.227499
 31
0.0
  0
CIRCLE
  5
53
100
AcDbEntity
  8
0
  6
CONTINUOUS
100
AcDbCircle
 10
80.305733
 20
43.227499
 30
0.0
 40
2.5
  0
LINE
  5
54
100
AcDbEntity
  8
0
  6
CONTINUOUS
100
AcDbLine
 10
62.274833
 20
81.543299
 30
0.0
 11
47.019133
 21
66.287639
 31
0.0
  0
LINE
  5
55
100
AcDbEntity
  8
0
  6
CONTINUOUS
100
AcDbLine
 10
43.305133
 20
67.236759
 30
0.0
 11
78.557733
 21
58.227969
 31
0.0
  0
LINE
  5
56
100
AcDbEntity
  8
0
  6
DIVIDE
 62
     1
100
AcDbLine
 10
30.306233
 20
70.236759
 30
0.0
 11
30.306233
 21
67.236759
 31
0.0
  0
LINE
  5
58
100
AcDbEntity
  8
0
  6
CONTINUOUS
100
AcDbLine
 10
54.496833
 20
80.129299
 30
0.0
 11
41.950333
 21
67.582969
 31
0.0
  0
LINE
  5
59
100
AcDbEntity
  8
0
  6
CONTINUOUS
100
AcDbLine
 10
30.306233
 20
67.236759
 30
0.0
 11
43.305133
 21
67.236759
 31
0.0
  0
LINE
  5
5A
100
AcDbEntity
  8
0
  6
DASHED
100
AcDbLine
 10
47.019133
 20
66.287639
 30
0.0
 11
33.990533
 21
53.259159
 31
0.0
  0
LINE
  5
5B
100
AcDbEntity
  8
0
  6
DASHED
100
AcDbLine
 10
35.404833
 20
61.037481
 30
0.0
 11
38.586833
 21
57.855349
 31
0.0
  0
LINE
  5
5C
100
AcDbEntity
  8
0
  6
DASHED
100
AcDbLine
 10
36.306233
 20
51.477999
 30
0.0
 11
30.306233
 21
51.477999
 31
0.0
  0
LINE
  5
5D
100
AcDbEntity
  8
0
  6
DASHED
100
AcDbLine
 10
36.306233
 20
62.977939
 30
0.0
 11
30.306233
 21
62.977939
 31
0.0
  0
ARC
  5
5E
100
AcDbEntity
  8
0
  6
CONTINUOUS
100
AcDbCircle
 10
35.806233
 20
66.727969
 30
0.0
 40
0.5
100
AcDbArc
 50
0.0
 51
90.0
  0
LINE
  5
5F
100
AcDbEntity
  8
0
  6
DASHED
100
AcDbLine
 10
41.604133
 20
67.236759
 30
0.0
 11
35.404833
 21
61.037481
 31
0.0
  0
LINE
  5
60
100
AcDbEntity
  8
0
  6
DIVIDE
 62
     1
100
AcDbLine
 10
30.306233
 20
70.236759
 30
0.0
 11
32.306233
 21
70.236759
 31
0.0
  0
LINE
  5
61
100
AcDbEntity
  8
0
  6
CONTINUOUS
100
AcDbLine
 10
57.678833
 20
76.947399
 30
0.0
 11
54.496833
 21
80.129299
 31
0.0
  0
LINE
  5
62
100
AcDbEntity
  8
0
  6
CONTINUOUS
100
AcDbLine
 10
65.041033
 20
61.68211
 30
0.0
 11
73.588733
 21
70.229649
 31
0.0
  0
LINE
  5
63
100
AcDbEntity
  8
0
  6
CONTINUOUS
100
AcDbLine
 10
60.306233
 20
81.542899
 30
0.0
 11
60.306233
 21
67.074069
 31
0.0
  0
LINE
  5
64
100
AcDbEntity
  8
0
  6
CONTINUOUS
100
AcDbLine
 10
75.356833
 20
68.461589
 30
0.0
 11
62.274833
 21
81.543299
 31
0.0
  0
LINE
  5
65
100
AcDbEntity
  8
0
  6
DASHED
100
AcDbLine
 10
75.003033
 20
54.673279
 30
0.0
 11
69.007933
 21
60.668383
 31
0.0
  0
LINE
  5
66
100
AcDbEntity
  8
0
  6
CONTINUOUS
100
AcDbLine
 10
69.007933
 20
60.668383
 30
0.0
 11
66.517433
 21
63.158849
 31
0.0
  0
LINE
  5
67
100
AcDbEntity
  8
0
  6
CONTINUOUS
100
AcDbLine
 10
82.054733
 20
58.227969
 30
0.0
 11
78.557733
 21
58.227969
 31
0.0
  0
ARC
  5
68
100
AcDbEntity
  8
0
  6
DASHED
100
AcDbCircle
 10
80.306733
 20
73.411099
 30
0.0
 40
7.0
100
AcDbArc
 50
225.0
 51
315.0
  0
LINE
  5
69
100
AcDbEntity
  8
0
  6
CONTINUOUS
100
AcDbLine
 10
60.306233
 20
81.542899
 30
0.0
 11
62.275033
 21
81.542899
 31
0.0
  0
LINE
  5
6A
100
AcDbEntity
  8
0
  6
CONTINUOUS
100
AcDbLine
 10
126.621733
 20
53.259189
 30
0.0
 11
115.308733
 21
41.945499
 31
0.0
  0
LINE
  5
6B
100
AcDbEntity
  8
0
  6
CONTINUOUS
100
AcDbLine
 10
108.236733
 20
49.016799
 30
0.0
 11
99.751733
 21
40.531299
 31
0.0
  0
ARC
  5
6C
100
AcDbEntity
  8
0
  6
CONTINUOUS
100
AcDbCircle
 10
101.405733
 20
24.538499
 30
0.0
 40
3.978
100
AcDbArc
 50
97.0201
 51
173.004
  0
LINE
  5
6D
100
AcDbEntity
  8
0
  6
CONTINUOUS
100
AcDbLine
 10
100.924733
 20
28.481399
 30
0.0
 11
103.964733
 21
25.440899
 31
0.0
  0
LINE
  5
6E
100
AcDbEntity
  8
0
  6
CONTINUOUS
100
AcDbLine
 10
92.217733
 20
20.976599
 30
0.0
 11
98.592733
 21
27.351499
 31
0.0
  0
LINE
  5
6F
100
AcDbEntity
  8
0
  6
CONTINUOUS
100
AcDbLine
 10
92.680733
 20
22.853899
 30
0.0
 11
103.306733
 21
33.479399
 31
0.0
  0
LINE
  5
70
100
AcDbEntity
  8
0
  6
CONTINUOUS
100
AcDbLine
 10
95.155733
 20
14.721599
 30
0.0
 11
100.812733
 21
20.378599
 31
0.0
  0
ARC
  5
71
100
AcDbEntity
  8
0
  6
CONTINUOUS
100
AcDbCircle
 10
87.219733
 20
28.313899
 30
0.0
 40
14.722
100
AcDbArc
 50
295.511
 51
334.489
  0
LINE
  5
72
100
AcDbEntity
  8
0
  6
CONTINUOUS
100
AcDbLine
 10
92.425733
 20
12.698899
 30
0.0
 11
102.835733
 21
23.108799
 31
0.0
  0
LINE
  5
73
100
AcDbEntity
  8
0
  6
CONTINUOUS
100
AcDbLine
 10
95.155733
 20
14.721599
 30
0.0
 11
94.801733
 21
15.075399
 31
0.0
  0
LINE
  5
74
100
AcDbEntity
  8
0
  6
CONTINUOUS
100
AcDbLine
 10
94.447733
 20
14.721899
 30
0.0
 11
95.155733
 21
14.721599
 31
0.0
  0
LINE
  5
75
100
AcDbEntity
  8
0
  6
CONTINUOUS
100
AcDbLine
 10
97.462733
 20
25.019499
 30
0.0
 11
100.502733
 21
21.978899
 31
0.0
  0
LINE
  5
76
100
AcDbEntity
  8
0
  6
CONTINUOUS
100
AcDbLine
 10
100.812733
 20
20.378599
 30
0.0
 11
100.458733
 21
20.732399
 31
0.0
  0
LINE
  5
77
100
AcDbEntity
  8
0
  6
CONTINUOUS
100
AcDbLine
 10
100.812733
 20
20.378599
 30
0.0
 11
100.812733
 21
21.086099
 31
0.0
  0
ARC
  5
78
100
AcDbEntity
  8
0
  6
CONTINUOUS
100
AcDbCircle
 10
100.022733
 20
25.921799
 30
0.0
 40
3.978
100
AcDbArc
 50
276.995
 51
352.98
  0
LINE
  5
79
100
AcDbEntity
  8
0
  6
CONTINUOUS
100
AcDbLine
 10
99.044733
 20
27.803699
 30
0.0
 11
98.337733
 21
28.510699
 31
0.0
  0
LINE
  5
7A
100
AcDbEntity
  8
0
  6
CONTINUOUS
100
AcDbLine
 10
103.306733
 20
33.479399
 30
0.0
 11
103.306733
 21
36.976499
 31
0.0
  0
LINE
  5
7B
100
AcDbEntity
  8
0
  6
CONTINUOUS
100
AcDbLine
 10
98.337733
 20
81.543399
 30
0.0
 11
126.621733
 21
53.259189
 31
0.0
  0
LINE
  5
7C
100
AcDbEntity
  8
0
  6
CONTINUOUS
100
AcDbLine
 10
106.115733
 20
80.129299
 30
0.0
 11
125.207733
 21
61.037511
 31
0.0
  0
LINE
  5
7D
100
AcDbEntity
  8
0
  6
CONTINUOUS
100
AcDbLine
 10
100.305733
 20
64.684629
 30
0.0
 11
100.305733
 21
81.542899
 31
0.0
  0
LINE
  5
7E
100
AcDbEntity
  8
0
  6
CONTINUOUS
100
AcDbLine
 10
125.207733
 20
61.037511
 30
0.0
 11
122.025733
 21
57.855379
 31
0.0
  0
LINE
  5
7F
100
AcDbEntity
  8
0
  6
CONTINUOUS
100
AcDbLine
 10
102.933733
 20
76.947399
 30
0.0
 11
106.115733
 21
80.129299
 31
0.0
  0
LINE
  5
80
100
AcDbEntity
  8
0
  6
CONTINUOUS
100
AcDbLine
 10
98.337733
 20
81.542899
 30
0.0
 11
100.305733
 21
81.542899
 31
0.0
  0
LINE
  5
81
100
AcDbEntity
  8
0
  6
CENTER
 62
     1
100
AcDbLine
 10
105.409733
 20
263.900499
 30
0.0
 11
44.950933
 21
203.441499
 31
0.0
  0
LINE
  5
82
100
AcDbEntity
  8
0
  6
CENTER
 62
     1
100
AcDbLine
 10
80.305733
 20
266.796499
 30
0.0
 11
80.305733
 21
169.258499
 31
0.0
  0
LINE
  5
83
100
AcDbEntity
  8
0
  6
CONTINUOUS
 62
     1
100
AcDbLine
 10
102.226733
 20
263.545499
 30
0.0
 11
100.812733
 21
255.060499
 31
0.0
  0
LINE
  5
84
100
AcDbEntity
  8
0
  6
CONTINUOUS
100
AcDbLine
 10
91.305733
 20
256.744499
 30
0.0
 11
93.554733
 21
258.993499
 31
0.0
  0
LINE
  5
85
100
AcDbEntity
  8
0
  6
CONTINUOUS
100
AcDbLine
 10
90.306733
 20
260.796499
 30
0.0
 11
92.680733
 21
251.171499
 31
0.0
  0
LINE
  5
86
100
AcDbEntity
  8
0
  6
CONTINUOUS
100
AcDbLine
 10
96.569733
 20
259.303499
 30
0.0
 11
100.812733
 21
255.060499
 31
0.0
  0
LINE
  5
87
100
AcDbEntity
  8
0
  6
CONTINUOUS
100
AcDbLine
 10
95.155733
 20
259.303499
 30
0.0
 11
100.812733
 21
253.646499
 31
0.0
  0
ARC
  5
88
100
AcDbEntity
  8
0
  6
CONTINUOUS
100
AcDbCircle
 10
87.219733
 20
245.710499
 30
0.0
 40
14.722
100
AcDbArc
 50
25.511
 51
64.4891
  0
LINE
  5
89
100
AcDbEntity
  8
0
  6
DASHED
100
AcDbLine
 10
84.144733
 20
259.706499
 30
0.0
 11
89.268733
 21
254.582499
 31
0.0
  0
LINE
  5
8A
100
AcDbEntity
  8
0
  6
CONTINUOUS
100
AcDbLine
 10
100.812733
 20
255.060499
 30
0.0
 11
105.054733
 21
259.303499
 31
0.0
  0
LINE
  5
8B
100
AcDbEntity
  8
0
  6
CONTINUOUS
100
AcDbLine
 10
105.761733
 20
258.595499
 30
0.0
 11
100.458733
 21
253.292499
 31
0.0
  0
LINE
  5
8C
100
AcDbEntity
  8
0
  6
CONTINUOUS
100
AcDbLine
 10
92.425733
 20
261.325499
 30
0.0
 11
102.835733
 21
250.915499
 31
0.0
  0
LINE
  5
8D
100
AcDbEntity
  8
0
  6
DASHED
100
AcDbLine
 10
77.557733
 20
260.796499
 30
0.0
 11
67.931933
 21
251.171499
 31
0.0
  0
LINE
  5
8E
100
AcDbEntity
  8
0
  6
CONTINUOUS
100
AcDbLine
 10
30.306233
 20
207.020499
 30
0.0
 11
30.306233
 21
266.296499
 31
0.0
  0
LINE
  5
8F
100
AcDbEntity
  8
0
  6
CONTINUOUS
100
AcDbLine
 10
36.306233
 20
207.296499
 30
0.0
 11
36.306233
 21
259.296499
 31
0.0
  0
ARC
  5
90
100
AcDbEntity
  8
0
  6
CONTINUOUS
100
AcDbCircle
 10
103.797733
 20
262.288499
 30
0.0
 40
14.722
100
AcDbArc
 50
217.792
 51
244.489
  0
LINE
  5
91
100
AcDbEntity
  8
0
  6
DASHED
100
AcDbLine
 10
96.569733
 20
244.453499
 30
0.0
 11
74.649533
 21
222.533499
 31
0.0
  0
LINE
  5
92
100
AcDbEntity
  8
0
  6
CONTINUOUS
100
AcDbLine
 10
89.268733
 20
254.582499
 30
0.0
 11
103.306733
 21
240.545499
 31
0.0
  0
LINE
  5
93
100
AcDbEntity
  8
0
  6
CONTINUOUS
100
AcDbLine
 10
82.054733
 20
215.796499
 30
0.0
 11
103.306733
 21
237.048499
 31
0.0
  0
LINE
  5
94
100
AcDbEntity
  8
0
  6
CONTINUOUS
100
AcDbLine
 10
85.255733
 20
205.562499
 30
0.0
 11
98.337733
 21
192.481499
 31
0.0
  0
LINE
  5
95
100
AcDbEntity
  8
0
  6
CENTER
 62
     1
100
AcDbLine
 10
65.931433
 20
253.171499
 30
0.0
 11
118.532733
 21
200.570499
 31
0.0
  0
LINE
  5
96
100
AcDbEntity
  8
0
  6
CONTINUOUS
100
AcDbLine
 10
85.609733
 20
219.351499
 30
0.0
 11
94.094733
 21
210.865499
 31
0.0
  0
LINE
  5
97
100
AcDbEntity
  8
0
  6
CONTINUOUS
100
AcDbLine
 10
115.308733
 20
232.079499
 30
0.0
 11
87.023733
 21
203.795499
 31
0.0
  0
LINE
  5
98
100
AcDbEntity
  8
0
  6
CENTER
 62
     1
100
AcDbLine
 10
30.306233
 20
238.796499
 30
0.0
 11
106.617733
 21
238.796499
 31
0.0
  0
LINE
  5
99
100
AcDbEntity
  8
0
  6
CONTINUOUS
100
AcDbLine
 10
20.306233
 20
140.012199
 30
0.0
 11
32.306233
 21
140.012199
 31
0.0
  0
LINE
  5
9A
100
AcDbEntity
  8
0
  6
CONTINUOUS
100
AcDbLine
 10
32.306233
 20
136.512199
 30
0.0
 11
20.306233
 21
136.512199
 31
0.0
  0
LINE
  5
9B
100
AcDbEntity
  8
0
  6
CONTINUOUS
100
AcDbLine
 10
20.306233
 20
137.512199
 30
0.0
 11
32.306233
 21
137.512199
 31
0.0
  0
LINE
  5
9C
100
AcDbEntity
  8
0
  6
CONTINUOUS
100
AcDbLine
 10
32.306233
 20
134.012199
 30
0.0
 11
20.306233
 21
134.012199
 31
0.0
  0
LINE
  5
9D
100
AcDbEntity
  8
0
  6
CONTINUOUS
100
AcDbLine
 10
13.306233
 20
134.012199
 30
0.0
 11
20.306233
 21
134.012199
 31
0.0
  0
LINE
  5
9E
100
AcDbEntity
  8
0
  6
CONTINUOUS
100
AcDbLine
 10
13.306233
 20
140.012199
 30
0.0
 11
20.306233
 21
140.012199
 31
0.0
  0
LINE
  5
9F
100
AcDbEntity
  8
0
  6
CONTINUOUS
100
AcDbLine
 10
20.306233
 20
136.512199
 30
0.0
 11
12.306233
 21
136.512199
 31
0.0
  0
LINE
  5
A0
100
AcDbEntity
  8
0
  6
CONTINUOUS
100
AcDbLine
 10
12.306233
 20
137.512199
 30
0.0
 11
20.306233
 21
137.512199
 31
0.0
  0
LINE
  5
A1
100
AcDbEntity
  8
0
  6
CONTINUOUS
100
AcDbLine
 10
12.306233
 20
135.011899
 30
0.0
 11
12.306233
 21
139.012399
 31
0.0
  0
LINE
  5
A2
100
AcDbEntity
  8
0
  6
CONTINUOUS
100
AcDbLine
 10
12.306233
 20
135.011899
 30
0.0
 11
13.306233
 21
134.012199
 31
0.0
  0
LINE
  5
A3
100
AcDbEntity
  8
0
  6
CONTINUOUS
100
AcDbLine
 10
13.306233
 20
136.512199
 30
0.0
 11
13.306233
 21
134.012199
 31
0.0
  0
LINE
  5
A4
100
AcDbEntity
  8
0
  6
CONTINUOUS
100
AcDbLine
 10
12.306233
 20
139.012399
 30
0.0
 11
13.306233
 21
140.012199
 31
0.0
  0
LINE
  5
A5
100
AcDbEntity
  8
0
  6
CONTINUOUS
100
AcDbLine
 10
13.306233
 20
140.012199
 30
0.0
 11
13.306233
 21
137.512199
 31
0.0
  0
LINE
  5
A6
100
AcDbEntity
  8
0
  6
CONTINUOUS
100
AcDbLine
 10
31.306233
 20
134.012199
 30
0.0
 11
31.306233
 21
136.512199
 31
0.0
  0
LINE
  5
A7
100
AcDbEntity
  8
0
  6
CONTINUOUS
100
AcDbLine
 10
32.306233
 20
135.012199
 30
0.0
 11
31.306033
 21
134.012199
 31
0.0
  0
LINE
  5
A8
100
AcDbEntity
  8
0
  6
CONTINUOUS
100
AcDbLine
 10
32.306233
 20
139.012199
 30
0.0
 11
31.306033
 21
140.012199
 31
0.0
  0
LINE
  5
A9
100
AcDbEntity
  8
0
  6
CONTINUOUS
100
AcDbLine
 10
31.306233
 20
137.512199
 30
0.0
 11
31.306233
 21
140.012199
 31
0.0
  0
LINE
  5
AA
100
AcDbEntity
  8
0
  6
CENTER
 62
     1
100
AcDbLine
 10
0.733633
 20
246.796499
 30
0.0
 11
48.644733
 21
246.796499
 31
0.0
  0
LINE
  5
AB
100
AcDbEntity
  8
0
  6
CENTER
 62
     1
100
AcDbLine
 10
12.513733
 20
231.796499
 30
0.0
 11
38.341833
 21
231.796499
 31
0.0
  0
LINE
  5
AC
100
AcDbEntity
  8
0
  6
CENTER
 62
     1
100
AcDbLine
 10
14.669833
 20
216.796499
 30
0.0
 11
47.172933
 21
216.796499
 31
0.0
  0
LINE
  5
AD
100
AcDbEntity
  8
0
  6
CONTINUOUS
100
AcDbLine
 10
30.306233
 20
219.996499
 30
0.0
 11
20.306233
 21
219.996499
 31
0.0
  0
LINE
  5
AE
100
AcDbEntity
  8
0
  6
CONTINUOUS
100
AcDbLine
 10
21.106133
 20
220.796499
 30
0.0
 11
36.306233
 21
220.796499
 31
0.0
  0
LINE
  5
AF
100
AcDbEntity
  8
0
  6
CONTINUOUS
100
AcDbLine
 10
36.306233
 20
242.796499
 30
0.0
 11
20.306233
 21
242.796499
 31
0.0
  0
LINE
  5
B0
100
AcDbEntity
  8
0
  6
CONTINUOUS
100
AcDbLine
 10
20.306233
 20
250.796499
 30
0.0
 11
36.306233
 21
250.796499
 31
0.0
  0
LINE
  5
B1
100
AcDbEntity
  8
0
  6
CONTINUOUS
100
AcDbLine
 10
36.306233
 20
231.296499
 30
0.0
 11
20.306233
 21
231.296499
 31
0.0
  0
LINE
  5
B2
100
AcDbEntity
  8
0
  6
CONTINUOUS
100
AcDbLine
 10
20.306233
 20
232.296499
 30
0.0
 11
36.306233
 21
232.296499
 31
0.0
  0
LINE
  5
B3
100
AcDbEntity
  8
0
  6
CONTINUOUS
100
AcDbLine
 10
36.306233
 20
228.796499
 30
0.0
 11
20.306233
 21
228.796499
 31
0.0
  0
LINE
  5
B4
100
AcDbEntity
  8
0
  6
CONTINUOUS
100
AcDbLine
 10
20.306233
 20
234.796499
 30
0.0
 11
36.306233
 21
234.796499
 31
0.0
  0
LINE
  5
B5
100
AcDbEntity
  8
0
  6
CONTINUOUS
100
AcDbLine
 10
20.306233
 20
213.596499
 30
0.0
 11
30.306233
 21
213.596499
 31
0.0
  0
LINE
  5
B6
100
AcDbEntity
  8
0
  6
CONTINUOUS
100
AcDbLine
 10
36.569833
 20
212.796499
 30
0.0
 11
21.106133
 21
212.796499
 31
0.0
  0
LINE
  5
B7
100
AcDbEntity
  8
0
  6
CONTINUOUS
100
AcDbLine
 10
21.106133
 20
220.796499
 30
0.0
 11
21.106133
 21
212.796499
 31
0.0
  0
LINE
  5
B8
100
AcDbEntity
  8
0
  6
CONTINUOUS
100
AcDbLine
 10
21.106133
 20
212.796499
 30
0.0
 11
20.306233
 21
213.596499
 31
0.0
  0
LINE
  5
B9
100
AcDbEntity
  8
0
  6
CONTINUOUS
100
AcDbLine
 10
21.106133
 20
220.796499
 30
0.0
 11
20.306233
 21
219.996499
 31
0.0
  0
LINE
  5
BA
100
AcDbEntity
  8
0
  6
CONTINUOUS
100
AcDbLine
 10
21.306233
 20
231.296499
 30
0.0
 11
21.306233
 21
228.796499
 31
0.0
  0
LINE
  5
BB
100
AcDbEntity
  8
0
  6
CONTINUOUS
100
AcDbLine
 10
21.306233
 20
234.796499
 30
0.0
 11
21.306233
 21
232.296499
 31
0.0
  0
LINE
  5
BC
100
AcDbEntity
  8
0
  6
CONTINUOUS
100
AcDbLine
 10
20.306233
 20
233.797499
 30
0.0
 11
21.306233
 21
234.796499
 31
0.0
  0
LINE
  5
BD
100
AcDbEntity
  8
0
  6
CONTINUOUS
100
AcDbLine
 10
20.306233
 20
229.796499
 30
0.0
 11
21.306233
 21
228.796499
 31
0.0
  0
LINE
  5
BE
100
AcDbEntity
  8
0
  6
CONTINUOUS
100
AcDbLine
 10
20.306233
 20
249.996499
 30
0.0
 11
6.306233
 21
249.996499
 31
0.0
  0
LINE
  5
BF
100
AcDbEntity
  8
0
  6
CONTINUOUS
100
AcDbLine
 10
6.306233
 20
243.596499
 30
0.0
 11
20.306233
 21
243.596499
 31
0.0
  0
LINE
  5
C0
100
AcDbEntity
  8
0
  6
CONTINUOUS
100
AcDbLine
 10
20.306233
 20
242.796499
 30
0.0
 11
7.106233
 21
242.796499
 31
0.0
  0
LINE
  5
C1
100
AcDbEntity
  8
0
  6
CONTINUOUS
100
AcDbLine
 10
7.106033
 20
250.796499
 30
0.0
 11
20.306233
 21
250.796499
 31
0.0
  0
LINE
  5
C2
100
AcDbEntity
  8
0
  6
CONTINUOUS
100
AcDbLine
 10
7.106233
 20
250.796499
 30
0.0
 11
7.106233
 21
242.796499
 31
0.0
  0
LINE
  5
C3
100
AcDbEntity
  8
0
  6
CONTINUOUS
100
AcDbLine
 10
6.306233
 20
243.596499
 30
0.0
 11
6.306233
 21
249.996499
 31
0.0
  0
LINE
  5
C4
100
AcDbEntity
  8
0
  6
CONTINUOUS
100
AcDbLine
 10
6.306233
 20
243.596499
 30
0.0
 11
7.106233
 21
242.796499
 31
0.0
  0
LINE
  5
C5
100
AcDbEntity
  8
0
  6
CONTINUOUS
100
AcDbLine
 10
6.306233
 20
249.996499
 30
0.0
 11
7.106033
 21
250.796499
 31
0.0
  0
LINE
  5
C6
100
AcDbEntity
  8
0
  6
DASHED
100
AcDbLine
 10
75.003033
 20
219.351499
 30
0.0
 11
69.007833
 21
213.356499
 31
0.0
  0
LINE
  5
C7
100
AcDbEntity
  8
0
  6
CONTINUOUS
100
AcDbLine
 10
46.306233
 20
223.296499
 30
0.0
 11
46.306233
 21
210.296499
 31
0.0
  0
LINE
  5
C8
100
AcDbEntity
  8
0
  6
CONTINUOUS
100
AcDbLine
 10
38.306233
 20
223.296499
 30
0.0
 11
38.306233
 21
210.296499
 31
0.0
  0
LINE
  5
C9
100
AcDbEntity
  8
0
  6
DASHED
100
AcDbLine
 10
35.404833
 20
212.987499
 30
0.0
 11
38.586833
 21
216.169499
 31
0.0
  0
LINE
  5
CA
100
AcDbEntity
  8
0
  6
DASHED
100
AcDbLine
 10
60.306233
 20
234.048499
 30
0.0
 11
60.306233
 21
204.914499
 31
0.0
  0
LINE
  5
CB
100
AcDbEntity
  8
0
  6
DASHED
100
AcDbLine
 10
47.019133
 20
207.737499
 30
0.0
 11
33.990533
 21
220.765499
 31
0.0
  0
LINE
  5
CC
100
AcDbEntity
  8
0
  6
DASHED
100
AcDbLine
 10
45.304233
 20
232.079499
 30
0.0
 11
65.041133
 21
212.342499
 31
0.0
  0
LINE
  5
CD
100
AcDbEntity
  8
0
  6
CONTINUOUS
100
AcDbLine
 10
43.305133
 20
206.788499
 30
0.0
 11
78.557733
 21
215.796499
 31
0.0
  0
LINE
  5
CE
100
AcDbEntity
  8
0
  6
CONTINUOUS
100
AcDbLine
 10
32.306233
 20
192.481499
 30
0.0
 11
62.275033
 21
192.481499
 31
0.0
  0
LINE
  5
CF
100
AcDbEntity
  8
0
  6
CONTINUOUS
100
AcDbLine
 10
62.274933
 20
192.481499
 30
0.0
 11
47.019133
 21
207.737499
 31
0.0
  0
LINE
  5
D0
100
AcDbEntity
  8
0
  6
CONTINUOUS
100
AcDbLine
 10
57.678833
 20
197.077499
 30
0.0
 11
54.496833
 21
193.895499
 31
0.0
  0
LINE
  5
D1
100
AcDbEntity
  8
0
  6
CONTINUOUS
100
AcDbLine
 10
54.496833
 20
193.895499
 30
0.0
 11
41.950433
 21
206.441499
 31
0.0
  0
LINE
  5
D2
100
AcDbEntity
  8
0
  6
CONTINUOUS
100
AcDbLine
 10
30.306233
 20
206.788499
 30
0.0
 11
43.305133
 21
206.788499
 31
0.0
  0
LINE
  5
D3
100
AcDbEntity
  8
0
  6
CONTINUOUS
100
AcDbLine
 10
46.306233
 20
210.296499
 30
0.0
 11
36.306233
 21
210.296499
 31
0.0
  0
LINE
  5
D4
100
AcDbEntity
  8
0
  6
DASHED
 62
     1
100
AcDbLine
 10
30.306233
 20
203.788499
 30
0.0
 11
30.306233
 21
207.020499
 31
0.0
  0
LINE
  5
D5
100
AcDbEntity
  8
0
  6
DASHED
 62
     1
100
AcDbLine
 10
32.306233
 20
203.788499
 30
0.0
 11
30.306233
 21
203.788499
 31
0.0
  0
LINE
  5
D6
100
AcDbEntity
  8
0
  6
DASHED
100
AcDbLine
 10
36.310533
 20
211.046499
 30
0.0
 11
30.310533
 21
211.046499
 31
0.0
  0
ARC
  5
D7
100
AcDbEntity
  8
0
  6
CONTINUOUS
100
AcDbCircle
 10
35.806233
 20
207.296499
 30
0.0
 40
0.5
100
AcDbArc
 50
270.0
 51
0.0
  0
LINE
  5
D8
100
AcDbEntity
  8
0
  6
DASHED
100
AcDbLine
 10
41.604233
 20
206.788499
 30
0.0
 11
35.404833
 21
212.987499
 31
0.0
  0
LINE
  5
D9
100
AcDbEntity
  8
0
  6
CONTINUOUS
100
AcDbLine
 10
60.306233
 20
192.481499
 30
0.0
 11
60.306233
 21
203.881499
 31
0.0
  0
LINE
  5
DA
100
AcDbEntity
  8
0
  6
CONTINUOUS
100
AcDbLine
 10
75.356533
 20
205.562499
 30
0.0
 11
62.274933
 21
192.481499
 31
0.0
  0
LINE
  5
DB
100
AcDbEntity
  8
0
  6
CONTINUOUS
100
AcDbLine
 10
65.041133
 20
212.342499
 30
0.0
 11
73.588733
 21
203.795499
 31
0.0
  0
LINE
  5
DC
100
AcDbEntity
  8
0
  6
CONTINUOUS
100
AcDbLine
 10
69.007833
 20
213.356499
 30
0.0
 11
66.517633
 21
210.866499
 31
0.0
  0
ARC
  5
DD
100
AcDbEntity
  8
0
  6
DASHED
100
AcDbCircle
 10
80.306733
 20
200.613499
 30
0.0
 40
7.0
100
AcDbArc
 50
45.0002
 51
135.0
  0
LINE
  5
DE
100
AcDbEntity
  8
0
  6
DASHED
100
AcDbLine
 10
60.306233
 20
243.545499
 30
0.0
 11
57.306233
 21
240.545499
 31
0.0
  0
LINE
  5
DF
100
AcDbEntity
  8
0
  6
DASHED
100
AcDbLine
 10
52.375333
 20
225.008499
 30
0.0
 11
60.860833
 21
233.493499
 31
0.0
  0
LINE
  5
E0
100
AcDbEntity
  8
0
  6
DASHED
100
AcDbLine
 10
57.306233
 20
237.048499
 30
0.0
 11
78.557733
 21
215.796499
 31
0.0
  0
LINE
  5
E1
100
AcDbEntity
  8
0
  6
DASHED
100
AcDbLine
 10
33.990533
 20
220.765499
 30
0.0
 11
45.304233
 21
232.079499
 31
0.0
  0
LINE
  5
E2
100
AcDbEntity
  8
0
  6
CONTINUOUS
100
AcDbLine
 10
36.306233
 20
223.296499
 30
0.0
 11
46.306233
 21
223.296499
 31
0.0
  0
LINE
  5
E3
100
AcDbEntity
  8
0
  6
DASHED
100
AcDbLine
 10
36.310533
 20
222.546499
 30
0.0
 11
30.310533
 21
222.546499
 31
0.0
  0
LINE
  5
E4
100
AcDbEntity
  8
0
  6
CONTINUOUS
100
AcDbLine
 10
35.306233
 20
228.796499
 30
0.0
 11
35.306233
 21
231.296499
 31
0.0
  0
LINE
  5
E5
100
AcDbEntity
  8
0
  6
CONTINUOUS
100
AcDbLine
 10
35.306233
 20
232.296499
 30
0.0
 11
35.306233
 21
234.796499
 31
0.0
  0
LINE
  5
E6
100
AcDbEntity
  8
0
  6
CONTINUOUS
100
AcDbLine
 10
36.306233
 20
233.796499
 30
0.0
 11
35.306033
 21
234.796499
 31
0.0
  0
LINE
  5
E7
100
AcDbEntity
  8
0
  6
CONTINUOUS
100
AcDbLine
 10
36.306233
 20
229.796499
 30
0.0
 11
35.306033
 21
228.796499
 31
0.0
  0
LINE
  5
E8
100
AcDbEntity
  8
0
  6
CONTINUOUS
100
AcDbLine
 10
46.306233
 20
240.296499
 30
0.0
 11
36.306233
 21
240.296499
 31
0.0
  0
LINE
  5
E9
100
AcDbEntity
  8
0
  6
CONTINUOUS
100
AcDbLine
 10
36.306233
 20
253.296499
 30
0.0
 11
46.306233
 21
253.296499
 31
0.0
  0
LINE
  5
EA
100
AcDbEntity
  8
0
  6
CONTINUOUS
100
AcDbLine
 10
38.306233
 20
253.296499
 30
0.0
 11
38.306233
 21
240.296499
 31
0.0
  0
LINE
  5
EB
100
AcDbEntity
  8
0
  6
DASHED
100
AcDbLine
 10
36.310533
 20
241.046499
 30
0.0
 11
30.310533
 21
241.046499
 31
0.0
  0
LINE
  5
EC
100
AcDbEntity
  8
0
  6
DASHED
100
AcDbLine
 10
36.310533
 20
252.546499
 30
0.0
 11
30.310533
 21
252.546499
 31
0.0
  0
LINE
  5
ED
100
AcDbEntity
  8
0
  6
CONTINUOUS
100
AcDbLine
 10
46.306233
 20
253.296499
 30
0.0
 11
46.306233
 21
240.296499
 31
0.0
  0
LINE
  5
EE
100
AcDbEntity
  8
0
  6
DASHED
100
AcDbLine
 10
57.306233
 20
237.048499
 30
0.0
 11
57.306233
 21
240.545499
 31
0.0
  0
LINE
  5
EF
100
AcDbEntity
  8
0
  6
DASHED
100
AcDbLine
 10
85.962733
 20
255.060499
 30
0.0
 11
64.043033
 21
233.140499
 31
0.0
  0
LINE
  5
F0
100
AcDbEntity
  8
0
  6
CONTINUOUS
100
AcDbLine
 10
60.306233
 20
243.545499
 30
0.0
 11
60.306233
 21
234.048499
 31
0.0
  0
LINE
  5
F1
100
AcDbEntity
  8
0
  6
CENTER
 62
     1
100
AcDbLine
 10
72.306233
 20
230.796499
 30
0.0
 11
85.146733
 21
230.796499
 31
0.0
  0
LINE
  5
F2
100
AcDbEntity
  8
0
  6
CONTINUOUS
100
AcDbLine
 10
82.054733
 20
215.796499
 30
0.0
 11
78.557733
 21
215.796499
 31
0.0
  0
CIRCLE
  5
F3
100
AcDbEntity
  8
0
  6
CONTINUOUS
100
AcDbCircle
 10
80.305733
 20
230.796499
 30
0.0
 40
2.5
  0
LINE
  5
F4
100
AcDbEntity
  8
0
  6
CENTER
 62
     1
100
AcDbLine
 10
75.002933
 20
246.796499
 30
0.0
 11
88.305733
 21
246.796499
 31
0.0
  0
LINE
  5
F5
100
AcDbEntity
  8
0
  6
CONTINUOUS
100
AcDbLine
 10
67.931933
 20
251.171499
 30
0.0
 11
60.306233
 21
243.545499
 31
0.0
  0
CIRCLE
  5
F6
100
AcDbEntity
  8
0
  6
CONTINUOUS
100
AcDbCircle
 10
80.305733
 20
246.796499
 30
0.0
 40
2.5
  0
LINE
  5
F7
100
AcDbEntity
  8
0
  6
CONTINUOUS
100
AcDbLine
 10
125.207733
 20
212.987499
 30
0.0
 11
122.025733
 21
216.169499
 31
0.0
  0
LINE
  5
F8
100
AcDbEntity
  8
0
  6
DASHED
100
AcDbLine
 10
100.305733
 20
229.073499
 30
0.0
 11
100.305733
 21
206.723499
 31
0.0
  0
LINE
  5
F9
100
AcDbEntity
  8
0
  6
CONTINUOUS
100
AcDbLine
 10
98.337733
 20
192.481499
 30
0.0
 11
126.621733
 21
220.765499
 31
0.0
  0
LINE
  5
FA
100
AcDbEntity
  8
0
  6
CONTINUOUS
100
AcDbLine
 10
102.933733
 20
197.077499
 30
0.0
 11
106.115733
 21
193.895499
 31
0.0
  0
LINE
  5
FB
100
AcDbEntity
  8
0
  6
CONTINUOUS
100
AcDbLine
 10
100.305733
 20
202.201499
 30
0.0
 11
100.305733
 21
192.481499
 31
0.0
  0
LINE
  5
FC
100
AcDbEntity
  8
0
  6
CONTINUOUS
100
AcDbLine
 10
106.115733
 20
193.895499
 30
0.0
 11
125.207733
 21
212.987499
 31
0.0
  0
LINE
  5
FD
100
AcDbEntity
  8
0
  6
CONTINUOUS
100
AcDbLine
 10
98.337733
 20
192.481499
 30
0.0
 11
100.305733
 21
192.481499
 31
0.0
  0
LINE
  5
FE
100
AcDbEntity
  8
0
  6
CONTINUOUS
100
AcDbLine
 10
115.307733
 20
232.079499
 30
0.0
 11
126.621733
 21
220.765499
 31
0.0
  0
LINE
  5
FF
100
AcDbEntity
  8
0
  6
CONTINUOUS
100
AcDbLine
 10
100.305733
 20
243.545499
 30
0.0
 11
100.305733
 21
230.106499
 31
0.0
  0
LINE
  5
100
100
AcDbEntity
  8
0
  6
CONTINUOUS
100
AcDbLine
 10
108.236733
 20
225.008499
 30
0.0
 11
99.751733
 21
233.493499
 31
0.0
  0
ARC
  5
101
100
AcDbEntity
  8
0
  6
CONTINUOUS
100
AcDbCircle
 10
101.405733
 20
249.486499
 30
0.0
 40
3.978
100
AcDbArc
 50
186.995
 51
262.98
  0
LINE
  5
102
100
AcDbEntity
  8
0
  6
CONTINUOUS
100
AcDbLine
 10
100.924733
 20
245.543499
 30
0.0
 11
103.964733
 21
248.583499
 31
0.0
  0
LINE
  5
103
100
AcDbEntity
  8
0
  6
CONTINUOUS
100
AcDbLine
 10
92.217733
 20
253.048499
 30
0.0
 11
98.592733
 21
246.673499
 31
0.0
  0
LINE
  5
104
100
AcDbEntity
  8
0
  6
CONTINUOUS
100
AcDbLine
 10
99.044733
 20
246.221499
 30
0.0
 11
98.337733
 21
245.514499
 31
0.0
  0
LINE
  5
105
100
AcDbEntity
  8
0
  6
CONTINUOUS
100
AcDbLine
 10
103.306733
 20
240.545499
 30
0.0
 11
103.306733
 21
237.048499
 31
0.0
  0
LINE
  5
106
100
AcDbEntity
  8
0
  6
CONTINUOUS
100
AcDbLine
 10
97.462733
 20
249.005499
 30
0.0
 11
100.502733
 21
252.045499
 31
0.0
  0
LINE
  5
107
100
AcDbEntity
  8
0
  6
CONTINUOUS
100
AcDbLine
 10
100.812733
 20
253.646499
 30
0.0
 11
100.812733
 21
252.938499
 31
0.0
  0
ARC
  5
108
100
AcDbEntity
  8
0
  6
CONTINUOUS
100
AcDbCircle
 10
100.022733
 20
248.102499
 30
0.0
 40
3.978
100
AcDbArc
 50
7.02026
 51
83.0047
  0
ARC
  5
109
100
AcDbEntity
  8
0
  6
CONTINUOUS
100
AcDbCircle
 10
89.612733
 20
258.513499
 30
0.0
 40
3.978
100
AcDbArc
 50
6.99554
 51
82.98
  0
LINE
  5
10A
100
AcDbEntity
  8
0
  6
CONTINUOUS
 62
     1
100
AcDbLine
 10
20.306233
 20
266.796499
 30
0.0
 11
30.306233
 21
266.796499
 31
0.0
  0
LINE
  5
10B
100
AcDbEntity
  8
0
  6
CONTINUOUS
100
AcDbLine
 10
30.807533
 20
266.800499
 30
0.0
 11
89.806733
 21
266.800499
 31
0.0
  0
LINE
  5
10C
100
AcDbEntity
  8
0
  6
CONTINUOUS
100
AcDbLine
 10
37.806233
 20
260.796499
 30
0.0
 11
90.306733
 21
260.796499
 31
0.0
  0
ARC
  5
10D
100
AcDbEntity
  8
0
  6
CONTINUOUS
100
AcDbCircle
 10
30.806233
 20
266.296499
 30
0.0
 40
0.5
100
AcDbArc
 50
90.0
 51
180.0
  0
ARC
  5
10E
100
AcDbEntity
  8
0
  6
CONTINUOUS
100
AcDbCircle
 10
37.806233
 20
259.296499
 30
0.0
 40
1.5
100
AcDbArc
 50
90.0
 51
180.0
  0
LINE
  5
10F
100
AcDbEntity
  8
0
  6
CENTER
 62
     1
100
AcDbLine
 10
50.306233
 20
257.491499
 30
0.0
 11
50.306233
 21
271.631499
 31
0.0
  0
LINE
  5
110
100
AcDbEntity
  8
0
  6
DASHED
100
AcDbLine
 10
44.556233
 20
260.796499
 30
0.0
 11
44.556233
 21
266.796499
 31
0.0
  0
LINE
  5
111
100
AcDbEntity
  8
0
  6
DASHED
100
AcDbLine
 10
56.056133
 20
260.796499
 30
0.0
 11
56.056133
 21
266.796499
 31
0.0
  0
LINE
  5
112
100
AcDbEntity
  8
0
  6
CENTER
 62
     1
100
AcDbLine
 10
65.306233
 20
258.643499
 30
0.0
 11
65.306233
 21
270.871499
 31
0.0
  0
LINE
  5
113
100
AcDbEntity
  8
0
  6
DASHED
100
AcDbLine
 10
62.306233
 20
260.796499
 30
0.0
 11
62.306233
 21
266.796499
 31
0.0
  0
LINE
  5
114
100
AcDbEntity
  8
0
  6
DASHED
100
AcDbLine
 10
74.556233
 20
260.796499
 30
0.0
 11
74.556233
 21
266.796499
 31
0.0
  0
LINE
  5
115
100
AcDbEntity
  8
0
  6
DASHED
100
AcDbLine
 10
68.306133
 20
260.796499
 30
0.0
 11
68.306133
 21
266.796499
 31
0.0
  0
ARC
  5
116
100
AcDbEntity
  8
0
  6
CONTINUOUS
100
AcDbCircle
 10
89.806733
 20
266.296499
 30
0.0
 40
0.5
100
AcDbArc
 50
0.0
 51
90.0
  0
ARC
  5
117
100
AcDbEntity
  8
0
  6
CONTINUOUS
100
AcDbCircle
 10
89.806733
 20
261.296499
 30
0.0
 40
0.5
100
AcDbArc
 50
270.0
 51
0.0
  0
LINE
  5
118
100
AcDbEntity
  8
0
  6
CONTINUOUS
100
AcDbLine
 10
90.306733
 20
261.296499
 30
0.0
 11
90.306733
 21
266.296499
 31
0.0
  0
LINE
  5
119
100
AcDbEntity
  8
0
  6
DASHED
100
AcDbLine
 10
86.055733
 20
260.796499
 30
0.0
 11
86.055733
 21
266.796499
 31
0.0
  0
LINE
  5
11A
100
AcDbEntity
  8
0
  6
CONTINUOUS
100
AcDbLine
 10
100.104733
 20
264.252499
 30
0.0
 11
101.519733
 21
264.252499
 31
0.0
  0
LINE
  5
11B
100
AcDbEntity
  8
0
  6
CONTINUOUS
100
AcDbLine
 10
100.812733
 20
263.545499
 30
0.0
 11
96.569733
 21
259.303499
 31
0.0
  0
LINE
  5
11C
100
AcDbEntity
  8
0
  6
CONTINUOUS
 62
     1
100
AcDbLine
 10
96.569733
 20
259.303499
 30
0.0
 11
105.054733
 21
260.717499
 31
0.0
  0
LINE
  5
11D
100
AcDbEntity
  8
0
  6
CONTINUOUS
100
AcDbLine
 10
94.447733
 20
259.302499
 30
0.0
 11
95.155733
 21
259.303499
 31
0.0
  0
LINE
  5
11E
100
AcDbEntity
  8
0
  6
CONTINUOUS
100
AcDbLine
 10
100.104733
 20
264.252499
 30
0.0
 11
94.801733
 21
258.949499
 31
0.0
  0
LINE
  5
11F
100
AcDbEntity
  8
0
  6
CONTINUOUS
100
AcDbLine
 10
105.054733
 20
260.717499
 30
0.0
 11
105.054733
 21
259.303499
 31
0.0
  0
LINE
  5
120
100
AcDbEntity
  8
0
  6
CONTINUOUS
100
AcDbLine
 10
105.761733
 20
260.010499
 30
0.0
 11
105.761733
 21
258.595499
 31
0.0
  0
LINE
  5
121
100
AcDbEntity
  8
0
  6
CONTINUOUS
100
AcDbLine
 10
100.812733
 20
263.545499
 30
0.0
 11
102.226733
 21
263.545499
 31
0.0
  0
LINE
  5
122
100
AcDbEntity
  8
0
  6
CONTINUOUS
100
AcDbLine
 10
101.519733
 20
264.252499
 30
0.0
 11
105.761733
 21
260.010499
 31
0.0
  0
ENDBLK
  5
124
100
AcDbEntity
  8
0
  6
CONTINUOUS
100
AcDbBlockEnd
  0
BLOCK
  5
72C
100
AcDbEntity
  8
0
  6
CONTINUOUS
100
AcDbBlockBegin
  2
A$CC225
 70
     0
 10
0.0
 20
0.0
 30
0.0
  3
A$CC225
  1

  0
LINE
  5
4B0
100
AcDbEntity
  8
0
  6
CENTER
 62
     1
100
AcDbLine
 10
151.746552
 20
47.799938
 30
0.0
 11
1.111252
 21
47.799938
 31
0.0
  0
LINE
  5
4B1
100
AcDbEntity
  8
0
  6
CENTER
 62
     1
100
AcDbLine
 10
124.242052
 20
77.799938
 30
0.0
 11
154.525552
 21
77.799938
 31
0.0
  0
LINE
  5
4B2
100
AcDbEntity
  8
0
  6
CONTINUOUS
100
AcDbLine
 10
146.280452
 20
91.799938
 30
0.0
 11
126.780452
 21
91.799938
 31
0.0
  0
LINE
  5
4B3
100
AcDbEntity
  8
0
  6
CONTINUOUS
100
AcDbLine
 10
119.280452
 20
97.799938
 30
0.0
 11
146.280452
 21
97.799938
 31
0.0
  0
LINE
  5
4B4
100
AcDbEntity
  8
0
  6
CONTINUOUS
100
AcDbLine
 10
146.280452
 20
37.799938
 30
0.0
 11
125.280452
 21
37.799938
 31
0.0
  0
LINE
  5
4B5
100
AcDbEntity
  8
0
  6
DASHED
100
AcDbLine
 10
119.280452
 20
46.299938
 30
0.0
 11
119.280452
 21
37.799938
 31
0.0
  0
LINE
  5
4B6
100
AcDbEntity
  8
0
  6
CONTINUOUS
100
AcDbLine
 10
125.280452
 20
90.299938
 30
0.0
 11
125.280452
 21
24.799938
 31
0.0
  0
LINE
  5
4B7
100
AcDbEntity
  8
0
  6
DASHED
100
AcDbLine
 10
33.280252
 20
46.299938
 30
0.0
 11
33.280252
 21
37.799938
 31
0.0
  0
ARC
  5
4B8
100
AcDbEntity
  8
0
  6
CONTINUOUS
100
AcDbCircle
 10
16.280252
 20
46.299938
 30
0.0
 40
4.25
100
AcDbArc
 50
180.0
 51
0.0
  0
LINE
  5
4B9
100
AcDbEntity
  8
0
  6
CENTER
 62
     1
100
AcDbLine
 10
16.290252
 20
91.799938
 30
0.0
 11
16.295252
 21
37.798938
 31
0.0
  0
LINE
  5
4BA
100
AcDbEntity
  8
0
  6
CONTINUOUS
100
AcDbLine
 10
27.280252
 20
90.299938
 30
0.0
 11
27.280252
 21
24.799938
 31
0.0
  0
LINE
  5
4BB
100
AcDbEntity
  8
0
  6
CONTINUOUS
100
AcDbLine
 10
6.280252
 20
97.799938
 30
0.0
 11
6.280252
 21
37.799938
 31
0.0
  0
LINE
  5
4BC
100
AcDbEntity
  8
0
  6
CENTER
 62
     1
100
AcDbLine
 10
76.271252
 20
95.523938
 30
0.0
 11
76.278252
 21
0.085938
 31
0.0
  0
POLYLINE
  5
4BD
100
AcDbEntity
  8
0
  6
CONTINUOUS
100
AcDb2dPolyline
 66
     1
 10
0.0
 20
0.0
 30
0.0
  0
VERTEX
  5
4BE
100
AcDbEntity
  8
0
  6
CONTINUOUS
100
AcDbVertex
100
AcDb2dVertex
 10
96.280452
 20
28.353938
 30
0.0
  0
VERTEX
  5
4BF
100
AcDbEntity
  8
0
  6
CONTINUOUS
100
AcDbVertex
100
AcDb2dVertex
 10
96.264952
 20
28.908938
 30
0.0
  0
VERTEX
  5
4C0
100
AcDbEntity
  8
0
  6
CONTINUOUS
100
AcDbVertex
100
AcDb2dVertex
 10
96.218752
 20
29.463938
 30
0.0
  0
VERTEX
  5
4C1
100
AcDbEntity
  8
0
  6
CONTINUOUS
100
AcDbVertex
100
AcDb2dVertex
 10
96.141752
 20
30.015938
 30
0.0
  0
VERTEX
  5
4C2
100
AcDbEntity
  8
0
  6
CONTINUOUS
100
AcDbVertex
100
AcDb2dVertex
 10
96.034152
 20
30.565938
 30
0.0
  0
VERTEX
  5
4C3
100
AcDbEntity
  8
0
  6
CONTINUOUS
100
AcDbVertex
100
AcDb2dVertex
 10
95.896052
 20
31.112938
 30
0.0
  0
VERTEX
  5
4C4
100
AcDbEntity
  8
0
  6
CONTINUOUS
100
AcDbVertex
100
AcDb2dVertex
 10
95.727752
 20
31.654938
 30
0.0
  0
VERTEX
  5
4C5
100
AcDbEntity
  8
0
  6
CONTINUOUS
100
AcDbVertex
100
AcDb2dVertex
 10
95.529452
 20
32.192938
 30
0.0
  0
VERTEX
  5
4C6
100
AcDbEntity
  8
0
  6
CONTINUOUS
100
AcDbVertex
100
AcDb2dVertex
 10
95.301552
 20
32.723938
 30
0.0
  0
VERTEX
  5
4C7
100
AcDbEntity
  8
0
  6
CONTINUOUS
100
AcDbVertex
100
AcDb2dVertex
 10
95.044252
 20
33.248938
 30
0.0
  0
VERTEX
  5
4C8
100
AcDbEntity
  8
0
  6
CONTINUOUS
100
AcDbVertex
100
AcDb2dVertex
 10
94.443252
 20
34.274938
 30
0.0
  0
VERTEX
  5
4C9
100
AcDbEntity
  8
0
  6
CONTINUOUS
100
AcDbVertex
100
AcDb2dVertex
 10
93.730252
 20
35.263938
 30
0.0
  0
VERTEX
  5
4CA
100
AcDbEntity
  8
0
  6
CONTINUOUS
100
AcDbVertex
100
AcDb2dVertex
 10
92.909752
 20
36.210938
 30
0.0
  0
VERTEX
  5
4CB
100
AcDbEntity
  8
0
  6
CONTINUOUS
100
AcDbVertex
100
AcDb2dVertex
 10
91.986752
 20
37.108938
 30
0.0
  0
VERTEX
  5
4CC
100
AcDbEntity
  8
0
  6
CONTINUOUS
100
AcDbVertex
100
AcDb2dVertex
 10
90.966852
 20
37.953938
 30
0.0
  0
VERTEX
  5
4CD
100
AcDbEntity
  8
0
  6
CONTINUOUS
100
AcDbVertex
100
AcDb2dVertex
 10
89.856352
 20
38.738938
 30
0.0
  0
VERTEX
  5
4CE
100
AcDbEntity
  8
0
  6
CONTINUOUS
100
AcDbVertex
100
AcDb2dVertex
 10
88.662252
 20
39.459938
 30
0.0
  0
VERTEX
  5
4CF
100
AcDbEntity
  8
0
  6
CONTINUOUS
100
AcDbVertex
100
AcDb2dVertex
 10
87.391752
 20
40.112938
 30
0.0
  0
VERTEX
  5
4D0
100
AcDbEntity
  8
0
  6
CONTINUOUS
100
AcDbVertex
100
AcDb2dVertex
 10
86.052852
 20
40.692938
 30
0.0
  0
VERTEX
  5
4D1
100
AcDbEntity
  8
0
  6
CONTINUOUS
100
AcDbVertex
100
AcDb2dVertex
 10
84.653552
 20
41.196938
 30
0.0
  0
VERTEX
  5
4D2
100
AcDbEntity
  8
0
  6
CONTINUOUS
100
AcDbVertex
100
AcDb2dVertex
 10
83.202752
 20
41.621938
 30
0.0
  0
VERTEX
  5
4D3
100
AcDbEntity
  8
0
  6
CONTINUOUS
100
AcDbVertex
100
AcDb2dVertex
 10
81.709252
 20
41.964938
 30
0.0
  0
VERTEX
  5
4D4
100
AcDbEntity
  8
0
  6
CONTINUOUS
100
AcDbVertex
100
AcDb2dVertex
 10
80.182252
 20
42.224938
 30
0.0
  0
VERTEX
  5
4D5
100
AcDbEntity
  8
0
  6
CONTINUOUS
100
AcDbVertex
100
AcDb2dVertex
 10
78.631152
 20
42.397938
 30
0.0
  0
VERTEX
  5
4D6
100
AcDbEntity
  8
0
  6
CONTINUOUS
100
AcDbVertex
100
AcDb2dVertex
 10
77.065652
 20
42.484938
 30
0.0
  0
VERTEX
  5
4D7
100
AcDbEntity
  8
0
  6
CONTINUOUS
100
AcDbVertex
100
AcDb2dVertex
 10
75.495252
 20
42.484938
 30
0.0
  0
VERTEX
  5
4D8
100
AcDbEntity
  8
0
  6
CONTINUOUS
100
AcDbVertex
100
AcDb2dVertex
 10
73.929252
 20
42.397938
 30
0.0
  0
VERTEX
  5
4D9
100
AcDbEntity
  8
0
  6
CONTINUOUS
100
AcDbVertex
100
AcDb2dVertex
 10
72.378252
 20
42.224938
 30
0.0
  0
VERTEX
  5
4DA
100
AcDbEntity
  8
0
  6
CONTINUOUS
100
AcDbVertex
100
AcDb2dVertex
 10
70.851252
 20
41.964938
 30
0.0
  0
VERTEX
  5
4DB
100
AcDbEntity
  8
0
  6
CONTINUOUS
100
AcDbVertex
100
AcDb2dVertex
 10
69.358252
 20
41.621938
 30
0.0
  0
VERTEX
  5
4DC
100
AcDbEntity
  8
0
  6
CONTINUOUS
100
AcDbVertex
100
AcDb2dVertex
 10
67.907252
 20
41.196938
 30
0.0
  0
VERTEX
  5
4DD
100
AcDbEntity
  8
0
  6
CONTINUOUS
100
AcDbVertex
100
AcDb2dVertex
 10
66.508252
 20
40.692938
 30
0.0
  0
VERTEX
  5
4DE
100
AcDbEntity
  8
0
  6
CONTINUOUS
100
AcDbVertex
100
AcDb2dVertex
 10
65.169252
 20
40.112938
 30
0.0
  0
VERTEX
  5
4DF
100
AcDbEntity
  8
0
  6
CONTINUOUS
100
AcDbVertex
100
AcDb2dVertex
 10
63.898252
 20
39.459938
 30
0.0
  0
VERTEX
  5
4E0
100
AcDbEntity
  8
0
  6
CONTINUOUS
100
AcDbVertex
100
AcDb2dVertex
 10
62.704252
 20
38.738938
 30
0.0
  0
VERTEX
  5
4E1
100
AcDbEntity
  8
0
  6
CONTINUOUS
100
AcDbVertex
100
AcDb2dVertex
 10
61.594252
 20
37.953938
 30
0.0
  0
VERTEX
  5
4E2
100
AcDbEntity
  8
0
  6
CONTINUOUS
100
AcDbVertex
100
AcDb2dVertex
 10
60.574252
 20
37.108938
 30
0.0
  0
VERTEX
  5
4E3
100
AcDbEntity
  8
0
  6
CONTINUOUS
100
AcDbVertex
100
AcDb2dVertex
 10
59.651252
 20
36.210938
 30
0.0
  0
VERTEX
  5
4E4
100
AcDbEntity
  8
0
  6
CONTINUOUS
100
AcDbVertex
100
AcDb2dVertex
 10
58.830252
 20
35.263938
 30
0.0
  0
VERTEX
  5
4E5
100
AcDbEntity
  8
0
  6
CONTINUOUS
100
AcDbVertex
100
AcDb2dVertex
 10
58.117252
 20
34.274938
 30
0.0
  0
VERTEX
  5
4E6
100
AcDbEntity
  8
0
  6
CONTINUOUS
100
AcDbVertex
100
AcDb2dVertex
 10
57.516252
 20
33.248938
 30
0.0
  0
VERTEX
  5
4E7
100
AcDbEntity
  8
0
  6
CONTINUOUS
100
AcDbVertex
100
AcDb2dVertex
 10
57.259252
 20
32.723938
 30
0.0
  0
VERTEX
  5
4E8
100
AcDbEntity
  8
0
  6
CONTINUOUS
100
AcDbVertex
100
AcDb2dVertex
 10
57.031252
 20
32.192938
 30
0.0
  0
VERTEX
  5
4E9
100
AcDbEntity
  8
0
  6
CONTINUOUS
100
AcDbVertex
100
AcDb2dVertex
 10
56.833252
 20
31.654938
 30
0.0
  0
VERTEX
  5
4EA
100
AcDbEntity
  8
0
  6
CONTINUOUS
100
AcDbVertex
100
AcDb2dVertex
 10
56.665252
 20
31.112938
 30
0.0
  0
VERTEX
  5
4EB
100
AcDbEntity
  8
0
  6
CONTINUOUS
100
AcDbVertex
100
AcDb2dVertex
 10
56.527252
 20
30.565938
 30
0.0
  0
VERTEX
  5
4EC
100
AcDbEntity
  8
0
  6
CONTINUOUS
100
AcDbVertex
100
AcDb2dVertex
 10
56.419252
 20
30.015938
 30
0.0
  0
VERTEX
  5
4ED
100
AcDbEntity
  8
0
  6
CONTINUOUS
100
AcDbVertex
100
AcDb2dVertex
 10
56.342252
 20
29.463938
 30
0.0
  0
VERTEX
  5
4EE
100
AcDbEntity
  8
0
  6
CONTINUOUS
100
AcDbVertex
100
AcDb2dVertex
 10
56.296252
 20
28.908938
 30
0.0
  0
VERTEX
  5
4EF
100
AcDbEntity
  8
0
  6
CONTINUOUS
100
AcDbVertex
100
AcDb2dVertex
 10
56.280252
 20
28.353938
 30
0.0
  0
SEQEND
  5
4F0
100
AcDbEntity
  8
0
  0
POLYLINE
  5
4F1
100
AcDbEntity
  8
0
  6
CONTINUOUS
100
AcDb2dPolyline
 66
     1
 10
0.0
 20
0.0
 30
0.0
  0
VERTEX
  5
4F2
100
AcDbEntity
  8
0
  6
CONTINUOUS
100
AcDbVertex
100
AcDb2dVertex
 10
56.280252
 20
14.211938
 30
0.0
  0
VERTEX
  5
4F3
100
AcDbEntity
  8
0
  6
CONTINUOUS
100
AcDbVertex
100
AcDb2dVertex
 10
56.296252
 20
13.656938
 30
0.0
  0
VERTEX
  5
4F4
100
AcDbEntity
  8
0
  6
CONTINUOUS
100
AcDbVertex
100
AcDb2dVertex
 10
56.342252
 20
13.101938
 30
0.0
  0
VERTEX
  5
4F5
100
AcDbEntity
  8
0
  6
CONTINUOUS
100
AcDbVertex
100
AcDb2dVertex
 10
56.419252
 20
12.549938
 30
0.0
  0
VERTEX
  5
4F6
100
AcDbEntity
  8
0
  6
CONTINUOUS
100
AcDbVertex
100
AcDb2dVertex
 10
56.526252
 20
11.999938
 30
0.0
  0
VERTEX
  5
4F7
100
AcDbEntity
  8
0
  6
CONTINUOUS
100
AcDbVertex
100
AcDb2dVertex
 10
56.665252
 20
11.452938
 30
0.0
  0
VERTEX
  5
4F8
100
AcDbEntity
  8
0
  6
CONTINUOUS
100
AcDbVertex
100
AcDb2dVertex
 10
56.833252
 20
10.910938
 30
0.0
  0
VERTEX
  5
4F9
100
AcDbEntity
  8
0
  6
CONTINUOUS
100
AcDbVertex
100
AcDb2dVertex
 10
57.031252
 20
10.372938
 30
0.0
  0
VERTEX
  5
4FA
100
AcDbEntity
  8
0
  6
CONTINUOUS
100
AcDbVertex
100
AcDb2dVertex
 10
57.259252
 20
9.841938
 30
0.0
  0
VERTEX
  5
4FB
100
AcDbEntity
  8
0
  6
CONTINUOUS
100
AcDbVertex
100
AcDb2dVertex
 10
57.516252
 20
9.316938
 30
0.0
  0
VERTEX
  5
4FC
100
AcDbEntity
  8
0
  6
CONTINUOUS
100
AcDbVertex
100
AcDb2dVertex
 10
58.117252
 20
8.290938
 30
0.0
  0
VERTEX
  5
4FD
100
AcDbEntity
  8
0
  6
CONTINUOUS
100
AcDbVertex
100
AcDb2dVertex
 10
58.830252
 20
7.301938
 30
0.0
  0
VERTEX
  5
4FE
100
AcDbEntity
  8
0
  6
CONTINUOUS
100
AcDbVertex
100
AcDb2dVertex
 10
59.651252
 20
6.354938
 30
0.0
  0
VERTEX
  5
4FF
100
AcDbEntity
  8
0
  6
CONTINUOUS
100
AcDbVertex
100
AcDb2dVertex
 10
60.574252
 20
5.456938
 30
0.0
  0
VERTEX
  5
500
100
AcDbEntity
  8
0
  6
CONTINUOUS
100
AcDbVertex
100
AcDb2dVertex
 10
61.594252
 20
4.611938
 30
0.0
  0
VERTEX
  5
501
100
AcDbEntity
  8
0
  6
CONTINUOUS
100
AcDbVertex
100
AcDb2dVertex
 10
62.704252
 20
3.826938
 30
0.0
  0
VERTEX
  5
502
100
AcDbEntity
  8
0
  6
CONTINUOUS
100
AcDbVertex
100
AcDb2dVertex
 10
63.898252
 20
3.105938
 30
0.0
  0
VERTEX
  5
503
100
AcDbEntity
  8
0
  6
CONTINUOUS
100
AcDbVertex
100
AcDb2dVertex
 10
65.169252
 20
2.452938
 30
0.0
  0
VERTEX
  5
504
100
AcDbEntity
  8
0
  6
CONTINUOUS
100
AcDbVertex
100
AcDb2dVertex
 10
66.508252
 20
1.872938
 30
0.0
  0
VERTEX
  5
505
100
AcDbEntity
  8
0
  6
CONTINUOUS
100
AcDbVertex
100
AcDb2dVertex
 10
67.907252
 20
1.368938
 30
0.0
  0
VERTEX
  5
506
100
AcDbEntity
  8
0
  6
CONTINUOUS
100
AcDbVertex
100
AcDb2dVertex
 10
69.358252
 20
0.943938
 30
0.0
  0
VERTEX
  5
507
100
AcDbEntity
  8
0
  6
CONTINUOUS
100
AcDbVertex
100
AcDb2dVertex
 10
70.851252
 20
0.600938
 30
0.0
  0
VERTEX
  5
508
100
AcDbEntity
  8
0
  6
CONTINUOUS
100
AcDbVertex
100
AcDb2dVertex
 10
72.378252
 20
0.340938
 30
0.0
  0
VERTEX
  5
509
100
AcDbEntity
  8
0
  6
CONTINUOUS
100
AcDbVertex
100
AcDb2dVertex
 10
73.929252
 20
0.167938
 30
0.0
  0
VERTEX
  5
50A
100
AcDbEntity
  8
0
  6
CONTINUOUS
100
AcDbVertex
100
AcDb2dVertex
 10
75.495252
 20
0.080938
 30
0.0
  0
VERTEX
  5
50B
100
AcDbEntity
  8
0
  6
CONTINUOUS
100
AcDbVertex
100
AcDb2dVertex
 10
77.065652
 20
0.080938
 30
0.0
  0
VERTEX
  5
50C
100
AcDbEntity
  8
0
  6
CONTINUOUS
100
AcDbVertex
100
AcDb2dVertex
 10
78.631152
 20
0.167938
 30
0.0
  0
VERTEX
  5
50D
100
AcDbEntity
  8
0
  6
CONTINUOUS
100
AcDbVertex
100
AcDb2dVertex
 10
80.182252
 20
0.340938
 30
0.0
  0
VERTEX
  5
50E
100
AcDbEntity
  8
0
  6
CONTINUOUS
100
AcDbVertex
100
AcDb2dVertex
 10
81.709252
 20
0.600938
 30
0.0
  0
VERTEX
  5
50F
100
AcDbEntity
  8
0
  6
CONTINUOUS
100
AcDbVertex
100
AcDb2dVertex
 10
83.202752
 20
0.943938
 30
0.0
  0
VERTEX
  5
510
100
AcDbEntity
  8
0
  6
CONTINUOUS
100
AcDbVertex
100
AcDb2dVertex
 10
84.653652
 20
1.368938
 30
0.0
  0
VERTEX
  5
511
100
AcDbEntity
  8
0
  6
CONTINUOUS
100
AcDbVertex
100
AcDb2dVertex
 10
86.052852
 20
1.872938
 30
0.0
  0
VERTEX
  5
512
100
AcDbEntity
  8
0
  6
CONTINUOUS
100
AcDbVertex
100
AcDb2dVertex
 10
87.391852
 20
2.452938
 30
0.0
  0
VERTEX
  5
513
100
AcDbEntity
  8
0
  6
CONTINUOUS
100
AcDbVertex
100
AcDb2dVertex
 10
88.662352
 20
3.105938
 30
0.0
  0
VERTEX
  5
514
100
AcDbEntity
  8
0
  6
CONTINUOUS
100
AcDbVertex
100
AcDb2dVertex
 10
89.856452
 20
3.826938
 30
0.0
  0
VERTEX
  5
515
100
AcDbEntity
  8
0
  6
CONTINUOUS
100
AcDbVertex
100
AcDb2dVertex
 10
90.966852
 20
4.611938
 30
0.0
  0
VERTEX
  5
516
100
AcDbEntity
  8
0
  6
CONTINUOUS
100
AcDbVertex
100
AcDb2dVertex
 10
91.986752
 20
5.456938
 30
0.0
  0
VERTEX
  5
517
100
AcDbEntity
  8
0
  6
CONTINUOUS
100
AcDbVertex
100
AcDb2dVertex
 10
92.909852
 20
6.354938
 30
0.0
  0
VERTEX
  5
518
100
AcDbEntity
  8
0
  6
CONTINUOUS
100
AcDbVertex
100
AcDb2dVertex
 10
93.730352
 20
7.301938
 30
0.0
  0
VERTEX
  5
519
100
AcDbEntity
  8
0
  6
CONTINUOUS
100
AcDbVertex
100
AcDb2dVertex
 10
94.443252
 20
8.290938
 30
0.0
  0
VERTEX
  5
51A
100
AcDbEntity
  8
0
  6
CONTINUOUS
100
AcDbVertex
100
AcDb2dVertex
 10
95.044252
 20
9.316938
 30
0.0
  0
VERTEX
  5
51B
100
AcDbEntity
  8
0
  6
CONTINUOUS
100
AcDbVertex
100
AcDb2dVertex
 10
95.301552
 20
9.841938
 30
0.0
  0
VERTEX
  5
51C
100
AcDbEntity
  8
0
  6
CONTINUOUS
100
AcDbVertex
100
AcDb2dVertex
 10
95.529552
 20
10.372938
 30
0.0
  0
VERTEX
  5
51D
100
AcDbEntity
  8
0
  6
CONTINUOUS
100
AcDbVertex
100
AcDb2dVertex
 10
95.727852
 20
10.910938
 30
0.0
  0
VERTEX
  5
51E
100
AcDbEntity
  8
0
  6
CONTINUOUS
100
AcDbVertex
100
AcDb2dVertex
 10
95.896152
 20
11.452938
 30
0.0
  0
VERTEX
  5
51F
100
AcDbEntity
  8
0
  6
CONTINUOUS
100
AcDbVertex
100
AcDb2dVertex
 10
96.034152
 20
11.999938
 30
0.0
  0
VERTEX
  5
520
100
AcDbEntity
  8
0
  6
CONTINUOUS
100
AcDbVertex
100
AcDb2dVertex
 10
96.141752
 20
12.549938
 30
0.0
  0
VERTEX
  5
521
100
AcDbEntity
  8
0
  6
CONTINUOUS
100
AcDbVertex
100
AcDb2dVertex
 10
96.218752
 20
13.101938
 30
0.0
  0
VERTEX
  5
522
100
AcDbEntity
  8
0
  6
CONTINUOUS
100
AcDbVertex
100
AcDb2dVertex
 10
96.264952
 20
13.656938
 30
0.0
  0
VERTEX
  5
523
100
AcDbEntity
  8
0
  6
CONTINUOUS
100
AcDbVertex
100
AcDb2dVertex
 10
96.280452
 20
14.211938
 30
0.0
  0
VERTEX
  5
524
100
AcDbEntity
  8
0
  6
CONTINUOUS
100
AcDbVertex
100
AcDb2dVertex
 10
96.264952
 20
14.766938
 30
0.0
  0
VERTEX
  5
525
100
AcDbEntity
  8
0
  6
CONTINUOUS
100
AcDbVertex
100
AcDb2dVertex
 10
96.218752
 20
15.321938
 30
0.0
  0
VERTEX
  5
526
100
AcDbEntity
  8
0
  6
CONTINUOUS
100
AcDbVertex
100
AcDb2dVertex
 10
96.141752
 20
15.873938
 30
0.0
  0
VERTEX
  5
527
100
AcDbEntity
  8
0
  6
CONTINUOUS
100
AcDbVertex
100
AcDb2dVertex
 10
96.034152
 20
16.423938
 30
0.0
  0
VERTEX
  5
528
100
AcDbEntity
  8
0
  6
CONTINUOUS
100
AcDbVertex
100
AcDb2dVertex
 10
95.896152
 20
16.970938
 30
0.0
  0
VERTEX
  5
529
100
AcDbEntity
  8
0
  6
CONTINUOUS
100
AcDbVertex
100
AcDb2dVertex
 10
95.727852
 20
17.513938
 30
0.0
  0
VERTEX
  5
52A
100
AcDbEntity
  8
0
  6
CONTINUOUS
100
AcDbVertex
100
AcDb2dVertex
 10
95.529552
 20
18.050938
 30
0.0
  0
VERTEX
  5
52B
100
AcDbEntity
  8
0
  6
CONTINUOUS
100
AcDbVertex
100
AcDb2dVertex
 10
95.301552
 20
18.581938
 30
0.0
  0
VERTEX
  5
52C
100
AcDbEntity
  8
0
  6
CONTINUOUS
100
AcDbVertex
100
AcDb2dVertex
 10
95.044252
 20
19.106938
 30
0.0
  0
VERTEX
  5
52D
100
AcDbEntity
  8
0
  6
CONTINUOUS
100
AcDbVertex
100
AcDb2dVertex
 10
94.443252
 20
20.132938
 30
0.0
  0
VERTEX
  5
52E
100
AcDbEntity
  8
0
  6
CONTINUOUS
100
AcDbVertex
100
AcDb2dVertex
 10
93.730352
 20
21.121938
 30
0.0
  0
VERTEX
  5
52F
100
AcDbEntity
  8
0
  6
CONTINUOUS
100
AcDbVertex
100
AcDb2dVertex
 10
92.909852
 20
22.068938
 30
0.0
  0
VERTEX
  5
530
100
AcDbEntity
  8
0
  6
CONTINUOUS
100
AcDbVertex
100
AcDb2dVertex
 10
91.986752
 20
22.967938
 30
0.0
  0
VERTEX
  5
531
100
AcDbEntity
  8
0
  6
CONTINUOUS
100
AcDbVertex
100
AcDb2dVertex
 10
90.966852
 20
23.811938
 30
0.0
  0
VERTEX
  5
532
100
AcDbEntity
  8
0
  6
CONTINUOUS
100
AcDbVertex
100
AcDb2dVertex
 10
89.856452
 20
24.596938
 30
0.0
  0
VERTEX
  5
533
100
AcDbEntity
  8
0
  6
CONTINUOUS
100
AcDbVertex
100
AcDb2dVertex
 10
88.662352
 20
25.317938
 30
0.0
  0
VERTEX
  5
534
100
AcDbEntity
  8
0
  6
CONTINUOUS
100
AcDbVertex
100
AcDb2dVertex
 10
87.391852
 20
25.970938
 30
0.0
  0
VERTEX
  5
535
100
AcDbEntity
  8
0
  6
CONTINUOUS
100
AcDbVertex
100
AcDb2dVertex
 10
86.052852
 20
26.550938
 30
0.0
  0
VERTEX
  5
536
100
AcDbEntity
  8
0
  6
CONTINUOUS
100
AcDbVertex
100
AcDb2dVertex
 10
84.653652
 20
27.054938
 30
0.0
  0
VERTEX
  5
537
100
AcDbEntity
  8
0
  6
CONTINUOUS
100
AcDbVertex
100
AcDb2dVertex
 10
83.202752
 20
27.479938
 30
0.0
  0
VERTEX
  5
538
100
AcDbEntity
  8
0
  6
CONTINUOUS
100
AcDbVertex
100
AcDb2dVertex
 10
81.709252
 20
27.822938
 30
0.0
  0
VERTEX
  5
539
100
AcDbEntity
  8
0
  6
CONTINUOUS
100
AcDbVertex
100
AcDb2dVertex
 10
80.182252
 20
28.082938
 30
0.0
  0
VERTEX
  5
53A
100
AcDbEntity
  8
0
  6
CONTINUOUS
100
AcDbVertex
100
AcDb2dVertex
 10
78.631152
 20
28.255938
 30
0.0
  0
VERTEX
  5
53B
100
AcDbEntity
  8
0
  6
CONTINUOUS
100
AcDbVertex
100
AcDb2dVertex
 10
77.065652
 20
28.343938
 30
0.0
  0
VERTEX
  5
53C
100
AcDbEntity
  8
0
  6
CONTINUOUS
100
AcDbVertex
100
AcDb2dVertex
 10
75.495252
 20
28.343938
 30
0.0
  0
VERTEX
  5
53D
100
AcDbEntity
  8
0
  6
CONTINUOUS
100
AcDbVertex
100
AcDb2dVertex
 10
73.929252
 20
28.255938
 30
0.0
  0
VERTEX
  5
53E
100
AcDbEntity
  8
0
  6
CONTINUOUS
100
AcDbVertex
100
AcDb2dVertex
 10
72.378252
 20
28.082938
 30
0.0
  0
VERTEX
  5
53F
100
AcDbEntity
  8
0
  6
CONTINUOUS
100
AcDbVertex
100
AcDb2dVertex
 10
70.851252
 20
27.822938
 30
0.0
  0
VERTEX
  5
540
100
AcDbEntity
  8
0
  6
CONTINUOUS
100
AcDbVertex
100
AcDb2dVertex
 10
69.358252
 20
27.479938
 30
0.0
  0
VERTEX
  5
541
100
AcDbEntity
  8
0
  6
CONTINUOUS
100
AcDbVertex
100
AcDb2dVertex
 10
67.907252
 20
27.054938
 30
0.0
  0
VERTEX
  5
542
100
AcDbEntity
  8
0
  6
CONTINUOUS
100
AcDbVertex
100
AcDb2dVertex
 10
66.508252
 20
26.550938
 30
0.0
  0
VERTEX
  5
543
100
AcDbEntity
  8
0
  6
CONTINUOUS
100
AcDbVertex
100
AcDb2dVertex
 10
65.169252
 20
25.970938
 30
0.0
  0
VERTEX
  5
544
100
AcDbEntity
  8
0
  6
CONTINUOUS
100
AcDbVertex
100
AcDb2dVertex
 10
63.898252
 20
25.317938
 30
0.0
  0
VERTEX
  5
545
100
AcDbEntity
  8
0
  6
CONTINUOUS
100
AcDbVertex
100
AcDb2dVertex
 10
62.704252
 20
24.596938
 30
0.0
  0
VERTEX
  5
546
100
AcDbEntity
  8
0
  6
CONTINUOUS
100
AcDbVertex
100
AcDb2dVertex
 10
61.594252
 20
23.811938
 30
0.0
  0
VERTEX
  5
547
100
AcDbEntity
  8
0
  6
CONTINUOUS
100
AcDbVertex
100
AcDb2dVertex
 10
60.574252
 20
22.967938
 30
0.0
  0
VERTEX
  5
548
100
AcDbEntity
  8
0
  6
CONTINUOUS
100
AcDbVertex
100
AcDb2dVertex
 10
59.651252
 20
22.068938
 30
0.0
  0
VERTEX
  5
549
100
AcDbEntity
  8
0
  6
CONTINUOUS
100
AcDbVertex
100
AcDb2dVertex
 10
58.830252
 20
21.121938
 30
0.0
  0
VERTEX
  5
54A
100
AcDbEntity
  8
0
  6
CONTINUOUS
100
AcDbVertex
100
AcDb2dVertex
 10
58.117252
 20
20.132938
 30
0.0
  0
VERTEX
  5
54B
100
AcDbEntity
  8
0
  6
CONTINUOUS
100
AcDbVertex
100
AcDb2dVertex
 10
57.516252
 20
19.106938
 30
0.0
  0
VERTEX
  5
54C
100
AcDbEntity
  8
0
  6
CONTINUOUS
100
AcDbVertex
100
AcDb2dVertex
 10
57.259252
 20
18.581938
 30
0.0
  0
VERTEX
  5
54D
100
AcDbEntity
  8
0
  6
CONTINUOUS
100
AcDbVertex
100
AcDb2dVertex
 10
57.031252
 20
18.050938
 30
0.0
  0
VERTEX
  5
54E
100
AcDbEntity
  8
0
  6
CONTINUOUS
100
AcDbVertex
100
AcDb2dVertex
 10
56.833252
 20
17.513938
 30
0.0
  0
VERTEX
  5
54F
100
AcDbEntity
  8
0
  6
CONTINUOUS
100
AcDbVertex
100
AcDb2dVertex
 10
56.665252
 20
16.970938
 30
0.0
  0
VERTEX
  5
550
100
AcDbEntity
  8
0
  6
CONTINUOUS
100
AcDbVertex
100
AcDb2dVertex
 10
56.526252
 20
16.423938
 30
0.0
  0
VERTEX
  5
551
100
AcDbEntity
  8
0
  6
CONTINUOUS
100
AcDbVertex
100
AcDb2dVertex
 10
56.419252
 20
15.873938
 30
0.0
  0
VERTEX
  5
552
100
AcDbEntity
  8
0
  6
CONTINUOUS
100
AcDbVertex
100
AcDb2dVertex
 10
56.342252
 20
15.321938
 30
0.0
  0
VERTEX
  5
553
100
AcDbEntity
  8
0
  6
CONTINUOUS
100
AcDbVertex
100
AcDb2dVertex
 10
56.296252
 20
14.766938
 30
0.0
  0
VERTEX
  5
554
100
AcDbEntity
  8
0
  6
CONTINUOUS
100
AcDbVertex
100
AcDb2dVertex
 10
56.280252
 20
14.211938
 30
0.0
  0
SEQEND
  5
555
100
AcDbEntity
  8
0
  0
LINE
  5
556
100
AcDbEntity
  8
0
  6
CONTINUOUS
100
AcDbLine
 10
27.280252
 20
37.799938
 30
0.0
 11
6.280252
 21
37.799938
 31
0.0
  0
LINE
  5
557
100
AcDbEntity
  8
0
  6
CONTINUOUS
 62
     1
100
AcDbLine
 10
59.280252
 20
35.803938
 30
0.0
 11
59.280252
 21
21.661938
 31
0.0
  0
LINE
  5
558
100
AcDbEntity
  8
0
  6
CONTINUOUS
100
AcDbLine
 10
56.280252
 20
28.353938
 30
0.0
 11
56.280252
 21
14.211938
 31
0.0
  0
LINE
  5
559
100
AcDbEntity
  8
0
  6
CONTINUOUS
100
AcDbLine
 10
27.280252
 20
24.799938
 30
0.0
 11
56.280252
 21
24.799938
 31
0.0
  0
LINE
  5
55A
100
AcDbEntity
  8
0
  6
DASHED
100
AcDbLine
 10
27.280252
 20
37.799938
 30
0.0
 11
33.280252
 21
37.799938
 31
0.0
  0
LINE
  5
55B
100
AcDbEntity
  8
0
  6
CONTINUOUS
 62
     1
100
AcDbLine
 10
93.280452
 20
21.661938
 30
0.0
 11
93.280452
 21
35.803938
 31
0.0
  0
LINE
  5
55C
100
AcDbEntity
  8
0
  6
CENTER
 62
     1
100
AcDbLine
 10
84.378652
 20
12.811938
 30
0.0
 11
68.628252
 21
12.811938
 31
0.0
  0
LINE
  5
55D
100
AcDbEntity
  8
0
  6
CENTER
 62
     1
100
AcDbLine
 10
68.628252
 20
14.211938
 30
0.0
 11
84.378652
 21
14.211938
 31
0.0
  0
LINE
  5
55E
100
AcDbEntity
  8
0
  6
CONTINUOUS
 62
     1
100
AcDbLine
 10
71.280252
 20
42.046938
 30
0.0
 11
71.280252
 21
27.904938
 31
0.0
  0
LINE
  5
55F
100
AcDbEntity
  8
0
  6
CONTINUOUS
 62
     1
100
AcDbLine
 10
64.280252
 20
39.667938
 30
0.0
 11
64.280252
 21
25.525938
 31
0.0
  0
LINE
  5
560
100
AcDbEntity
  8
0
  6
CONTINUOUS
 62
     1
100
AcDbLine
 10
88.280452
 20
25.525938
 30
0.0
 11
88.280452
 21
39.667938
 31
0.0
  0
LINE
  5
561
100
AcDbEntity
  8
0
  6
CONTINUOUS
 62
     1
100
AcDbLine
 10
81.280452
 20
27.904938
 30
0.0
 11
81.280452
 21
42.046938
 31
0.0
  0
LINE
  5
562
100
AcDbEntity
  8
0
  6
CONTINUOUS
100
AcDbLine
 10
96.280452
 20
14.211938
 30
0.0
 11
96.280452
 21
28.353938
 31
0.0
  0
LINE
  5
563
100
AcDbEntity
  8
0
  6
CONTINUOUS
100
AcDbLine
 10
96.280452
 20
24.799938
 30
0.0
 11
125.280452
 21
24.799938
 31
0.0
  0
LINE
  5
564
100
AcDbEntity
  8
0
  6
DASHED
100
AcDbLine
 10
125.280452
 20
37.799938
 30
0.0
 11
119.280452
 21
37.799938
 31
0.0
  0
LINE
  5
565
100
AcDbEntity
  8
0
  6
CENTER
 62
     1
100
AcDbLine
 10
49.417252
 20
81.386938
 30
0.0
 11
61.186252
 21
81.386938
 31
0.0
  0
POLYLINE
  5
566
100
AcDbEntity
  8
0
  6
CONTINUOUS
100
AcDb2dPolyline
 66
     1
 10
0.0
 20
0.0
 30
0.0
  0
VERTEX
  5
567
100
AcDbEntity
  8
0
  6
CONTINUOUS
100
AcDbVertex
100
AcDb2dVertex
 10
35.280252
 20
67.244938
 30
0.0
  0
VERTEX
  5
568
100
AcDbEntity
  8
0
  6
CONTINUOUS
100
AcDbVertex
100
AcDb2dVertex
 10
35.296252
 20
66.689938
 30
0.0
  0
VERTEX
  5
569
100
AcDbEntity
  8
0
  6
CONTINUOUS
100
AcDbVertex
100
AcDb2dVertex
 10
35.342252
 20
66.135938
 30
0.0
  0
VERTEX
  5
56A
100
AcDbEntity
  8
0
  6
CONTINUOUS
100
AcDbVertex
100
AcDb2dVertex
 10
35.419252
 20
65.582938
 30
0.0
  0
VERTEX
  5
56B
100
AcDbEntity
  8
0
  6
CONTINUOUS
100
AcDbVertex
100
AcDb2dVertex
 10
35.526252
 20
65.032938
 30
0.0
  0
VERTEX
  5
56C
100
AcDbEntity
  8
0
  6
CONTINUOUS
100
AcDbVertex
100
AcDb2dVertex
 10
35.665252
 20
64.485938
 30
0.0
  0
VERTEX
  5
56D
100
AcDbEntity
  8
0
  6
CONTINUOUS
100
AcDbVertex
100
AcDb2dVertex
 10
35.833252
 20
63.943938
 30
0.0
  0
VERTEX
  5
56E
100
AcDbEntity
  8
0
  6
CONTINUOUS
100
AcDbVertex
100
AcDb2dVertex
 10
36.031252
 20
63.405938
 30
0.0
  0
VERTEX
  5
56F
100
AcDbEntity
  8
0
  6
CONTINUOUS
100
AcDbVertex
100
AcDb2dVertex
 10
36.259252
 20
62.874938
 30
0.0
  0
VERTEX
  5
570
100
AcDbEntity
  8
0
  6
CONTINUOUS
100
AcDbVertex
100
AcDb2dVertex
 10
36.516252
 20
62.349938
 30
0.0
  0
VERTEX
  5
571
100
AcDbEntity
  8
0
  6
CONTINUOUS
100
AcDbVertex
100
AcDb2dVertex
 10
37.117252
 20
61.323938
 30
0.0
  0
VERTEX
  5
572
100
AcDbEntity
  8
0
  6
CONTINUOUS
100
AcDbVertex
100
AcDb2dVertex
 10
37.830252
 20
60.334938
 30
0.0
  0
VERTEX
  5
573
100
AcDbEntity
  8
0
  6
CONTINUOUS
100
AcDbVertex
100
AcDb2dVertex
 10
38.651252
 20
59.387938
 30
0.0
  0
VERTEX
  5
574
100
AcDbEntity
  8
0
  6
CONTINUOUS
100
AcDbVertex
100
AcDb2dVertex
 10
39.574252
 20
58.489938
 30
0.0
  0
VERTEX
  5
575
100
AcDbEntity
  8
0
  6
CONTINUOUS
100
AcDbVertex
100
AcDb2dVertex
 10
40.594252
 20
57.644938
 30
0.0
  0
VERTEX
  5
576
100
AcDbEntity
  8
0
  6
CONTINUOUS
100
AcDbVertex
100
AcDb2dVertex
 10
41.704252
 20
56.859938
 30
0.0
  0
VERTEX
  5
577
100
AcDbEntity
  8
0
  6
CONTINUOUS
100
AcDbVertex
100
AcDb2dVertex
 10
42.898252
 20
56.138938
 30
0.0
  0
VERTEX
  5
578
100
AcDbEntity
  8
0
  6
CONTINUOUS
100
AcDbVertex
100
AcDb2dVertex
 10
44.169252
 20
55.485938
 30
0.0
  0
VERTEX
  5
579
100
AcDbEntity
  8
0
  6
CONTINUOUS
100
AcDbVertex
100
AcDb2dVertex
 10
45.508252
 20
54.905938
 30
0.0
  0
VERTEX
  5
57A
100
AcDbEntity
  8
0
  6
CONTINUOUS
100
AcDbVertex
100
AcDb2dVertex
 10
46.907252
 20
54.401938
 30
0.0
  0
VERTEX
  5
57B
100
AcDbEntity
  8
0
  6
CONTINUOUS
100
AcDbVertex
100
AcDb2dVertex
 10
48.358252
 20
53.976938
 30
0.0
  0
VERTEX
  5
57C
100
AcDbEntity
  8
0
  6
CONTINUOUS
100
AcDbVertex
100
AcDb2dVertex
 10
49.851252
 20
53.633938
 30
0.0
  0
VERTEX
  5
57D
100
AcDbEntity
  8
0
  6
CONTINUOUS
100
AcDbVertex
100
AcDb2dVertex
 10
51.378252
 20
53.374938
 30
0.0
  0
VERTEX
  5
57E
100
AcDbEntity
  8
0
  6
CONTINUOUS
100
AcDbVertex
100
AcDb2dVertex
 10
52.929252
 20
53.200938
 30
0.0
  0
VERTEX
  5
57F
100
AcDbEntity
  8
0
  6
CONTINUOUS
100
AcDbVertex
100
AcDb2dVertex
 10
54.495252
 20
53.113938
 30
0.0
  0
VERTEX
  5
580
100
AcDbEntity
  8
0
  6
CONTINUOUS
100
AcDbVertex
100
AcDb2dVertex
 10
56.065252
 20
53.113938
 30
0.0
  0
VERTEX
  5
581
100
AcDbEntity
  8
0
  6
CONTINUOUS
100
AcDbVertex
100
AcDb2dVertex
 10
57.631252
 20
53.200938
 30
0.0
  0
VERTEX
  5
582
100
AcDbEntity
  8
0
  6
CONTINUOUS
100
AcDbVertex
100
AcDb2dVertex
 10
59.182252
 20
53.374938
 30
0.0
  0
VERTEX
  5
583
100
AcDbEntity
  8
0
  6
CONTINUOUS
100
AcDbVertex
100
AcDb2dVertex
 10
60.709252
 20
53.633938
 30
0.0
  0
VERTEX
  5
584
100
AcDbEntity
  8
0
  6
CONTINUOUS
100
AcDbVertex
100
AcDb2dVertex
 10
62.203252
 20
53.976938
 30
0.0
  0
VERTEX
  5
585
100
AcDbEntity
  8
0
  6
CONTINUOUS
100
AcDbVertex
100
AcDb2dVertex
 10
63.653252
 20
54.401938
 30
0.0
  0
VERTEX
  5
586
100
AcDbEntity
  8
0
  6
CONTINUOUS
100
AcDbVertex
100
AcDb2dVertex
 10
65.053252
 20
54.905938
 30
0.0
  0
VERTEX
  5
587
100
AcDbEntity
  8
0
  6
CONTINUOUS
100
AcDbVertex
100
AcDb2dVertex
 10
66.392252
 20
55.485938
 30
0.0
  0
VERTEX
  5
588
100
AcDbEntity
  8
0
  6
CONTINUOUS
100
AcDbVertex
100
AcDb2dVertex
 10
67.662252
 20
56.138938
 30
0.0
  0
VERTEX
  5
589
100
AcDbEntity
  8
0
  6
CONTINUOUS
100
AcDbVertex
100
AcDb2dVertex
 10
68.856252
 20
56.859938
 30
0.0
  0
VERTEX
  5
58A
100
AcDbEntity
  8
0
  6
CONTINUOUS
100
AcDbVertex
100
AcDb2dVertex
 10
69.967252
 20
57.644938
 30
0.0
  0
VERTEX
  5
58B
100
AcDbEntity
  8
0
  6
CONTINUOUS
100
AcDbVertex
100
AcDb2dVertex
 10
70.987252
 20
58.489938
 30
0.0
  0
VERTEX
  5
58C
100
AcDbEntity
  8
0
  6
CONTINUOUS
100
AcDbVertex
100
AcDb2dVertex
 10
71.910252
 20
59.387938
 30
0.0
  0
VERTEX
  5
58D
100
AcDbEntity
  8
0
  6
CONTINUOUS
100
AcDbVertex
100
AcDb2dVertex
 10
72.730252
 20
60.334938
 30
0.0
  0
VERTEX
  5
58E
100
AcDbEntity
  8
0
  6
CONTINUOUS
100
AcDbVertex
100
AcDb2dVertex
 10
73.443252
 20
61.323938
 30
0.0
  0
VERTEX
  5
58F
100
AcDbEntity
  8
0
  6
CONTINUOUS
100
AcDbVertex
100
AcDb2dVertex
 10
74.044252
 20
62.349938
 30
0.0
  0
VERTEX
  5
590
100
AcDbEntity
  8
0
  6
CONTINUOUS
100
AcDbVertex
100
AcDb2dVertex
 10
74.301252
 20
62.874938
 30
0.0
  0
VERTEX
  5
591
100
AcDbEntity
  8
0
  6
CONTINUOUS
100
AcDbVertex
100
AcDb2dVertex
 10
74.529252
 20
63.405938
 30
0.0
  0
VERTEX
  5
592
100
AcDbEntity
  8
0
  6
CONTINUOUS
100
AcDbVertex
100
AcDb2dVertex
 10
74.728252
 20
63.943938
 30
0.0
  0
VERTEX
  5
593
100
AcDbEntity
  8
0
  6
CONTINUOUS
100
AcDbVertex
100
AcDb2dVertex
 10
74.896252
 20
64.485938
 30
0.0
  0
VERTEX
  5
594
100
AcDbEntity
  8
0
  6
CONTINUOUS
100
AcDbVertex
100
AcDb2dVertex
 10
75.034252
 20
65.032938
 30
0.0
  0
VERTEX
  5
595
100
AcDbEntity
  8
0
  6
CONTINUOUS
100
AcDbVertex
100
AcDb2dVertex
 10
75.142252
 20
65.582938
 30
0.0
  0
VERTEX
  5
596
100
AcDbEntity
  8
0
  6
CONTINUOUS
100
AcDbVertex
100
AcDb2dVertex
 10
75.219252
 20
66.135938
 30
0.0
  0
VERTEX
  5
597
100
AcDbEntity
  8
0
  6
CONTINUOUS
100
AcDbVertex
100
AcDb2dVertex
 10
75.265252
 20
66.689938
 30
0.0
  0
VERTEX
  5
598
100
AcDbEntity
  8
0
  6
CONTINUOUS
100
AcDbVertex
100
AcDb2dVertex
 10
75.280252
 20
67.244938
 30
0.0
  0
SEQEND
  5
599
100
AcDbEntity
  8
0
  0
POLYLINE
  5
59A
100
AcDbEntity
  8
0
  6
CONTINUOUS
100
AcDb2dPolyline
 66
     1
 10
0.0
 20
0.0
 30
0.0
  0
VERTEX
  5
59B
100
AcDbEntity
  8
0
  6
CONTINUOUS
100
AcDbVertex
100
AcDb2dVertex
 10
55.280252
 20
67.244938
 30
0.0
  0
VERTEX
  5
59C
100
AcDbEntity
  8
0
  6
CONTINUOUS
100
AcDbVertex
100
AcDb2dVertex
 10
53.711252
 20
67.287938
 30
0.0
  0
VERTEX
  5
59D
100
AcDbEntity
  8
0
  6
CONTINUOUS
100
AcDbVertex
100
AcDb2dVertex
 10
52.152252
 20
67.418938
 30
0.0
  0
VERTEX
  5
59E
100
AcDbEntity
  8
0
  6
CONTINUOUS
100
AcDbVertex
100
AcDb2dVertex
 10
50.611252
 20
67.635938
 30
0.0
  0
VERTEX
  5
59F
100
AcDbEntity
  8
0
  6
CONTINUOUS
100
AcDbVertex
100
AcDb2dVertex
 10
49.100252
 20
67.936938
 30
0.0
  0
VERTEX
  5
5A0
100
AcDbEntity
  8
0
  6
CONTINUOUS
100
AcDbVertex
100
AcDb2dVertex
 10
47.627252
 20
68.320938
 30
0.0
  0
VERTEX
  5
5A1
100
AcDbEntity
  8
0
  6
CONTINUOUS
100
AcDbVertex
100
AcDb2dVertex
 10
46.200252
 20
68.785938
 30
0.0
  0
VERTEX
  5
5A2
100
AcDbEntity
  8
0
  6
CONTINUOUS
100
AcDbVertex
100
AcDb2dVertex
 10
44.830252
 20
69.328938
 30
0.0
  0
VERTEX
  5
5A3
100
AcDbEntity
  8
0
  6
CONTINUOUS
100
AcDbVertex
100
AcDb2dVertex
 10
43.524252
 20
69.945938
 30
0.0
  0
VERTEX
  5
5A4
100
AcDbEntity
  8
0
  6
CONTINUOUS
100
AcDbVertex
100
AcDb2dVertex
 10
42.291252
 20
70.632938
 30
0.0
  0
VERTEX
  5
5A5
100
AcDbEntity
  8
0
  6
CONTINUOUS
100
AcDbVertex
100
AcDb2dVertex
 10
41.138252
 20
71.386938
 30
0.0
  0
VERTEX
  5
5A6
100
AcDbEntity
  8
0
  6
CONTINUOUS
100
AcDbVertex
100
AcDb2dVertex
 10
40.072252
 20
72.201938
 30
0.0
  0
VERTEX
  5
5A7
100
AcDbEntity
  8
0
  6
CONTINUOUS
100
AcDbVertex
100
AcDb2dVertex
 10
39.100252
 20
73.073938
 30
0.0
  0
VERTEX
  5
5A8
100
AcDbEntity
  8
0
  6
CONTINUOUS
100
AcDbVertex
100
AcDb2dVertex
 10
38.227252
 20
73.997938
 30
0.0
  0
VERTEX
  5
5A9
100
AcDbEntity
  8
0
  6
CONTINUOUS
100
AcDbVertex
100
AcDb2dVertex
 10
37.460252
 20
74.966938
 30
0.0
  0
VERTEX
  5
5AA
100
AcDbEntity
  8
0
  6
CONTINUOUS
100
AcDbVertex
100
AcDb2dVertex
 10
36.803252
 20
75.974938
 30
0.0
  0
VERTEX
  5
5AB
100
AcDbEntity
  8
0
  6
CONTINUOUS
100
AcDbVertex
100
AcDb2dVertex
 10
36.516252
 20
76.491938
 30
0.0
  0
VERTEX
  5
5AC
100
AcDbEntity
  8
0
  6
CONTINUOUS
100
AcDbVertex
100
AcDb2dVertex
 10
36.259252
 20
77.016938
 30
0.0
  0
VERTEX
  5
5AD
100
AcDbEntity
  8
0
  6
CONTINUOUS
100
AcDbVertex
100
AcDb2dVertex
 10
36.031252
 20
77.547938
 30
0.0
  0
VERTEX
  5
5AE
100
AcDbEntity
  8
0
  6
CONTINUOUS
100
AcDbVertex
100
AcDb2dVertex
 10
35.833252
 20
78.085938
 30
0.0
  0
VERTEX
  5
5AF
100
AcDbEntity
  8
0
  6
CONTINUOUS
100
AcDbVertex
100
AcDb2dVertex
 10
35.665252
 20
78.627938
 30
0.0
  0
VERTEX
  5
5B0
100
AcDbEntity
  8
0
  6
CONTINUOUS
100
AcDbVertex
100
AcDb2dVertex
 10
35.526252
 20
79.174938
 30
0.0
  0
VERTEX
  5
5B1
100
AcDbEntity
  8
0
  6
CONTINUOUS
100
AcDbVertex
100
AcDb2dVertex
 10
35.419252
 20
79.724938
 30
0.0
  0
VERTEX
  5
5B2
100
AcDbEntity
  8
0
  6
CONTINUOUS
100
AcDbVertex
100
AcDb2dVertex
 10
35.342252
 20
80.277938
 30
0.0
  0
VERTEX
  5
5B3
100
AcDbEntity
  8
0
  6
CONTINUOUS
100
AcDbVertex
100
AcDb2dVertex
 10
35.296252
 20
80.831938
 30
0.0
  0
VERTEX
  5
5B4
100
AcDbEntity
  8
0
  6
CONTINUOUS
100
AcDbVertex
100
AcDb2dVertex
 10
35.280252
 20
81.386938
 30
0.0
  0
VERTEX
  5
5B5
100
AcDbEntity
  8
0
  6
CONTINUOUS
100
AcDbVertex
100
AcDb2dVertex
 10
35.296252
 20
81.941938
 30
0.0
  0
VERTEX
  5
5B6
100
AcDbEntity
  8
0
  6
CONTINUOUS
100
AcDbVertex
100
AcDb2dVertex
 10
35.342252
 20
82.496938
 30
0.0
  0
VERTEX
  5
5B7
100
AcDbEntity
  8
0
  6
CONTINUOUS
100
AcDbVertex
100
AcDb2dVertex
 10
35.419252
 20
83.048938
 30
0.0
  0
VERTEX
  5
5B8
100
AcDbEntity
  8
0
  6
CONTINUOUS
100
AcDbVertex
100
AcDb2dVertex
 10
35.526252
 20
83.598938
 30
0.0
  0
VERTEX
  5
5B9
100
AcDbEntity
  8
0
  6
CONTINUOUS
100
AcDbVertex
100
AcDb2dVertex
 10
35.665252
 20
84.145938
 30
0.0
  0
VERTEX
  5
5BA
100
AcDbEntity
  8
0
  6
CONTINUOUS
100
AcDbVertex
100
AcDb2dVertex
 10
35.833252
 20
84.688938
 30
0.0
  0
VERTEX
  5
5BB
100
AcDbEntity
  8
0
  6
CONTINUOUS
100
AcDbVertex
100
AcDb2dVertex
 10
36.031252
 20
85.225938
 30
0.0
  0
VERTEX
  5
5BC
100
AcDbEntity
  8
0
  6
CONTINUOUS
100
AcDbVertex
100
AcDb2dVertex
 10
36.259252
 20
85.756938
 30
0.0
  0
VERTEX
  5
5BD
100
AcDbEntity
  8
0
  6
CONTINUOUS
100
AcDbVertex
100
AcDb2dVertex
 10
36.516252
 20
86.281938
 30
0.0
  0
VERTEX
  5
5BE
100
AcDbEntity
  8
0
  6
CONTINUOUS
100
AcDbVertex
100
AcDb2dVertex
 10
37.117252
 20
87.307938
 30
0.0
  0
VERTEX
  5
5BF
100
AcDbEntity
  8
0
  6
CONTINUOUS
100
AcDbVertex
100
AcDb2dVertex
 10
37.830252
 20
88.296938
 30
0.0
  0
VERTEX
  5
5C0
100
AcDbEntity
  8
0
  6
CONTINUOUS
100
AcDbVertex
100
AcDb2dVertex
 10
38.651252
 20
89.243938
 30
0.0
  0
VERTEX
  5
5C1
100
AcDbEntity
  8
0
  6
CONTINUOUS
100
AcDbVertex
100
AcDb2dVertex
 10
39.574252
 20
90.142938
 30
0.0
  0
VERTEX
  5
5C2
100
AcDbEntity
  8
0
  6
CONTINUOUS
100
AcDbVertex
100
AcDb2dVertex
 10
40.594252
 20
90.986938
 30
0.0
  0
VERTEX
  5
5C3
100
AcDbEntity
  8
0
  6
CONTINUOUS
100
AcDbVertex
100
AcDb2dVertex
 10
41.704252
 20
91.771938
 30
0.0
  0
VERTEX
  5
5C4
100
AcDbEntity
  8
0
  6
CONTINUOUS
100
AcDbVertex
100
AcDb2dVertex
 10
42.898252
 20
92.492938
 30
0.0
  0
VERTEX
  5
5C5
100
AcDbEntity
  8
0
  6
CONTINUOUS
100
AcDbVertex
100
AcDb2dVertex
 10
44.169252
 20
93.145938
 30
0.0
  0
VERTEX
  5
5C6
100
AcDbEntity
  8
0
  6
CONTINUOUS
100
AcDbVertex
100
AcDb2dVertex
 10
45.508252
 20
93.725938
 30
0.0
  0
VERTEX
  5
5C7
100
AcDbEntity
  8
0
  6
CONTINUOUS
100
AcDbVertex
100
AcDb2dVertex
 10
46.907252
 20
94.229938
 30
0.0
  0
VERTEX
  5
5C8
100
AcDbEntity
  8
0
  6
CONTINUOUS
100
AcDbVertex
100
AcDb2dVertex
 10
48.358252
 20
94.654938
 30
0.0
  0
VERTEX
  5
5C9
100
AcDbEntity
  8
0
  6
CONTINUOUS
100
AcDbVertex
100
AcDb2dVertex
 10
49.851252
 20
94.998938
 30
0.0
  0
VERTEX
  5
5CA
100
AcDbEntity
  8
0
  6
CONTINUOUS
100
AcDbVertex
100
AcDb2dVertex
 10
51.378252
 20
95.257938
 30
0.0
  0
VERTEX
  5
5CB
100
AcDbEntity
  8
0
  6
CONTINUOUS
100
AcDbVertex
100
AcDb2dVertex
 10
52.929252
 20
95.430938
 30
0.0
  0
VERTEX
  5
5CC
100
AcDbEntity
  8
0
  6
CONTINUOUS
100
AcDbVertex
100
AcDb2dVertex
 10
54.495252
 20
95.518938
 30
0.0
  0
VERTEX
  5
5CD
100
AcDbEntity
  8
0
  6
CONTINUOUS
100
AcDbVertex
100
AcDb2dVertex
 10
56.065252
 20
95.518938
 30
0.0
  0
VERTEX
  5
5CE
100
AcDbEntity
  8
0
  6
CONTINUOUS
100
AcDbVertex
100
AcDb2dVertex
 10
57.631252
 20
95.430938
 30
0.0
  0
VERTEX
  5
5CF
100
AcDbEntity
  8
0
  6
CONTINUOUS
100
AcDbVertex
100
AcDb2dVertex
 10
59.182252
 20
95.257938
 30
0.0
  0
VERTEX
  5
5D0
100
AcDbEntity
  8
0
  6
CONTINUOUS
100
AcDbVertex
100
AcDb2dVertex
 10
60.709252
 20
94.998938
 30
0.0
  0
VERTEX
  5
5D1
100
AcDbEntity
  8
0
  6
CONTINUOUS
100
AcDbVertex
100
AcDb2dVertex
 10
62.203252
 20
94.654938
 30
0.0
  0
VERTEX
  5
5D2
100
AcDbEntity
  8
0
  6
CONTINUOUS
100
AcDbVertex
100
AcDb2dVertex
 10
63.653252
 20
94.229938
 30
0.0
  0
VERTEX
  5
5D3
100
AcDbEntity
  8
0
  6
CONTINUOUS
100
AcDbVertex
100
AcDb2dVertex
 10
65.053252
 20
93.725938
 30
0.0
  0
VERTEX
  5
5D4
100
AcDbEntity
  8
0
  6
CONTINUOUS
100
AcDbVertex
100
AcDb2dVertex
 10
66.392252
 20
93.145938
 30
0.0
  0
VERTEX
  5
5D5
100
AcDbEntity
  8
0
  6
CONTINUOUS
100
AcDbVertex
100
AcDb2dVertex
 10
67.662252
 20
92.492938
 30
0.0
  0
VERTEX
  5
5D6
100
AcDbEntity
  8
0
  6
CONTINUOUS
100
AcDbVertex
100
AcDb2dVertex
 10
68.856252
 20
91.771938
 30
0.0
  0
VERTEX
  5
5D7
100
AcDbEntity
  8
0
  6
CONTINUOUS
100
AcDbVertex
100
AcDb2dVertex
 10
69.967252
 20
90.986938
 30
0.0
  0
VERTEX
  5
5D8
100
AcDbEntity
  8
0
  6
CONTINUOUS
100
AcDbVertex
100
AcDb2dVertex
 10
70.987252
 20
90.142938
 30
0.0
  0
VERTEX
  5
5D9
100
AcDbEntity
  8
0
  6
CONTINUOUS
100
AcDbVertex
100
AcDb2dVertex
 10
71.910252
 20
89.243938
 30
0.0
  0
VERTEX
  5
5DA
100
AcDbEntity
  8
0
  6
CONTINUOUS
100
AcDbVertex
100
AcDb2dVertex
 10
72.730252
 20
88.296938
 30
0.0
  0
VERTEX
  5
5DB
100
AcDbEntity
  8
0
  6
CONTINUOUS
100
AcDbVertex
100
AcDb2dVertex
 10
73.443252
 20
87.307938
 30
0.0
  0
VERTEX
  5
5DC
100
AcDbEntity
  8
0
  6
CONTINUOUS
100
AcDbVertex
100
AcDb2dVertex
 10
74.044252
 20
86.281938
 30
0.0
  0
VERTEX
  5
5DD
100
AcDbEntity
  8
0
  6
CONTINUOUS
100
AcDbVertex
100
AcDb2dVertex
 10
74.301252
 20
85.756938
 30
0.0
  0
VERTEX
  5
5DE
100
AcDbEntity
  8
0
  6
CONTINUOUS
100
AcDbVertex
100
AcDb2dVertex
 10
74.529252
 20
85.225938
 30
0.0
  0
VERTEX
  5
5DF
100
AcDbEntity
  8
0
  6
CONTINUOUS
100
AcDbVertex
100
AcDb2dVertex
 10
74.728252
 20
84.688938
 30
0.0
  0
VERTEX
  5
5E0
100
AcDbEntity
  8
0
  6
CONTINUOUS
100
AcDbVertex
100
AcDb2dVertex
 10
74.896252
 20
84.145938
 30
0.0
  0
VERTEX
  5
5E1
100
AcDbEntity
  8
0
  6
CONTINUOUS
100
AcDbVertex
100
AcDb2dVertex
 10
75.034252
 20
83.598938
 30
0.0
  0
VERTEX
  5
5E2
100
AcDbEntity
  8
0
  6
CONTINUOUS
100
AcDbVertex
100
AcDb2dVertex
 10
75.142252
 20
83.048938
 30
0.0
  0
VERTEX
  5
5E3
100
AcDbEntity
  8
0
  6
CONTINUOUS
100
AcDbVertex
100
AcDb2dVertex
 10
75.219252
 20
82.496938
 30
0.0
  0
VERTEX
  5
5E4
100
AcDbEntity
  8
0
  6
CONTINUOUS
100
AcDbVertex
100
AcDb2dVertex
 10
75.265252
 20
81.941938
 30
0.0
  0
VERTEX
  5
5E5
100
AcDbEntity
  8
0
  6
CONTINUOUS
100
AcDbVertex
100
AcDb2dVertex
 10
75.280252
 20
81.386938
 30
0.0
  0
VERTEX
  5
5E6
100
AcDbEntity
  8
0
  6
CONTINUOUS
100
AcDbVertex
100
AcDb2dVertex
 10
75.265252
 20
80.831938
 30
0.0
  0
VERTEX
  5
5E7
100
AcDbEntity
  8
0
  6
CONTINUOUS
100
AcDbVertex
100
AcDb2dVertex
 10
75.219252
 20
80.277938
 30
0.0
  0
VERTEX
  5
5E8
100
AcDbEntity
  8
0
  6
CONTINUOUS
100
AcDbVertex
100
AcDb2dVertex
 10
75.142252
 20
79.724938
 30
0.0
  0
VERTEX
  5
5E9
100
AcDbEntity
  8
0
  6
CONTINUOUS
100
AcDbVertex
100
AcDb2dVertex
 10
75.034252
 20
79.174938
 30
0.0
  0
VERTEX
  5
5EA
100
AcDbEntity
  8
0
  6
CONTINUOUS
100
AcDbVertex
100
AcDb2dVertex
 10
74.896252
 20
78.627938
 30
0.0
  0
VERTEX
  5
5EB
100
AcDbEntity
  8
0
  6
CONTINUOUS
100
AcDbVertex
100
AcDb2dVertex
 10
74.728252
 20
78.085938
 30
0.0
  0
VERTEX
  5
5EC
100
AcDbEntity
  8
0
  6
CONTINUOUS
100
AcDbVertex
100
AcDb2dVertex
 10
74.529252
 20
77.547938
 30
0.0
  0
VERTEX
  5
5ED
100
AcDbEntity
  8
0
  6
CONTINUOUS
100
AcDbVertex
100
AcDb2dVertex
 10
74.301252
 20
77.016938
 30
0.0
  0
VERTEX
  5
5EE
100
AcDbEntity
  8
0
  6
CONTINUOUS
100
AcDbVertex
100
AcDb2dVertex
 10
74.044252
 20
76.491938
 30
0.0
  0
VERTEX
  5
5EF
100
AcDbEntity
  8
0
  6
CONTINUOUS
100
AcDbVertex
100
AcDb2dVertex
 10
73.443252
 20
75.465938
 30
0.0
  0
VERTEX
  5
5F0
100
AcDbEntity
  8
0
  6
CONTINUOUS
100
AcDbVertex
100
AcDb2dVertex
 10
72.730252
 20
74.476938
 30
0.0
  0
VERTEX
  5
5F1
100
AcDbEntity
  8
0
  6
CONTINUOUS
100
AcDbVertex
100
AcDb2dVertex
 10
71.910252
 20
73.529938
 30
0.0
  0
VERTEX
  5
5F2
100
AcDbEntity
  8
0
  6
CONTINUOUS
100
AcDbVertex
100
AcDb2dVertex
 10
70.987252
 20
72.631938
 30
0.0
  0
VERTEX
  5
5F3
100
AcDbEntity
  8
0
  6
CONTINUOUS
100
AcDbVertex
100
AcDb2dVertex
 10
69.967252
 20
71.786938
 30
0.0
  0
VERTEX
  5
5F4
100
AcDbEntity
  8
0
  6
CONTINUOUS
100
AcDbVertex
100
AcDb2dVertex
 10
68.856252
 20
71.001938
 30
0.0
  0
VERTEX
  5
5F5
100
AcDbEntity
  8
0
  6
CONTINUOUS
100
AcDbVertex
100
AcDb2dVertex
 10
67.662252
 20
70.280938
 30
0.0
  0
VERTEX
  5
5F6
100
AcDbEntity
  8
0
  6
CONTINUOUS
100
AcDbVertex
100
AcDb2dVertex
 10
66.392252
 20
69.627938
 30
0.0
  0
VERTEX
  5
5F7
100
AcDbEntity
  8
0
  6
CONTINUOUS
100
AcDbVertex
100
AcDb2dVertex
 10
65.053252
 20
69.047938
 30
0.0
  0
VERTEX
  5
5F8
100
AcDbEntity
  8
0
  6
CONTINUOUS
100
AcDbVertex
100
AcDb2dVertex
 10
63.653252
 20
68.543938
 30
0.0
  0
VERTEX
  5
5F9
100
AcDbEntity
  8
0
  6
CONTINUOUS
100
AcDbVertex
100
AcDb2dVertex
 10
62.203252
 20
68.118938
 30
0.0
  0
VERTEX
  5
5FA
100
AcDbEntity
  8
0
  6
CONTINUOUS
100
AcDbVertex
100
AcDb2dVertex
 10
60.709252
 20
67.775938
 30
0.0
  0
VERTEX
  5
5FB
100
AcDbEntity
  8
0
  6
CONTINUOUS
100
AcDbVertex
100
AcDb2dVertex
 10
59.182252
 20
67.516938
 30
0.0
  0
VERTEX
  5
5FC
100
AcDbEntity
  8
0
  6
CONTINUOUS
100
AcDbVertex
100
AcDb2dVertex
 10
57.631252
 20
67.342938
 30
0.0
  0
VERTEX
  5
5FD
100
AcDbEntity
  8
0
  6
CONTINUOUS
100
AcDbVertex
100
AcDb2dVertex
 10
56.458252
 20
67.268938
 30
0.0
  0
VERTEX
  5
5FE
100
AcDbEntity
  8
0
  6
CONTINUOUS
100
AcDbVertex
100
AcDb2dVertex
 10
55.280252
 20
67.244938
 30
0.0
  0
SEQEND
  5
5FF
100
AcDbEntity
  8
0
  0
LINE
  5
600
100
AcDbEntity
  8
0
  6
CONTINUOUS
100
AcDbLine
 10
118.780452
 20
46.799938
 30
0.0
 11
33.780252
 21
46.799938
 31
0.0
  0
LINE
  5
601
100
AcDbEntity
  8
0
  6
CONTINUOUS
100
AcDbLine
 10
33.780252
 20
48.799938
 30
0.0
 11
118.780452
 21
48.799938
 31
0.0
  0
LINE
  5
602
100
AcDbEntity
  8
0
  6
CENTER
 62
     1
100
AcDbLine
 10
55.280252
 20
75.067938
 30
0.0
 11
55.280252
 21
87.153938
 31
0.0
  0
LINE
  5
603
100
AcDbEntity
  8
0
  6
CONTINUOUS
100
AcDbLine
 10
33.280252
 20
97.799938
 30
0.0
 11
33.280252
 21
46.299938
 31
0.0
  0
LINE
  5
604
100
AcDbEntity
  8
0
  6
CENTER
 62
     1
100
AcDbLine
 10
0.167252
 20
77.799938
 30
0.0
 11
30.695252
 21
77.799938
 31
0.0
  0
LINE
  5
605
100
AcDbEntity
  8
0
  6
CONTINUOUS
100
AcDbLine
 10
17.765252
 20
65.427938
 30
0.0
 11
16.280252
 21
63.942938
 31
0.0
  0
LINE
  5
606
100
AcDbEntity
  8
0
  6
CONTINUOUS
100
AcDbLine
 10
16.280252
 20
63.660938
 30
0.0
 11
17.942252
 21
65.322938
 31
0.0
  0
LINE
  5
607
100
AcDbEntity
  8
0
  6
CONTINUOUS
100
AcDbLine
 10
18.109252
 20
65.206938
 30
0.0
 11
16.280252
 21
63.377938
 31
0.0
  0
LINE
  5
608
100
AcDbEntity
  8
0
  6
CONTINUOUS
100
AcDbLine
 10
16.280252
 20
63.094938
 30
0.0
 11
18.267252
 21
65.080938
 31
0.0
  0
LINE
  5
609
100
AcDbEntity
  8
0
  6
CONTINUOUS
100
AcDbLine
 10
18.415252
 20
64.945938
 30
0.0
 11
16.280252
 21
62.811938
 31
0.0
  0
LINE
  5
60A
100
AcDbEntity
  8
0
  6
CONTINUOUS
100
AcDbLine
 10
16.280252
 20
65.798938
 30
0.0
 11
16.280252
 21
59.799938
 31
0.0
  0
LINE
  5
60B
100
AcDbEntity
  8
0
  6
CONTINUOUS
100
AcDbLine
 10
16.551252
 20
62.799938
 30
0.0
 11
18.553252
 21
64.801938
 31
0.0
  0
LINE
  5
60C
100
AcDbEntity
  8
0
  6
CONTINUOUS
100
AcDbLine
 10
18.682252
 20
64.647938
 30
0.0
 11
16.834252
 21
62.799938
 31
0.0
  0
LINE
  5
60D
100
AcDbEntity
  8
0
  6
CONTINUOUS
100
AcDbLine
 10
17.116252
 20
62.799938
 30
0.0
 11
18.801252
 21
64.483938
 31
0.0
  0
LINE
  5
60E
100
AcDbEntity
  8
0
  6
CONTINUOUS
100
AcDbLine
 10
18.910252
 20
64.310938
 30
0.0
 11
17.399252
 21
62.799938
 31
0.0
  0
LINE
  5
60F
100
AcDbEntity
  8
0
  6
CONTINUOUS
100
AcDbLine
 10
17.682252
 20
62.799938
 30
0.0
 11
19.009252
 21
64.126938
 31
0.0
  0
CIRCLE
  5
610
100
AcDbEntity
  8
0
  6
CONTINUOUS
100
AcDbCircle
 10
16.319252
 20
62.799938
 30
0.0
 40
3.0
  0
LINE
  5
611
100
AcDbEntity
  8
0
  6
CENTER
 62
     1
100
AcDbLine
 10
26.655252
 20
62.799938
 30
0.0
 11
9.131252
 21
62.799938
 31
0.0
  0
ARC
  5
612
100
AcDbEntity
  8
0
  6
CONTINUOUS
100
AcDbCircle
 10
16.280252
 20
49.299938
 30
0.0
 40
4.25
100
AcDbArc
 50
0.0
 51
180.0
  0
LINE
  5
613
100
AcDbEntity
  8
0
  6
CONTINUOUS
100
AcDbLine
 10
12.030252
 20
49.299938
 30
0.0
 11
12.030252
 21
46.299938
 31
0.0
  0
LINE
  5
614
100
AcDbEntity
  8
0
  6
CONTINUOUS
100
AcDbLine
 10
20.530252
 20
49.299938
 30
0.0
 11
20.530252
 21
46.299938
 31
0.0
  0
LINE
  5
615
100
AcDbEntity
  8
0
  6
CONTINUOUS
100
AcDbLine
 10
18.248252
 20
62.799938
 30
0.0
 11
19.173252
 21
63.724938
 31
0.0
  0
LINE
  5
616
100
AcDbEntity
  8
0
  6
CONTINUOUS
100
AcDbLine
 10
19.235252
 20
63.503938
 30
0.0
 11
18.531252
 21
62.799938
 31
0.0
  0
LINE
  5
617
100
AcDbEntity
  8
0
  6
CONTINUOUS
100
AcDbLine
 10
19.097252
 20
63.931938
 30
0.0
 11
17.965252
 21
62.799938
 31
0.0
  0
LINE
  5
618
100
AcDbEntity
  8
0
  6
CONTINUOUS
100
AcDbLine
 10
13.319252
 20
62.799938
 30
0.0
 11
19.319252
 21
62.799938
 31
0.0
  0
LINE
  5
619
100
AcDbEntity
  8
0
  6
CONTINUOUS
100
AcDbLine
 10
13.440252
 20
62.799938
 30
0.0
 11
13.321252
 21
62.680938
 31
0.0
  0
LINE
  5
61A
100
AcDbEntity
  8
0
  6
CONTINUOUS
100
AcDbLine
 10
14.317252
 20
60.565938
 30
0.0
 11
16.280252
 21
62.528938
 31
0.0
  0
LINE
  5
61B
100
AcDbEntity
  8
0
  6
CONTINUOUS
100
AcDbLine
 10
16.280252
 20
62.245938
 30
0.0
 11
14.471252
 21
60.436938
 31
0.0
  0
LINE
  5
61C
100
AcDbEntity
  8
0
  6
CONTINUOUS
100
AcDbLine
 10
14.634252
 20
60.316938
 30
0.0
 11
16.280252
 21
61.962938
 31
0.0
  0
LINE
  5
61D
100
AcDbEntity
  8
0
  6
CONTINUOUS
100
AcDbLine
 10
16.280252
 20
61.680938
 30
0.0
 11
14.808252
 21
60.207938
 31
0.0
  0
LINE
  5
61E
100
AcDbEntity
  8
0
  6
CONTINUOUS
100
AcDbLine
 10
14.992252
 20
60.108938
 30
0.0
 11
16.280252
 21
61.397938
 31
0.0
  0
LINE
  5
61F
100
AcDbEntity
  8
0
  6
CONTINUOUS
100
AcDbLine
 10
16.280252
 20
61.114938
 30
0.0
 11
15.187252
 21
60.021938
 31
0.0
  0
LINE
  5
620
100
AcDbEntity
  8
0
  6
CONTINUOUS
100
AcDbLine
 10
15.394252
 20
59.945938
 30
0.0
 11
16.280252
 21
60.831938
 31
0.0
  0
LINE
  5
621
100
AcDbEntity
  8
0
  6
CONTINUOUS
100
AcDbLine
 10
16.280252
 20
60.548938
 30
0.0
 11
15.615252
 21
59.883938
 31
0.0
  0
LINE
  5
622
100
AcDbEntity
  8
0
  6
CONTINUOUS
100
AcDbLine
 10
15.850252
 20
59.836938
 30
0.0
 11
16.280252
 21
60.265938
 31
0.0
  0
LINE
  5
623
100
AcDbEntity
  8
0
  6
CONTINUOUS
100
AcDbLine
 10
16.280252
 20
59.983938
 30
0.0
 11
16.104252
 21
59.806938
 31
0.0
  0
LINE
  5
624
100
AcDbEntity
  8
0
  6
CONTINUOUS
100
AcDbLine
 10
13.343252
 20
62.419938
 30
0.0
 11
13.722252
 21
62.799938
 31
0.0
  0
LINE
  5
625
100
AcDbEntity
  8
0
  6
CONTINUOUS
100
AcDbLine
 10
14.005252
 20
62.799938
 30
0.0
 11
13.384252
 21
62.177938
 31
0.0
  0
LINE
  5
626
100
AcDbEntity
  8
0
  6
CONTINUOUS
100
AcDbLine
 10
13.441252
 20
61.952938
 30
0.0
 11
14.288252
 21
62.799938
 31
0.0
  0
LINE
  5
627
100
AcDbEntity
  8
0
  6
CONTINUOUS
100
AcDbLine
 10
14.571252
 20
62.799938
 30
0.0
 11
13.512252
 21
61.740938
 31
0.0
  0
LINE
  5
628
100
AcDbEntity
  8
0
  6
CONTINUOUS
100
AcDbLine
 10
13.596252
 20
61.541938
 30
0.0
 11
14.854252
 21
62.799938
 31
0.0
  0
LINE
  5
629
100
AcDbEntity
  8
0
  6
CONTINUOUS
100
AcDbLine
 10
15.137252
 20
62.799938
 30
0.0
 11
13.690252
 21
61.353938
 31
0.0
  0
LINE
  5
62A
100
AcDbEntity
  8
0
  6
CONTINUOUS
100
AcDbLine
 10
13.796252
 20
61.175938
 30
0.0
 11
15.419252
 21
62.799938
 31
0.0
  0
LINE
  5
62B
100
AcDbEntity
  8
0
  6
CONTINUOUS
100
AcDbLine
 10
15.702252
 20
62.799938
 30
0.0
 11
13.912252
 21
61.008938
 31
0.0
  0
LINE
  5
62C
100
AcDbEntity
  8
0
  6
CONTINUOUS
100
AcDbLine
 10
14.037252
 20
60.851938
 30
0.0
 11
15.985252
 21
62.799938
 31
0.0
  0
LINE
  5
62D
100
AcDbEntity
  8
0
  6
CONTINUOUS
100
AcDbLine
 10
16.268252
 20
62.799938
 30
0.0
 11
14.172252
 21
60.703938
 31
0.0
  0
LINE
  5
62E
100
AcDbEntity
  8
0
  6
CONTINUOUS
100
AcDbLine
 10
18.814252
 20
62.799938
 30
0.0
 11
19.282252
 21
63.267938
 31
0.0
  0
LINE
  5
62F
100
AcDbEntity
  8
0
  6
CONTINUOUS
100
AcDbLine
 10
19.311252
 20
63.014938
 30
0.0
 11
19.096252
 21
62.799938
 31
0.0
  0
ARC
  5
630
100
AcDbEntity
  8
0
  6
CONTINUOUS
100
AcDbCircle
 10
16.280252
 20
76.299938
 30
0.0
 40
4.25
100
AcDbArc
 50
180.0
 51
0.0
  0
LINE
  5
631
100
AcDbEntity
  8
0
  6
CONTINUOUS
100
AcDbLine
 10
16.437252
 20
65.796938
 30
0.0
 11
16.280252
 21
65.639938
 31
0.0
  0
LINE
  5
632
100
AcDbEntity
  8
0
  6
CONTINUOUS
100
AcDbLine
 10
16.280252
 20
65.357938
 30
0.0
 11
16.698252
 21
65.775938
 31
0.0
  0
LINE
  5
633
100
AcDbEntity
  8
0
  6
CONTINUOUS
100
AcDbLine
 10
16.940252
 20
65.734938
 30
0.0
 11
16.280252
 21
65.074938
 31
0.0
  0
LINE
  5
634
100
AcDbEntity
  8
0
  6
CONTINUOUS
100
AcDbLine
 10
16.280252
 20
64.791938
 30
0.0
 11
17.166252
 21
65.677938
 31
0.0
  0
LINE
  5
635
100
AcDbEntity
  8
0
  6
CONTINUOUS
100
AcDbLine
 10
17.378252
 20
65.606938
 30
0.0
 11
16.280252
 21
64.508938
 31
0.0
  0
LINE
  5
636
100
AcDbEntity
  8
0
  6
CONTINUOUS
100
AcDbLine
 10
16.280252
 20
64.225938
 30
0.0
 11
17.577252
 21
65.522938
 31
0.0
  0
ARC
  5
637
100
AcDbEntity
  8
0
  6
CONTINUOUS
100
AcDbCircle
 10
16.280252
 20
79.299938
 30
0.0
 40
4.25
100
AcDbArc
 50
0.0
 51
180.0
  0
LINE
  5
638
100
AcDbEntity
  8
0
  6
CONTINUOUS
100
AcDbLine
 10
12.030252
 20
79.299938
 30
0.0
 11
12.030252
 21
76.299938
 31
0.0
  0
LINE
  5
639
100
AcDbEntity
  8
0
  6
CONTINUOUS
100
AcDbLine
 10
20.530252
 20
79.299938
 30
0.0
 11
20.530252
 21
76.299938
 31
0.0
  0
LINE
  5
63A
100
AcDbEntity
  8
0
  6
CONTINUOUS
 62
     1
100
AcDbLine
 10
38.280252
 20
59.795938
 30
0.0
 11
38.280252
 21
73.936938
 31
0.0
  0
LINE
  5
63B
100
AcDbEntity
  8
0
  6
CONTINUOUS
 62
     1
100
AcDbLine
 10
43.280252
 20
55.931938
 30
0.0
 11
43.280252
 21
70.072938
 31
0.0
  0
LINE
  5
63C
100
AcDbEntity
  8
0
  6
CONTINUOUS
 62
     1
100
AcDbLine
 10
60.280252
 20
67.693938
 30
0.0
 11
60.280252
 21
53.551938
 31
0.0
  0
LINE
  5
63D
100
AcDbEntity
  8
0
  6
CONTINUOUS
 62
     1
100
AcDbLine
 10
50.280252
 20
53.551938
 30
0.0
 11
50.280252
 21
67.693938
 31
0.0
  0
ARC
  5
63E
100
AcDbEntity
  8
0
  6
CONTINUOUS
100
AcDbCircle
 10
33.780252
 20
49.299938
 30
0.0
 40
0.5
100
AcDbArc
 50
180.0
 51
270.0
  0
ARC
  5
63F
100
AcDbEntity
  8
0
  6
CONTINUOUS
100
AcDbCircle
 10
33.780252
 20
46.299938
 30
0.0
 40
0.5
100
AcDbArc
 50
90.0
 51
180.0
  0
LINE
  5
640
100
AcDbEntity
  8
0
  6
CONTINUOUS
100
AcDbLine
 10
35.280252
 20
67.244938
 30
0.0
 11
35.280252
 21
81.386938
 31
0.0
  0
LINE
  5
641
100
AcDbEntity
  8
0
  6
CONTINUOUS
100
AcDbLine
 10
34.780252
 20
70.799938
 30
0.0
 11
35.280252
 21
70.799938
 31
0.0
  0
ARC
  5
642
100
AcDbEntity
  8
0
  6
CONTINUOUS
100
AcDbCircle
 10
34.780252
 20
72.299938
 30
0.0
 40
1.5
100
AcDbArc
 50
180.0
 51
270.0
  0
ARC
  5
643
100
AcDbEntity
  8
0
  6
CONTINUOUS
100
AcDbCircle
 10
25.780252
 20
90.299938
 30
0.0
 40
1.5
100
AcDbArc
 50
0.0
 51
90.0
  0
LINE
  5
644
100
AcDbEntity
  8
0
  6
CONTINUOUS
100
AcDbLine
 10
6.280252
 20
97.799938
 30
0.0
 11
33.280252
 21
97.799938
 31
0.0
  0
LINE
  5
645
100
AcDbEntity
  8
0
  6
CONTINUOUS
100
AcDbLine
 10
25.780252
 20
91.799938
 30
0.0
 11
6.280252
 21
91.799938
 31
0.0
  0
LINE
  5
646
100
AcDbEntity
  8
0
  6
CENTER
 62
     1
100
AcDbLine
 10
97.280452
 20
75.679938
 30
0.0
 11
97.280452
 21
87.459938
 31
0.0
  0
POLYLINE
  5
647
100
AcDbEntity
  8
0
  6
CONTINUOUS
100
AcDb2dPolyline
 66
     1
 10
0.0
 20
0.0
 30
0.0
  0
VERTEX
  5
648
100
AcDbEntity
  8
0
  6
CONTINUOUS
100
AcDbVertex
100
AcDb2dVertex
 10
97.280452
 20
67.244938
 30
0.0
  0
VERTEX
  5
649
100
AcDbEntity
  8
0
  6
CONTINUOUS
100
AcDbVertex
100
AcDb2dVertex
 10
95.711252
 20
67.287938
 30
0.0
  0
VERTEX
  5
64A
100
AcDbEntity
  8
0
  6
CONTINUOUS
100
AcDbVertex
100
AcDb2dVertex
 10
94.151752
 20
67.418938
 30
0.0
  0
VERTEX
  5
64B
100
AcDbEntity
  8
0
  6
CONTINUOUS
100
AcDbVertex
100
AcDb2dVertex
 10
92.611552
 20
67.635938
 30
0.0
  0
VERTEX
  5
64C
100
AcDbEntity
  8
0
  6
CONTINUOUS
100
AcDbVertex
100
AcDb2dVertex
 10
91.100152
 20
67.936938
 30
0.0
  0
VERTEX
  5
64D
100
AcDbEntity
  8
0
  6
CONTINUOUS
100
AcDbVertex
100
AcDb2dVertex
 10
89.626752
 20
68.320938
 30
0.0
  0
VERTEX
  5
64E
100
AcDbEntity
  8
0
  6
CONTINUOUS
100
AcDbVertex
100
AcDb2dVertex
 10
88.200652
 20
68.785938
 30
0.0
  0
VERTEX
  5
64F
100
AcDbEntity
  8
0
  6
CONTINUOUS
100
AcDbVertex
100
AcDb2dVertex
 10
86.830452
 20
69.328938
 30
0.0
  0
VERTEX
  5
650
100
AcDbEntity
  8
0
  6
CONTINUOUS
100
AcDbVertex
100
AcDb2dVertex
 10
85.524752
 20
69.945938
 30
0.0
  0
VERTEX
  5
651
100
AcDbEntity
  8
0
  6
CONTINUOUS
100
AcDbVertex
100
AcDb2dVertex
 10
84.291452
 20
70.632938
 30
0.0
  0
VERTEX
  5
652
100
AcDbEntity
  8
0
  6
CONTINUOUS
100
AcDbVertex
100
AcDb2dVertex
 10
83.138352
 20
71.386938
 30
0.0
  0
VERTEX
  5
653
100
AcDbEntity
  8
0
  6
CONTINUOUS
100
AcDbVertex
100
AcDb2dVertex
 10
82.072352
 20
72.201938
 30
0.0
  0
VERTEX
  5
654
100
AcDbEntity
  8
0
  6
CONTINUOUS
100
AcDbVertex
100
AcDb2dVertex
 10
81.100152
 20
73.073938
 30
0.0
  0
VERTEX
  5
655
100
AcDbEntity
  8
0
  6
CONTINUOUS
100
AcDbVertex
100
AcDb2dVertex
 10
80.227652
 20
73.997938
 30
0.0
  0
VERTEX
  5
656
100
AcDbEntity
  8
0
  6
CONTINUOUS
100
AcDbVertex
100
AcDb2dVertex
 10
79.460352
 20
74.966938
 30
0.0
  0
VERTEX
  5
657
100
AcDbEntity
  8
0
  6
CONTINUOUS
100
AcDbVertex
100
AcDb2dVertex
 10
78.802852
 20
75.974938
 30
0.0
  0
VERTEX
  5
658
100
AcDbEntity
  8
0
  6
CONTINUOUS
100
AcDbVertex
100
AcDb2dVertex
 10
78.516652
 20
76.491938
 30
0.0
  0
VERTEX
  5
659
100
AcDbEntity
  8
0
  6
CONTINUOUS
100
AcDbVertex
100
AcDb2dVertex
 10
78.259352
 20
77.016938
 30
0.0
  0
VERTEX
  5
65A
100
AcDbEntity
  8
0
  6
CONTINUOUS
100
AcDbVertex
100
AcDb2dVertex
 10
78.031352
 20
77.547938
 30
0.0
  0
VERTEX
  5
65B
100
AcDbEntity
  8
0
  6
CONTINUOUS
100
AcDbVertex
100
AcDb2dVertex
 10
77.833052
 20
78.085938
 30
0.0
  0
VERTEX
  5
65C
100
AcDbEntity
  8
0
  6
CONTINUOUS
100
AcDbVertex
100
AcDb2dVertex
 10
77.664752
 20
78.627938
 30
0.0
  0
VERTEX
  5
65D
100
AcDbEntity
  8
0
  6
CONTINUOUS
100
AcDbVertex
100
AcDb2dVertex
 10
77.526652
 20
79.174938
 30
0.0
  0
VERTEX
  5
65E
100
AcDbEntity
  8
0
  6
CONTINUOUS
100
AcDbVertex
100
AcDb2dVertex
 10
77.419052
 20
79.724938
 30
0.0
  0
VERTEX
  5
65F
100
AcDbEntity
  8
0
  6
CONTINUOUS
100
AcDbVertex
100
AcDb2dVertex
 10
77.342152
 20
80.277938
 30
0.0
  0
VERTEX
  5
660
100
AcDbEntity
  8
0
  6
CONTINUOUS
100
AcDbVertex
100
AcDb2dVertex
 10
77.295852
 20
80.831938
 30
0.0
  0
VERTEX
  5
661
100
AcDbEntity
  8
0
  6
CONTINUOUS
100
AcDbVertex
100
AcDb2dVertex
 10
77.280452
 20
81.386938
 30
0.0
  0
VERTEX
  5
662
100
AcDbEntity
  8
0
  6
CONTINUOUS
100
AcDbVertex
100
AcDb2dVertex
 10
77.295852
 20
81.941938
 30
0.0
  0
VERTEX
  5
663
100
AcDbEntity
  8
0
  6
CONTINUOUS
100
AcDbVertex
100
AcDb2dVertex
 10
77.342152
 20
82.496938
 30
0.0
  0
VERTEX
  5
664
100
AcDbEntity
  8
0
  6
CONTINUOUS
100
AcDbVertex
100
AcDb2dVertex
 10
77.419052
 20
83.048938
 30
0.0
  0
VERTEX
  5
665
100
AcDbEntity
  8
0
  6
CONTINUOUS
100
AcDbVertex
100
AcDb2dVertex
 10
77.526652
 20
83.598938
 30
0.0
  0
VERTEX
  5
666
100
AcDbEntity
  8
0
  6
CONTINUOUS
100
AcDbVertex
100
AcDb2dVertex
 10
77.664752
 20
84.145938
 30
0.0
  0
VERTEX
  5
667
100
AcDbEntity
  8
0
  6
CONTINUOUS
100
AcDbVertex
100
AcDb2dVertex
 10
77.833052
 20
84.688938
 30
0.0
  0
VERTEX
  5
668
100
AcDbEntity
  8
0
  6
CONTINUOUS
100
AcDbVertex
100
AcDb2dVertex
 10
78.031352
 20
85.225938
 30
0.0
  0
VERTEX
  5
669
100
AcDbEntity
  8
0
  6
CONTINUOUS
100
AcDbVertex
100
AcDb2dVertex
 10
78.259352
 20
85.756938
 30
0.0
  0
VERTEX
  5
66A
100
AcDbEntity
  8
0
  6
CONTINUOUS
100
AcDbVertex
100
AcDb2dVertex
 10
78.516652
 20
86.281938
 30
0.0
  0
VERTEX
  5
66B
100
AcDbEntity
  8
0
  6
CONTINUOUS
100
AcDbVertex
100
AcDb2dVertex
 10
79.117552
 20
87.307938
 30
0.0
  0
VERTEX
  5
66C
100
AcDbEntity
  8
0
  6
CONTINUOUS
100
AcDbVertex
100
AcDb2dVertex
 10
79.830552
 20
88.296938
 30
0.0
  0
VERTEX
  5
66D
100
AcDbEntity
  8
0
  6
CONTINUOUS
100
AcDbVertex
100
AcDb2dVertex
 10
80.651052
 20
89.243938
 30
0.0
  0
VERTEX
  5
66E
100
AcDbEntity
  8
0
  6
CONTINUOUS
100
AcDbVertex
100
AcDb2dVertex
 10
81.574152
 20
90.142938
 30
0.0
  0
VERTEX
  5
66F
100
AcDbEntity
  8
0
  6
CONTINUOUS
100
AcDbVertex
100
AcDb2dVertex
 10
82.594052
 20
90.986938
 30
0.0
  0
VERTEX
  5
670
100
AcDbEntity
  8
0
  6
CONTINUOUS
100
AcDbVertex
100
AcDb2dVertex
 10
83.704452
 20
91.771938
 30
0.0
  0
VERTEX
  5
671
100
AcDbEntity
  8
0
  6
CONTINUOUS
100
AcDbVertex
100
AcDb2dVertex
 10
84.898552
 20
92.492938
 30
0.0
  0
VERTEX
  5
672
100
AcDbEntity
  8
0
  6
CONTINUOUS
100
AcDbVertex
100
AcDb2dVertex
 10
86.169052
 20
93.145938
 30
0.0
  0
VERTEX
  5
673
100
AcDbEntity
  8
0
  6
CONTINUOUS
100
AcDbVertex
100
AcDb2dVertex
 10
87.508052
 20
93.725938
 30
0.0
  0
VERTEX
  5
674
100
AcDbEntity
  8
0
  6
CONTINUOUS
100
AcDbVertex
100
AcDb2dVertex
 10
88.907252
 20
94.229938
 30
0.0
  0
VERTEX
  5
675
100
AcDbEntity
  8
0
  6
CONTINUOUS
100
AcDbVertex
100
AcDb2dVertex
 10
90.358152
 20
94.654938
 30
0.0
  0
VERTEX
  5
676
100
AcDbEntity
  8
0
  6
CONTINUOUS
100
AcDbVertex
100
AcDb2dVertex
 10
91.851652
 20
94.998938
 30
0.0
  0
VERTEX
  5
677
100
AcDbEntity
  8
0
  6
CONTINUOUS
100
AcDbVertex
100
AcDb2dVertex
 10
93.378652
 20
95.257938
 30
0.0
  0
VERTEX
  5
678
100
AcDbEntity
  8
0
  6
CONTINUOUS
100
AcDbVertex
100
AcDb2dVertex
 10
94.929752
 20
95.430938
 30
0.0
  0
VERTEX
  5
679
100
AcDbEntity
  8
0
  6
CONTINUOUS
100
AcDbVertex
100
AcDb2dVertex
 10
96.495252
 20
95.518938
 30
0.0
  0
VERTEX
  5
67A
100
AcDbEntity
  8
0
  6
CONTINUOUS
100
AcDbVertex
100
AcDb2dVertex
 10
98.065652
 20
95.518938
 30
0.0
  0
VERTEX
  5
67B
100
AcDbEntity
  8
0
  6
CONTINUOUS
100
AcDbVertex
100
AcDb2dVertex
 10
99.631252
 20
95.430938
 30
0.0
  0
VERTEX
  5
67C
100
AcDbEntity
  8
0
  6
CONTINUOUS
100
AcDbVertex
100
AcDb2dVertex
 10
101.182252
 20
95.257938
 30
0.0
  0
VERTEX
  5
67D
100
AcDbEntity
  8
0
  6
CONTINUOUS
100
AcDbVertex
100
AcDb2dVertex
 10
102.709252
 20
94.998938
 30
0.0
  0
VERTEX
  5
67E
100
AcDbEntity
  8
0
  6
CONTINUOUS
100
AcDbVertex
100
AcDb2dVertex
 10
104.202752
 20
94.654938
 30
0.0
  0
VERTEX
  5
67F
100
AcDbEntity
  8
0
  6
CONTINUOUS
100
AcDbVertex
100
AcDb2dVertex
 10
105.653652
 20
94.229938
 30
0.0
  0
VERTEX
  5
680
100
AcDbEntity
  8
0
  6
CONTINUOUS
100
AcDbVertex
100
AcDb2dVertex
 10
107.052852
 20
93.725938
 30
0.0
  0
VERTEX
  5
681
100
AcDbEntity
  8
0
  6
CONTINUOUS
100
AcDbVertex
100
AcDb2dVertex
 10
108.391852
 20
93.145938
 30
0.0
  0
VERTEX
  5
682
100
AcDbEntity
  8
0
  6
CONTINUOUS
100
AcDbVertex
100
AcDb2dVertex
 10
109.662352
 20
92.492938
 30
0.0
  0
VERTEX
  5
683
100
AcDbEntity
  8
0
  6
CONTINUOUS
100
AcDbVertex
100
AcDb2dVertex
 10
110.856452
 20
91.771938
 30
0.0
  0
VERTEX
  5
684
100
AcDbEntity
  8
0
  6
CONTINUOUS
100
AcDbVertex
100
AcDb2dVertex
 10
111.966952
 20
90.986938
 30
0.0
  0
VERTEX
  5
685
100
AcDbEntity
  8
0
  6
CONTINUOUS
100
AcDbVertex
100
AcDb2dVertex
 10
112.986752
 20
90.142938
 30
0.0
  0
VERTEX
  5
686
100
AcDbEntity
  8
0
  6
CONTINUOUS
100
AcDbVertex
100
AcDb2dVertex
 10
113.909852
 20
89.243938
 30
0.0
  0
VERTEX
  5
687
100
AcDbEntity
  8
0
  6
CONTINUOUS
100
AcDbVertex
100
AcDb2dVertex
 10
114.730352
 20
88.296938
 30
0.0
  0
VERTEX
  5
688
100
AcDbEntity
  8
0
  6
CONTINUOUS
100
AcDbVertex
100
AcDb2dVertex
 10
115.443352
 20
87.307938
 30
0.0
  0
VERTEX
  5
689
100
AcDbEntity
  8
0
  6
CONTINUOUS
100
AcDbVertex
100
AcDb2dVertex
 10
116.044252
 20
86.281938
 30
0.0
  0
VERTEX
  5
68A
100
AcDbEntity
  8
0
  6
CONTINUOUS
100
AcDbVertex
100
AcDb2dVertex
 10
116.301552
 20
85.756938
 30
0.0
  0
VERTEX
  5
68B
100
AcDbEntity
  8
0
  6
CONTINUOUS
100
AcDbVertex
100
AcDb2dVertex
 10
116.529552
 20
85.225938
 30
0.0
  0
VERTEX
  5
68C
100
AcDbEntity
  8
0
  6
CONTINUOUS
100
AcDbVertex
100
AcDb2dVertex
 10
116.727852
 20
84.688938
 30
0.0
  0
VERTEX
  5
68D
100
AcDbEntity
  8
0
  6
CONTINUOUS
100
AcDbVertex
100
AcDb2dVertex
 10
116.896152
 20
84.145938
 30
0.0
  0
VERTEX
  5
68E
100
AcDbEntity
  8
0
  6
CONTINUOUS
100
AcDbVertex
100
AcDb2dVertex
 10
117.034252
 20
83.598938
 30
0.0
  0
VERTEX
  5
68F
100
AcDbEntity
  8
0
  6
CONTINUOUS
100
AcDbVertex
100
AcDb2dVertex
 10
117.141852
 20
83.048938
 30
0.0
  0
VERTEX
  5
690
100
AcDbEntity
  8
0
  6
CONTINUOUS
100
AcDbVertex
100
AcDb2dVertex
 10
117.218852
 20
82.496938
 30
0.0
  0
VERTEX
  5
691
100
AcDbEntity
  8
0
  6
CONTINUOUS
100
AcDbVertex
100
AcDb2dVertex
 10
117.265052
 20
81.941938
 30
0.0
  0
VERTEX
  5
692
100
AcDbEntity
  8
0
  6
CONTINUOUS
100
AcDbVertex
100
AcDb2dVertex
 10
117.280452
 20
81.386938
 30
0.0
  0
VERTEX
  5
693
100
AcDbEntity
  8
0
  6
CONTINUOUS
100
AcDbVertex
100
AcDb2dVertex
 10
117.265052
 20
80.831938
 30
0.0
  0
VERTEX
  5
694
100
AcDbEntity
  8
0
  6
CONTINUOUS
100
AcDbVertex
100
AcDb2dVertex
 10
117.218852
 20
80.277938
 30
0.0
  0
VERTEX
  5
695
100
AcDbEntity
  8
0
  6
CONTINUOUS
100
AcDbVertex
100
AcDb2dVertex
 10
117.141852
 20
79.724938
 30
0.0
  0
VERTEX
  5
696
100
AcDbEntity
  8
0
  6
CONTINUOUS
100
AcDbVertex
100
AcDb2dVertex
 10
117.034252
 20
79.174938
 30
0.0
  0
VERTEX
  5
697
100
AcDbEntity
  8
0
  6
CONTINUOUS
100
AcDbVertex
100
AcDb2dVertex
 10
116.896152
 20
78.627938
 30
0.0
  0
VERTEX
  5
698
100
AcDbEntity
  8
0
  6
CONTINUOUS
100
AcDbVertex
100
AcDb2dVertex
 10
116.727852
 20
78.085938
 30
0.0
  0
VERTEX
  5
699
100
AcDbEntity
  8
0
  6
CONTINUOUS
100
AcDbVertex
100
AcDb2dVertex
 10
116.529552
 20
77.547938
 30
0.0
  0
VERTEX
  5
69A
100
AcDbEntity
  8
0
  6
CONTINUOUS
100
AcDbVertex
100
AcDb2dVertex
 10
116.301552
 20
77.016938
 30
0.0
  0
VERTEX
  5
69B
100
AcDbEntity
  8
0
  6
CONTINUOUS
100
AcDbVertex
100
AcDb2dVertex
 10
116.044252
 20
76.491938
 30
0.0
  0
VERTEX
  5
69C
100
AcDbEntity
  8
0
  6
CONTINUOUS
100
AcDbVertex
100
AcDb2dVertex
 10
115.443352
 20
75.465938
 30
0.0
  0
VERTEX
  5
69D
100
AcDbEntity
  8
0
  6
CONTINUOUS
100
AcDbVertex
100
AcDb2dVertex
 10
114.730352
 20
74.476938
 30
0.0
  0
VERTEX
  5
69E
100
AcDbEntity
  8
0
  6
CONTINUOUS
100
AcDbVertex
100
AcDb2dVertex
 10
113.909852
 20
73.529938
 30
0.0
  0
VERTEX
  5
69F
100
AcDbEntity
  8
0
  6
CONTINUOUS
100
AcDbVertex
100
AcDb2dVertex
 10
112.986752
 20
72.631938
 30
0.0
  0
VERTEX
  5
6A0
100
AcDbEntity
  8
0
  6
CONTINUOUS
100
AcDbVertex
100
AcDb2dVertex
 10
111.966952
 20
71.786938
 30
0.0
  0
VERTEX
  5
6A1
100
AcDbEntity
  8
0
  6
CONTINUOUS
100
AcDbVertex
100
AcDb2dVertex
 10
110.856452
 20
71.001938
 30
0.0
  0
VERTEX
  5
6A2
100
AcDbEntity
  8
0
  6
CONTINUOUS
100
AcDbVertex
100
AcDb2dVertex
 10
109.662352
 20
70.280938
 30
0.0
  0
VERTEX
  5
6A3
100
AcDbEntity
  8
0
  6
CONTINUOUS
100
AcDbVertex
100
AcDb2dVertex
 10
108.391852
 20
69.627938
 30
0.0
  0
VERTEX
  5
6A4
100
AcDbEntity
  8
0
  6
CONTINUOUS
100
AcDbVertex
100
AcDb2dVertex
 10
107.052852
 20
69.047938
 30
0.0
  0
VERTEX
  5
6A5
100
AcDbEntity
  8
0
  6
CONTINUOUS
100
AcDbVertex
100
AcDb2dVertex
 10
105.653652
 20
68.543938
 30
0.0
  0
VERTEX
  5
6A6
100
AcDbEntity
  8
0
  6
CONTINUOUS
100
AcDbVertex
100
AcDb2dVertex
 10
104.202752
 20
68.118938
 30
0.0
  0
VERTEX
  5
6A7
100
AcDbEntity
  8
0
  6
CONTINUOUS
100
AcDbVertex
100
AcDb2dVertex
 10
102.709252
 20
67.775938
 30
0.0
  0
VERTEX
  5
6A8
100
AcDbEntity
  8
0
  6
CONTINUOUS
100
AcDbVertex
100
AcDb2dVertex
 10
101.182252
 20
67.516938
 30
0.0
  0
VERTEX
  5
6A9
100
AcDbEntity
  8
0
  6
CONTINUOUS
100
AcDbVertex
100
AcDb2dVertex
 10
99.631252
 20
67.342938
 30
0.0
  0
VERTEX
  5
6AA
100
AcDbEntity
  8
0
  6
CONTINUOUS
100
AcDbVertex
100
AcDb2dVertex
 10
98.457852
 20
67.268938
 30
0.0
  0
VERTEX
  5
6AB
100
AcDbEntity
  8
0
  6
CONTINUOUS
100
AcDbVertex
100
AcDb2dVertex
 10
97.280452
 20
67.244938
 30
0.0
  0
SEQEND
  5
6AC
100
AcDbEntity
  8
0
  0
LINE
  5
6AD
100
AcDbEntity
  8
0
  6
CONTINUOUS
100
AcDbLine
 10
119.280452
 20
97.799938
 30
0.0
 11
119.280452
 21
46.299938
 31
0.0
  0
LINE
  5
6AE
100
AcDbEntity
  8
0
  6
CENTER
 62
     1
100
AcDbLine
 10
92.167152
 20
81.386938
 30
0.0
 11
103.244152
 21
81.386938
 31
0.0
  0
POLYLINE
  5
6AF
100
AcDbEntity
  8
0
  6
CONTINUOUS
100
AcDb2dPolyline
 66
     1
 10
0.0
 20
0.0
 30
0.0
  0
VERTEX
  5
6B0
100
AcDbEntity
  8
0
  6
CONTINUOUS
100
AcDbVertex
100
AcDb2dVertex
 10
77.280452
 20
67.244938
 30
0.0
  0
VERTEX
  5
6B1
100
AcDbEntity
  8
0
  6
CONTINUOUS
100
AcDbVertex
100
AcDb2dVertex
 10
77.295852
 20
66.689938
 30
0.0
  0
VERTEX
  5
6B2
100
AcDbEntity
  8
0
  6
CONTINUOUS
100
AcDbVertex
100
AcDb2dVertex
 10
77.342152
 20
66.135938
 30
0.0
  0
VERTEX
  5
6B3
100
AcDbEntity
  8
0
  6
CONTINUOUS
100
AcDbVertex
100
AcDb2dVertex
 10
77.419052
 20
65.582938
 30
0.0
  0
VERTEX
  5
6B4
100
AcDbEntity
  8
0
  6
CONTINUOUS
100
AcDbVertex
100
AcDb2dVertex
 10
77.526652
 20
65.032938
 30
0.0
  0
VERTEX
  5
6B5
100
AcDbEntity
  8
0
  6
CONTINUOUS
100
AcDbVertex
100
AcDb2dVertex
 10
77.664752
 20
64.485938
 30
0.0
  0
VERTEX
  5
6B6
100
AcDbEntity
  8
0
  6
CONTINUOUS
100
AcDbVertex
100
AcDb2dVertex
 10
77.833052
 20
63.943938
 30
0.0
  0
VERTEX
  5
6B7
100
AcDbEntity
  8
0
  6
CONTINUOUS
100
AcDbVertex
100
AcDb2dVertex
 10
78.031352
 20
63.405938
 30
0.0
  0
VERTEX
  5
6B8
100
AcDbEntity
  8
0
  6
CONTINUOUS
100
AcDbVertex
100
AcDb2dVertex
 10
78.259352
 20
62.874938
 30
0.0
  0
VERTEX
  5
6B9
100
AcDbEntity
  8
0
  6
CONTINUOUS
100
AcDbVertex
100
AcDb2dVertex
 10
78.516652
 20
62.349938
 30
0.0
  0
VERTEX
  5
6BA
100
AcDbEntity
  8
0
  6
CONTINUOUS
100
AcDbVertex
100
AcDb2dVertex
 10
79.117552
 20
61.323938
 30
0.0
  0
VERTEX
  5
6BB
100
AcDbEntity
  8
0
  6
CONTINUOUS
100
AcDbVertex
100
AcDb2dVertex
 10
79.830552
 20
60.334938
 30
0.0
  0
VERTEX
  5
6BC
100
AcDbEntity
  8
0
  6
CONTINUOUS
100
AcDbVertex
100
AcDb2dVertex
 10
80.651052
 20
59.387938
 30
0.0
  0
VERTEX
  5
6BD
100
AcDbEntity
  8
0
  6
CONTINUOUS
100
AcDbVertex
100
AcDb2dVertex
 10
81.574152
 20
58.489938
 30
0.0
  0
VERTEX
  5
6BE
100
AcDbEntity
  8
0
  6
CONTINUOUS
100
AcDbVertex
100
AcDb2dVertex
 10
82.594052
 20
57.644938
 30
0.0
  0
VERTEX
  5
6BF
100
AcDbEntity
  8
0
  6
CONTINUOUS
100
AcDbVertex
100
AcDb2dVertex
 10
83.704452
 20
56.859938
 30
0.0
  0
VERTEX
  5
6C0
100
AcDbEntity
  8
0
  6
CONTINUOUS
100
AcDbVertex
100
AcDb2dVertex
 10
84.898552
 20
56.138938
 30
0.0
  0
VERTEX
  5
6C1
100
AcDbEntity
  8
0
  6
CONTINUOUS
100
AcDbVertex
100
AcDb2dVertex
 10
86.169052
 20
55.485938
 30
0.0
  0
VERTEX
  5
6C2
100
AcDbEntity
  8
0
  6
CONTINUOUS
100
AcDbVertex
100
AcDb2dVertex
 10
87.508052
 20
54.905938
 30
0.0
  0
VERTEX
  5
6C3
100
AcDbEntity
  8
0
  6
CONTINUOUS
100
AcDbVertex
100
AcDb2dVertex
 10
88.907252
 20
54.401938
 30
0.0
  0
VERTEX
  5
6C4
100
AcDbEntity
  8
0
  6
CONTINUOUS
100
AcDbVertex
100
AcDb2dVertex
 10
90.358152
 20
53.976938
 30
0.0
  0
VERTEX
  5
6C5
100
AcDbEntity
  8
0
  6
CONTINUOUS
100
AcDbVertex
100
AcDb2dVertex
 10
91.851652
 20
53.633938
 30
0.0
  0
VERTEX
  5
6C6
100
AcDbEntity
  8
0
  6
CONTINUOUS
100
AcDbVertex
100
AcDb2dVertex
 10
93.378652
 20
53.374938
 30
0.0
  0
VERTEX
  5
6C7
100
AcDbEntity
  8
0
  6
CONTINUOUS
100
AcDbVertex
100
AcDb2dVertex
 10
94.929752
 20
53.200938
 30
0.0
  0
VERTEX
  5
6C8
100
AcDbEntity
  8
0
  6
CONTINUOUS
100
AcDbVertex
100
AcDb2dVertex
 10
96.495252
 20
53.113938
 30
0.0
  0
VERTEX
  5
6C9
100
AcDbEntity
  8
0
  6
CONTINUOUS
100
AcDbVertex
100
AcDb2dVertex
 10
98.065652
 20
53.113938
 30
0.0
  0
VERTEX
  5
6CA
100
AcDbEntity
  8
0
  6
CONTINUOUS
100
AcDbVertex
100
AcDb2dVertex
 10
99.631252
 20
53.200938
 30
0.0
  0
VERTEX
  5
6CB
100
AcDbEntity
  8
0
  6
CONTINUOUS
100
AcDbVertex
100
AcDb2dVertex
 10
101.182252
 20
53.374938
 30
0.0
  0
VERTEX
  5
6CC
100
AcDbEntity
  8
0
  6
CONTINUOUS
100
AcDbVertex
100
AcDb2dVertex
 10
102.709252
 20
53.633938
 30
0.0
  0
VERTEX
  5
6CD
100
AcDbEntity
  8
0
  6
CONTINUOUS
100
AcDbVertex
100
AcDb2dVertex
 10
104.202752
 20
53.976938
 30
0.0
  0
VERTEX
  5
6CE
100
AcDbEntity
  8
0
  6
CONTINUOUS
100
AcDbVertex
100
AcDb2dVertex
 10
105.653652
 20
54.401938
 30
0.0
  0
VERTEX
  5
6CF
100
AcDbEntity
  8
0
  6
CONTINUOUS
100
AcDbVertex
100
AcDb2dVertex
 10
107.052852
 20
54.905938
 30
0.0
  0
VERTEX
  5
6D0
100
AcDbEntity
  8
0
  6
CONTINUOUS
100
AcDbVertex
100
AcDb2dVertex
 10
108.391852
 20
55.485938
 30
0.0
  0
VERTEX
  5
6D1
100
AcDbEntity
  8
0
  6
CONTINUOUS
100
AcDbVertex
100
AcDb2dVertex
 10
109.662352
 20
56.138938
 30
0.0
  0
VERTEX
  5
6D2
100
AcDbEntity
  8
0
  6
CONTINUOUS
100
AcDbVertex
100
AcDb2dVertex
 10
110.856452
 20
56.859938
 30
0.0
  0
VERTEX
  5
6D3
100
AcDbEntity
  8
0
  6
CONTINUOUS
100
AcDbVertex
100
AcDb2dVertex
 10
111.966952
 20
57.644938
 30
0.0
  0
VERTEX
  5
6D4
100
AcDbEntity
  8
0
  6
CONTINUOUS
100
AcDbVertex
100
AcDb2dVertex
 10
112.986752
 20
58.489938
 30
0.0
  0
VERTEX
  5
6D5
100
AcDbEntity
  8
0
  6
CONTINUOUS
100
AcDbVertex
100
AcDb2dVertex
 10
113.909852
 20
59.387938
 30
0.0
  0
VERTEX
  5
6D6
100
AcDbEntity
  8
0
  6
CONTINUOUS
100
AcDbVertex
100
AcDb2dVertex
 10
114.730352
 20
60.334938
 30
0.0
  0
VERTEX
  5
6D7
100
AcDbEntity
  8
0
  6
CONTINUOUS
100
AcDbVertex
100
AcDb2dVertex
 10
115.443352
 20
61.323938
 30
0.0
  0
VERTEX
  5
6D8
100
AcDbEntity
  8
0
  6
CONTINUOUS
100
AcDbVertex
100
AcDb2dVertex
 10
116.044252
 20
62.349938
 30
0.0
  0
VERTEX
  5
6D9
100
AcDbEntity
  8
0
  6
CONTINUOUS
100
AcDbVertex
100
AcDb2dVertex
 10
116.301552
 20
62.874938
 30
0.0
  0
VERTEX
  5
6DA
100
AcDbEntity
  8
0
  6
CONTINUOUS
100
AcDbVertex
100
AcDb2dVertex
 10
116.529552
 20
63.405938
 30
0.0
  0
VERTEX
  5
6DB
100
AcDbEntity
  8
0
  6
CONTINUOUS
100
AcDbVertex
100
AcDb2dVertex
 10
116.727852
 20
63.943938
 30
0.0
  0
VERTEX
  5
6DC
100
AcDbEntity
  8
0
  6
CONTINUOUS
100
AcDbVertex
100
AcDb2dVertex
 10
116.896152
 20
64.485938
 30
0.0
  0
VERTEX
  5
6DD
100
AcDbEntity
  8
0
  6
CONTINUOUS
100
AcDbVertex
100
AcDb2dVertex
 10
117.034252
 20
65.032938
 30
0.0
  0
VERTEX
  5
6DE
100
AcDbEntity
  8
0
  6
CONTINUOUS
100
AcDbVertex
100
AcDb2dVertex
 10
117.141852
 20
65.582938
 30
0.0
  0
VERTEX
  5
6DF
100
AcDbEntity
  8
0
  6
CONTINUOUS
100
AcDbVertex
100
AcDb2dVertex
 10
117.218852
 20
66.135938
 30
0.0
  0
VERTEX
  5
6E0
100
AcDbEntity
  8
0
  6
CONTINUOUS
100
AcDbVertex
100
AcDb2dVertex
 10
117.265052
 20
66.689938
 30
0.0
  0
VERTEX
  5
6E1
100
AcDbEntity
  8
0
  6
CONTINUOUS
100
AcDbVertex
100
AcDb2dVertex
 10
117.280452
 20
67.244938
 30
0.0
  0
SEQEND
  5
6E2
100
AcDbEntity
  8
0
  0
LINE
  5
6E3
100
AcDbEntity
  8
0
  6
CONTINUOUS
 62
     1
100
AcDbLine
 10
80.280452
 20
59.795938
 30
0.0
 11
80.280452
 21
73.936938
 31
0.0
  0
LINE
  5
6E4
100
AcDbEntity
  8
0
  6
CONTINUOUS
 62
     1
100
AcDbLine
 10
72.280252
 20
73.936938
 30
0.0
 11
72.280252
 21
59.795938
 31
0.0
  0
LINE
  5
6E5
100
AcDbEntity
  8
0
  6
CONTINUOUS
 62
     1
100
AcDbLine
 10
92.280452
 20
53.551938
 30
0.0
 11
92.280452
 21
67.693938
 31
0.0
  0
LINE
  5
6E6
100
AcDbEntity
  8
0
  6
CONTINUOUS
 62
     1
100
AcDbLine
 10
85.280452
 20
55.931938
 30
0.0
 11
85.280452
 21
70.072938
 31
0.0
  0
LINE
  5
6E7
100
AcDbEntity
  8
0
  6
CONTINUOUS
 62
     1
100
AcDbLine
 10
67.280252
 20
70.072938
 30
0.0
 11
67.280252
 21
55.931938
 31
0.0
  0
LINE
  5
6E8
100
AcDbEntity
  8
0
  6
CONTINUOUS
100
AcDbLine
 10
77.280452
 20
67.244938
 30
0.0
 11
77.280452
 21
81.386938
 31
0.0
  0
LINE
  5
6E9
100
AcDbEntity
  8
0
  6
CONTINUOUS
100
AcDbLine
 10
75.280252
 20
81.386938
 30
0.0
 11
75.280252
 21
67.244938
 31
0.0
  0
LINE
  5
6EA
100
AcDbEntity
  8
0
  6
CONTINUOUS
 62
     1
100
AcDbLine
 10
114.280452
 20
73.936938
 30
0.0
 11
114.280452
 21
59.795938
 31
0.0
  0
LINE
  5
6EB
100
AcDbEntity
  8
0
  6
CONTINUOUS
 62
     1
100
AcDbLine
 10
109.280452
 20
70.072938
 30
0.0
 11
109.280452
 21
55.931938
 31
0.0
  0
LINE
  5
6EC
100
AcDbEntity
  8
0
  6
CONTINUOUS
 62
     1
100
AcDbLine
 10
102.280452
 20
67.693938
 30
0.0
 11
102.280452
 21
53.551938
 31
0.0
  0
ARC
  5
6ED
100
AcDbEntity
  8
0
  6
CONTINUOUS
100
AcDbCircle
 10
118.780452
 20
49.299938
 30
0.0
 40
0.5
100
AcDbArc
 50
270.0
 51
0.0
  0
ARC
  5
6EE
100
AcDbEntity
  8
0
  6
CONTINUOUS
100
AcDbCircle
 10
118.780452
 20
46.299938
 30
0.0
 40
0.5
100
AcDbArc
 50
0.0
 51
90.0
  0
LINE
  5
6EF
100
AcDbEntity
  8
0
  6
CONTINUOUS
100
AcDbLine
 10
117.280452
 20
81.386938
 30
0.0
 11
117.280452
 21
67.244938
 31
0.0
  0
ARC
  5
6F0
100
AcDbEntity
  8
0
  6
CONTINUOUS
100
AcDbCircle
 10
117.780452
 20
72.299938
 30
0.0
 40
1.5
100
AcDbArc
 50
270.0
 51
0.0
  0
LINE
  5
6F1
100
AcDbEntity
  8
0
  6
CONTINUOUS
100
AcDbLine
 10
117.780452
 20
70.799938
 30
0.0
 11
117.280452
 21
70.799938
 31
0.0
  0
ARC
  5
6F2
100
AcDbEntity
  8
0
  6
CONTINUOUS
100
AcDbCircle
 10
126.780452
 20
90.299938
 30
0.0
 40
1.5
100
AcDbArc
 50
90.0
 51
180.0
  0
ARC
  5
6F3
100
AcDbEntity
  8
0
  6
CONTINUOUS
100
AcDbCircle
 10
136.280452
 20
46.299938
 30
0.0
 40
4.25
100
AcDbArc
 50
180.0
 51
0.0
  0
LINE
  5
6F4
100
AcDbEntity
  8
0
  6
CENTER
 62
     1
100
AcDbLine
 10
136.295952
 20
37.798938
 30
0.0
 11
136.291252
 21
91.799938
 31
0.0
  0
LINE
  5
6F5
100
AcDbEntity
  8
0
  6
CONTINUOUS
100
AcDbLine
 10
146.280452
 20
97.799938
 30
0.0
 11
146.280452
 21
37.799938
 31
0.0
  0
LINE
  5
6F6
100
AcDbEntity
  8
0
  6
CONTINUOUS
100
AcDbLine
 10
137.324852
 20
62.799938
 30
0.0
 11
138.882852
 21
64.357938
 31
0.0
  0
LINE
  5
6F7
100
AcDbEntity
  8
0
  6
CONTINUOUS
100
AcDbLine
 10
138.984552
 20
64.176938
 30
0.0
 11
137.607752
 21
62.799938
 31
0.0
  0
LINE
  5
6F8
100
AcDbEntity
  8
0
  6
CONTINUOUS
100
AcDbLine
 10
136.280452
 20
65.798938
 30
0.0
 11
136.280452
 21
59.799938
 31
0.0
  0
LINE
  5
6F9
100
AcDbEntity
  8
0
  6
CONTINUOUS
100
AcDbLine
 10
136.280452
 20
64.017938
 30
0.0
 11
137.716752
 21
65.453938
 31
0.0
  0
LINE
  5
6FA
100
AcDbEntity
  8
0
  6
CONTINUOUS
100
AcDbLine
 10
137.896752
 20
65.350938
 30
0.0
 11
136.280452
 21
63.734938
 31
0.0
  0
LINE
  5
6FB
100
AcDbEntity
  8
0
  6
CONTINUOUS
100
AcDbLine
 10
136.280452
 20
63.451938
 30
0.0
 11
138.066452
 21
65.237938
 31
0.0
  0
LINE
  5
6FC
100
AcDbEntity
  8
0
  6
CONTINUOUS
100
AcDbLine
 10
138.226352
 20
65.114938
 30
0.0
 11
136.280452
 21
63.169938
 31
0.0
  0
LINE
  5
6FD
100
AcDbEntity
  8
0
  6
CONTINUOUS
100
AcDbLine
 10
136.280452
 20
62.886938
 30
0.0
 11
138.376752
 21
64.982938
 31
0.0
  0
LINE
  5
6FE
100
AcDbEntity
  8
0
  6
CONTINUOUS
100
AcDbLine
 10
138.517652
 20
64.840938
 30
0.0
 11
136.476352
 21
62.799938
 31
0.0
  0
LINE
  5
6FF
100
AcDbEntity
  8
0
  6
CONTINUOUS
100
AcDbLine
 10
136.759152
 20
62.799938
 30
0.0
 11
138.649052
 21
64.689938
 31
0.0
  0
LINE
  5
700
100
AcDbEntity
  8
0
  6
CONTINUOUS
100
AcDbLine
 10
138.770852
 20
64.528938
 30
0.0
 11
137.042052
 21
62.799938
 31
0.0
  0
CIRCLE
  5
701
100
AcDbEntity
  8
0
  6
CONTINUOUS
100
AcDbCircle
 10
136.319152
 20
62.799938
 30
0.0
 40
3.0
  0
ARC
  5
702
100
AcDbEntity
  8
0
  6
CONTINUOUS
100
AcDbCircle
 10
136.280452
 20
49.299938
 30
0.0
 40
4.25
100
AcDbArc
 50
0.0
 51
180.0
  0
LINE
  5
703
100
AcDbEntity
  8
0
  6
CONTINUOUS
100
AcDbLine
 10
132.030452
 20
49.299938
 30
0.0
 11
132.030452
 21
46.299938
 31
0.0
  0
LINE
  5
704
100
AcDbEntity
  8
0
  6
CONTINUOUS
100
AcDbLine
 10
140.530452
 20
49.299938
 30
0.0
 11
140.530452
 21
46.299938
 31
0.0
  0
LINE
  5
705
100
AcDbEntity
  8
0
  6
CENTER
 62
     1
100
AcDbLine
 10
142.325252
 20
62.799938
 30
0.0
 11
130.184852
 21
62.799938
 31
0.0
  0
LINE
  5
706
100
AcDbEntity
  8
0
  6
CONTINUOUS
100
AcDbLine
 10
136.280452
 20
61.189938
 30
0.0
 11
135.134452
 21
60.043938
 31
0.0
  0
LINE
  5
707
100
AcDbEntity
  8
0
  6
CONTINUOUS
100
AcDbLine
 10
135.338252
 20
59.964938
 30
0.0
 11
136.280452
 21
60.906938
 31
0.0
  0
LINE
  5
708
100
AcDbEntity
  8
0
  6
CONTINUOUS
100
AcDbLine
 10
136.280452
 20
60.623938
 30
0.0
 11
135.555152
 21
59.898938
 31
0.0
  0
LINE
  5
709
100
AcDbEntity
  8
0
  6
CONTINUOUS
100
AcDbLine
 10
135.786752
 20
59.846938
 30
0.0
 11
136.280452
 21
60.340938
 31
0.0
  0
LINE
  5
70A
100
AcDbEntity
  8
0
  6
CONTINUOUS
100
AcDbLine
 10
136.280452
 20
60.057938
 30
0.0
 11
136.035352
 21
59.812938
 31
0.0
  0
LINE
  5
70B
100
AcDbEntity
  8
0
  6
CONTINUOUS
100
AcDbLine
 10
136.280452
 20
62.320938
 30
0.0
 11
134.429252
 21
60.469938
 31
0.0
  0
LINE
  5
70C
100
AcDbEntity
  8
0
  6
CONTINUOUS
100
AcDbLine
 10
134.590252
 20
60.347938
 30
0.0
 11
136.280452
 21
62.037938
 31
0.0
  0
LINE
  5
70D
100
AcDbEntity
  8
0
  6
CONTINUOUS
100
AcDbLine
 10
136.280452
 20
61.754938
 30
0.0
 11
134.761152
 21
60.235938
 31
0.0
  0
LINE
  5
70E
100
AcDbEntity
  8
0
  6
CONTINUOUS
100
AcDbLine
 10
134.942352
 20
60.133938
 30
0.0
 11
136.280452
 21
61.471938
 31
0.0
  0
LINE
  5
70F
100
AcDbEntity
  8
0
  6
CONTINUOUS
100
AcDbLine
 10
136.193452
 20
62.799938
 30
0.0
 11
134.135952
 21
60.741938
 31
0.0
  0
LINE
  5
710
100
AcDbEntity
  8
0
  6
CONTINUOUS
100
AcDbLine
 10
134.277852
 20
60.600938
 30
0.0
 11
136.280452
 21
62.603938
 31
0.0
  0
LINE
  5
711
100
AcDbEntity
  8
0
  6
CONTINUOUS
100
AcDbLine
 10
133.319152
 20
62.799938
 30
0.0
 11
139.319152
 21
62.799938
 31
0.0
  0
LINE
  5
712
100
AcDbEntity
  8
0
  6
CONTINUOUS
100
AcDbLine
 10
133.365052
 20
62.799938
 30
0.0
 11
133.319452
 21
62.753938
 31
0.0
  0
LINE
  5
713
100
AcDbEntity
  8
0
  6
CONTINUOUS
100
AcDbLine
 10
133.335452
 20
62.486938
 30
0.0
 11
133.647952
 21
62.799938
 31
0.0
  0
LINE
  5
714
100
AcDbEntity
  8
0
  6
CONTINUOUS
100
AcDbLine
 10
133.930752
 20
62.799938
 30
0.0
 11
133.371752
 21
62.240938
 31
0.0
  0
LINE
  5
715
100
AcDbEntity
  8
0
  6
CONTINUOUS
100
AcDbLine
 10
133.424752
 20
62.010938
 30
0.0
 11
134.213552
 21
62.799938
 31
0.0
  0
LINE
  5
716
100
AcDbEntity
  8
0
  6
CONTINUOUS
100
AcDbLine
 10
134.496452
 20
62.799938
 30
0.0
 11
133.492252
 21
61.795938
 31
0.0
  0
LINE
  5
717
100
AcDbEntity
  8
0
  6
CONTINUOUS
100
AcDbLine
 10
133.572552
 20
61.592938
 30
0.0
 11
134.779252
 21
62.799938
 31
0.0
  0
LINE
  5
718
100
AcDbEntity
  8
0
  6
CONTINUOUS
100
AcDbLine
 10
135.062152
 20
62.799938
 30
0.0
 11
133.664552
 21
61.401938
 31
0.0
  0
LINE
  5
719
100
AcDbEntity
  8
0
  6
CONTINUOUS
100
AcDbLine
 10
133.767452
 20
61.221938
 30
0.0
 11
135.344952
 21
62.799938
 31
0.0
  0
LINE
  5
71A
100
AcDbEntity
  8
0
  6
CONTINUOUS
100
AcDbLine
 10
135.627852
 20
62.799938
 30
0.0
 11
133.880552
 21
61.051938
 31
0.0
  0
LINE
  5
71B
100
AcDbEntity
  8
0
  6
CONTINUOUS
100
AcDbLine
 10
134.003452
 20
60.892938
 30
0.0
 11
135.910652
 21
62.799938
 31
0.0
  0
LINE
  5
71C
100
AcDbEntity
  8
0
  6
CONTINUOUS
100
AcDbLine
 10
139.319152
 20
62.813938
 30
0.0
 11
139.304752
 21
62.799938
 31
0.0
  0
LINE
  5
71D
100
AcDbEntity
  8
0
  6
CONTINUOUS
100
AcDbLine
 10
137.890552
 20
62.799938
 30
0.0
 11
139.075352
 21
63.983938
 31
0.0
  0
LINE
  5
71E
100
AcDbEntity
  8
0
  6
CONTINUOUS
100
AcDbLine
 10
139.154252
 20
63.780938
 30
0.0
 11
138.173352
 21
62.799938
 31
0.0
  0
LINE
  5
71F
100
AcDbEntity
  8
0
  6
CONTINUOUS
100
AcDbLine
 10
138.456252
 20
62.799938
 30
0.0
 11
139.220252
 21
63.563938
 31
0.0
  0
LINE
  5
720
100
AcDbEntity
  8
0
  6
CONTINUOUS
100
AcDbLine
 10
139.271552
 20
63.331938
 30
0.0
 11
138.739052
 21
62.799938
 31
0.0
  0
LINE
  5
721
100
AcDbEntity
  8
0
  6
CONTINUOUS
100
AcDbLine
 10
139.021952
 20
62.799938
 30
0.0
 11
139.305652
 21
63.083938
 31
0.0
  0
ARC
  5
722
100
AcDbEntity
  8
0
  6
CONTINUOUS
100
AcDbCircle
 10
136.280452
 20
76.299938
 30
0.0
 40
4.25
100
AcDbArc
 50
180.0
 51
0.0
  0
LINE
  5
723
100
AcDbEntity
  8
0
  6
CONTINUOUS
100
AcDbLine
 10
136.280452
 20
65.714938
 30
0.0
 11
136.364752
 21
65.798938
 31
0.0
  0
LINE
  5
724
100
AcDbEntity
  8
0
  6
CONTINUOUS
100
AcDbLine
 10
136.631552
 20
65.782938
 30
0.0
 11
136.280452
 21
65.431938
 31
0.0
  0
LINE
  5
725
100
AcDbEntity
  8
0
  6
CONTINUOUS
100
AcDbLine
 10
136.280452
 20
65.148938
 30
0.0
 11
136.878252
 21
65.746938
 31
0.0
  0
LINE
  5
726
100
AcDbEntity
  8
0
  6
CONTINUOUS
100
AcDbLine
 10
137.108052
 20
65.693938
 30
0.0
 11
136.280452
 21
64.866938
 31
0.0
  0
LINE
  5
727
100
AcDbEntity
  8
0
  6
CONTINUOUS
100
AcDbLine
 10
136.280452
 20
64.583938
 30
0.0
 11
137.323352
 21
65.626938
 31
0.0
  0
LINE
  5
728
100
AcDbEntity
  8
0
  6
CONTINUOUS
100
AcDbLine
 10
137.525852
 20
65.545938
 30
0.0
 11
136.280452
 21
64.300938
 31
0.0
  0
ARC
  5
729
100
AcDbEntity
  8
0
  6
CONTINUOUS
100
AcDbCircle
 10
136.280452
 20
79.299938
 30
0.0
 40
4.25
100
AcDbArc
 50
0.0
 51
180.0
  0
LINE
  5
72A
100
AcDbEntity
  8
0
  6
CONTINUOUS
100
AcDbLine
 10
132.030452
 20
79.299938
 30
0.0
 11
132.030452
 21
76.299938
 31
0.0
  0
LINE
  5
72B
100
AcDbEntity
  8
0
  6
CONTINUOUS
100
AcDbLine
 10
140.530452
 20
79.299938
 30
0.0
 11
140.530452
 21
76.299938
 31
0.0
  0
ENDBLK
  5
72D
100
AcDbEntity
  8
0
  6
CONTINUOUS
100
AcDbBlockEnd
  0
ENDSEC
  0
SECTION
  2
ENTITIES
  0
INSERT
  5
1D
100
AcDbEntity
  8
0
  6
CONTINUOUS
100
AcDbBlockReference
  2
A$CC011
 10
163.693967
 20
-266.796499
 30
0.0
  0
INSERT
  5
125
100
AcDbEntity
  8
0
  6
CONTINUOUS
100
AcDbBlockReference
  2
A$CB055
 10
-14.756913
 20
-362.744591
 30
0.0
  0
INSERT
  5
4AE
100
AcDbEntity
  8
0
  6
CONTINUOUS
100
AcDbBlockReference
  2
A$CC225
 10
-6.259252
 20
-387.368438
 30
0.0
  0
ENDSEC
  0
SECTION
  2
OBJECTS
  0
DICTIONARY
  5
1A
100
AcDbDictionary
  3
ACAD_GROUP
350
18
  3
ACAD_MLINESTYLE
350
19
  0
DICTIONARY
  5
18
102
{ACAD_REACTORS
330
1A
102
}
100
AcDbDictionary
  0
DICTIONARY
  5
19
102
{ACAD_REACTORS
330
1A
102
}
100
AcDbDictionary
  3
STANDARD
350
1B
  0
MLINESTYLE
  5
1B
102
{ACAD_REACTORS
330
19
102
}
100
AcDbMlineStyle
  2
STANDARD
 70
     0
  3

 62
     0
 51
90.0
 52
90.0
 71
     2
 49
0.5
 62
   256
  6
BYLAYER
 49
-0.5
 62
   256
  6
BYLAYER
  0
ENDSEC
  0
EOF
