  0
SECTION
  2
HEADER
  9
$ACADVER
  1
AC1018
  9
$ACADMAINTVER
 70
   104
  9
$DWGCODEPAGE
  3
ANSI_1252
  9
$LASTSAVEDBY
  1
Achim
  9
$INSBASE
 10
-513.2050135603167
 20
5567.736054657591
 30
0.0
  9
$EXTMIN
 10
761.1979612446146
 20
68.26702587875638
 30
0.0
  9
$EXTMAX
 10
994.9668098223288
 20
266.6738606516448
 30
0.0
  9
$LIMMIN
 10
0.0
 20
0.0
  9
$LIMMAX
 10
210.0
 20
297.0
  9
$ORTHOMODE
 70
     1
  9
$REGENMODE
 70
     1
  9
$FILLMODE
 70
     1
  9
$QTEXTMODE
 70
     0
  9
$MIRRTEXT
 70
     1
  9
$LTSCALE
 40
10.0
  9
$ATTMODE
 70
     1
  9
$TEXTSIZE
 40
7.5
  9
$TRACEWID
 40
0.05
  9
$TEXTSTYLE
  7
SIMPLEX
  9
$CLAYER
  8
QUOTE
  9
$CELTYPE
  6
BYLAYER
  9
$CECOLOR
 62
   256
  9
$CELTSCALE
 40
1.0
  9
$DISPSILH
 70
     0
  9
$DIMSCALE
 40
1.0
  9
$DIMASZ
 40
3.5
  9
$DIMEXO
 40
1.0
  9
$DIMDLI
 40
1.0
  9
$DIMRND
 40
0.0
  9
$DIMDLE
 40
0.0
  9
$DIMEXE
 40
1.0
  9
$DIMTP
 40
0.0
  9
$DIMTM
 40
0.0
  9
$DIMTXT
 40
3.5
  9
$DIMCEN
 40
0.09
  9
$DIMTSZ
 40
0.0
  9
$DIMTOL
 70
     0
  9
$DIMLIM
 70
     0
  9
$DIMTIH
 70
     0
  9
$DIMTOH
 70
     0
  9
$DIMSE1
 70
     0
  9
$DIMSE2
 70
     0
  9
$DIMTAD
 70
     1
  9
$DIMZIN
 70
    12
  9
$DIMBLK
  1

  9
$DIMASO
 70
     1
  9
$DIMSHO
 70
     1
  9
$DIMPOST
  1

  9
$DIMAPOST
  1

  9
$DIMALT
 70
     0
  9
$DIMALTD
 70
     2
  9
$DIMALTF
 40
25.4
  9
$DIMLFAC
 40
1.0
  9
$DIMTOFL
 70
     1
  9
$DIMTVP
 40
0.0
  9
$DIMTIX
 70
     0
  9
$DIMSOXD
 70
     0
  9
$DIMSAH
 70
     0
  9
$DIMBLK1
  1

  9
$DIMBLK2
  1

  9
$DIMSTYLE
  2
SCALA1
  9
$DIMCLRD
 70
   256
  9
$DIMCLRE
 70
   256
  9
$DIMCLRT
 70
     7
  9
$DIMTFAC
 40
0.7
  9
$DIMGAP
 40
1.0
  9
$DIMJUST
 70
     0
  9
$DIMSD1
 70
     0
  9
$DIMSD2
 70
     0
  9
$DIMTOLJ
 70
     1
  9
$DIMTZIN
 70
     0
  9
$DIMALTZ
 70
     0
  9
$DIMALTTZ
 70
     0
  9
$DIMUPT
 70
     0
  9
$DIMDEC
 70
     2
  9
$DIMTDEC
 70
     4
  9
$DIMALTU
 70
     2
  9
$DIMALTTD
 70
     2
  9
$DIMTXSTY
  7
SIMPLEX
  9
$DIMAUNIT
 70
     0
  9
$DIMADEC
 70
     0
  9
$DIMALTRND
 40
0.0
  9
$DIMAZIN
 70
     0
  9
$DIMDSEP
 70
    46
  9
$DIMATFIT
 70
     3
  9
$DIMFRAC
 70
     0
  9
$DIMLDRBLK
  1

  9
$DIMLUNIT
 70
     2
  9
$DIMLWD
 70
    -2
  9
$DIMLWE
 70
    -2
  9
$DIMTMOVE
 70
     0
  9
$LUNITS
 70
     2
  9
$LUPREC
 70
     4
  9
$SKETCHINC
 40
0.1
  9
$FILLETRAD
 40
0.0
  9
$AUNITS
 70
     0
  9
$AUPREC
 70
     0
  9
$MENU
  1
acad
  9
$ELEVATION
 40
0.0
  9
$PELEVATION
 40
0.0
  9
$THICKNESS
 40
0.0
  9
$LIMCHECK
 70
     0
  9
$CHAMFERA
 40
0.3
  9
$CHAMFERB
 40
0.3
  9
$CHAMFERC
 40
0.0
  9
$CHAMFERD
 40
0.0
  9
$SKPOLY
 70
     0
  9
$TDCREATE
 40
2449708.602157523
  9
$TDUCREATE
 40
2449708.518824190
  9
$TDUPDATE
 40
2455420.468194398
  9
$TDUUPDATE
 40
2455420.384861064
  9
$TDINDWG
 40
3.4913682755
  9
$TDUSRTIMER
 40
3.4913682755
  9
$USRTIMER
 70
     1
  9
$ANGBASE
 50
0.0
  9
$ANGDIR
 70
     0
  9
$PDMODE
 70
    66
  9
$PDSIZE
 40
-1.0
  9
$PLINEWID
 40
0.0
  9
$SPLFRAME
 70
     0
  9
$SPLINETYPE
 70
     6
  9
$SPLINESEGS
 70
     8
  9
$HANDSEED
  5
182F
  9
$SURFTAB1
 70
     6
  9
$SURFTAB2
 70
     6
  9
$SURFTYPE
 70
     6
  9
$SURFU
 70
     6
  9
$SURFV
 70
     6
  9
$UCSBASE
  2

  9
$UCSNAME
  2

  9
$UCSORG
 10
0.0
 20
0.0
 30
0.0
  9
$UCSXDIR
 10
1.0
 20
0.0
 30
0.0
  9
$UCSYDIR
 10
0.0
 20
1.0
 30
0.0
  9
$UCSORTHOREF
  2

  9
$UCSORTHOVIEW
 70
     0
  9
$UCSORGTOP
 10
0.0
 20
0.0
 30
0.0
  9
$UCSORGBOTTOM
 10
0.0
 20
0.0
 30
0.0
  9
$UCSORGLEFT
 10
0.0
 20
0.0
 30
0.0
  9
$UCSORGRIGHT
 10
0.0
 20
0.0
 30
0.0
  9
$UCSORGFRONT
 10
0.0
 20
0.0
 30
0.0
  9
$UCSORGBACK
 10
0.0
 20
0.0
 30
0.0
  9
$PUCSBASE
  2

  9
$PUCSNAME
  2

  9
$PUCSORG
 10
0.0
 20
0.0
 30
0.0
  9
$PUCSXDIR
 10
1.0
 20
0.0
 30
0.0
  9
$PUCSYDIR
 10
0.0
 20
1.0
 30
0.0
  9
$PUCSORTHOREF
  2

  9
$PUCSORTHOVIEW
 70
     0
  9
$PUCSORGTOP
 10
0.0
 20
0.0
 30
0.0
  9
$PUCSORGBOTTOM
 10
0.0
 20
0.0
 30
0.0
  9
$PUCSORGLEFT
 10
0.0
 20
0.0
 30
0.0
  9
$PUCSORGRIGHT
 10
0.0
 20
0.0
 30
0.0
  9
$PUCSORGFRONT
 10
0.0
 20
0.0
 30
0.0
  9
$PUCSORGBACK
 10
0.0
 20
0.0
 30
0.0
  9
$USERI1
 70
     0
  9
$USERI2
 70
     0
  9
$USERI3
 70
     0
  9
$USERI4
 70
     0
  9
$USERI5
 70
     0
  9
$USERR1
 40
1.0
  9
$USERR2
 40
0.0
  9
$USERR3
 40
0.0
  9
$USERR4
 40
0.0
  9
$USERR5
 40
0.0
  9
$WORLDVIEW
 70
     1
  9
$SHADEDGE
 70
     3
  9
$SHADEDIF
 70
    70
  9
$TILEMODE
 70
     1
  9
$MAXACTVP
 70
    16
  9
$PINSBASE
 10
0.0
 20
0.0
 30
0.0
  9
$PLIMCHECK
 70
     0
  9
$PEXTMIN
 10
1.000000000000000E+20
 20
1.000000000000000E+20
 30
1.000000000000000E+20
  9
$PEXTMAX
 10
-1.000000000000000E+20
 20
-1.000000000000000E+20
 30
-1.000000000000000E+20
  9
$PLIMMIN
 10
0.0
 20
0.0
  9
$PLIMMAX
 10
12.0
 20
9.0
  9
$UNITMODE
 70
     0
  9
$VISRETAIN
 70
     0
  9
$PLINEGEN
 70
     0
  9
$PSLTSCALE
 70
     1
  9
$TREEDEPTH
 70
  3020
  9
$CMLSTYLE
  2
STANDARD
  9
$CMLJUST
 70
     0
  9
$CMLSCALE
 40
1.0
  9
$PROXYGRAPHICS
 70
     1
  9
$MEASUREMENT
 70
     0
  9
$CELWEIGHT
370
    -1
  9
$ENDCAPS
280
     0
  9
$JOINSTYLE
280
     0
  9
$LWDISPLAY
290
     0
  9
$INSUNITS
 70
     0
  9
$HYPERLINKBASE
  1

  9
$STYLESHEET
  1

  9
$XEDIT
290
     1
  9
$CEPSNTYPE
380
     0
  9
$PSTYLEMODE
290
     1
  9
$FINGERPRINTGUID
  2
{9712E39D-2B55-4583-A4B5-BD6416969B3F}
  9
$VERSIONGUID
  2
{0ECF1CEB-C86F-49C5-972A-80E482015A18}
  9
$EXTNAMES
290
     1
  9
$PSVPSCALE
 40
0.0
  9
$OLESTARTUP
290
     0
  9
$SORTENTS
280
   127
  9
$INDEXCTL
280
     0
  9
$HIDETEXT
280
     0
  9
$XCLIPFRAME
290
     0
  9
$HALOGAP
280
     0
  9
$OBSCOLOR
 70
   257
  9
$OBSLTYPE
280
     0
  9
$INTERSECTIONDISPLAY
280
     0
  9
$INTERSECTIONCOLOR
 70
   257
  9
$DIMASSOC
280
     1
  9
$PROJECTNAME
  1

  0
ENDSEC
  0
SECTION
  2
CLASSES
  0
CLASS
  1
ACDBDICTIONARYWDFLT
  2
AcDbDictionaryWithDefault
  3
ObjectDBX Classes
 90
        0
 91
        1
280
     0
281
     0
  0
CLASS
  1
MATERIAL
  2
AcDbMaterial
  3
ObjectDBX Classes
 90
     1153
 91
        3
280
     0
281
     0
  0
CLASS
  1
VISUALSTYLE
  2
AcDbVisualStyle
  3
ObjectDBX Classes
 90
     4095
 91
       16
280
     0
281
     0
  0
CLASS
  1
TABLESTYLE
  2
AcDbTableStyle
  3
ObjectDBX Classes
 90
     4095
 91
        1
280
     0
281
     0
  0
CLASS
  1
SCALE
  2
AcDbScale
  3
ObjectDBX Classes
 90
     1153
 91
       33
280
     0
281
     0
  0
CLASS
  1
MLEADERSTYLE
  2
AcDbMLeaderStyle
  3
ACDB_MLEADERSTYLE_CLASS
 90
     4095
 91
        1
280
     0
281
     0
  0
CLASS
  1
DICTIONARYVAR
  2
AcDbDictionaryVar
  3
ObjectDBX Classes
 90
        0
 91
        3
280
     0
281
     0
  0
CLASS
  1
CELLSTYLEMAP
  2
AcDbCellStyleMap
  3
ObjectDBX Classes
 90
     1152
 91
        1
280
     0
281
     0
  0
ENDSEC
  0
SECTION
  2
TABLES
  0
TABLE
  2
VPORT
  5
12
330
0
100
AcDbSymbolTable
 70
     1
  0
VPORT
  5
17B5
330
12
100
AcDbSymbolTableRecord
100
AcDbViewportTableRecord
  2
*ACTIVE
 70
     0
 10
0.0
 20
0.0
 11
1.0
 21
1.0
 12
881.8907785690621
 22
166.0878546730085
 13
0.0
 23
0.0
 14
1.0
 24
1.0
 15
0.0
 25
0.0
 16
0.0
 26
0.0
 36
1.0
 17
0.0
 27
0.0
 37
0.0
 40
258.0259994191113
 41
1.739910313901345
 42
50.0
 43
0.0
 44
0.0
 50
0.0
 51
0.0
 71
     0
 72
 20000
 73
     1
 74
     0
 75
     0
 76
     0
 77
     0
 78
     1
281
     0
 65
     1
110
0.0
120
0.0
130
0.0
111
1.0
121
0.0
131
0.0
112
0.0
122
1.0
132
0.0
 79
     0
146
0.0
  0
ENDTAB
  0
TABLE
  2
LTYPE
  5
D
330
0
100
AcDbSymbolTable
 70
     3
  0
LTYPE
  5
E
330
D
100
AcDbSymbolTableRecord
100
AcDbLinetypeTableRecord
  2
BYBLOCK
 70
     0
  3

 72
    65
 73
     0
 40
0.0
  0
LTYPE
  5
F
330
D
100
AcDbSymbolTableRecord
100
AcDbLinetypeTableRecord
  2
BYLAYER
 70
     0
  3

 72
    65
 73
     0
 40
0.0
  0
LTYPE
  5
5
330
D
100
AcDbSymbolTableRecord
100
AcDbLinetypeTableRecord
  2
CONTINUOUS
 70
     0
  3
Solid line
 72
    65
 73
     0
 40
0.0
  0
LTYPE
  5
1B3
330
D
100
AcDbSymbolTableRecord
100
AcDbLinetypeTableRecord
  2
CENTER
 70
     0
  3
____ _ ____ _ ____ _ ____ _ ____ _ ____ _ ____ 
 72
    65
 73
     4
 40
2.0
 49
1.25
 74
     0
 49
-0.25
 74
     0
 49
0.25
 74
     0
 49
-0.25
 74
     0
  0
LTYPE
  5
4F8
330
D
100
AcDbSymbolTableRecord
100
AcDbLinetypeTableRecord
  2
HIDDEN
 70
     0
  3
Hidden __ __ __ __ __ __ __ __ __ __ __ __ __ _
 72
    65
 73
     2
 40
0.375
 49
0.25
 74
     0
 49
-0.125
 74
     0
  0
ENDTAB
  0
TABLE
  2
LAYER
  5
A
330
0
100
AcDbSymbolTable
 70
    10
  0
LAYER
  5
4
102
{ACAD_XDICTIONARY
360
1812
102
}
330
A
100
AcDbSymbolTableRecord
100
AcDbLayerTableRecord
  2
0
 70
     0
 62
     7
  6
CONTINUOUS
370
    -3
390
17B8
  0
LAYER
  5
3E
102
{ACAD_XDICTIONARY
360
1814
102
}
330
A
100
AcDbSymbolTableRecord
100
AcDbLayerTableRecord
  2
DISEGNO
 70
     0
 62
     7
  6
CONTINUOUS
370
    -3
390
17B8
  0
LAYER
  5
1B
102
{ACAD_XDICTIONARY
360
1816
102
}
330
A
100
AcDbSymbolTableRecord
100
AcDbLayerTableRecord
  2
QUOTE
 70
     0
 62
     1
  6
CONTINUOUS
370
    -3
390
17B8
  0
LAYER
  5
21
102
{ACAD_XDICTIONARY
360
1818
102
}
330
A
100
AcDbSymbolTableRecord
100
AcDbLayerTableRecord
  2
FORMATO
 70
     0
 62
    10
  6
CONTINUOUS
370
    -3
390
17B8
  0
LAYER
  5
39
102
{ACAD_XDICTIONARY
360
181A
102
}
330
A
100
AcDbSymbolTableRecord
100
AcDbLayerTableRecord
  2
6
 70
     0
 62
     7
  6
CONTINUOUS
370
    -3
390
17B8
  0
LAYER
  5
E7
102
{ACAD_XDICTIONARY
360
181C
102
}
330
A
100
AcDbSymbolTableRecord
100
AcDbLayerTableRecord
  2
ASHADE
 70
     0
 62
     7
  6
CONTINUOUS
370
    -3
390
17B8
  0
LAYER
  5
4FB
102
{ACAD_XDICTIONARY
360
181E
102
}
330
A
100
AcDbSymbolTableRecord
100
AcDbLayerTableRecord
  2
NASCOSTE
 70
     0
 62
     8
  6
HIDDEN
370
    -3
390
17B8
  0
LAYER
  5
4FD
102
{ACAD_XDICTIONARY
360
1820
102
}
330
A
100
AcDbSymbolTableRecord
100
AcDbLayerTableRecord
  2
ASSI
 70
     0
 62
     2
  6
CENTER
370
    -3
390
17B8
  0
LAYER
  5
500
102
{ACAD_XDICTIONARY
360
1822
102
}
330
A
100
AcDbSymbolTableRecord
100
AcDbLayerTableRecord
  2
LINEAFINE
 70
     0
 62
   161
  6
CONTINUOUS
370
    -3
390
17B8
  0
LAYER
  5
8D3
330
A
100
AcDbSymbolTableRecord
100
AcDbLayerTableRecord
  2
DEFPOINTS
 70
     0
 62
     7
  6
CONTINUOUS
290
     0
370
    -3
390
17B8
  0
ENDTAB
  0
TABLE
  2
STYLE
  5
B
330
0
100
AcDbSymbolTable
 70
     3
  0
STYLE
  5
C
330
B
100
AcDbSymbolTableRecord
100
AcDbTextStyleTableRecord
  2
STANDARD
 70
     0
 40
0.0
 41
1.0
 50
0.0
 71
     0
 42
6.0
  3
txt
  4

  0
STYLE
  5
1C
330
B
100
AcDbSymbolTableRecord
100
AcDbTextStyleTableRecord
  2
SIMPLEX
 70
     0
 40
0.0
 41
1.0
 50
0.0
 71
     0
 42
7.5
  3
SIMPLEX
  4

  0
STYLE
  5
3C
330
B
100
AcDbSymbolTableRecord
100
AcDbTextStyleTableRecord
  2
ROMANS
 70
     0
 40
60.0
 41
0.8
 50
0.0
 71
     0
 42
60.0
  3
romans
  4

  0
ENDTAB
  0
TABLE
  2
VIEW
  5
10
330
0
100
AcDbSymbolTable
 70
     0
  0
ENDTAB
  0
TABLE
  2
UCS
  5
11
330
0
100
AcDbSymbolTable
 70
     0
  0
ENDTAB
  0
TABLE
  2
APPID
  5
14
330
0
100
AcDbSymbolTable
 70
    17
  0
APPID
  5
15
330
14
100
AcDbSymbolTableRecord
100
AcDbRegAppTableRecord
  2
ACAD
 70
     0
  0
APPID
  5
EB
330
14
100
AcDbSymbolTableRecord
100
AcDbRegAppTableRecord
  2
AVE_RENDER
 70
     0
  0
APPID
  5
F7
330
14
100
AcDbSymbolTableRecord
100
AcDbRegAppTableRecord
  2
AVE_MATERIAL
 70
     0
  0
APPID
  5
2AB
330
14
100
AcDbSymbolTableRecord
100
AcDbRegAppTableRecord
  2
ASM_CADM_VER_12_00
 70
     0
  0
APPID
  5
2AC
330
14
100
AcDbSymbolTableRecord
100
AcDbRegAppTableRecord
  2
ASM_BASE
 70
     0
  0
APPID
  5
2AD
330
14
100
AcDbSymbolTableRecord
100
AcDbRegAppTableRecord
  2
ASM_EXPLO_VER_2_00
 70
     0
  0
APPID
  5
2AE
330
14
100
AcDbSymbolTableRecord
100
AcDbRegAppTableRecord
  2
ASM_BASEFORO
 70
     0
  0
APPID
  5
2AF
330
14
100
AcDbSymbolTableRecord
100
AcDbRegAppTableRecord
  2
ASM_BASETRAVI
 70
     0
  0
APPID
  5
2B0
330
14
100
AcDbSymbolTableRecord
100
AcDbRegAppTableRecord
  2
ASM_BASETRAVI1
 70
     0
  0
APPID
  5
2B1
330
14
100
AcDbSymbolTableRecord
100
AcDbRegAppTableRecord
  2
ASM_GRUPPI
 70
     0
  0
APPID
  5
2B2
330
14
100
AcDbSymbolTableRecord
100
AcDbRegAppTableRecord
  2
ASM_CADM_ALBERO
 70
     0
  0
APPID
  5
2B3
330
14
100
AcDbSymbolTableRecord
100
AcDbRegAppTableRecord
  2
ASM_GOLE
 70
     0
  0
APPID
  5
2B4
330
14
100
AcDbSymbolTableRecord
100
AcDbRegAppTableRecord
  2
AVE_ENTITY_MATERIAL
 70
     0
  0
APPID
  5
2B5
330
14
100
AcDbSymbolTableRecord
100
AcDbRegAppTableRecord
  2
AVE_FINISH
 70
     0
  0
APPID
  5
2B6
330
14
100
AcDbSymbolTableRecord
100
AcDbRegAppTableRecord
  2
AVE_GLOBAL
 70
     0
  0
APPID
  5
2B7
330
14
100
AcDbSymbolTableRecord
100
AcDbRegAppTableRecord
  2
AD_SKETCHDIM
 70
     0
  0
APPID
  5
180A
330
14
100
AcDbSymbolTableRecord
100
AcDbRegAppTableRecord
  2
ACAD_MLEADERVER
 70
     0
  0
ENDTAB
  0
TABLE
  2
DIMSTYLE
  5
16
330
0
100
AcDbSymbolTable
 70
     1
100
AcDbDimStyleTable
 71
     0
  0
DIMSTYLE
105
1E
330
16
100
AcDbSymbolTableRecord
100
AcDbDimStyleTableRecord
  2
SCALA1
 70
     0
 41
3.0
 42
1.0
 43
1.0
 44
1.0
 73
     0
 74
     0
 77
     1
 78
    12
140
3.0
146
0.2
147
1.0
172
     1
176
   256
177
   256
178
     7
271
     2
340
1C
  0
ENDTAB
  0
TABLE
  2
BLOCK_RECORD
  5
1
330
0
100
AcDbSymbolTable
 70
    57
  0
BLOCK_RECORD
  5
2
330
1
100
AcDbSymbolTableRecord
100
AcDbBlockTableRecord
  2
*MODEL_SPACE
340
180D
  0
BLOCK_RECORD
  5
7
330
1
100
AcDbSymbolTableRecord
100
AcDbBlockTableRecord
  2
*PAPER_SPACE
340
180E
  0
BLOCK_RECORD
  5
E8
330
1
100
AcDbSymbolTableRecord
100
AcDbBlockTableRecord
  2
AVE_RENDER
340
0
102
{BLKREFS
331
7BF
331
7C0
331
7C1
331
7C2
331
7C3
331
7C4
331
7C5
331
7C6
102
}
  0
BLOCK_RECORD
  5
F4
330
1
100
AcDbSymbolTableRecord
100
AcDbBlockTableRecord
  2
AVE_GLOBAL
340
0
102
{BLKREFS
331
7C7
102
}
  0
BLOCK_RECORD
  5
37
330
1
100
AcDbSymbolTableRecord
100
AcDbBlockTableRecord
  2
TIMBRO
340
0
  0
ENDTAB
  0
ENDSEC
  0
SECTION
  2
BLOCKS
  0
BLOCK
  5
3
330
2
100
AcDbEntity
  8
0
100
AcDbBlockBegin
  2
*MODEL_SPACE
 70
     0
 10
0.0
 20
0.0
 30
0.0
  3
*MODEL_SPACE
  1

  0
ENDBLK
  5
6
330
2
100
AcDbEntity
  8
0
100
AcDbBlockEnd
  0
BLOCK
  5
8
330
7
100
AcDbEntity
 67
     1
  8
0
100
AcDbBlockBegin
  2
*PAPER_SPACE
 70
     0
 10
0.0
 20
0.0
 30
0.0
  3
*PAPER_SPACE
  1

  0
ENDBLK
  5
9
330
7
100
AcDbEntity
 67
     1
  8
0
100
AcDbBlockEnd
  0
BLOCK
  5
E9
330
E8
100
AcDbEntity
  8
0
100
AcDbBlockBegin
  2
AVE_RENDER
 70
     0
 10
0.0
 20
0.0
 30
0.0
  3
AVE_RENDER
  1
AVE_RENDER
  0
ENDBLK
  5
EA
330
E8
100
AcDbEntity
  8
0
100
AcDbBlockEnd
  0
BLOCK
  5
F5
330
F4
100
AcDbEntity
  8
0
100
AcDbBlockBegin
  2
AVE_GLOBAL
 70
     0
 10
0.0
 20
0.0
 30
0.0
  3
AVE_GLOBAL
  1
AVE_GLOBAL
  0
ENDBLK
  5
F6
330
F4
100
AcDbEntity
  8
0
100
AcDbBlockEnd
  0
BLOCK
  5
1AE
330
37
100
AcDbEntity
  8
0
100
AcDbBlockBegin
  2
TIMBRO
 70
     2
 10
0.0
 20
0.0
 30
0.0
  3
TIMBRO
  1

  0
TEXT
  5
714
330
37
100
AcDbEntity
  8
6
 62
     4
100
AcDbText
 10
12166.79897097626
 20
1281.199494503431
 30
0.0
 40
4.5
  1

 50
359.4798783904365
 41
0.99
100
AcDbText
  0
TEXT
  5
715
330
37
100
AcDbEntity
  8
6
 62
     4
100
AcDbText
 10
12657.79897097626
 20
1320.573993799625
 30
0.0
 40
4.5
  1

 50
359.4798783904365
 41
0.99
100
AcDbText
  0
TEXT
  5
716
330
37
100
AcDbEntity
  8
0
100
AcDbText
 10
15533.6761156457
 20
-331.4776981125287
 30
0.0
 40
12.0
  1

 41
0.8
  7
ROMANS
100
AcDbText
  0
TEXT
  5
717
330
37
100
AcDbEntity
  8
DISEGNO
100
AcDbText
 10
15762.62691865823
 20
-227.3107681918609
 30
0.0
 40
3.0
  1

 41
0.8
  7
ROMANS
 72
     4
 11
15762.62691865823
 21
-227.3107681918609
 31
0.0
100
AcDbText
  0
TEXT
  5
718
330
37
100
AcDbEntity
  8
DISEGNO
100
AcDbText
 10
15868.74359192053
 20
486.7614079685263
 30
0.0
 40
3.0
  1

 41
0.8
  7
ROMANS
 72
     4
 11
15868.74359192053
 21
486.7614079685263
 31
0.0
100
AcDbText
  0
TEXT
  5
719
330
37
100
AcDbEntity
  8
DISEGNO
100
AcDbText
 10
15776.92539593098
 20
1000.609709042568
 30
0.0
 40
3.0
  1

 41
0.8
  7
ROMANS
 72
     4
 11
15776.92539593098
 21
1000.609709042568
 31
0.0
100
AcDbText
  0
TEXT
  5
71A
330
37
100
AcDbEntity
  8
DISEGNO
100
AcDbText
 10
16323.20282856157
 20
780.1758460557103
 30
0.0
 40
3.0
  1

 41
0.8
  7
ROMANS
 72
     4
 11
16323.20282856157
 21
780.1758460557103
 31
0.0
100
AcDbText
  0
TEXT
  5
71B
330
37
100
AcDbEntity
  8
DISEGNO
100
AcDbText
 10
16317.05276114946
 20
782.4385617140924
 30
0.0
 40
3.0
  1

 41
0.8
  7
ROMANS
 72
     4
 11
16317.05276114946
 21
782.4385617140924
 31
0.0
100
AcDbText
  0
TEXT
  5
71C
330
37
100
AcDbEntity
  8
DISEGNO
100
AcDbText
 10
14859.35596263812
 20
-1521.208683605351
 30
0.0
 40
3.0
  1

 41
0.8
  7
ROMANS
 72
     4
 11
14859.35596263812
 21
-1521.208683605351
 31
0.0
100
AcDbText
  0
TEXT
  5
71D
330
37
100
AcDbEntity
  8
DISEGNO
100
AcDbText
 10
14965.47263590042
 20
-807.1365074449641
 30
0.0
 40
3.0
  1

 41
0.8
  7
ROMANS
 72
     4
 11
14965.47263590042
 21
-807.1365074449641
 31
0.0
100
AcDbText
  0
TEXT
  5
71E
330
37
100
AcDbEntity
  8
DISEGNO
100
AcDbText
 10
14873.65443991087
 20
-293.2882063709221
 30
0.0
 40
3.0
  1

 41
0.8
  7
ROMANS
 72
     4
 11
14873.65443991087
 21
-293.2882063709221
 31
0.0
100
AcDbText
  0
TEXT
  5
71F
330
37
100
AcDbEntity
  8
DISEGNO
100
AcDbText
 10
15419.93187254145
 20
-513.7220693577801
 30
0.0
 40
3.0
  1

 41
0.8
  7
ROMANS
 72
     4
 11
15419.93187254145
 21
-513.7220693577801
 31
0.0
100
AcDbText
  0
TEXT
  5
720
330
37
100
AcDbEntity
  8
DISEGNO
100
AcDbText
 10
15413.78180512934
 20
-511.459353699398
 30
0.0
 40
3.0
  1

 41
0.8
  7
ROMANS
 72
     4
 11
15413.78180512934
 21
-511.459353699398
 31
0.0
100
AcDbText
  0
TEXT
  5
721
330
37
100
AcDbEntity
  8
6
 62
     4
100
AcDbText
 10
11218.57861942492
 20
-8995.406401253656
 30
0.0
 40
4.5
  1

 50
359.4798783904365
 41
0.99
100
AcDbText
  0
TEXT
  5
722
330
37
100
AcDbEntity
  8
6
 62
     4
100
AcDbText
 10
11709.57861942492
 20
-8956.031901957462
 30
0.0
 40
4.5
  1

 50
359.4798783904365
 41
0.99
100
AcDbText
  0
TEXT
  5
723
330
37
100
AcDbEntity
  8
6
 62
     4
100
AcDbText
 10
12576.05453900368
 20
-8337.142648260332
 30
0.0
 40
4.5
  1

 50
359.4798783904365
 41
0.99
100
AcDbText
  0
TEXT
  5
724
330
37
100
AcDbEntity
  8
6
 62
     4
100
AcDbText
 10
13067.05453900368
 20
-8297.768148964138
 30
0.0
 40
4.5
  1

 50
359.4798783904365
 41
0.99
100
AcDbText
  0
TEXT
  5
725
330
37
100
AcDbEntity
  8
0
100
AcDbText
 10
27994.93459587798
 20
-5999.076655139376
 30
0.0
 40
12.0
  1

 41
0.8
  7
ROMANS
100
AcDbText
  0
TEXT
  5
726
330
37
100
AcDbEntity
  8
DISEGNO
100
AcDbText
 10
28223.88539889052
 20
-5894.909725218707
 30
0.0
 40
3.0
  1

 41
0.8
  7
ROMANS
 72
     4
 11
28223.88539889052
 21
-5894.909725218707
 31
0.0
100
AcDbText
  0
TEXT
  5
727
330
37
100
AcDbEntity
  8
DISEGNO
100
AcDbText
 10
28330.00207215281
 20
-5180.83754905832
 30
0.0
 40
3.0
  1

 41
0.8
  7
ROMANS
 72
     4
 11
28330.00207215281
 21
-5180.83754905832
 31
0.0
100
AcDbText
  0
TEXT
  5
728
330
37
100
AcDbEntity
  8
DISEGNO
100
AcDbText
 10
28238.18387616327
 20
-4666.989247984278
 30
0.0
 40
3.0
  1

 41
0.8
  7
ROMANS
 72
     4
 11
28238.18387616327
 21
-4666.989247984278
 31
0.0
100
AcDbText
  0
TEXT
  5
729
330
37
100
AcDbEntity
  8
DISEGNO
100
AcDbText
 10
28784.46130879385
 20
-4887.423110971137
 30
0.0
 40
3.0
  1

 41
0.8
  7
ROMANS
 72
     4
 11
28784.46130879385
 21
-4887.423110971137
 31
0.0
100
AcDbText
  0
TEXT
  5
72A
330
37
100
AcDbEntity
  8
DISEGNO
100
AcDbText
 10
28778.31124138174
 20
-4885.160395312754
 30
0.0
 40
3.0
  1

 41
0.8
  7
ROMANS
 72
     4
 11
28778.31124138174
 21
-4885.160395312754
 31
0.0
100
AcDbText
  0
TEXT
  5
72B
330
37
100
AcDbEntity
  8
DISEGNO
100
AcDbText
 10
27320.6144428704
 20
-7188.807640632198
 30
0.0
 40
3.0
  1

 41
0.8
  7
ROMANS
 72
     4
 11
27320.6144428704
 21
-7188.807640632198
 31
0.0
100
AcDbText
  0
TEXT
  5
72C
330
37
100
AcDbEntity
  8
DISEGNO
100
AcDbText
 10
27426.7311161327
 20
-6474.735464471812
 30
0.0
 40
3.0
  1

 41
0.8
  7
ROMANS
 72
     4
 11
27426.7311161327
 21
-6474.735464471812
 31
0.0
100
AcDbText
  0
TEXT
  5
72D
330
37
100
AcDbEntity
  8
DISEGNO
100
AcDbText
 10
27334.91292014315
 20
-5960.887163397768
 30
0.0
 40
3.0
  1

 41
0.8
  7
ROMANS
 72
     4
 11
27334.91292014315
 21
-5960.887163397768
 31
0.0
100
AcDbText
  0
TEXT
  5
72E
330
37
100
AcDbEntity
  8
DISEGNO
100
AcDbText
 10
27881.19035277374
 20
-6181.321026384626
 30
0.0
 40
3.0
  1

 41
0.8
  7
ROMANS
 72
     4
 11
27881.19035277374
 21
-6181.321026384626
 31
0.0
100
AcDbText
  0
TEXT
  5
72F
330
37
100
AcDbEntity
  8
DISEGNO
100
AcDbText
 10
27875.04028536163
 20
-6179.058310726245
 30
0.0
 40
3.0
  1

 41
0.8
  7
ROMANS
 72
     4
 11
27875.04028536163
 21
-6179.058310726245
 31
0.0
100
AcDbText
  0
TEXT
  5
730
330
37
100
AcDbEntity
  8
0
100
AcDbText
 10
17545.58850682402
 20
-2884.754893347872
 30
0.0
 40
12.0
  1

 41
0.8
  7
ROMANS
100
AcDbText
  0
TEXT
  5
731
330
37
100
AcDbEntity
  8
DISEGNO
100
AcDbText
 10
17774.53930983656
 20
-2780.587963427204
 30
0.0
 40
3.0
  1

 41
0.8
  7
ROMANS
 72
     4
 11
17774.53930983656
 21
-2780.587963427204
 31
0.0
100
AcDbText
  0
TEXT
  5
732
330
37
100
AcDbEntity
  8
DISEGNO
100
AcDbText
 10
17880.65598309886
 20
-2066.515787266817
 30
0.0
 40
3.0
  1

 41
0.8
  7
ROMANS
 72
     4
 11
17880.65598309886
 21
-2066.515787266817
 31
0.0
100
AcDbText
  0
TEXT
  5
733
330
37
100
AcDbEntity
  8
DISEGNO
100
AcDbText
 10
17788.83778710931
 20
-1552.667486192775
 30
0.0
 40
3.0
  1

 41
0.8
  7
ROMANS
 72
     4
 11
17788.83778710931
 21
-1552.667486192775
 31
0.0
100
AcDbText
  0
TEXT
  5
734
330
37
100
AcDbEntity
  8
DISEGNO
100
AcDbText
 10
18335.11521973989
 20
-1773.101349179633
 30
0.0
 40
3.0
  1

 41
0.8
  7
ROMANS
 72
     4
 11
18335.11521973989
 21
-1773.101349179633
 31
0.0
100
AcDbText
  0
TEXT
  5
735
330
37
100
AcDbEntity
  8
DISEGNO
100
AcDbText
 10
18328.96515232778
 20
-1770.838633521251
 30
0.0
 40
3.0
  1

 41
0.8
  7
ROMANS
 72
     4
 11
18328.96515232778
 21
-1770.838633521251
 31
0.0
100
AcDbText
  0
TEXT
  5
736
330
37
100
AcDbEntity
  8
DISEGNO
100
AcDbText
 10
16871.26835381644
 20
-4074.485878840694
 30
0.0
 40
3.0
  1

 41
0.8
  7
ROMANS
 72
     4
 11
16871.26835381644
 21
-4074.485878840694
 31
0.0
100
AcDbText
  0
TEXT
  5
737
330
37
100
AcDbEntity
  8
DISEGNO
100
AcDbText
 10
16977.38502707874
 20
-3360.413702680308
 30
0.0
 40
3.0
  1

 41
0.8
  7
ROMANS
 72
     4
 11
16977.38502707874
 21
-3360.413702680308
 31
0.0
100
AcDbText
  0
TEXT
  5
738
330
37
100
AcDbEntity
  8
DISEGNO
100
AcDbText
 10
16885.56683108919
 20
-2846.565401606266
 30
0.0
 40
3.0
  1

 41
0.8
  7
ROMANS
 72
     4
 11
16885.56683108919
 21
-2846.565401606266
 31
0.0
100
AcDbText
  0
TEXT
  5
739
330
37
100
AcDbEntity
  8
DISEGNO
100
AcDbText
 10
17431.84426371978
 20
-3066.999264593123
 30
0.0
 40
3.0
  1

 41
0.8
  7
ROMANS
 72
     4
 11
17431.84426371978
 21
-3066.999264593123
 31
0.0
100
AcDbText
  0
TEXT
  5
73A
330
37
100
AcDbEntity
  8
DISEGNO
100
AcDbText
 10
17425.69419630767
 20
-3064.736548934741
 30
0.0
 40
3.0
  1

 41
0.8
  7
ROMANS
 72
     4
 11
17425.69419630767
 21
-3064.736548934741
 31
0.0
100
AcDbText
  0
TEXT
  5
73B
330
37
100
AcDbEntity
  8
0
100
AcDbText
 10
17295.16094700396
 20
3741.222463499089
 30
0.0
 40
12.0
  1

 41
0.8
  7
ROMANS
100
AcDbText
  0
TEXT
  5
73C
330
37
100
AcDbEntity
  8
DISEGNO
100
AcDbText
 10
17524.11175001649
 20
3845.389393419757
 30
0.0
 40
3.0
  1

 41
0.8
  7
ROMANS
 72
     4
 11
17524.11175001649
 21
3845.389393419757
 31
0.0
100
AcDbText
  0
TEXT
  5
73D
330
37
100
AcDbEntity
  8
DISEGNO
100
AcDbText
 10
17630.22842327879
 20
4559.461569580142
 30
0.0
 40
3.0
  1

 41
0.8
  7
ROMANS
 72
     4
 11
17630.22842327879
 21
4559.461569580142
 31
0.0
100
AcDbText
  0
TEXT
  5
73E
330
37
100
AcDbEntity
  8
DISEGNO
100
AcDbText
 10
17538.41022728924
 20
5073.309870654185
 30
0.0
 40
3.0
  1

 41
0.8
  7
ROMANS
 72
     4
 11
17538.41022728924
 21
5073.309870654185
 31
0.0
100
AcDbText
  0
TEXT
  5
73F
330
37
100
AcDbEntity
  8
DISEGNO
100
AcDbText
 10
18084.68765991983
 20
4852.876007667326
 30
0.0
 40
3.0
  1

 41
0.8
  7
ROMANS
 72
     4
 11
18084.68765991983
 21
4852.876007667326
 31
0.0
100
AcDbText
  0
TEXT
  5
740
330
37
100
AcDbEntity
  8
DISEGNO
100
AcDbText
 10
18078.53759250772
 20
4855.13872332571
 30
0.0
 40
3.0
  1

 41
0.8
  7
ROMANS
 72
     4
 11
18078.53759250772
 21
4855.13872332571
 31
0.0
100
AcDbText
  0
TEXT
  5
741
330
37
100
AcDbEntity
  8
DISEGNO
100
AcDbText
 10
16620.84079399638
 20
2551.491478006266
 30
0.0
 40
3.0
  1

 41
0.8
  7
ROMANS
 72
     4
 11
16620.84079399638
 21
2551.491478006266
 31
0.0
100
AcDbText
  0
TEXT
  5
742
330
37
100
AcDbEntity
  8
DISEGNO
100
AcDbText
 10
16726.95746725868
 20
3265.563654166654
 30
0.0
 40
3.0
  1

 41
0.8
  7
ROMANS
 72
     4
 11
16726.95746725868
 21
3265.563654166654
 31
0.0
100
AcDbText
  0
TEXT
  5
743
330
37
100
AcDbEntity
  8
DISEGNO
100
AcDbText
 10
16635.13927126913
 20
3779.411955240695
 30
0.0
 40
3.0
  1

 41
0.8
  7
ROMANS
 72
     4
 11
16635.13927126913
 21
3779.411955240695
 31
0.0
100
AcDbText
  0
TEXT
  5
744
330
37
100
AcDbEntity
  8
DISEGNO
100
AcDbText
 10
17181.41670389971
 20
3558.978092253838
 30
0.0
 40
3.0
  1

 41
0.8
  7
ROMANS
 72
     4
 11
17181.41670389971
 21
3558.978092253838
 31
0.0
100
AcDbText
  0
TEXT
  5
745
330
37
100
AcDbEntity
  8
DISEGNO
100
AcDbText
 10
17175.2666364876
 20
3561.24080791222
 30
0.0
 40
3.0
  1

 41
0.8
  7
ROMANS
 72
     4
 11
17175.2666364876
 21
3561.24080791222
 31
0.0
100
AcDbText
  0
TEXT
  5
746
330
37
100
AcDbEntity
  8
0
100
AcDbText
 10
20136.12193067698
 20
-2458.590730192893
 30
0.0
 40
12.0
  1

 41
0.8
  7
ROMANS
100
AcDbText
  0
TEXT
  5
747
330
37
100
AcDbEntity
  8
DISEGNO
100
AcDbText
 10
20365.07273368952
 20
-2354.423800272225
 30
0.0
 40
3.0
  1

 41
0.8
  7
ROMANS
 72
     4
 11
20365.07273368952
 21
-2354.423800272225
 31
0.0
100
AcDbText
  0
TEXT
  5
748
330
37
100
AcDbEntity
  8
DISEGNO
100
AcDbText
 10
20471.18940695182
 20
-1640.351624111838
 30
0.0
 40
3.0
  1

 41
0.8
  7
ROMANS
 72
     4
 11
20471.18940695182
 21
-1640.351624111838
 31
0.0
100
AcDbText
  0
TEXT
  5
749
330
37
100
AcDbEntity
  8
DISEGNO
100
AcDbText
 10
20379.37121096227
 20
-1126.503323037796
 30
0.0
 40
3.0
  1

 41
0.8
  7
ROMANS
 72
     4
 11
20379.37121096227
 21
-1126.503323037796
 31
0.0
100
AcDbText
  0
TEXT
  5
74A
330
37
100
AcDbEntity
  8
DISEGNO
100
AcDbText
 10
20925.64864359286
 20
-1346.937186024654
 30
0.0
 40
3.0
  1

 41
0.8
  7
ROMANS
 72
     4
 11
20925.64864359286
 21
-1346.937186024654
 31
0.0
100
AcDbText
  0
TEXT
  5
74B
330
37
100
AcDbEntity
  8
DISEGNO
100
AcDbText
 10
20919.49857618074
 20
-1344.674470366271
 30
0.0
 40
3.0
  1

 41
0.8
  7
ROMANS
 72
     4
 11
20919.49857618074
 21
-1344.674470366271
 31
0.0
100
AcDbText
  0
TEXT
  5
74C
330
37
100
AcDbEntity
  8
DISEGNO
100
AcDbText
 10
19461.8017776694
 20
-3648.321715685716
 30
0.0
 40
3.0
  1

 41
0.8
  7
ROMANS
 72
     4
 11
19461.8017776694
 21
-3648.321715685716
 31
0.0
100
AcDbText
  0
TEXT
  5
74D
330
37
100
AcDbEntity
  8
DISEGNO
100
AcDbText
 10
19567.91845093171
 20
-2934.249539525328
 30
0.0
 40
3.0
  1

 41
0.8
  7
ROMANS
 72
     4
 11
19567.91845093171
 21
-2934.249539525328
 31
0.0
100
AcDbText
  0
TEXT
  5
74E
330
37
100
AcDbEntity
  8
DISEGNO
100
AcDbText
 10
19476.10025494215
 20
-2420.401238451286
 30
0.0
 40
3.0
  1

 41
0.8
  7
ROMANS
 72
     4
 11
19476.10025494215
 21
-2420.401238451286
 31
0.0
100
AcDbText
  0
TEXT
  5
74F
330
37
100
AcDbEntity
  8
DISEGNO
100
AcDbText
 10
20022.37768757274
 20
-2640.835101438144
 30
0.0
 40
3.0
  1

 41
0.8
  7
ROMANS
 72
     4
 11
20022.37768757274
 21
-2640.835101438144
 31
0.0
100
AcDbText
  0
TEXT
  5
750
330
37
100
AcDbEntity
  8
DISEGNO
100
AcDbText
 10
20016.22762016063
 20
-2638.572385779762
 30
0.0
 40
3.0
  1

 41
0.8
  7
ROMANS
 72
     4
 11
20016.22762016063
 21
-2638.572385779762
 31
0.0
100
AcDbText
  0
TEXT
  5
751
330
37
100
AcDbEntity
  8
0
100
AcDbText
 10
19885.69437085692
 20
4167.386626654068
 30
0.0
 40
12.0
  1

 41
0.8
  7
ROMANS
100
AcDbText
  0
TEXT
  5
752
330
37
100
AcDbEntity
  8
DISEGNO
100
AcDbText
 10
20114.64517386946
 20
4271.553556574736
 30
0.0
 40
3.0
  1

 41
0.8
  7
ROMANS
 72
     4
 11
20114.64517386946
 21
4271.553556574736
 31
0.0
100
AcDbText
  0
TEXT
  5
753
330
37
100
AcDbEntity
  8
DISEGNO
100
AcDbText
 10
20220.76184713176
 20
4985.625732735122
 30
0.0
 40
3.0
  1

 41
0.8
  7
ROMANS
 72
     4
 11
20220.76184713176
 21
4985.625732735122
 31
0.0
100
AcDbText
  0
TEXT
  5
754
330
37
100
AcDbEntity
  8
DISEGNO
100
AcDbText
 10
20128.9436511422
 20
5499.474033809163
 30
0.0
 40
3.0
  1

 41
0.8
  7
ROMANS
 72
     4
 11
20128.9436511422
 21
5499.474033809163
 31
0.0
100
AcDbText
  0
TEXT
  5
755
330
37
100
AcDbEntity
  8
DISEGNO
100
AcDbText
 10
20675.22108377279
 20
5279.040170822305
 30
0.0
 40
3.0
  1

 41
0.8
  7
ROMANS
 72
     4
 11
20675.22108377279
 21
5279.040170822305
 31
0.0
100
AcDbText
  0
TEXT
  5
756
330
37
100
AcDbEntity
  8
DISEGNO
100
AcDbText
 10
20669.07101636068
 20
5281.302886480689
 30
0.0
 40
3.0
  1

 41
0.8
  7
ROMANS
 72
     4
 11
20669.07101636068
 21
5281.302886480689
 31
0.0
100
AcDbText
  0
TEXT
  5
757
330
37
100
AcDbEntity
  8
DISEGNO
100
AcDbText
 10
19211.37421784934
 20
2977.655641161246
 30
0.0
 40
3.0
  1

 41
0.8
  7
ROMANS
 72
     4
 11
19211.37421784934
 21
2977.655641161246
 31
0.0
100
AcDbText
  0
TEXT
  5
758
330
37
100
AcDbEntity
  8
DISEGNO
100
AcDbText
 10
19317.49089111164
 20
3691.727817321633
 30
0.0
 40
3.0
  1

 41
0.8
  7
ROMANS
 72
     4
 11
19317.49089111164
 21
3691.727817321633
 31
0.0
100
AcDbText
  0
TEXT
  5
759
330
37
100
AcDbEntity
  8
DISEGNO
100
AcDbText
 10
19225.67269512209
 20
4205.576118395675
 30
0.0
 40
3.0
  1

 41
0.8
  7
ROMANS
 72
     4
 11
19225.67269512209
 21
4205.576118395675
 31
0.0
100
AcDbText
  0
TEXT
  5
75A
330
37
100
AcDbEntity
  8
DISEGNO
100
AcDbText
 10
19771.95012775267
 20
3985.142255408817
 30
0.0
 40
3.0
  1

 41
0.8
  7
ROMANS
 72
     4
 11
19771.95012775267
 21
3985.142255408817
 31
0.0
100
AcDbText
  0
TEXT
  5
75B
330
37
100
AcDbEntity
  8
DISEGNO
100
AcDbText
 10
19765.80006034057
 20
3987.404971067199
 30
0.0
 40
3.0
  1

 41
0.8
  7
ROMANS
 72
     4
 11
19765.80006034057
 21
3987.404971067199
 31
0.0
100
AcDbText
  0
TEXT
  5
75C
330
37
100
AcDbEntity
  8
0
100
AcDbText
 10
13464.5817710328
 20
-2515.409924157626
 30
0.0
 40
12.0
  1

 41
0.8
  7
ROMANS
100
AcDbText
  0
TEXT
  5
75D
330
37
100
AcDbEntity
  8
DISEGNO
100
AcDbText
 10
13693.53257404533
 20
-2411.24299423696
 30
0.0
 40
3.0
  1

 41
0.8
  7
ROMANS
 72
     4
 11
13693.53257404533
 21
-2411.24299423696
 31
0.0
100
AcDbText
  0
TEXT
  5
75E
330
37
100
AcDbEntity
  8
DISEGNO
100
AcDbText
 10
13799.64924730763
 20
-1697.170818076572
 30
0.0
 40
3.0
  1

 41
0.8
  7
ROMANS
 72
     4
 11
13799.64924730763
 21
-1697.170818076572
 31
0.0
100
AcDbText
  0
TEXT
  5
75F
330
37
100
AcDbEntity
  8
DISEGNO
100
AcDbText
 10
13707.83105131808
 20
-1183.32251700253
 30
0.0
 40
3.0
  1

 41
0.8
  7
ROMANS
 72
     4
 11
13707.83105131808
 21
-1183.32251700253
 31
0.0
100
AcDbText
  0
TEXT
  5
760
330
37
100
AcDbEntity
  8
DISEGNO
100
AcDbText
 10
14254.10848394867
 20
-1403.756379989389
 30
0.0
 40
3.0
  1

 41
0.8
  7
ROMANS
 72
     4
 11
14254.10848394867
 21
-1403.756379989389
 31
0.0
100
AcDbText
  0
TEXT
  5
761
330
37
100
AcDbEntity
  8
DISEGNO
100
AcDbText
 10
14247.95841653656
 20
-1401.493664331006
 30
0.0
 40
3.0
  1

 41
0.8
  7
ROMANS
 72
     4
 11
14247.95841653656
 21
-1401.493664331006
 31
0.0
100
AcDbText
  0
TEXT
  5
762
330
37
100
AcDbEntity
  8
DISEGNO
100
AcDbText
 10
12790.26161802522
 20
-3705.140909650449
 30
0.0
 40
3.0
  1

 41
0.8
  7
ROMANS
 72
     4
 11
12790.26161802522
 21
-3705.140909650449
 31
0.0
100
AcDbText
  0
TEXT
  5
763
330
37
100
AcDbEntity
  8
DISEGNO
100
AcDbText
 10
12896.37829128752
 20
-2991.068733490062
 30
0.0
 40
3.0
  1

 41
0.8
  7
ROMANS
 72
     4
 11
12896.37829128752
 21
-2991.068733490062
 31
0.0
100
AcDbText
  0
TEXT
  5
764
330
37
100
AcDbEntity
  8
DISEGNO
100
AcDbText
 10
12804.56009529796
 20
-2477.220432416019
 30
0.0
 40
3.0
  1

 41
0.8
  7
ROMANS
 72
     4
 11
12804.56009529796
 21
-2477.220432416019
 31
0.0
100
AcDbText
  0
TEXT
  5
765
330
37
100
AcDbEntity
  8
DISEGNO
100
AcDbText
 10
13350.83752792855
 20
-2697.654295402877
 30
0.0
 40
3.0
  1

 41
0.8
  7
ROMANS
 72
     4
 11
13350.83752792855
 21
-2697.654295402877
 31
0.0
100
AcDbText
  0
TEXT
  5
766
330
37
100
AcDbEntity
  8
DISEGNO
100
AcDbText
 10
13344.68746051644
 20
-2695.391579744495
 30
0.0
 40
3.0
  1

 41
0.8
  7
ROMANS
 72
     4
 11
13344.68746051644
 21
-2695.391579744495
 31
0.0
100
AcDbText
  0
TEXT
  5
767
330
37
100
AcDbEntity
  8
0
100
AcDbText
 10
11072.47549901223
 20
-2177.014876274154
 30
0.0
 40
12.0
  1

 41
0.8
  7
ROMANS
100
AcDbText
  0
TEXT
  5
768
330
37
100
AcDbEntity
  8
DISEGNO
100
AcDbText
 10
11301.42630202476
 20
-2072.847946353486
 30
0.0
 40
3.0
  1

 41
0.8
  7
ROMANS
 72
     4
 11
11301.42630202476
 21
-2072.847946353486
 31
0.0
100
AcDbText
  0
TEXT
  5
769
330
37
100
AcDbEntity
  8
DISEGNO
100
AcDbText
 10
11407.54297528706
 20
-1358.775770193098
 30
0.0
 40
3.0
  1

 41
0.8
  7
ROMANS
 72
     4
 11
11407.54297528706
 21
-1358.775770193098
 31
0.0
100
AcDbText
  0
TEXT
  5
76A
330
37
100
AcDbEntity
  8
DISEGNO
100
AcDbText
 10
11315.72477929751
 20
-844.9274691190566
 30
0.0
 40
3.0
  1

 41
0.8
  7
ROMANS
 72
     4
 11
11315.72477929751
 21
-844.9274691190566
 31
0.0
100
AcDbText
  0
TEXT
  5
76B
330
37
100
AcDbEntity
  8
DISEGNO
100
AcDbText
 10
11862.0022119281
 20
-1065.361332105914
 30
0.0
 40
3.0
  1

 41
0.8
  7
ROMANS
 72
     4
 11
11862.0022119281
 21
-1065.361332105914
 31
0.0
100
AcDbText
  0
TEXT
  5
76C
330
37
100
AcDbEntity
  8
DISEGNO
100
AcDbText
 10
11855.85214451599
 20
-1063.098616447532
 30
0.0
 40
3.0
  1

 41
0.8
  7
ROMANS
 72
     4
 11
11855.85214451599
 21
-1063.098616447532
 31
0.0
100
AcDbText
  0
TEXT
  5
76D
330
37
100
AcDbEntity
  8
DISEGNO
100
AcDbText
 10
10398.15534600465
 20
-3366.745861766977
 30
0.0
 40
3.0
  1

 41
0.8
  7
ROMANS
 72
     4
 11
10398.15534600465
 21
-3366.745861766977
 31
0.0
100
AcDbText
  0
TEXT
  5
76E
330
37
100
AcDbEntity
  8
DISEGNO
100
AcDbText
 10
10504.27201926695
 20
-2652.673685606589
 30
0.0
 40
3.0
  1

 41
0.8
  7
ROMANS
 72
     4
 11
10504.27201926695
 21
-2652.673685606589
 31
0.0
100
AcDbText
  0
TEXT
  5
76F
330
37
100
AcDbEntity
  8
DISEGNO
100
AcDbText
 10
10412.4538232774
 20
-2138.825384532547
 30
0.0
 40
3.0
  1

 41
0.8
  7
ROMANS
 72
     4
 11
10412.4538232774
 21
-2138.825384532547
 31
0.0
100
AcDbText
  0
TEXT
  5
770
330
37
100
AcDbEntity
  8
DISEGNO
100
AcDbText
 10
10958.73125590798
 20
-2359.259247519405
 30
0.0
 40
3.0
  1

 41
0.8
  7
ROMANS
 72
     4
 11
10958.73125590798
 21
-2359.259247519405
 31
0.0
100
AcDbText
  0
TEXT
  5
771
330
37
100
AcDbEntity
  8
DISEGNO
100
AcDbText
 10
10952.58118849588
 20
-2356.996531861023
 30
0.0
 40
3.0
  1

 41
0.8
  7
ROMANS
 72
     4
 11
10952.58118849588
 21
-2356.996531861023
 31
0.0
100
AcDbText
  0
TEXT
  5
772
330
37
100
AcDbEntity
  8
0
100
AcDbText
 10
11643.6716217834
 20
-1865.057345148478
 30
0.0
 40
12.0
  1

 41
0.8
  7
ROMANS
100
AcDbText
  0
TEXT
  5
773
330
37
100
AcDbEntity
  8
DISEGNO
100
AcDbText
 10
11872.62242479593
 20
-1760.89041522781
 30
0.0
 40
3.0
  1

 41
0.8
  7
ROMANS
 72
     4
 11
11872.62242479593
 21
-1760.89041522781
 31
0.0
100
AcDbText
  0
TEXT
  5
774
330
37
100
AcDbEntity
  8
DISEGNO
100
AcDbText
 10
11978.73909805823
 20
-1046.818239067422
 30
0.0
 40
3.0
  1

 41
0.8
  7
ROMANS
 72
     4
 11
11978.73909805823
 21
-1046.818239067422
 31
0.0
100
AcDbText
  0
TEXT
  5
775
330
37
100
AcDbEntity
  8
DISEGNO
100
AcDbText
 10
11886.92090206868
 20
-532.9699379933808
 30
0.0
 40
3.0
  1

 41
0.8
  7
ROMANS
 72
     4
 11
11886.92090206868
 21
-532.9699379933808
 31
0.0
100
AcDbText
  0
TEXT
  5
776
330
37
100
AcDbEntity
  8
DISEGNO
100
AcDbText
 10
12433.19833469926
 20
-753.4038009802388
 30
0.0
 40
3.0
  1

 41
0.8
  7
ROMANS
 72
     4
 11
12433.19833469926
 21
-753.4038009802388
 31
0.0
100
AcDbText
  0
TEXT
  5
777
330
37
100
AcDbEntity
  8
DISEGNO
100
AcDbText
 10
12427.04826728715
 20
-751.1410853218567
 30
0.0
 40
3.0
  1

 41
0.8
  7
ROMANS
 72
     4
 11
12427.04826728715
 21
-751.1410853218567
 31
0.0
100
AcDbText
  0
TEXT
  5
778
330
37
100
AcDbEntity
  8
DISEGNO
100
AcDbText
 10
10969.35146877582
 20
-3054.788330641301
 30
0.0
 40
3.0
  1

 41
0.8
  7
ROMANS
 72
     4
 11
10969.35146877582
 21
-3054.788330641301
 31
0.0
100
AcDbText
  0
TEXT
  5
779
330
37
100
AcDbEntity
  8
DISEGNO
100
AcDbText
 10
11075.46814203811
 20
-2340.716154480913
 30
0.0
 40
3.0
  1

 41
0.8
  7
ROMANS
 72
     4
 11
11075.46814203811
 21
-2340.716154480913
 31
0.0
100
AcDbText
  0
TEXT
  5
77A
330
37
100
AcDbEntity
  8
DISEGNO
100
AcDbText
 10
10983.64994604856
 20
-1826.867853406871
 30
0.0
 40
3.0
  1

 41
0.8
  7
ROMANS
 72
     4
 11
10983.64994604856
 21
-1826.867853406871
 31
0.0
100
AcDbText
  0
TEXT
  5
77B
330
37
100
AcDbEntity
  8
DISEGNO
100
AcDbText
 10
11529.92737867915
 20
-2047.301716393729
 30
0.0
 40
3.0
  1

 41
0.8
  7
ROMANS
 72
     4
 11
11529.92737867915
 21
-2047.301716393729
 31
0.0
100
AcDbText
  0
TEXT
  5
77C
330
37
100
AcDbEntity
  8
DISEGNO
100
AcDbText
 10
11523.77731126704
 20
-2045.039000735347
 30
0.0
 40
3.0
  1

 41
0.8
  7
ROMANS
 72
     4
 11
11523.77731126704
 21
-2045.039000735347
 31
0.0
100
AcDbText
  0
TEXT
  5
77D
330
37
100
AcDbEntity
  8
0
100
AcDbText
 10
15521.29935102952
 20
-2199.216503755522
 30
0.0
 40
12.0
  1

 41
0.8
  7
ROMANS
100
AcDbText
  0
TEXT
  5
77E
330
37
100
AcDbEntity
  8
DISEGNO
100
AcDbText
 10
15750.25015404205
 20
-2095.049573834855
 30
0.0
 40
3.0
  1

 41
0.8
  7
ROMANS
 72
     4
 11
15750.25015404205
 21
-2095.049573834855
 31
0.0
100
AcDbText
  0
TEXT
  5
77F
330
37
100
AcDbEntity
  8
DISEGNO
100
AcDbText
 10
15856.36682730435
 20
-1380.977397674467
 30
0.0
 40
3.0
  1

 41
0.8
  7
ROMANS
 72
     4
 11
15856.36682730435
 21
-1380.977397674467
 31
0.0
100
AcDbText
  0
TEXT
  5
780
330
37
100
AcDbEntity
  8
DISEGNO
100
AcDbText
 10
15764.5486313148
 20
-867.1290966004253
 30
0.0
 40
3.0
  1

 41
0.8
  7
ROMANS
 72
     4
 11
15764.5486313148
 21
-867.1290966004253
 31
0.0
100
AcDbText
  0
TEXT
  5
781
330
37
100
AcDbEntity
  8
DISEGNO
100
AcDbText
 10
16310.82606394539
 20
-1087.562959587283
 30
0.0
 40
3.0
  1

 41
0.8
  7
ROMANS
 72
     4
 11
16310.82606394539
 21
-1087.562959587283
 31
0.0
100
AcDbText
  0
TEXT
  5
782
330
37
100
AcDbEntity
  8
DISEGNO
100
AcDbText
 10
16304.67599653328
 20
-1085.300243928901
 30
0.0
 40
3.0
  1

 41
0.8
  7
ROMANS
 72
     4
 11
16304.67599653328
 21
-1085.300243928901
 31
0.0
100
AcDbText
  0
TEXT
  5
783
330
37
100
AcDbEntity
  8
DISEGNO
100
AcDbText
 10
14846.97919802194
 20
-3388.947489248345
 30
0.0
 40
3.0
  1

 41
0.8
  7
ROMANS
 72
     4
 11
14846.97919802194
 21
-3388.947489248345
 31
0.0
100
AcDbText
  0
TEXT
  5
784
330
37
100
AcDbEntity
  8
DISEGNO
100
AcDbText
 10
14953.09587128424
 20
-2674.875313087958
 30
0.0
 40
3.0
  1

 41
0.8
  7
ROMANS
 72
     4
 11
14953.09587128424
 21
-2674.875313087958
 31
0.0
100
AcDbText
  0
TEXT
  5
785
330
37
100
AcDbEntity
  8
DISEGNO
100
AcDbText
 10
14861.27767529468
 20
-2161.027012013916
 30
0.0
 40
3.0
  1

 41
0.8
  7
ROMANS
 72
     4
 11
14861.27767529468
 21
-2161.027012013916
 31
0.0
100
AcDbText
  0
TEXT
  5
786
330
37
100
AcDbEntity
  8
DISEGNO
100
AcDbText
 10
15407.55510792527
 20
-2381.460875000774
 30
0.0
 40
3.0
  1

 41
0.8
  7
ROMANS
 72
     4
 11
15407.55510792527
 21
-2381.460875000774
 31
0.0
100
AcDbText
  0
TEXT
  5
787
330
37
100
AcDbEntity
  8
DISEGNO
100
AcDbText
 10
15401.40504051316
 20
-2379.198159342392
 30
0.0
 40
3.0
  1

 41
0.8
  7
ROMANS
 72
     4
 11
15401.40504051316
 21
-2379.198159342392
 31
0.0
100
AcDbText
  0
TEXT
  5
788
330
37
100
AcDbEntity
  8
0
100
AcDbText
 10
15270.87179120945
 20
4426.760853091439
 30
0.0
 40
12.0
  1

 41
0.8
  7
ROMANS
100
AcDbText
  0
TEXT
  5
789
330
37
100
AcDbEntity
  8
DISEGNO
100
AcDbText
 10
15499.82259422199
 20
4530.927783012105
 30
0.0
 40
3.0
  1

 41
0.8
  7
ROMANS
 72
     4
 11
15499.82259422199
 21
4530.927783012105
 31
0.0
100
AcDbText
  0
TEXT
  5
78A
330
37
100
AcDbEntity
  8
DISEGNO
100
AcDbText
 10
15605.93926748429
 20
5244.999959172492
 30
0.0
 40
3.0
  1

 41
0.8
  7
ROMANS
 72
     4
 11
15605.93926748429
 21
5244.999959172492
 31
0.0
100
AcDbText
  0
TEXT
  5
78B
330
37
100
AcDbEntity
  8
DISEGNO
100
AcDbText
 10
15514.12107149473
 20
5758.848260246534
 30
0.0
 40
3.0
  1

 41
0.8
  7
ROMANS
 72
     4
 11
15514.12107149473
 21
5758.848260246534
 31
0.0
100
AcDbText
  0
TEXT
  5
78C
330
37
100
AcDbEntity
  8
DISEGNO
100
AcDbText
 10
16060.39850412532
 20
5538.414397259676
 30
0.0
 40
3.0
  1

 41
0.8
  7
ROMANS
 72
     4
 11
16060.39850412532
 21
5538.414397259676
 31
0.0
100
AcDbText
  0
TEXT
  5
78D
330
37
100
AcDbEntity
  8
DISEGNO
100
AcDbText
 10
16054.24843671321
 20
5540.67711291806
 30
0.0
 40
3.0
  1

 41
0.8
  7
ROMANS
 72
     4
 11
16054.24843671321
 21
5540.67711291806
 31
0.0
100
AcDbText
  0
TEXT
  5
78E
330
37
100
AcDbEntity
  8
DISEGNO
100
AcDbText
 10
14596.55163820187
 20
3237.029867598617
 30
0.0
 40
3.0
  1

 41
0.8
  7
ROMANS
 72
     4
 11
14596.55163820187
 21
3237.029867598617
 31
0.0
100
AcDbText
  0
TEXT
  5
78F
330
37
100
AcDbEntity
  8
DISEGNO
100
AcDbText
 10
14702.66831146417
 20
3951.102043759004
 30
0.0
 40
3.0
  1

 41
0.8
  7
ROMANS
 72
     4
 11
14702.66831146417
 21
3951.102043759004
 31
0.0
100
AcDbText
  0
TEXT
  5
790
330
37
100
AcDbEntity
  8
DISEGNO
100
AcDbText
 10
14610.85011547462
 20
4464.950344833044
 30
0.0
 40
3.0
  1

 41
0.8
  7
ROMANS
 72
     4
 11
14610.85011547462
 21
4464.950344833044
 31
0.0
100
AcDbText
  0
TEXT
  5
791
330
37
100
AcDbEntity
  8
DISEGNO
100
AcDbText
 10
15157.12754810521
 20
4244.516481846186
 30
0.0
 40
3.0
  1

 41
0.8
  7
ROMANS
 72
     4
 11
15157.12754810521
 21
4244.516481846186
 31
0.0
100
AcDbText
  0
TEXT
  5
792
330
37
100
AcDbEntity
  8
DISEGNO
100
AcDbText
 10
15150.9774806931
 20
4246.779197504569
 30
0.0
 40
3.0
  1

 41
0.8
  7
ROMANS
 72
     4
 11
15150.9774806931
 21
4246.779197504569
 31
0.0
100
AcDbText
  0
TEXT
  5
793
330
37
100
AcDbEntity
  8
0
100
AcDbText
 10
19434.78958452697
 20
3207.749524823281
 30
0.0
 40
12.0
  1

 41
0.8
  7
ROMANS
100
AcDbText
  0
TEXT
  5
794
330
37
100
AcDbEntity
  8
DISEGNO
100
AcDbText
 10
19663.74038753951
 20
3311.916454743949
 30
0.0
 40
3.0
  1

 41
0.8
  7
ROMANS
 72
     4
 11
19663.74038753951
 21
3311.916454743949
 31
0.0
100
AcDbText
  0
TEXT
  5
795
330
37
100
AcDbEntity
  8
DISEGNO
100
AcDbText
 10
19769.85706080181
 20
4025.988630904334
 30
0.0
 40
3.0
  1

 41
0.8
  7
ROMANS
 72
     4
 11
19769.85706080181
 21
4025.988630904334
 31
0.0
100
AcDbText
  0
TEXT
  5
796
330
37
100
AcDbEntity
  8
DISEGNO
100
AcDbText
 10
19678.03886481225
 20
4539.836931978376
 30
0.0
 40
3.0
  1

 41
0.8
  7
ROMANS
 72
     4
 11
19678.03886481225
 21
4539.836931978376
 31
0.0
100
AcDbText
  0
TEXT
  5
797
330
37
100
AcDbEntity
  8
DISEGNO
100
AcDbText
 10
20224.31629744285
 20
4319.403068991518
 30
0.0
 40
3.0
  1

 41
0.8
  7
ROMANS
 72
     4
 11
20224.31629744285
 21
4319.403068991518
 31
0.0
100
AcDbText
  0
TEXT
  5
798
330
37
100
AcDbEntity
  8
DISEGNO
100
AcDbText
 10
20218.16623003074
 20
4321.665784649901
 30
0.0
 40
3.0
  1

 41
0.8
  7
ROMANS
 72
     4
 11
20218.16623003074
 21
4321.665784649901
 31
0.0
100
AcDbText
  0
TEXT
  5
799
330
37
100
AcDbEntity
  8
DISEGNO
100
AcDbText
 10
18760.46943151939
 20
2018.018539330459
 30
0.0
 40
3.0
  1

 41
0.8
  7
ROMANS
 72
     4
 11
18760.46943151939
 21
2018.018539330459
 31
0.0
100
AcDbText
  0
TEXT
  5
79A
330
37
100
AcDbEntity
  8
DISEGNO
100
AcDbText
 10
18866.58610478169
 20
2732.090715490846
 30
0.0
 40
3.0
  1

 41
0.8
  7
ROMANS
 72
     4
 11
18866.58610478169
 21
2732.090715490846
 31
0.0
100
AcDbText
  0
TEXT
  5
79B
330
37
100
AcDbEntity
  8
DISEGNO
100
AcDbText
 10
18774.76790879214
 20
3245.939016564888
 30
0.0
 40
3.0
  1

 41
0.8
  7
ROMANS
 72
     4
 11
18774.76790879214
 21
3245.939016564888
 31
0.0
100
AcDbText
  0
TEXT
  5
79C
330
37
100
AcDbEntity
  8
DISEGNO
100
AcDbText
 10
19321.04534142273
 20
3025.50515357803
 30
0.0
 40
3.0
  1

 41
0.8
  7
ROMANS
 72
     4
 11
19321.04534142273
 21
3025.50515357803
 31
0.0
100
AcDbText
  0
TEXT
  5
79D
330
37
100
AcDbEntity
  8
DISEGNO
100
AcDbText
 10
19314.89527401062
 20
3027.767869236412
 30
0.0
 40
3.0
  1

 41
0.8
  7
ROMANS
 72
     4
 11
19314.89527401062
 21
3027.767869236412
 31
0.0
100
AcDbText
  0
TEXT
  5
79E
330
37
100
AcDbEntity
  8
0
100
AcDbText
 10
19184.36202470691
 20
9833.726881670246
 30
0.0
 40
12.0
  1

 41
0.8
  7
ROMANS
100
AcDbText
  0
TEXT
  5
79F
330
37
100
AcDbEntity
  8
DISEGNO
100
AcDbText
 10
19413.31282771944
 20
9937.893811590912
 30
0.0
 40
3.0
  1

 41
0.8
  7
ROMANS
 72
     4
 11
19413.31282771944
 21
9937.893811590912
 31
0.0
100
AcDbText
  0
TEXT
  5
7A0
330
37
100
AcDbEntity
  8
DISEGNO
100
AcDbText
 10
19519.42950098174
 20
10651.96598775129
 30
0.0
 40
3.0
  1

 41
0.8
  7
ROMANS
 72
     4
 11
19519.42950098174
 21
10651.96598775129
 31
0.0
100
AcDbText
  0
TEXT
  5
7A1
330
37
100
AcDbEntity
  8
DISEGNO
100
AcDbText
 10
19427.61130499219
 20
11165.81428882534
 30
0.0
 40
3.0
  1

 41
0.8
  7
ROMANS
 72
     4
 11
19427.61130499219
 21
11165.81428882534
 31
0.0
100
AcDbText
  0
TEXT
  5
7A2
330
37
100
AcDbEntity
  8
DISEGNO
100
AcDbText
 10
19973.88873762278
 20
10945.38042583848
 30
0.0
 40
3.0
  1

 41
0.8
  7
ROMANS
 72
     4
 11
19973.88873762278
 21
10945.38042583848
 31
0.0
100
AcDbText
  0
TEXT
  5
7A3
330
37
100
AcDbEntity
  8
DISEGNO
100
AcDbText
 10
19967.73867021067
 20
10947.64314149686
 30
0.0
 40
3.0
  1

 41
0.8
  7
ROMANS
 72
     4
 11
19967.73867021067
 21
10947.64314149686
 31
0.0
100
AcDbText
  0
TEXT
  5
7A4
330
37
100
AcDbEntity
  8
DISEGNO
100
AcDbText
 10
18510.04187169933
 20
8643.99589617742
 30
0.0
 40
3.0
  1

 41
0.8
  7
ROMANS
 72
     4
 11
18510.04187169933
 21
8643.99589617742
 31
0.0
100
AcDbText
  0
TEXT
  5
7A5
330
37
100
AcDbEntity
  8
DISEGNO
100
AcDbText
 10
18616.15854496163
 20
9358.068072337806
 30
0.0
 40
3.0
  1

 41
0.8
  7
ROMANS
 72
     4
 11
18616.15854496163
 21
9358.068072337806
 31
0.0
100
AcDbText
  0
TEXT
  5
7A6
330
37
100
AcDbEntity
  8
DISEGNO
100
AcDbText
 10
18524.34034897207
 20
9871.916373411853
 30
0.0
 40
3.0
  1

 41
0.8
  7
ROMANS
 72
     4
 11
18524.34034897207
 21
9871.916373411853
 31
0.0
100
AcDbText
  0
TEXT
  5
7A7
330
37
100
AcDbEntity
  8
DISEGNO
100
AcDbText
 10
19070.61778160266
 20
9651.482510424994
 30
0.0
 40
3.0
  1

 41
0.8
  7
ROMANS
 72
     4
 11
19070.61778160266
 21
9651.482510424994
 31
0.0
100
AcDbText
  0
TEXT
  5
7A8
330
37
100
AcDbEntity
  8
DISEGNO
100
AcDbText
 10
19064.46771419055
 20
9653.745226083374
 30
0.0
 40
3.0
  1

 41
0.8
  7
ROMANS
 72
     4
 11
19064.46771419055
 21
9653.745226083374
 31
0.0
100
AcDbText
  0
TEXT
  5
7A9
330
37
100
AcDbEntity
  8
0
100
AcDbText
 10
16461.09734316592
 20
523.4760697906422
 30
0.0
 40
12.0
  1

 41
0.8
  7
ROMANS
100
AcDbText
  0
TEXT
  5
7AA
330
37
100
AcDbEntity
  8
DISEGNO
100
AcDbText
 10
16690.04814617846
 20
627.64299971131
 30
0.0
 40
3.0
  1

 41
0.8
  7
ROMANS
 72
     4
 11
16690.04814617846
 21
627.64299971131
 31
0.0
100
AcDbText
  0
TEXT
  5
7AB
330
37
100
AcDbEntity
  8
DISEGNO
100
AcDbText
 10
16796.16481944075
 20
1341.715175871695
 30
0.0
 40
3.0
  1

 41
0.8
  7
ROMANS
 72
     4
 11
16796.16481944075
 21
1341.715175871695
 31
0.0
100
AcDbText
  0
TEXT
  5
7AC
330
37
100
AcDbEntity
  8
DISEGNO
100
AcDbText
 10
16704.3466234512
 20
1855.563476945737
 30
0.0
 40
3.0
  1

 41
0.8
  7
ROMANS
 72
     4
 11
16704.3466234512
 21
1855.563476945737
 31
0.0
100
AcDbText
  0
TEXT
  5
7AD
330
37
100
AcDbEntity
  8
DISEGNO
100
AcDbText
 10
17250.62405608179
 20
1635.129613958879
 30
0.0
 40
3.0
  1

 41
0.8
  7
ROMANS
 72
     4
 11
17250.62405608179
 21
1635.129613958879
 31
0.0
100
AcDbText
  0
TEXT
  5
7AE
330
37
100
AcDbEntity
  8
DISEGNO
100
AcDbText
 10
17244.47398866968
 20
1637.392329617263
 30
0.0
 40
3.0
  1

 41
0.8
  7
ROMANS
 72
     4
 11
17244.47398866968
 21
1637.392329617263
 31
0.0
100
AcDbText
  0
TEXT
  5
7AF
330
37
100
AcDbEntity
  8
DISEGNO
100
AcDbText
 10
15786.77719015834
 20
-666.2549157021803
 30
0.0
 40
3.0
  1

 41
0.8
  7
ROMANS
 72
     4
 11
15786.77719015834
 21
-666.2549157021803
 31
0.0
100
AcDbText
  0
TEXT
  5
7B0
330
37
100
AcDbEntity
  8
DISEGNO
100
AcDbText
 10
15892.89386342064
 20
47.81726045820687
 30
0.0
 40
3.0
  1

 41
0.8
  7
ROMANS
 72
     4
 11
15892.89386342064
 21
47.81726045820687
 31
0.0
100
AcDbText
  0
TEXT
  5
7B1
330
37
100
AcDbEntity
  8
DISEGNO
100
AcDbText
 10
15801.07566743109
 20
561.6655615322488
 30
0.0
 40
3.0
  1

 41
0.8
  7
ROMANS
 72
     4
 11
15801.07566743109
 21
561.6655615322488
 31
0.0
100
AcDbText
  0
TEXT
  5
7B2
330
37
100
AcDbEntity
  8
DISEGNO
100
AcDbText
 10
16347.35310006168
 20
341.2316985453908
 30
0.0
 40
3.0
  1

 41
0.8
  7
ROMANS
 72
     4
 11
16347.35310006168
 21
341.2316985453908
 31
0.0
100
AcDbText
  0
TEXT
  5
7B3
330
37
100
AcDbEntity
  8
DISEGNO
100
AcDbText
 10
16341.20303264957
 20
343.494414203773
 30
0.0
 40
3.0
  1

 41
0.8
  7
ROMANS
 72
     4
 11
16341.20303264957
 21
343.494414203773
 31
0.0
100
AcDbText
  0
TEXT
  5
7B4
330
37
100
AcDbEntity
  8
0
100
AcDbText
 10
14068.99107114535
 20
861.8711176741163
 30
0.0
 40
12.0
  1

 41
0.8
  7
ROMANS
100
AcDbText
  0
TEXT
  5
7B5
330
37
100
AcDbEntity
  8
DISEGNO
100
AcDbText
 10
14297.94187415789
 20
966.0380475947823
 30
0.0
 40
3.0
  1

 41
0.8
  7
ROMANS
 72
     4
 11
14297.94187415789
 21
966.0380475947823
 31
0.0
100
AcDbText
  0
TEXT
  5
7B6
330
37
100
AcDbEntity
  8
DISEGNO
100
AcDbText
 10
14404.05854742019
 20
1680.110223755169
 30
0.0
 40
3.0
  1

 41
0.8
  7
ROMANS
 72
     4
 11
14404.05854742019
 21
1680.110223755169
 31
0.0
100
AcDbText
  0
TEXT
  5
7B7
330
37
100
AcDbEntity
  8
DISEGNO
100
AcDbText
 10
14312.24035143063
 20
2193.958524829211
 30
0.0
 40
3.0
  1

 41
0.8
  7
ROMANS
 72
     4
 11
14312.24035143063
 21
2193.958524829211
 31
0.0
100
AcDbText
  0
TEXT
  5
7B8
330
37
100
AcDbEntity
  8
DISEGNO
100
AcDbText
 10
14858.51778406122
 20
1973.524661842353
 30
0.0
 40
3.0
  1

 41
0.8
  7
ROMANS
 72
     4
 11
14858.51778406122
 21
1973.524661842353
 31
0.0
100
AcDbText
  0
TEXT
  5
7B9
330
37
100
AcDbEntity
  8
DISEGNO
100
AcDbText
 10
14852.36771664911
 20
1975.787377500736
 30
0.0
 40
3.0
  1

 41
0.8
  7
ROMANS
 72
     4
 11
14852.36771664911
 21
1975.787377500736
 31
0.0
100
AcDbText
  0
TEXT
  5
7BA
330
37
100
AcDbEntity
  8
DISEGNO
100
AcDbText
 10
13394.67091813777
 20
-327.8598678187063
 30
0.0
 40
3.0
  1

 41
0.8
  7
ROMANS
 72
     4
 11
13394.67091813777
 21
-327.8598678187063
 31
0.0
100
AcDbText
  0
TEXT
  5
7BB
330
37
100
AcDbEntity
  8
DISEGNO
100
AcDbText
 10
13500.78759140007
 20
386.2123083416809
 30
0.0
 40
3.0
  1

 41
0.8
  7
ROMANS
 72
     4
 11
13500.78759140007
 21
386.2123083416809
 31
0.0
100
AcDbText
  0
TEXT
  5
7BC
330
37
100
AcDbEntity
  8
DISEGNO
100
AcDbText
 10
13408.96939541052
 20
900.0606094157229
 30
0.0
 40
3.0
  1

 41
0.8
  7
ROMANS
 72
     4
 11
13408.96939541052
 21
900.0606094157229
 31
0.0
100
AcDbText
  0
TEXT
  5
7BD
330
37
100
AcDbEntity
  8
DISEGNO
100
AcDbText
 10
13955.24682804111
 20
679.6267464288648
 30
0.0
 40
3.0
  1

 41
0.8
  7
ROMANS
 72
     4
 11
13955.24682804111
 21
679.6267464288648
 31
0.0
100
AcDbText
  0
TEXT
  5
7BE
330
37
100
AcDbEntity
  8
DISEGNO
100
AcDbText
 10
13949.096760629
 20
681.889462087247
 30
0.0
 40
3.0
  1

 41
0.8
  7
ROMANS
 72
     4
 11
13949.096760629
 21
681.889462087247
 31
0.0
100
AcDbText
  0
INSERT
  5
7BF
330
37
100
AcDbEntity
  8
ASHADE
 62
     1
100
AcDbBlockReference
  2
AVE_RENDER
 10
10406.09482402513
 20
-8276.215755273719
 30
0.0
1001
AVE_RENDER
1002
{
1070
     6
1000
Pref
1070
    30
1070
    20
1070
     1
1070
     0
1000

1070
    10
1070
     1
1070
    30
1040
25.4
1070
     1
1040
0.3
1040
0.7
1040
0.0
1040
10.0
1010
-1.0
1020
-1.0
1030
-1.0
1040
0.3
1070
    49
1070
     0
1070
     0
1010
1.0
1020
1.0
1030
1.0
1040
45.0
1070
     1
1070
     0
1000
WCS
1040
0.0
1002
}
  0
INSERT
  5
7C0
330
37
100
AcDbEntity
  8
ASHADE
 62
     3
100
AcDbBlockReference
  2
AVE_RENDER
 10
10406.09482402513
 20
-8276.215755273719
 30
0.0
1001
AVE_RENDER
1002
{
1070
     0
1000
Full Opt
1070
     0
1070
     1
1070
     1
1070
     1
1070
     0
1070
     0
1070
     0
1070
     1
1070
     1
1040
0.0001
1040
0.0001
1002
}
  0
INSERT
  5
7C1
330
37
100
AcDbEntity
  8
ASHADE
 62
     4
100
AcDbBlockReference
  2
AVE_RENDER
 10
10406.09482402513
 20
-8276.215755273719
 30
0.0
1001
AVE_RENDER
1002
{
1070
     0
1000
Quick Opt
1070
     0
1070
     1
1070
     1
1070
     1
1070
     0
1070
     0
1070
     1
1002
}
  0
INSERT
  5
7C2
330
37
100
AcDbEntity
  8
ASHADE
 62
     5
100
AcDbBlockReference
  2
AVE_RENDER
 10
10406.09482402513
 20
-8276.215755273719
 30
0.0
1001
AVE_RENDER
1002
{
1070
     1
1000
Scanl Opt
1070
     2
1070
     0
1070
     2
1040
2.0
1040
4.0
1070
     0
1070
     1
1070
     0
1040
0.03
1002
}
  0
INSERT
  5
7C3
330
37
100
AcDbEntity
  8
ASHADE
 62
     6
100
AcDbBlockReference
  2
AVE_RENDER
 10
10406.09482402513
 20
-8276.215755273719
 30
0.0
1001
AVE_RENDER
1002
{
1070
     2
1000
Raytr Opt
1070
     2
1070
     0
1070
     2
1040
2.0
1040
4.0
1070
     0
1070
     1
1070
     1
1040
0.03
1070
     3
1040
0.03
1002
}
  0
INSERT
  5
7C4
330
37
100
AcDbEntity
  8
ASHADE
 62
     7
100
AcDbBlockReference
  2
AVE_RENDER
 10
10406.09482402513
 20
-8276.215755273719
 30
0.0
1001
AVE_RENDER
1002
{
1070
     0
1000
RFile Opt
1070
     5
1070
   640
1070
   480
1070
 10000
1070
     3
1070
    32
1070
    24
1070
     0
1070
     0
1070
     0
1070
     1
1070
     0
1070
     0
1070
     0
1002
}
  0
INSERT
  5
7C5
330
37
100
AcDbEntity
  8
ASHADE
 62
     8
100
AcDbBlockReference
  2
AVE_RENDER
 10
10406.09482402513
 20
-8276.215755273719
 30
0.0
1001
AVE_RENDER
1002
{
1070
     0
1000
Fog Opt
1070
     0
1070
     0
1040
0.0
1040
1.0
1040
0.0
1040
1.0
1010
0.5
1020
0.5
1030
0.5
1002
}
  0
INSERT
  5
7C6
330
37
100
AcDbEntity
  8
ASHADE
 62
     9
100
AcDbBlockReference
  2
AVE_RENDER
 10
10406.09482402513
 20
-8276.215755273719
 30
0.0
1001
AVE_RENDER
1002
{
1070
     0
1000
BG Opt
1070
     0
1070
     1
1010
0.0
1020
0.0
1030
0.0
1010
1.0
1020
0.0
1030
0.0
1010
0.0
1020
1.0
1030
0.0
1010
0.0
1020
0.0
1030
1.0
1040
0.5
1040
0.33
1040
0.0
1000

1070
     1
1000

1070
     1
1070
     1
1040
1.0
1040
1.0
1040
0.0
1040
0.0
1070
     0
1002
}
  0
INSERT
  5
7C7
330
37
100
AcDbEntity
  8
ASHADE
 62
     1
100
AcDbBlockReference
  2
AVE_GLOBAL
 10
10406.09482402513
 20
-8276.215755273719
 30
0.0
1001
AVE_MATERIAL
1002
{
1000
*GLOBAL*
1000
1
1000
Global finish.
1002
{
1002
}
1002
{
1070
    63
1002
{
1002
{
1010
-1.0
1020
-1.0
1030
-1.0
1002
}
1040
0.1000000014901161
1000

1040
0.0
1002
{
1002
}
1040
0.0
1002
{
1002
}
1040
0.0
1002
}
1002
{
1002
{
1010
-1.0
1020
-1.0
1030
-1.0
1002
}
1040
0.6999999880790711
1000

1040
0.0
1002
{
1002
}
1040
0.0
1002
{
1002
}
1040
0.0
1002
}
1002
{
1002
{
1010
-1.0
1020
-1.0
1030
-1.0
1002
}
1040
0.2000000029802322
1000

1040
0.0
1002
{
1002
}
1040
0.0
1002
{
1002
}
1040
0.0
1002
}
1002
{
1070
     0
1002
{
1070
     1
1002
{
1040
1.0
1040
1.0
1000

1040
0.0
1002
{
1002
}
1040
0.0
1002
{
1002
}
1040
0.0
1002
}
1002
}
1040
1.0
1040
0.0
1040
0.0
1002
}
1002
{
1040
1.0
1040
1.0
1000

1040
0.0
1002
{
1002
}
1040
0.0
1002
{
1002
}
1040
0.0
1002
}
1002
{
1040
0.5
1040
1.0
1000

1040
0.0
1002
{
1002
}
1040
0.0
1002
{
1002
}
1040
0.0
1002
}
1002
{
1070
     0
1040
0.0
1002
{
1002
}
1040
1.0
1002
{
1002
}
1040
0.0
1002
}
1002
{
1040
0.0
1002
{
1002
{
1010
0.0
1020
0.0
1030
0.0
1002
}
1040
1.0
1000

1040
0.0
1002
{
1002
}
1040
0.0
1002
{
1002
}
1040
0.0
1002
}
1002
}
1002
{
1002
{
1070
     1
1002
{
1040
0.0
1040
1.0
1000

1040
0.0
1002
{
1002
}
1040
0.0
1002
{
1002
}
1040
0.0
1002
}
1002
}
1040
0.0
1002
{
1002
}
1010
1.0
1020
0.0
1030
0.0
1010
0.0
1020
1.0
1030
0.0
1010
0.0
1020
0.0
1030
1.0
1070
     0
1002
}
1002
{
1002
{
1040
1.0
1040
1.0
1002
{
1070
     1
1002
{
1040
1.0
1040
1.0
1000

1040
0.0
1002
{
1002
}
1040
0.0
1002
{
1002
}
1040
0.0
1002
}
1002
}
1002
}
1070
     0
1040
0.0
1002
{
1002
}
1002
}
1002
{
1002
}
1002
}
1002
{
1071
        3
1070
     3
1070
     0
1002
{
1070
     2
1070
     0
1070
     0
1040
0.0
1002
}
1070
     0
1070
     2
1002
{
1002
}
1002
}
1002
{
1040
8030.0
1040
190.3000030517578
1040
0.3050000071525574
1040
228.0
1040
545.0
1040
14.0
1040
17.39999961853027
1040
0.4560000002384186
1002
}
1002
}
  0
LINE
  5
7C8
330
37
100
AcDbEntity
  8
FORMATO
100
AcDbLine
 10
175.5
 20
205.0
 30
0.0
 11
175.5
 21
42.00000000000002
 31
0.0
  0
LINE
  5
7C9
330
37
100
AcDbEntity
  8
FORMATO
100
AcDbLine
 10
171.0
 20
205.0
 30
0.0
 11
171.0
 21
42.00000000000002
 31
0.0
  0
LINE
  5
7CA
330
37
100
AcDbEntity
  8
FORMATO
100
AcDbLine
 10
166.5
 20
205.0
 30
0.0
 11
166.5
 21
42.00000000000002
 31
0.0
  0
LINE
  5
7CB
330
37
100
AcDbEntity
  8
FORMATO
 62
     7
100
AcDbLine
 10
162.0
 20
205.0
 30
0.0
 11
162.0
 21
36.00000000000003
 31
0.0
  0
ARC
  5
7CC
330
37
100
AcDbEntity
  8
FORMATO
100
AcDbCircle
 10
8.740999999999985
 20
50.32999999999995
 30
0.0
 40
4.27319
100
AcDbArc
 50
285.326
 51
355.444
  0
LINE
  5
7CD
330
37
100
AcDbEntity
  8
FORMATO
100
AcDbLine
 10
9.426999999999679
 20
50.72000000000119
 30
0.0
 11
10.75699999999961
 21
50.72000000000119
 31
0.0
  0
ARC
  5
7CE
330
37
100
AcDbEntity
  8
FORMATO
100
AcDbCircle
 10
10.52100000000064
 20
50.19000000000054
 30
0.0
 40
2.48742
100
AcDbArc
 50
265.539
 51
355.485
  0
ARC
  5
7CF
330
37
100
AcDbEntity
  8
FORMATO
100
AcDbCircle
 10
10.47199999999975
 20
50.32999999999995
 30
0.0
 40
2.550959999999999
100
AcDbArc
 50
266.743
 51
352.35
  0
LINE
  5
7D0
330
37
100
AcDbEntity
  8
FORMATO
100
AcDbLine
 10
10.51699999999982
 20
52.73999999999981
 30
0.0
 11
8.807000000000698
 21
52.73999999999981
 31
0.0
  0
LINE
  5
7D1
330
37
100
AcDbEntity
  8
FORMATO
100
AcDbLine
 10
10.75699999999961
 20
49.28000000000068
 30
0.0
 11
9.869999999998981
 21
49.28000000000068
 31
0.0
  0
LINE
  5
7D2
330
37
100
AcDbEntity
  8
FORMATO
100
AcDbLine
 10
1.129000000000814
 20
41.50000000000003
 30
0.0
 11
12.35199999999895
 21
41.50000000000003
 31
0.0
  0
LINE
  5
7D3
330
37
100
AcDbEntity
  8
FORMATO
 62
     7
100
AcDbLine
 10
89.0
 20
26.00000000000003
 30
0.0
 11
1.0
 21
26.00000000000003
 31
0.0
  0
LINE
  5
7D4
330
37
100
AcDbEntity
  8
FORMATO
 62
     7
100
AcDbLine
 10
122.0
 20
27.00000000000003
 30
0.0
 11
0.0
 21
27.00000000000003
 31
0.0
  0
LINE
  5
7D5
330
37
100
AcDbEntity
  8
FORMATO
100
AcDbLine
 10
8.0
 20
20.32999999999995
 30
0.0
 11
87.0
 21
20.32999999999995
 31
0.0
  0
LINE
  5
7D6
330
37
100
AcDbEntity
  8
FORMATO
100
AcDbLine
 10
8.0
 20
14.68000000000032
 30
0.0
 11
87.0
 21
14.68000000000032
 31
0.0
  0
LINE
  5
7D7
330
37
100
AcDbEntity
  8
FORMATO
100
AcDbLine
 10
8.0
 20
9.030000000000683
 30
0.0
 11
87.0
 21
9.030000000000683
 31
0.0
  0
LINE
  5
7D8
330
37
100
AcDbEntity
  8
FORMATO
100
AcDbLine
 10
87.0
 20
3.380000000001047
 30
0.0
 11
8.0
 21
3.380000000001047
 31
0.0
  0
LINE
  5
7D9
330
37
100
AcDbEntity
  8
FORMATO
 62
     7
100
AcDbLine
 10
1.0
 20
1.000000000000028
 30
0.0
 11
89.0
 21
1.000000000000028
 31
0.0
  0
LINE
  5
7DA
330
37
100
AcDbEntity
  8
FORMATO
 62
     7
100
AcDbLine
 10
0.0
 20
45.00000000000002
 30
0.0
 11
150.0
 21
45.00000000000002
 31
0.0
  0
LINE
  5
7DB
330
37
100
AcDbEntity
  8
FORMATO
 62
     7
100
AcDbLine
 10
0.0
 20
36.00000000000003
 30
0.0
 11
180.0
 21
36.00000000000003
 31
0.0
  0
LINE
  5
7DC
330
37
100
AcDbEntity
  8
FORMATO
 62
     7
100
AcDbLine
 10
162.0
 20
54.00000000000003
 30
0.0
 11
0.0
 21
54.00000000000003
 31
0.0
  0
LINE
  5
7DD
330
37
100
AcDbEntity
  8
FORMATO
100
AcDbLine
 10
10.33899999999994
 20
47.75000000000003
 30
0.0
 11
9.869999999998981
 21
46.21000000000097
 31
0.0
  0
LINE
  5
7DE
330
37
100
AcDbEntity
  8
FORMATO
100
AcDbLine
 10
9.109000000000378
 20
46.21000000000097
 30
0.0
 11
9.58100000000013
 21
47.75000000000003
 31
0.0
  0
LINE
  5
7DF
330
37
100
AcDbEntity
  8
FORMATO
100
AcDbLine
 10
10.33899999999994
 20
47.75000000000003
 30
0.0
 11
9.869999999998981
 21
49.28000000000068
 31
0.0
  0
LINE
  5
7E0
330
37
100
AcDbEntity
  8
FORMATO
100
AcDbLine
 10
9.426999999999679
 20
50.72000000000119
 30
0.0
 11
8.807000000000698
 21
52.73999999999981
 31
0.0
  0
LINE
  5
7E1
330
37
100
AcDbEntity
  8
FORMATO
100
AcDbLine
 10
9.109000000000378
 20
49.28000000000068
 30
0.0
 11
9.58100000000013
 21
47.75000000000003
 31
0.0
  0
ARC
  5
7E2
330
37
100
AcDbEntity
  8
FORMATO
100
AcDbCircle
 10
6.197000000000116
 20
50.32999999999995
 30
0.0
 40
4.27319
100
AcDbArc
 50
184.556
 51
254.674
  0
ARC
  5
7E3
330
37
100
AcDbEntity
  8
FORMATO
100
AcDbCircle
 10
4.181000000000494
 20
50.00000000000003
 30
0.0
 40
0.72
100
AcDbArc
 50
90.0
 51
270.0
  0
LINE
  5
7E4
330
37
100
AcDbEntity
  8
FORMATO
100
AcDbLine
 10
4.181000000000494
 20
49.28000000000068
 30
0.0
 11
5.067999999999301
 21
49.28000000000068
 31
0.0
  0
LINE
  5
7E5
330
37
100
AcDbEntity
  8
FORMATO
100
AcDbLine
 10
5.511000000000422
 20
50.72000000000119
 30
0.0
 11
4.181000000000494
 21
50.72000000000119
 31
0.0
  0
LINE
  5
7E6
330
37
100
AcDbEntity
  8
FORMATO
100
AcDbLine
 10
4.421000000000276
 20
52.73999999999981
 30
0.0
 11
6.130999999999403
 21
52.73999999999981
 31
0.0
  0
LINE
  5
7E7
330
37
100
AcDbEntity
  8
FORMATO
100
AcDbLine
 10
4.59900000000016
 20
47.75000000000003
 30
0.0
 11
5.067999999999301
 21
49.28000000000068
 31
0.0
  0
LINE
  5
7E8
330
37
100
AcDbEntity
  8
FORMATO
100
AcDbLine
 10
5.511000000000422
 20
50.72000000000119
 30
0.0
 11
6.130999999999403
 21
52.73999999999981
 31
0.0
  0
ARC
  5
7E9
330
37
100
AcDbEntity
  8
FORMATO
100
AcDbCircle
 10
4.421000000000276
 20
50.23999999999981
 30
0.0
 40
2.496
100
AcDbArc
 50
90.0
 51
185.76
  0
ARC
  5
7EA
330
37
100
AcDbEntity
  8
FORMATO
100
AcDbCircle
 10
4.416999999999461
 20
50.19000000000054
 30
0.0
 40
2.48742
100
AcDbArc
 50
184.515
 51
274.461
  0
ARC
  5
7EB
330
37
100
AcDbEntity
  8
FORMATO
100
AcDbCircle
 10
4.466000000000349
 20
50.32999999999995
 30
0.0
 40
2.550959999999999
100
AcDbArc
 50
187.65
 51
273.257
  0
LINE
  5
7EC
330
37
100
AcDbEntity
  8
FORMATO
100
AcDbLine
 10
4.59900000000016
 20
47.75000000000003
 30
0.0
 11
5.067999999999301
 21
46.21000000000097
 31
0.0
  0
LINE
  5
7ED
330
37
100
AcDbEntity
  8
FORMATO
100
AcDbLine
 10
5.829999999999927
 20
46.21000000000097
 30
0.0
 11
5.35699999999997
 21
47.75000000000003
 31
0.0
  0
LINE
  5
7EE
330
37
100
AcDbEntity
  8
FORMATO
100
AcDbLine
 10
6.893000000000029
 20
52.73999999999981
 30
0.0
 11
8.045000000000072
 21
52.73999999999981
 31
0.0
  0
LINE
  5
7EF
330
37
100
AcDbEntity
  8
FORMATO
100
AcDbLine
 10
5.829999999999927
 20
49.28000000000068
 30
0.0
 11
5.35699999999997
 21
47.75000000000003
 31
0.0
  0
LINE
  5
7F0
330
37
100
AcDbEntity
  8
FORMATO
100
AcDbLine
 10
6.893000000000029
 20
52.73999999999981
 30
0.0
 11
6.272999999999228
 21
50.72000000000119
 31
0.0
  0
TEXT
  5
7F1
330
37
100
AcDbEntity
  8
FORMATO
100
AcDbText
 10
0.9549999999999272
 20
42.00000000000002
 30
0.0
 40
2.0
  1
Cliente
 41
0.99
 51
10.0
100
AcDbText
  0
TEXT
  5
7F2
330
37
100
AcDbEntity
  8
FORMATO
100
AcDbText
 10
1.593000000000756
 20
33.00000000000003
 30
0.0
 40
2.0
  1
Peso
 41
0.99
 51
10.0
100
AcDbText
  0
LINE
  5
7F3
330
37
100
AcDbEntity
  8
FORMATO
100
AcDbLine
 10
1.342000000000552
 20
32.50000000000003
 30
0.0
 11
9.502000000000407
 21
32.50000000000003
 31
0.0
  0
LINE
  5
7F4
330
37
100
AcDbEntity
  8
FORMATO
100
AcDbLine
 10
6.272999999999228
 20
50.72000000000119
 30
0.0
 11
8.665000000000873
 21
50.72000000000119
 31
0.0
  0
LINE
  5
7F5
330
37
100
AcDbEntity
  8
FORMATO
100
AcDbLine
 10
9.568999999999505
 20
47.71000000000097
 30
0.0
 11
5.35699999999997
 21
47.71000000000097
 31
0.0
  0
LINE
  5
7F6
330
37
100
AcDbEntity
  8
FORMATO
100
AcDbLine
 10
5.35699999999997
 20
47.78000000000068
 30
0.0
 11
9.568999999999505
 21
47.78000000000068
 31
0.0
  0
LINE
  5
7F7
330
37
100
AcDbEntity
  8
FORMATO
100
AcDbLine
 10
9.109000000000378
 20
46.21000000000097
 30
0.0
 11
5.829999999999927
 21
46.21000000000097
 31
0.0
  0
LINE
  5
7F8
330
37
100
AcDbEntity
  8
FORMATO
100
AcDbLine
 10
9.109000000000378
 20
49.28000000000068
 30
0.0
 11
5.829999999999927
 21
49.28000000000068
 31
0.0
  0
LINE
  5
7F9
330
37
100
AcDbEntity
  8
FORMATO
100
AcDbLine
 10
8.045000000000072
 20
52.73999999999981
 30
0.0
 11
8.665000000000873
 21
50.72000000000119
 31
0.0
  0
TEXT
  5
7FA
330
37
100
AcDbEntity
  8
FORMATO
100
AcDbText
 10
5.600000000000363
 20
4.000000000000028
 30
0.0
 40
2.0
  1
DENOMINAZ.
 50
90.0
 41
0.99
 51
10.0
100
AcDbText
  0
LINE
  5
7FB
330
37
100
AcDbEntity
  8
FORMATO
 62
     7
100
AcDbLine
 10
0.0
 20
54.00000000000003
 30
0.0
 11
0.0
 21
0.0
 31
0.0
  0
LINE
  5
7FC
330
37
100
AcDbEntity
  8
FORMATO
100
AcDbLine
 10
6.0
 20
24.00000000000003
 30
0.0
 11
6.0
 21
3.000000000000028
 31
0.0
  0
LINE
  5
7FD
330
37
100
AcDbEntity
  8
FORMATO
 62
     7
100
AcDbLine
 10
1.0
 20
26.00000000000003
 30
0.0
 11
1.0
 21
1.000000000000028
 31
0.0
  0
TEXT
  5
7FE
330
37
100
AcDbEntity
  8
FORMATO
100
AcDbText
 10
152.4159999999992
 20
49.62000000000083
 30
0.0
 40
2.0
  1
TAV.
 41
0.99
 51
10.0
100
AcDbText
  0
LINE
  5
7FF
330
37
100
AcDbEntity
  8
FORMATO
100
AcDbLine
 10
152.9279999999999
 20
49.00000000000003
 30
0.0
 11
158.1759999999994
 21
49.00000000000003
 31
0.0
  0
LINE
  5
800
330
37
100
AcDbEntity
  8
FORMATO
100
AcDbLine
 10
151.0
 20
37.00000000000003
 30
0.0
 11
161.0
 21
37.00000000000003
 31
0.0
  0
LINE
  5
801
330
37
100
AcDbEntity
  8
FORMATO
 62
     7
100
AcDbLine
 10
150.0
 20
54.00000000000003
 30
0.0
 11
150.0
 21
36.00000000000003
 31
0.0
  0
TEXT
  5
802
330
37
100
AcDbEntity
  8
FORMATO
100
AcDbText
 10
166.030999999999
 20
37.60000000000039
 30
0.0
 40
2.0
  1
Modif.
 41
0.99
 51
10.0
100
AcDbText
  0
LINE
  5
803
330
37
100
AcDbEntity
  8
FORMATO
 62
     7
100
AcDbLine
 10
162.0
 20
42.00000000000002
 30
0.0
 11
180.0
 21
42.00000000000002
 31
0.0
  0
LINE
  5
804
330
37
100
AcDbEntity
  8
FORMATO
100
AcDbLine
 10
163.0
 20
37.00000000000003
 30
0.0
 11
179.0
 21
37.00000000000003
 31
0.0
  0
LINE
  5
805
330
37
100
AcDbEntity
  8
FORMATO
 62
     7
100
AcDbLine
 10
179.0
 20
18.00000000000003
 30
0.0
 11
179.0
 21
35.00000000000003
 31
0.0
  0
CIRCLE
  5
806
330
37
100
AcDbEntity
  8
FORMATO
100
AcDbCircle
 10
144.3329999999987
 20
40.3600000000006
 30
0.0
 40
1.25
  0
CIRCLE
  5
807
330
37
100
AcDbEntity
  8
FORMATO
100
AcDbCircle
 10
144.3329999999987
 20
40.3600000000006
 30
0.0
 40
2.25
  0
LINE
  5
808
330
37
100
AcDbEntity
  8
FORMATO
100
AcDbLine
 10
139.0159999999996
 20
38.10000000000039
 30
0.0
 11
139.0159999999996
 21
40.3600000000006
 31
0.0
  0
LINE
  5
809
330
37
100
AcDbEntity
  8
FORMATO
100
AcDbLine
 10
139.0159999999996
 20
42.61000000000061
 30
0.0
 11
139.0159999999996
 21
40.3600000000006
 31
0.0
  0
LINE
  5
80A
330
37
100
AcDbEntity
  8
FORMATO
100
AcDbLine
 10
134.0159999999996
 20
40.3600000000006
 30
0.0
 11
134.0159999999996
 21
39.10000000000039
 31
0.0
  0
LINE
  5
80B
330
37
100
AcDbEntity
  8
FORMATO
100
AcDbLine
 10
134.0159999999996
 20
40.3600000000006
 30
0.0
 11
134.0159999999996
 21
41.6100000000006
 31
0.0
  0
LINE
  5
80C
330
37
100
AcDbEntity
  8
FORMATO
100
AcDbLine
 10
134.0159999999996
 20
39.10000000000039
 30
0.0
 11
139.0159999999996
 21
38.10000000000039
 31
0.0
  0
LINE
  5
80D
330
37
100
AcDbEntity
  8
FORMATO
100
AcDbLine
 10
134.0159999999996
 20
41.6100000000006
 30
0.0
 11
139.0159999999996
 21
42.61000000000061
 31
0.0
  0
LINE
  5
80E
330
37
100
AcDbEntity
  8
FORMATO
100
AcDbLine
 10
134.3279999999995
 20
50.50000000000003
 30
0.0
 11
145.4179999999996
 21
50.50000000000003
 31
0.0
  0
LINE
  5
80F
330
37
100
AcDbEntity
  8
FORMATO
100
AcDbLine
 10
135.5859999999993
 20
46.00000000000003
 30
0.0
 11
142.1290000000008
 21
46.00000000000003
 31
0.0
  0
TEXT
  5
810
330
37
100
AcDbEntity
  8
FORMATO
100
AcDbText
 10
134.0930000000007
 20
46.50000000000003
 30
0.0
 40
2.0
  1
 h11
 41
0.99
 51
10.0
100
AcDbText
  0
TEXT
  5
811
330
37
100
AcDbEntity
  8
FORMATO
100
AcDbText
 10
134.0930000000007
 20
51.00000000000003
 30
0.0
 40
2.0
  1
Alberi
 41
0.99
 51
10.0
100
AcDbText
  0
TEXT
  5
812
330
37
100
AcDbEntity
  8
FORMATO
100
AcDbText
 10
138.491
 20
21.30000000000112
 30
0.0
 40
7.0
  1
C
 51
20.0
100
AcDbText
  0
TEXT
  5
813
330
37
100
AcDbEntity
  8
FORMATO
100
AcDbText
 10
135.4889999999995
 20
25.65999999999988
 30
0.0
 40
7.0
  1
T
 51
20.0
100
AcDbText
  0
TEXT
  5
814
330
37
100
AcDbEntity
  8
FORMATO
100
AcDbText
 10
135.7890000000006
 20
25.96000000000098
 30
0.0
 40
7.0
  1
T
 51
20.0
100
AcDbText
  0
TEXT
  5
815
330
37
100
AcDbEntity
  8
FORMATO
100
AcDbText
 10
136.0889999999999
 20
26.26000000000025
 30
0.0
 40
7.0
  1
T
 51
20.0
100
AcDbText
  0
TEXT
  5
816
330
37
100
AcDbEntity
  8
FORMATO
100
AcDbText
 10
136.3889999999992
 20
26.55999999999952
 30
0.0
 40
7.0
  1
T
 51
20.0
100
AcDbText
  0
TEXT
  5
817
330
37
100
AcDbEntity
  8
FORMATO
100
AcDbText
 10
136.6890000000003
 20
26.86000000000061
 30
0.0
 40
7.0
  1
T
 51
20.0
100
AcDbText
  0
TEXT
  5
818
330
37
100
AcDbEntity
  8
FORMATO
100
AcDbText
 10
136.9889999999996
 20
27.15999999999989
 30
0.0
 40
7.0
  1
T
 51
20.0
100
AcDbText
  0
LINE
  5
819
330
37
100
AcDbEntity
  8
FORMATO
 62
     7
100
AcDbLine
 10
130.0
 20
54.00000000000003
 30
0.0
 11
130.0
 21
36.00000000000003
 31
0.0
  0
LINE
  5
81A
330
37
100
AcDbEntity
  8
FORMATO
100
AcDbLine
 10
144.3329999999987
 20
43.70000000000075
 30
0.0
 11
144.3329999999987
 21
37.02000000000047
 31
0.0
  0
TEXT
  5
81B
330
37
100
AcDbEntity
  8
FORMATO
100
AcDbText
 10
112.6650000000009
 20
37.93000000000032
 30
0.0
 40
2.0
  1
 %%p30'
 41
0.7071430000000002
 51
10.0
100
AcDbText
  0
LINE
  5
81C
330
37
100
AcDbEntity
  8
FORMATO
100
AcDbLine
 10
116.5859999999993
 20
46.00000000000003
 30
0.0
 11
123.1290000000008
 21
46.00000000000003
 31
0.0
  0
TEXT
  5
81D
330
37
100
AcDbEntity
  8
FORMATO
100
AcDbText
 10
115.0930000000007
 20
46.50000000000003
 30
0.0
 40
2.0
  1
 H11
 41
0.99
 51
10.0
100
AcDbText
  0
LINE
  5
81E
330
37
100
AcDbEntity
  8
FORMATO
100
AcDbLine
 10
117.3279999999995
 20
50.50000000000003
 30
0.0
 11
124.3850000000002
 21
50.50000000000003
 31
0.0
  0
TEXT
  5
81F
330
37
100
AcDbEntity
  8
FORMATO
100
AcDbText
 10
117.0930000000007
 20
51.00000000000003
 30
0.0
 40
2.0
  1
Fori
 41
0.99
 51
10.0
100
AcDbText
  0
LINE
  5
820
330
37
100
AcDbEntity
  8
FORMATO
100
AcDbLine
 10
115.4339999999993
 20
37.00000000000003
 30
0.0
 11
120.5119999999988
 21
37.00000000000003
 31
0.0
  0
LINE
  5
821
330
37
100
AcDbEntity
  8
FORMATO
 62
     7
100
AcDbLine
 10
110.0
 20
54.00000000000003
 30
0.0
 11
110.0
 21
36.00000000000003
 31
0.0
  0
TEXT
  5
822
330
37
100
AcDbEntity
  8
FORMATO
100
AcDbText
 10
112.0930000000007
 20
42.00000000000002
 30
0.0
 40
2.0
  1
Angolari
 41
0.99
 51
10.0
100
AcDbText
  0
LINE
  5
823
330
37
100
AcDbEntity
  8
FORMATO
100
AcDbLine
 10
112.3869999999988
 20
41.50000000000003
 30
0.0
 11
126.4369999999999
 21
41.50000000000003
 31
0.0
  0
TEXT
  5
824
330
37
100
AcDbEntity
  8
FORMATO
100
AcDbText
 10
90.77999999999883
 20
24.00000000000003
 30
0.0
 40
2.0
  1
Scala
 41
0.99
 51
10.0
100
AcDbText
  0
TEXT
  5
825
330
37
100
AcDbEntity
  8
FORMATO
100
AcDbText
 10
91.09300000000075
 20
33.00000000000003
 30
0.0
 40
2.0
  1
Data
 41
0.99
 51
10.0
100
AcDbText
  0
LINE
  5
826
330
37
100
AcDbEntity
  8
FORMATO
100
AcDbLine
 10
91.03800000000047
 20
23.50000000000003
 30
0.0
 11
100.3580000000001
 21
23.50000000000003
 31
0.0
  0
LINE
  5
827
330
37
100
AcDbEntity
  8
FORMATO
100
AcDbLine
 10
90.91799999999967
 20
32.50000000000003
 30
0.0
 11
98.97500000000036
 21
32.50000000000003
 31
0.0
  0
LINE
  5
828
330
37
100
AcDbEntity
  8
FORMATO
100
AcDbLine
 10
93.58599999999933
 20
37.00000000000003
 30
0.0
 11
100.1290000000008
 21
37.00000000000003
 31
0.0
  0
TEXT
  5
829
330
37
100
AcDbEntity
  8
FORMATO
100
AcDbText
 10
92.09300000000075
 20
37.50000000000003
 30
0.0
 40
2.0
  1
 Js11
 41
0.99
 51
10.0
100
AcDbText
  0
TEXT
  5
82A
330
37
100
AcDbEntity
  8
FORMATO
100
AcDbText
 10
92.09300000000075
 20
42.00000000000002
 30
0.0
 40
2.0
  1
Lineari
 41
0.99
 51
10.0
100
AcDbText
  0
LINE
  5
82B
330
37
100
AcDbEntity
  8
FORMATO
100
AcDbLine
 10
92.32799999999953
 20
41.50000000000003
 30
0.0
 11
104.6000000000003
 21
41.50000000000003
 31
0.0
  0
TEXT
  5
82C
330
37
100
AcDbEntity
  8
FORMATO
100
AcDbText
 10
92.09300000000075
 20
46.50000000000003
 30
0.0
 40
2.0
  1
Generali
 41
0.99
 51
10.0
100
AcDbText
  0
TEXT
  5
82D
330
37
100
AcDbEntity
  8
FORMATO
100
AcDbText
 10
92.09300000000075
 20
51.00000000000003
 30
0.0
 40
2.0
  1
Toller.
 41
0.99
 51
10.0
100
AcDbText
  0
LINE
  5
82E
330
37
100
AcDbEntity
  8
FORMATO
100
AcDbLine
 10
92.32799999999953
 20
50.50000000000003
 30
0.0
 11
103.5849999999991
 21
50.50000000000003
 31
0.0
  0
LINE
  5
82F
330
37
100
AcDbEntity
  8
FORMATO
100
AcDbLine
 10
92.41300000000046
 20
46.00000000000003
 30
0.0
 11
106.5469999999986
 21
46.00000000000003
 31
0.0
  0
LINE
  5
830
330
37
100
AcDbEntity
  8
FORMATO
 62
     7
100
AcDbLine
 10
52.5
 20
54.00000000000003
 30
0.0
 11
52.5
 21
27.00000000000003
 31
0.0
  0
ARC
  5
831
330
37
100
AcDbEntity
  8
FORMATO
100
AcDbCircle
 10
10.75699999999961
 20
50.00000000000003
 30
0.0
 40
0.72
100
AcDbArc
 50
270.0
 51
90.0
  0
ARC
  5
832
330
37
100
AcDbEntity
  8
FORMATO
100
AcDbCircle
 10
10.51699999999982
 20
50.23999999999981
 30
0.0
 40
2.496
100
AcDbArc
 50
354.241
 51
90.0
  0
TEXT
  5
833
330
37
100
AcDbEntity
  8
FORMATO
100
AcDbText
 10
17.09300000000076
 20
42.00000000000002
 30
0.0
 40
2.0
  1
Durezza
 41
0.99
 51
10.0
100
AcDbText
  0
LINE
  5
834
330
37
100
AcDbEntity
  8
FORMATO
100
AcDbLine
 10
16.0
 20
41.50000000000003
 30
0.0
 11
31.11399999999958
 21
41.50000000000003
 31
0.0
  0
TEXT
  5
835
330
37
100
AcDbEntity
  8
FORMATO
100
AcDbText
 10
16.93599999999969
 20
51.00000000000003
 30
0.0
 40
2.0
  1
Mater.
 41
0.99
 51
10.0
100
AcDbText
  0
LINE
  5
836
330
37
100
AcDbEntity
  8
FORMATO
100
AcDbLine
 10
17.15400000000045
 20
50.50000000000003
 30
0.0
 11
26.72999999999956
 21
50.50000000000003
 31
0.0
  0
LINE
  5
837
330
37
100
AcDbEntity
  8
FORMATO
100
AcDbLine
 10
16.0
 20
32.50000000000003
 30
0.0
 11
29.4989999999998
 21
32.50000000000003
 31
0.0
  0
TEXT
  5
838
330
37
100
AcDbEntity
  8
FORMATO
100
AcDbText
 10
17.09300000000076
 20
33.00000000000003
 30
0.0
 40
2.0
  1
Dimens.
 41
0.99
 51
10.0
100
AcDbText
  0
LINE
  5
839
330
37
100
AcDbEntity
  8
FORMATO
 62
     7
100
AcDbLine
 10
15.0
 20
54.00000000000003
 30
0.0
 11
15.0
 21
27.00000000000003
 31
0.0
  0
LINE
  5
83A
330
37
100
AcDbEntity
  8
FORMATO
100
AcDbLine
 10
53.76699999999982
 20
32.50000000000003
 30
0.0
 11
67.57099999999991
 21
32.50000000000003
 31
0.0
  0
LINE
  5
83B
330
37
100
AcDbEntity
  8
FORMATO
100
AcDbLine
 10
53.81099999999969
 20
41.50000000000003
 30
0.0
 11
69.79000000000088
 21
41.50000000000003
 31
0.0
  0
TEXT
  5
83C
330
37
100
AcDbEntity
  8
FORMATO
100
AcDbText
 10
53.59300000000075
 20
42.00000000000002
 30
0.0
 40
2.0
  1
Commessa
 41
0.99
 51
10.0
100
AcDbText
  0
TEXT
  5
83D
330
37
100
AcDbEntity
  8
FORMATO
100
AcDbText
 10
53.59300000000075
 20
33.00000000000003
 30
0.0
 40
2.0
  1
N%%dcompl.
 41
0.792
 51
10.0
100
AcDbText
  0
TEXT
  5
83E
330
37
100
AcDbEntity
  8
FORMATO
100
AcDbText
 10
53.93599999999969
 20
51.00000000000003
 30
0.0
 40
2.0
  1
Trattam.
 41
0.99
 51
10.0
100
AcDbText
  0
LINE
  5
83F
330
37
100
AcDbEntity
  8
FORMATO
100
AcDbLine
 10
54.10900000000038
 20
50.50000000000003
 30
0.0
 11
67.1299999999992
 21
50.50000000000003
 31
0.0
  0
TEXT
  5
840
330
37
100
AcDbEntity
  8
FORMATO
100
AcDbText
 10
91.15400000000045
 20
6.000000000000028
 30
0.0
 40
2.0
  1
Contr.
 41
0.99
 51
10.0
100
AcDbText
  0
TEXT
  5
841
330
37
100
AcDbEntity
  8
FORMATO
100
AcDbText
 10
90.46700000000056
 20
15.00000000000003
 30
0.0
 40
2.0
  1
Disegn.
 41
0.99
 51
10.0
100
AcDbText
  0
LINE
  5
842
330
37
100
AcDbEntity
  8
FORMATO
100
AcDbLine
 10
90.97799999999915
 20
5.500000000000028
 30
0.0
 11
101.2600000000002
 21
5.500000000000028
 31
0.0
  0
LINE
  5
843
330
37
100
AcDbEntity
  8
FORMATO
100
AcDbLine
 10
90.79699999999865
 20
14.50000000000003
 30
0.0
 11
103.1239999999998
 21
14.50000000000003
 31
0.0
  0
LINE
  5
844
330
37
100
AcDbEntity
  8
FORMATO
 62
     7
100
AcDbLine
 10
122.0
 20
9.000000000000028
 30
0.0
 11
90.0
 21
9.000000000000028
 31
0.0
  0
LINE
  5
845
330
37
100
AcDbEntity
  8
FORMATO
 62
     7
100
AcDbLine
 10
122.0
 20
18.00000000000003
 30
0.0
 11
90.0
 21
18.00000000000003
 31
0.0
  0
LINE
  5
846
330
37
100
AcDbEntity
  8
FORMATO
 62
     7
100
AcDbLine
 10
90.0
 20
54.00000000000003
 30
0.0
 11
90.0
 21
0.0000000000000284
 31
0.0
  0
LINE
  5
847
330
37
100
AcDbEntity
  8
FORMATO
 62
     7
100
AcDbLine
 10
89.0
 20
1.000000000000028
 30
0.0
 11
89.0
 21
26.00000000000003
 31
0.0
  0
LINE
  5
848
330
37
100
AcDbEntity
  8
FORMATO
 62
     7
100
AcDbLine
 10
123.0
 20
35.00000000000003
 30
0.0
 11
123.0
 21
18.00000000000003
 31
0.0
  0
LINE
  5
849
330
37
100
AcDbEntity
  8
FORMATO
 62
     7
100
AcDbLine
 10
122.0
 20
36.00000000000003
 30
0.0
 11
122.0
 21
0.0000000000000284
 31
0.0
  0
TEXT
  5
84A
330
37
100
AcDbEntity
  8
FORMATO
100
AcDbText
 10
138.1909999999989
 20
21.00000000000003
 30
0.0
 40
7.0
  1
C
 51
20.0
100
AcDbText
  0
TEXT
  5
84B
330
37
100
AcDbEntity
  8
FORMATO
100
AcDbText
 10
137.8909999999996
 20
20.70000000000076
 30
0.0
 40
7.0
  1
C
 51
20.0
100
AcDbText
  0
TEXT
  5
84C
330
37
100
AcDbEntity
  8
FORMATO
100
AcDbText
 10
137.5910000000003
 20
20.39999999999967
 30
0.0
 40
7.0
  1
C
 51
20.0
100
AcDbText
  0
TEXT
  5
84D
330
37
100
AcDbEntity
  8
FORMATO
100
AcDbText
 10
137.2909999999992
 20
20.10000000000039
 30
0.0
 40
7.0
  1
C
 51
20.0
100
AcDbText
  0
TEXT
  5
84E
330
37
100
AcDbEntity
  8
FORMATO
100
AcDbText
 10
136.991
 20
19.80000000000112
 30
0.0
 40
7.0
  1
C
 51
20.0
100
AcDbText
  0
LINE
  5
84F
330
37
100
AcDbEntity
  8
FORMATO
 62
     7
100
AcDbLine
 10
179.0
 20
18.00000000000003
 30
0.0
 11
123.0
 21
18.00000000000003
 31
0.0
  0
LINE
  5
850
330
37
100
AcDbEntity
  8
FORMATO
 62
     7
100
AcDbLine
 10
179.0
 20
35.00000000000003
 30
0.0
 11
123.0
 21
35.00000000000003
 31
0.0
  0
LINE
  5
851
330
37
100
AcDbEntity
  8
FORMATO
100
AcDbLine
 10
123.3629999999994
 20
2.000000000000028
 30
0.0
 11
178.9529999999995
 21
2.000000000000028
 31
0.0
  0
LINE
  5
852
330
37
100
AcDbEntity
  8
FORMATO
100
AcDbLine
 10
136.6319999999996
 20
12.1700000000001
 30
0.0
 11
164.9049999999988
 21
12.1700000000001
 31
0.0
  0
LINE
  5
853
330
37
100
AcDbEntity
  8
FORMATO
100
AcDbLine
 10
144.7109999999993
 20
20.09000000000018
 30
0.0
 11
164.3140000000003
 21
20.09000000000018
 31
0.0
  0
LINE
  5
854
330
37
100
AcDbEntity
  8
FORMATO
100
AcDbLine
 10
164.3140000000003
 20
20.09000000000018
 30
0.0
 11
144.5349999999998
 21
19.6700000000001
 31
0.0
  0
LINE
  5
855
330
37
100
AcDbEntity
  8
FORMATO
100
AcDbLine
 10
164.8140000000003
 20
21.0400000000009
 30
0.0
 11
145.0349999999998
 21
20.62000000000083
 31
0.0
  0
LINE
  5
856
330
37
100
AcDbEntity
  8
FORMATO
100
AcDbLine
 10
165.3140000000003
 20
21.98999999999981
 30
0.0
 11
145.5349999999998
 21
21.57000000000156
 31
0.0
  0
LINE
  5
857
330
37
100
AcDbEntity
  8
FORMATO
100
AcDbLine
 10
165.8140000000003
 20
22.94000000000054
 30
0.0
 11
146.0349999999998
 21
22.52000000000046
 31
0.0
  0
LINE
  5
858
330
37
100
AcDbEntity
  8
FORMATO
100
AcDbLine
 10
145.2109999999993
 20
21.0400000000009
 30
0.0
 11
164.8140000000003
 21
21.0400000000009
 31
0.0
  0
LINE
  5
859
330
37
100
AcDbEntity
  8
FORMATO
100
AcDbLine
 10
145.7109999999993
 20
21.98999999999981
 30
0.0
 11
165.3140000000003
 21
21.98999999999981
 31
0.0
  0
LINE
  5
85A
330
37
100
AcDbEntity
  8
FORMATO
100
AcDbLine
 10
146.2109999999993
 20
22.94000000000054
 30
0.0
 11
165.8140000000003
 21
22.94000000000054
 31
0.0
  0
TEXT
  5
85B
330
37
100
AcDbEntity
  8
FORMATO
100
AcDbText
 10
146.2369999999991
 20
25.48999999999981
 30
0.0
 40
4.0
  1
enter
 51
20.0
100
AcDbText
  0
TEXT
  5
85C
330
37
100
AcDbEntity
  8
FORMATO
100
AcDbText
 10
144.0349999999998
 20
31.23999999999981
 30
0.0
 40
4.0
  1
ecno
 51
20.0
100
AcDbText
  0
TEXT
  5
85D
330
37
100
AcDbEntity
  8
FORMATO
100
AcDbText
 10
146.0370000000002
 20
25.2900000000009
 30
0.0
 40
4.0
  1
enter
 51
20.0
100
AcDbText
  0
TEXT
  5
85E
330
37
100
AcDbEntity
  8
FORMATO
100
AcDbText
 10
143.8339999999989
 20
31.0400000000009
 30
0.0
 40
4.0
  1
ecno
 51
20.0
100
AcDbText
  0
TEXT
  5
85F
330
37
100
AcDbEntity
  8
FORMATO
100
AcDbText
 10
145.8369999999995
 20
25.09000000000018
 30
0.0
 40
4.0
  1
enter
 51
20.0
100
AcDbText
  0
TEXT
  5
860
330
37
100
AcDbEntity
  8
FORMATO
100
AcDbText
 10
145.6369999999988
 20
24.89000000000127
 30
0.0
 40
4.0
  1
enter
 51
20.0
100
AcDbText
  0
TEXT
  5
861
330
37
100
AcDbEntity
  8
FORMATO
100
AcDbText
 10
139.9993392511569
 20
13.21000000000097
 30
0.0
 40
3.0
  1
N%%d DISEGNO
 41
0.825
 51
10.0
100
AcDbText
  0
TEXT
  5
862
330
37
100
AcDbEntity
  8
FORMATO
100
AcDbText
 10
143.6350000000002
 20
30.84000000000017
 30
0.0
 40
4.0
  1
ecno
 51
20.0
100
AcDbText
  0
TEXT
  5
863
330
37
100
AcDbEntity
  8
FORMATO
100
AcDbText
 10
143.4339999999993
 20
30.64000000000127
 30
0.0
 40
4.0
  1
ecno
 51
20.0
100
AcDbText
  0
LINE
  5
864
330
37
100
AcDbEntity
  8
FORMATO
100
AcDbLine
 10
132.3299999999999
 20
40.3600000000006
 30
0.0
 11
148.4470000000001
 21
40.3600000000006
 31
0.0
  0
LINE
  5
865
330
37
100
AcDbEntity
  8
FORMATO
 62
     7
100
AcDbLine
 10
162.0
 20
205.0
 30
0.0
 11
180.0000000000018
 21
205.0
 31
0.0
  0
LINE
  5
866
330
37
100
AcDbEntity
  8
FORMATO
 62
     7
100
AcDbLine
 10
180.0000000000018
 20
205.0
 30
0.0
 11
180.0000000000018
 21
0.0
 31
0.0
  0
LINE
  5
867
330
37
100
AcDbEntity
  8
FORMATO
 62
     7
100
AcDbLine
 10
0.0
 20
0.0
 30
0.0
 11
180.0000000000018
 21
0.0
 31
0.0
  0
ATTDEF
  5
868
330
37
100
AcDbEntity
  8
FORMATO
 62
     7
100
AcDbText
 10
9.00003649294922
 20
21.33003345487475
 30
0.0
 40
3.5
  1

  7
SIMPLEX
100
AcDbAttributeDefinition
  3
DENOMINAZIONE RIGA1
  2
DEN1
 70
     0
  0
ATTDEF
  5
869
330
37
100
AcDbEntity
  8
FORMATO
 62
     7
100
AcDbText
 10
9.00003649294922
 20
15.68003345487474
 30
0.0
 40
3.5
  1

  7
SIMPLEX
100
AcDbAttributeDefinition
  3
DENOMINAZIONE RIGA2
  2
DEN2
 70
     0
  0
ATTDEF
  5
86A
330
37
100
AcDbEntity
  8
FORMATO
 62
     7
100
AcDbText
 10
9.00003649294922
 20
10.03003345487474
 30
0.0
 40
3.5
  1

  7
SIMPLEX
100
AcDbAttributeDefinition
  3
DENOMINAZIONE RIGA3
  2
DEN3
 70
     0
  0
ATTDEF
  5
86B
330
37
100
AcDbEntity
  8
FORMATO
 62
     7
100
AcDbText
 10
9.00003649294922
 20
4.380033454874762
 30
0.0
 40
3.5
  1

  7
SIMPLEX
100
AcDbAttributeDefinition
  3
DENOMINAZIONE RIGA4
  2
DEN4
 70
     0
  0
ATTDEF
  5
86C
330
37
100
AcDbEntity
  8
FORMATO
 62
     7
100
AcDbText
 10
151.1580364929505
 20
5.500033454874738
 30
0.0
 40
5.0
  1

  7
SIMPLEX
 72
     4
 11
151.1580364929505
 21
5.500033454874738
 31
0.0
100
AcDbAttributeDefinition
  3
NUMERO DI DISEGNO
  2
NDIS
 70
     0
  0
ATTDEF
  5
86D
330
37
100
AcDbEntity
  8
FORMATO
 62
     7
100
AcDbText
 10
156.0000364929492
 20
41.00003345487474
 30
0.0
 40
3.0
  1

  7
SIMPLEX
 72
     4
 11
156.0000364929492
 21
41.00003345487474
 31
0.0
100
AcDbAttributeDefinition
  3
NUMERO TAVOLE
  2
TAV
 70
     0
  0
ATTDEF
  5
86E
330
37
100
AcDbEntity
  8
FORMATO
 62
     7
100
AcDbText
 10
95.00003649294923
 20
28.46431916916046
 30
0.0
 40
3.0
  1
  /  /
  7
SIMPLEX
 72
     4
 11
106.0000364929492
 21
29.75003345487474
 31
0.0
100
AcDbAttributeDefinition
  3
DATA
  2
DATA
 70
     0
  0
ATTDEF
  5
86F
330
37
100
AcDbEntity
  8
FORMATO
 62
     7
100
AcDbText
 10
106.0000364929492
 20
20.75003345487474
 30
0.0
 40
3.0
  1

  7
SIMPLEX
 72
     4
 11
106.0000364929492
 21
20.75003345487474
 31
0.0
100
AcDbAttributeDefinition
  3
SCALA
  2
SCALA
 70
     0
  0
ATTDEF
  5
870
330
37
100
AcDbEntity
  8
FORMATO
 62
     7
100
AcDbText
 10
106.0000364929492
 20
11.75003345487474
 30
0.0
 40
3.0
  1

  7
SIMPLEX
 72
     4
 11
106.0000364929492
 21
11.75003345487474
 31
0.0
100
AcDbAttributeDefinition
  3
DISEGNATORE
  2
DIS
 70
     0
  0
ATTDEF
  5
871
330
37
100
AcDbEntity
  8
FORMATO
 62
     7
100
AcDbText
 10
106.0000364929492
 20
2.750033454874738
 30
0.0
 40
3.0
  1

  7
SIMPLEX
 72
     4
 11
106.0000364929492
 21
2.750033454874738
 31
0.0
100
AcDbAttributeDefinition
  3
CONTRLLO
  2
CONTR
 70
     0
  0
ATTDEF
  5
872
330
37
100
AcDbEntity
  8
FORMATO
 62
     7
100
AcDbText
 10
33.75003649294922
 20
47.75003345487474
 30
0.0
 40
2.5
  1

  7
SIMPLEX
 72
     4
 11
33.75003649294922
 21
47.75003345487474
 31
0.0
100
AcDbAttributeDefinition
  3
MATERIALE
  2
MAT
 70
     0
  0
ATTDEF
  5
873
330
37
100
AcDbEntity
  8
FORMATO
 62
     7
100
AcDbText
 10
71.25003649294922
 20
47.75003345487474
 30
0.0
 40
2.5
  1

  7
SIMPLEX
 72
     4
 11
71.25003649294922
 21
47.75003345487474
 31
0.0
100
AcDbAttributeDefinition
  3
TRATTAMENTO
  2
TRATT
 70
     0
  0
ATTDEF
  5
874
330
37
100
AcDbEntity
  8
FORMATO
 62
     7
100
AcDbText
 10
33.75003649294922
 20
38.75003345487474
 30
0.0
 40
2.5
  1

  7
SIMPLEX
 72
     4
 11
33.75003649294922
 21
38.75003345487474
 31
0.0
100
AcDbAttributeDefinition
  3
DUREZZA
  2
DUR
 70
     0
  0
ATTDEF
  5
875
330
37
100
AcDbEntity
  8
FORMATO
 62
     7
100
AcDbText
 10
33.75003649294922
 20
29.75003345487474
 30
0.0
 40
2.5
  1

  7
SIMPLEX
 72
     4
 11
33.75003649294922
 21
29.75003345487474
 31
0.0
100
AcDbAttributeDefinition
  3
DIMENSIONE GREZZO
  2
DIM
 70
     0
  0
ATTDEF
  5
876
330
37
100
AcDbEntity
  8
FORMATO
 62
     7
100
AcDbText
 10
7.50003649294922
 20
29.75003345487474
 30
0.0
 40
2.5
  1

  7
SIMPLEX
 72
     4
 11
7.50003649294922
 21
29.75003345487474
 31
0.0
100
AcDbAttributeDefinition
  3
PESO (Kg)
  2
PESO
 70
     0
  0
ATTDEF
  5
877
330
37
100
AcDbEntity
  8
FORMATO
 62
     7
100
AcDbText
 10
71.25003649294922
 20
29.75003345487474
 30
0.0
 40
2.5
  1

  7
SIMPLEX
 72
     4
 11
71.25003649294922
 21
29.75003345487474
 31
0.0
100
AcDbAttributeDefinition
  3
NUMERO COMPLESSIVO
  2
NCOMPL
 70
     0
  0
ATTDEF
  5
878
330
37
100
AcDbEntity
  8
FORMATO
 62
     7
100
AcDbText
 10
71.25003649294922
 20
38.75003345487474
 30
0.0
 40
2.5
  1

  7
SIMPLEX
 72
     4
 11
71.25003649294922
 21
38.75003345487474
 31
0.0
100
AcDbAttributeDefinition
  3
COMMESSA
  2
COMM
 70
     0
  0
ATTDEF
  5
879
330
37
100
AcDbEntity
  8
FORMATO
 62
     7
100
AcDbText
 10
7.50003649294922
 20
38.75003345487474
 30
0.0
 40
2.0
  1

  7
SIMPLEX
 72
     4
 11
7.50003649294922
 21
38.75003345487474
 31
0.0
100
AcDbAttributeDefinition
  3
CLIENTE
  2
CLIENTE
 70
     0
  0
ATTDEF
  5
87A
330
37
100
AcDbEntity
  8
FORMATO
 62
     7
100
AcDbText
 10
178.7499665451269
 20
43.00003649294743
 30
0.0
 40
2.0
  1
A)
 50
90.0
  7
SIMPLEX
100
AcDbAttributeDefinition
  3
INDICE DI MODIFICA A)
  2
MOD1
 70
     0
  0
ATTDEF
  5
87B
330
37
100
AcDbEntity
  8
FORMATO
 62
     7
100
AcDbText
 10
174.249966545125
 20
43.00003649294924
 30
0.0
 40
2.0
  1
B)
 50
90.0
  7
SIMPLEX
100
AcDbAttributeDefinition
  3
INDICE DI MODIFICA B
  2
MOD2
 70
     0
  0
ATTDEF
  5
87C
330
37
100
AcDbEntity
  8
FORMATO
 62
     7
100
AcDbText
 10
169.749966545125
 20
43.00003649294924
 30
0.0
 40
2.0
  1
C)
 50
90.0
  7
SIMPLEX
100
AcDbAttributeDefinition
  3
INDICE DI MODIFICA C
  2
MOD3
 70
     0
  0
ATTDEF
  5
87D
330
37
100
AcDbEntity
  8
FORMATO
 62
     7
100
AcDbText
 10
165.249966545125
 20
43.00003649294924
 30
0.0
 40
2.0
  1
D)
 50
90.0
  7
SIMPLEX
100
AcDbAttributeDefinition
  3
INDICE DI MODIFICA D
  2
MOD4
 70
     0
  0
ENDBLK
  5
1AF
330
37
100
AcDbEntity
  8
0
100
AcDbBlockEnd
  0
ENDSEC
  0
SECTION
  2
ENTITIES
  0
MTEXT
  5
CE4
330
2
100
AcDbEntity
  8
QUOTE
 62
     7
100
AcDbMText
 10
327.2626059481518
 20
288.8965575332372
 30
0.0
 40
3.5
 41
0.0
 71
     4
 72
     1
  1
\A1;
  7
SIMPLEX
 73
     1
 44
1.0
  0
MTEXT
  5
D46
330
2
100
AcDbEntity
  8
QUOTE
 62
     7
100
AcDbMText
 10
308.7873014195484
 20
281.0225495092672
 30
0.0
 40
3.5
 41
0.0
 71
     6
 72
     1
  1
\A1;
  7
SIMPLEX
 73
     1
 44
1.0
  0
MTEXT
  5
D4E
330
2
100
AcDbEntity
  8
QUOTE
 62
     7
100
AcDbMText
 10
305.7736814203774
 20
279.6837460997216
 30
0.0
 40
3.5
 41
0.0
 71
     6
 72
     1
  1
\A1;
  7
SIMPLEX
 73
     1
 44
1.0
  0
CIRCLE
  5
EC6
330
2
100
AcDbEntity
  8
DISEGNO
100
AcDbCircle
 10
778.6979612446145
 20
98.28150799586456
 30
0.0
 40
3.499999999999971
  0
CIRCLE
  5
EC7
330
2
100
AcDbEntity
  8
DISEGNO
100
AcDbCircle
 10
778.6979612446145
 20
98.28150799586456
 30
0.0
 40
5.500000000001804
  0
LINE
  5
ECA
330
2
100
AcDbEntity
  8
ASSI
100
AcDbLine
 10
778.6979612446145
 20
72.82076492426369
 30
0.0
 11
778.6979612446145
 21
226.8973625767387
 31
0.0
  0
LINE
  5
ECD
330
2
100
AcDbEntity
  8
DISEGNO
100
AcDbLine
 10
761.1979612446146
 20
71.91396996315382
 30
0.0
 11
761.1979612446146
 21
108.1436718114838
 31
0.0
  0
LINE
  5
ECE
330
2
100
AcDbEntity
  8
DISEGNO
100
AcDbLine
 10
796.1979612446145
 20
84.65292816247089
 30
0.0
 11
796.1979612446145
 21
107.7002399858702
 31
0.0
  0
LINE
  5
ECF
330
2
100
AcDbEntity
  8
DISEGNO
100
AcDbLine
 10
771.1979612446123
 20
75.55367230581504
 30
0.0
 11
771.1979612446123
 21
111.8743828921942
 31
0.0
  0
LINE
  5
ED0
330
2
100
AcDbEntity
  8
DISEGNO
100
AcDbLine
 10
786.197961244615
 20
81.01322581980904
 30
0.0
 11
786.197961244615
 21
108.7507440244861
 31
0.0
  0
LINE
  5
F1A
330
2
100
AcDbEntity
  8
DISEGNO
100
AcDbLine
 10
761.1979612446146
 20
71.91396996315382
 30
0.0
 11
796.1979612446145
 21
84.65292816247089
 31
0.0
  0
LINE
  5
F1C
330
2
100
AcDbEntity
  8
ASSI
100
AcDbLine
 10
767.982897592565
 20
98.28150799586456
 30
0.0
 11
789.1176520899644
 21
98.28150799586456
 31
0.0
  0
CIRCLE
  5
F36
330
2
100
AcDbEntity
  8
DISEGNO
100
AcDbCircle
 10
778.6979612446145
 20
198.2815079958646
 30
0.0
 40
5.500000000001804
  0
LINE
  5
F37
330
2
100
AcDbEntity
  8
DISEGNO
100
AcDbLine
 10
796.1979612446145
 20
179.7579357209301
 30
0.0
 11
796.1979612446145
 21
224.6509870955232
 31
0.0
  0
LINE
  5
F38
330
2
100
AcDbEntity
  8
DISEGNO
100
AcDbLine
 10
761.1979612446146
 20
180.2013675465438
 30
0.0
 11
761.1979612446146
 21
211.9120288962061
 31
0.0
  0
LINE
  5
F39
330
2
100
AcDbEntity
  8
DISEGNO
100
AcDbLine
 10
771.1979612446123
 20
183.9320786272541
 30
0.0
 11
771.1979612446123
 21
215.5517312388672
 31
0.0
  0
LINE
  5
F3A
330
2
100
AcDbEntity
  8
DISEGNO
100
AcDbLine
 10
786.1979612446149
 20
180.8084397595461
 30
0.0
 11
786.1979612446148
 21
221.0112847528612
 31
0.0
  0
CIRCLE
  5
F3E
330
2
100
AcDbEntity
  8
DISEGNO
100
AcDbCircle
 10
778.6979612446145
 20
148.2815079958645
 30
0.0
 40
5.500000000001804
  0
CIRCLE
  5
F3F
330
2
100
AcDbEntity
  8
DISEGNO
100
AcDbCircle
 10
778.6979612446145
 20
148.2815079958645
 30
0.0
 40
3.499999999999971
  0
LINE
  5
F40
330
2
100
AcDbEntity
  8
DISEGNO
100
AcDbLine
 10
796.1979612446145
 20
111.2476953202595
 30
0.0
 11
796.1979612446145
 21
176.2104803865408
 31
0.0
  0
LINE
  5
F41
330
2
100
AcDbEntity
  8
DISEGNO
100
AcDbLine
 10
786.197961244615
 20
112.2981993588755
 30
0.0
 11
786.1979612446149
 21
177.2609844251567
 31
0.0
  0
LINE
  5
F42
330
2
100
AcDbEntity
  8
DISEGNO
100
AcDbLine
 10
761.1979612446146
 20
111.6911271458732
 30
0.0
 11
761.1979612446146
 21
176.6539122121544
 31
0.0
  0
LINE
  5
F43
330
2
100
AcDbEntity
  8
DISEGNO
100
AcDbLine
 10
771.1979612446123
 20
115.4218382265835
 30
0.0
 11
771.1979612446123
 21
180.3846232928647
 31
0.0
  0
SPLINE
  5
F44
330
2
100
AcDbEntity
  8
LINEAFINE
100
AcDbSpline
210
0.0
220
0.0
230
1.0
 70
     8
 71
     3
 72
    10
 73
     6
 74
     4
 42
0.0000000001
 43
0.0000000001
 44
0.0000000001
 40
0.0
 40
0.0
 40
0.0
 40
0.0
 40
14.38996725146537
 40
30.53714759372033
 40
36.185292456236
 40
36.185292456236
 40
36.185292456236
 40
36.185292456236
 10
761.1979612446146
 20
111.6911271458732
 30
0.0
 10
765.8233201516082
 20
113.8403967793152
 30
0.0
 10
775.6388579598969
 20
118.4013914548544
 30
0.0
 10
786.9998903095236
 20
110.6950978840104
 30
0.0
 10
794.3049048282898
 20
111.1339651555633
 30
0.0
 10
796.1979612446145
 20
111.2476953202596
 30
0.0
 11
761.1979612446146
 21
111.6911271458732
 31
0.0
 11
775.0234439252237
 21
115.6820150353561
 31
0.0
 11
790.5498163820989
 21
111.2476953202596
 31
0.0
 11
796.1979612446145
 21
111.2476953202596
 31
0.0
  0
SPLINE
  5
F45
330
2
100
AcDbEntity
  8
LINEAFINE
100
AcDbSpline
210
0.0
220
0.0
230
1.0
 70
     8
 71
     3
 72
    10
 73
     6
 74
     4
 42
0.0000000001
 43
0.0000000001
 44
0.0000000001
 40
0.0
 40
0.0
 40
0.0
 40
0.0
 40
14.38996725146537
 40
30.53714759372033
 40
36.185292456236
 40
36.185292456236
 40
36.185292456236
 40
36.185292456236
 10
761.1979612446146
 20
108.1436718114838
 30
0.0
 10
765.8233201516082
 20
110.2929414449258
 30
0.0
 10
775.6388579598969
 20
114.8539361204651
 30
0.0
 10
786.9998903095236
 20
107.1476425496211
 30
0.0
 10
794.3049048282898
 20
107.5865098211739
 30
0.0
 10
796.1979612446145
 20
107.7002399858702
 30
0.0
 11
761.1979612446146
 21
108.1436718114838
 31
0.0
 11
775.0234439252237
 21
112.1345597009667
 31
0.0
 11
790.5498163820989
 21
107.7002399858702
 31
0.0
 11
796.1979612446145
 21
107.7002399858702
 31
0.0
  0
LINE
  5
F51
330
2
100
AcDbEntity
  8
ASSI
100
AcDbLine
 10
768.4578350367817
 20
148.2815079958645
 30
0.0
 11
788.6427135688531
 21
148.2815079958645
 31
0.0
  0
SPLINE
  5
F52
330
2
100
AcDbEntity
  8
LINEAFINE
100
AcDbSpline
210
0.0
220
0.0
230
1.0
 70
     8
 71
     3
 72
    10
 73
     6
 74
     4
 42
0.0000000001
 43
0.0000000001
 44
0.0000000001
 40
0.0
 40
0.0
 40
0.0
 40
0.0
 40
14.38996725146537
 40
30.53714759372033
 40
36.185292456236
 40
36.185292456236
 40
36.185292456236
 40
36.185292456236
 10
761.1979612446146
 20
176.6539122121544
 30
0.0
 10
765.8233201516082
 20
178.8031818455964
 30
0.0
 10
775.6388579598969
 20
183.3641765211357
 30
0.0
 10
786.9998903095236
 20
175.6578829502917
 30
0.0
 10
794.3049048282898
 20
176.0967502218445
 30
0.0
 10
796.1979612446145
 20
176.2104803865408
 30
0.0
 11
761.1979612446146
 21
176.6539122121544
 31
0.0
 11
775.0234439252237
 21
180.6448001016373
 31
0.0
 11
790.5498163820989
 21
176.2104803865408
 31
0.0
 11
796.1979612446145
 21
176.2104803865408
 31
0.0
  0
SPLINE
  5
F53
330
2
100
AcDbEntity
  8
LINEAFINE
100
AcDbSpline
210
0.0
220
0.0
230
1.0
 70
     8
 71
     3
 72
    10
 73
     6
 74
     4
 42
0.0000000001
 43
0.0000000001
 44
0.0000000001
 40
0.0
 40
0.0
 40
0.0
 40
0.0
 40
14.38996725146537
 40
30.53714759372033
 40
36.185292456236
 40
36.185292456236
 40
36.185292456236
 40
36.185292456236
 10
761.1979612446146
 20
180.2013675465438
 30
0.0
 10
765.8233201516082
 20
182.3506371799857
 30
0.0
 10
775.6388579598969
 20
186.911631855525
 30
0.0
 10
786.9998903095236
 20
179.205338284681
 30
0.0
 10
794.3049048282898
 20
179.6442055562339
 30
0.0
 10
796.1979612446145
 20
179.7579357209301
 30
0.0
 11
761.1979612446146
 21
180.2013675465438
 31
0.0
 11
775.0234439252237
 21
184.1922554360267
 31
0.0
 11
790.5498163820989
 21
179.7579357209301
 31
0.0
 11
796.1979612446145
 21
179.7579357209301
 31
0.0
  0
LINE
  5
F6A
330
2
100
AcDbEntity
  8
DISEGNO
100
AcDbLine
 10
761.1979612446146
 20
211.9120288962061
 30
0.0
 11
796.1979612446145
 21
224.6509870955232
 31
0.0
  0
CIRCLE
  5
F6B
330
2
100
AcDbEntity
  8
DISEGNO
100
AcDbCircle
 10
778.6979612446145
 20
198.2815079958646
 30
0.0
 40
3.499999999999971
  0
LINE
  5
F6C
330
2
100
AcDbEntity
  8
ASSI
100
AcDbLine
 10
768.2203668531205
 20
198.2815079958646
 30
0.0
 11
789.1176520899644
 21
198.2815079958646
 31
0.0
  0
POINT
  5
F6E
330
2
100
AcDbEntity
  8
DEFPOINTS
  6
ByBlock
 62
     0
100
AcDbPoint
 10
761.1979612446146
 20
211.9120288962061
 30
0.0
  0
CIRCLE
  5
11CC
330
2
100
AcDbEntity
  8
DISEGNO
100
AcDbCircle
 10
977.3750293020624
 20
93.72776895035725
 30
0.0
 40
3.499999999999971
  0
CIRCLE
  5
11CD
330
2
100
AcDbEntity
  8
DISEGNO
100
AcDbCircle
 10
977.3750293020624
 20
93.72776895035725
 30
0.0
 40
5.500000000001804
  0
LINE
  5
11D0
330
2
100
AcDbEntity
  8
ASSI
100
AcDbLine
 10
977.3750293020624
 20
68.26702587875638
 30
0.0
 11
977.3750293020624
 21
222.3436235312314
 31
0.0
  0
LINE
  5
11D3
330
2
100
AcDbEntity
  8
DISEGNO
100
AcDbLine
 10
959.8750293020623
 20
73.72776895035719
 30
0.0
 11
959.8750293020625
 21
103.5899327659765
 31
0.0
  0
LINE
  5
11D4
330
2
100
AcDbEntity
  8
DISEGNO
100
AcDbLine
 10
994.8750293020625
 20
73.72776895035719
 30
0.0
 11
994.8750293020625
 21
103.1465009403628
 31
0.0
  0
LINE
  5
11D5
330
2
100
AcDbEntity
  8
DISEGNO
100
AcDbLine
 10
969.8750293020603
 20
73.72776895035719
 30
0.0
 11
969.8750293020601
 21
107.3206438466869
 31
0.0
  0
LINE
  5
11D6
330
2
100
AcDbEntity
  8
DISEGNO
100
AcDbLine
 10
984.8750293020627
 20
73.72776895035719
 30
0.0
 11
984.8750293020628
 21
104.1970049789788
 31
0.0
  0
LINE
  5
11F0
330
2
100
AcDbEntity
  8
ASSI
100
AcDbLine
 10
966.6599656500128
 20
93.72776895035725
 30
0.0
 11
987.7947201474123
 21
93.72776895035725
 31
0.0
  0
LINE
  5
11F4
330
2
100
AcDbEntity
  8
DISEGNO
100
AcDbLine
 10
959.8750293020623
 20
73.72776895035719
 30
0.0
 11
994.8750293020625
 21
73.72776895035719
 31
0.0
  0
CIRCLE
  5
1259
330
2
100
AcDbEntity
  8
DISEGNO
100
AcDbCircle
 10
977.3750293020624
 20
193.7277689503572
 30
0.0
 40
5.500000000001804
  0
LINE
  5
125A
330
2
100
AcDbEntity
  8
DISEGNO
100
AcDbLine
 10
994.8750293020625
 20
175.2041966754228
 30
0.0
 11
994.8750293020625
 21
213.7277689503572
 31
0.0
  0
LINE
  5
125B
330
2
100
AcDbEntity
  8
DISEGNO
100
AcDbLine
 10
959.8750293020625
 20
175.6476285010364
 30
0.0
 11
959.8750293020627
 21
213.7277689503572
 31
0.0
  0
LINE
  5
125C
330
2
100
AcDbEntity
  8
DISEGNO
100
AcDbLine
 10
969.8750293020601
 20
179.3783395817468
 30
0.0
 11
969.8750293020601
 21
213.7277689503572
 31
0.0
  0
LINE
  5
125D
330
2
100
AcDbEntity
  8
DISEGNO
100
AcDbLine
 10
984.8750293020627
 20
176.2547007140388
 30
0.0
 11
984.8750293020627
 21
213.7277689503572
 31
0.0
  0
CIRCLE
  5
1260
330
2
100
AcDbEntity
  8
DISEGNO
100
AcDbCircle
 10
977.3750293020624
 20
143.7277689503572
 30
0.0
 40
5.500000000001804
  0
CIRCLE
  5
1261
330
2
100
AcDbEntity
  8
DISEGNO
100
AcDbCircle
 10
977.3750293020624
 20
143.7277689503572
 30
0.0
 40
3.499999999999971
  0
SPLINE
  5
1262
330
2
100
AcDbEntity
  8
LINEAFINE
100
AcDbSpline
210
0.0
220
0.0
230
1.0
 70
     8
 71
     3
 72
    10
 73
     6
 74
     4
 42
0.0000000001
 43
0.0000000001
 44
0.0000000001
 40
0.0
 40
0.0
 40
0.0
 40
0.0
 40
14.38996725146537
 40
30.53714759372033
 40
36.185292456236
 40
36.185292456236
 40
36.185292456236
 40
36.185292456236
 10
959.8750293020625
 20
107.1373881003659
 30
0.0
 10
964.5003882090561
 20
109.2866577338078
 30
0.0
 10
974.3159260173449
 20
113.8476524093471
 30
0.0
 10
985.6769583669715
 20
106.1413588385031
 30
0.0
 10
992.9819728857378
 20
106.580226110056
 30
0.0
 10
994.8750293020625
 20
106.6939562747523
 30
0.0
 11
959.8750293020625
 21
107.1373881003659
 31
0.0
 11
973.7005119826717
 21
111.1282759898488
 31
0.0
 11
989.2268844395468
 21
106.6939562747523
 31
0.0
 11
994.8750293020625
 21
106.6939562747523
 31
0.0
  0
SPLINE
  5
1263
330
2
100
AcDbEntity
  8
LINEAFINE
100
AcDbSpline
210
0.0
220
0.0
230
1.0
 70
     8
 71
     3
 72
    10
 73
     6
 74
     4
 42
0.0000000001
 43
0.0000000001
 44
0.0000000001
 40
0.0
 40
0.0
 40
0.0
 40
0.0
 40
14.38996725146537
 40
30.53714759372033
 40
36.185292456236
 40
36.185292456236
 40
36.185292456236
 40
36.185292456236
 10
959.8750293020625
 20
103.5899327659765
 30
0.0
 10
964.5003882090561
 20
105.7392023994185
 30
0.0
 10
974.3159260173449
 20
110.3001970749577
 30
0.0
 10
985.6769583669715
 20
102.5939035041138
 30
0.0
 10
992.9819728857378
 20
103.0327707756666
 30
0.0
 10
994.8750293020625
 20
103.1465009403629
 30
0.0
 11
959.8750293020625
 21
103.5899327659765
 31
0.0
 11
973.7005119826717
 21
107.5808206554594
 31
0.0
 11
989.2268844395468
 21
103.1465009403629
 31
0.0
 11
994.8750293020625
 21
103.1465009403629
 31
0.0
  0
SPLINE
  5
1264
330
2
100
AcDbEntity
  8
LINEAFINE
100
AcDbSpline
210
0.0
220
0.0
230
1.0
 70
     8
 71
     3
 72
    10
 73
     6
 74
     4
 42
0.0000000001
 43
0.0000000001
 44
0.0000000001
 40
0.0
 40
0.0
 40
0.0
 40
0.0
 40
14.38996725146537
 40
30.53714759372033
 40
36.185292456236
 40
36.185292456236
 40
36.185292456236
 40
36.185292456236
 10
959.8750293020625
 20
172.1001731666471
 30
0.0
 10
964.5003882090561
 20
174.249442800089
 30
0.0
 10
974.3159260173449
 20
178.8104374756283
 30
0.0
 10
985.6769583669715
 20
171.1041439047843
 30
0.0
 10
992.9819728857378
 20
171.5430111763372
 30
0.0
 10
994.8750293020625
 20
171.6567413410334
 30
0.0
 11
959.8750293020625
 21
172.1001731666471
 31
0.0
 11
973.7005119826717
 21
176.09106105613
 31
0.0
 11
989.2268844395468
 21
171.6567413410334
 31
0.0
 11
994.8750293020625
 21
171.6567413410334
 31
0.0
  0
SPLINE
  5
1265
330
2
100
AcDbEntity
  8
LINEAFINE
100
AcDbSpline
210
0.0
220
0.0
230
1.0
 70
     8
 71
     3
 72
    10
 73
     6
 74
     4
 42
0.0000000001
 43
0.0000000001
 44
0.0000000001
 40
0.0
 40
0.0
 40
0.0
 40
0.0
 40
14.38996725146537
 40
30.53714759372033
 40
36.185292456236
 40
36.185292456236
 40
36.185292456236
 40
36.185292456236
 10
959.8750293020625
 20
175.6476285010364
 30
0.0
 10
964.5003882090561
 20
177.7968981344784
 30
0.0
 10
974.3159260173449
 20
182.3578928100177
 30
0.0
 10
985.6769583669715
 20
174.6515992391737
 30
0.0
 10
992.9819728857378
 20
175.0904665107265
 30
0.0
 10
994.8750293020625
 20
175.2041966754228
 30
0.0
 11
959.8750293020625
 21
175.6476285010364
 31
0.0
 11
973.7005119826717
 21
179.6385163905194
 31
0.0
 11
989.2268844395468
 21
175.2041966754228
 31
0.0
 11
994.8750293020625
 21
175.2041966754228
 31
0.0
  0
LINE
  5
1266
330
2
100
AcDbEntity
  8
ASSI
100
AcDbLine
 10
967.1349030942295
 20
143.7277689503572
 30
0.0
 11
987.319781626301
 21
143.7277689503572
 31
0.0
  0
LINE
  5
1267
330
2
100
AcDbEntity
  8
DISEGNO
100
AcDbLine
 10
959.8750293020625
 20
107.1373881003659
 30
0.0
 11
959.8750293020625
 21
172.1001731666471
 31
0.0
  0
LINE
  5
1268
330
2
100
AcDbEntity
  8
DISEGNO
100
AcDbLine
 10
969.8750293020601
 20
110.8680991810762
 30
0.0
 11
969.8750293020601
 21
175.8308842473574
 31
0.0
  0
LINE
  5
126A
330
2
100
AcDbEntity
  8
DISEGNO
100
AcDbLine
 10
994.8750293020625
 20
106.6939562747522
 30
0.0
 11
994.8750293020625
 21
171.6567413410334
 31
0.0
  0
LINE
  5
126B
330
2
100
AcDbEntity
  8
DISEGNO
100
AcDbLine
 10
984.8750293020628
 20
107.7444603133682
 30
0.0
 11
984.8750293020627
 21
172.7072453796494
 31
0.0
  0
CIRCLE
  5
128C
330
2
100
AcDbEntity
  8
DISEGNO
100
AcDbCircle
 10
977.3750293020624
 20
193.7277689503572
 30
0.0
 40
3.499999999999971
  0
LINE
  5
128D
330
2
100
AcDbEntity
  8
ASSI
100
AcDbLine
 10
966.8974349105685
 20
193.7277689503572
 30
0.0
 11
987.7947201474123
 21
193.7277689503572
 31
0.0
  0
POINT
  5
1298
330
2
100
AcDbEntity
  8
DEFPOINTS
  6
ByBlock
 62
     0
100
AcDbPoint
 10
959.8750293020625
 20
207.3582898506987
 30
0.0
  0
LINE
  5
141A
330
2
100
AcDbEntity
  8
QUOTE
 62
   255
100
AcDbLine
 10
959.8750293020627
 20
213.7277689503572
 30
0.0
 11
994.8750293020625
 21
213.7277689503572
 31
0.0
  0
LINE
  5
171D
330
2
100
AcDbEntity
  8
ASSI
100
AcDbLine
 10
977.4668098223287
 20
266.6738606516448
 30
0.0
 11
977.4668098223287
 21
238.7000052833436
 31
0.0
  0
LINE
  5
1724
330
2
100
AcDbEntity
  8
DISEGNO
100
AcDbLine
 10
984.9668098223309
 20
257.3039795450735
 30
0.0
 11
994.9668098223288
 21
247.3039795450735
 31
0.0
  0
LINE
  5
1725
330
2
100
AcDbEntity
  8
NASCOSTE
100
AcDbLine
 10
982.9668098223287
 20
257.3039795450735
 30
0.0
 11
982.9668098223287
 21
249.8039795450726
 31
0.0
  0
LINE
  5
1726
330
2
100
AcDbEntity
  8
NASCOSTE
100
AcDbLine
 10
971.9668098223287
 20
257.3039795450735
 30
0.0
 11
971.9668098223269
 21
249.8039795450744
 31
0.0
  0
LINE
  5
1727
330
2
100
AcDbEntity
  8
DISEGNO
100
AcDbLine
 10
959.9668098223288
 20
247.3039795450718
 30
0.0
 11
969.9668098223282
 21
257.3039795450736
 31
0.0
  0
LINE
  5
1728
330
2
100
AcDbEntity
  8
NASCOSTE
100
AcDbLine
 10
971.9668098223269
 20
249.8039795450744
 30
0.0
 11
982.9668098223287
 21
249.8039795450726
 31
0.0
  0
LINE
  5
1729
330
2
100
AcDbEntity
  8
DISEGNO
100
AcDbLine
 10
973.4668098223288
 20
244.504577029414
 30
0.0
 11
981.4668098223288
 21
244.5046273438787
 31
0.0
  0
LINE
  5
172A
330
2
100
AcDbEntity
  8
NASCOSTE
100
AcDbLine
 10
973.9668098223287
 20
244.504580174068
 30
0.0
 11
973.9668098223287
 21
249.8039795450735
 31
0.0
  0
LINE
  5
172B
330
2
100
AcDbEntity
  8
DISEGNO
100
AcDbLine
 10
959.9668098223288
 20
241.30449212369
 30
0.0
 11
959.9668098223288
 21
247.3039795450718
 31
0.0
  0
LINE
  5
172C
330
2
100
AcDbEntity
  8
DISEGNO
100
AcDbLine
 10
959.9668098223288
 20
241.30449212369
 30
0.0
 11
973.4668098223288
 21
241.30449212369
 31
0.0
  0
LINE
  5
172D
330
2
100
AcDbEntity
  8
DISEGNO
100
AcDbLine
 10
973.4668098223288
 20
244.5045770294131
 30
0.0
 11
973.4668098223288
 21
241.30449212369
 31
0.0
  0
LINE
  5
172E
330
2
100
AcDbEntity
  8
DISEGNO
100
AcDbLine
 10
994.9668098223288
 20
247.3039795450735
 30
0.0
 11
994.9668098223288
 21
241.30449212369
 31
0.0
  0
LINE
  5
172F
330
2
100
AcDbEntity
  8
NASCOSTE
100
AcDbLine
 10
980.9668098223287
 20
244.5046241992247
 30
0.0
 11
980.9668098223287
 21
249.8039795450735
 31
0.0
  0
LINE
  5
1730
330
2
100
AcDbEntity
  8
DISEGNO
100
AcDbLine
 10
994.9668098223288
 20
241.30449212369
 30
0.0
 11
981.4668098223288
 21
241.30449212369
 31
0.0
  0
LINE
  5
1731
330
2
100
AcDbEntity
  8
DISEGNO
100
AcDbLine
 10
981.4668098223288
 20
244.5046273438787
 30
0.0
 11
981.4668098223288
 21
241.30449212369
 31
0.0
  0
LINE
  5
1732
330
2
100
AcDbEntity
  8
DISEGNO
100
AcDbLine
 10
969.9668098223282
 20
257.3039795450736
 30
0.0
 11
984.9668098223309
 21
257.3039795450735
 31
0.0
  0
ENDSEC
  0
SECTION
  2
OBJECTS
  0
DICTIONARY
  5
1A
330
0
100
AcDbDictionary
281
     1
  3
ACAD_COLOR
350
17E3
  3
ACAD_GROUP
350
18
  3
ACAD_LAYOUT
350
180B
  3
ACAD_MATERIAL
350
17B9
  3
ACAD_MLEADERSTYLE
350
1808
  3
ACAD_MLINESTYLE
350
19
  3
ACAD_PLOTSETTINGS
350
180C
  3
ACAD_PLOTSTYLENAME
350
17B7
  3
ACAD_SCALELIST
350
17E6
  3
ACAD_TABLESTYLE
350
17E4
  3
ACAD_VISUALSTYLE
350
17D2
  3
ACDB_RECOMPOSE_DATA
350
182A
  3
AcDbVariableDictionary
350
1824
  0
DICTIONARY
  5
1812
330
4
100
AcDbDictionary
280
     1
281
     1
  3
ADSK_XREC_LAYER_RECONCILED
360
1813
  0
DICTIONARY
  5
1814
330
3E
100
AcDbDictionary
280
     1
281
     1
  3
ADSK_XREC_LAYER_RECONCILED
360
1815
  0
DICTIONARY
  5
1816
330
1B
100
AcDbDictionary
280
     1
281
     1
  3
ADSK_XREC_LAYER_RECONCILED
360
1817
  0
DICTIONARY
  5
1818
330
21
100
AcDbDictionary
280
     1
281
     1
  3
ADSK_XREC_LAYER_RECONCILED
360
1819
  0
DICTIONARY
  5
181A
330
39
100
AcDbDictionary
280
     1
281
     1
  3
ADSK_XREC_LAYER_RECONCILED
360
181B
  0
DICTIONARY
  5
181C
330
E7
100
AcDbDictionary
280
     1
281
     1
  3
ADSK_XREC_LAYER_RECONCILED
360
181D
  0
DICTIONARY
  5
181E
330
4FB
100
AcDbDictionary
280
     1
281
     1
  3
ADSK_XREC_LAYER_RECONCILED
360
181F
  0
DICTIONARY
  5
1820
330
4FD
100
AcDbDictionary
280
     1
281
     1
  3
ADSK_XREC_LAYER_RECONCILED
360
1821
  0
DICTIONARY
  5
1822
330
500
100
AcDbDictionary
280
     1
281
     1
  3
ADSK_XREC_LAYER_RECONCILED
360
1823
  0
DICTIONARY
  5
17E3
102
{ACAD_REACTORS
330
1A
102
}
330
1A
100
AcDbDictionary
281
     1
  0
DICTIONARY
  5
18
102
{ACAD_REACTORS
330
1A
102
}
330
1A
100
AcDbDictionary
281
     1
  3
*A1
350
2B8
  3
*A10
350
5FF
  3
*A100
350
2FE
  3
*A101
350
331
  3
*A102
350
6CB
  3
*A103
350
2DF
  3
*A104
350
613
  3
*A105
350
2E0
  3
*A106
350
2E1
  3
*A107
350
2E2
  3
*A108
350
508
  3
*A109
350
518
  3
*A11
350
2C6
  3
*A110
350
551
  3
*A111
350
5E3
  3
*A112
350
6C2
  3
*A113
350
6F8
  3
*A114
350
32D
  3
*A115
350
2D2
  3
*A116
350
2E3
  3
*A117
350
2E4
  3
*A118
350
2E5
  3
*A119
350
599
  3
*A12
350
2D6
  3
*A120
350
316
  3
*A121
350
547
  3
*A122
350
614
  3
*A123
350
5B1
  3
*A124
350
6F9
  3
*A125
350
320
  3
*A126
350
2E6
  3
*A127
350
5A8
  3
*A128
350
696
  3
*A129
350
5DE
  3
*A13
350
5DD
  3
*A130
350
568
  3
*A131
350
2E7
  3
*A132
350
2E8
  3
*A133
350
2BC
  3
*A134
350
2E9
  3
*A135
350
6FA
  3
*A136
350
552
  3
*A137
350
2EA
  3
*A138
350
5B2
  3
*A139
350
6BD
  3
*A14
350
2C0
  3
*A140
350
6CC
  3
*A141
350
2EB
  3
*A142
350
697
  3
*A143
350
59A
  3
*A144
350
615
  3
*A145
350
2C4
  3
*A146
350
6FB
  3
*A147
350
5A2
  3
*A148
350
519
  3
*A149
350
2EC
  3
*A15
350
59D
  3
*A150
350
2ED
  3
*A151
350
2F9
  3
*A152
350
6CD
  3
*A153
350
317
  3
*A154
350
58B
  3
*A155
350
698
  3
*A156
350
2EE
  3
*A157
350
6C3
  3
*A158
350
321
  3
*A159
350
2EF
  3
*A16
350
5CF
  3
*A160
350
2F0
  3
*A161
350
553
  3
*A162
350
5E1
  3
*A163
350
569
  3
*A164
350
2C5
  3
*A165
350
51A
  3
*A166
350
51B
  3
*A167
350
33F
  3
*A168
350
6FC
  3
*A169
350
699
  3
*A17
350
6C5
  3
*A170
350
611
  3
*A171
350
51C
  3
*A172
350
327
  3
*A173
350
2F2
  3
*A174
350
59E
  3
*A175
350
51D
  3
*A176
350
50F
  3
*A177
350
2FC
  3
*A178
350
556
  3
*A179
350
6FD
  3
*A18
350
318
  3
*A180
350
56A
  3
*A181
350
51E
  3
*A182
350
5E2
  3
*A183
350
69A
  3
*A184
350
591
  3
*A185
350
539
  3
*A186
350
51F
  3
*A187
350
520
  3
*A188
350
6CE
  3
*A189
350
540
  3
*A19
350
5EB
  3
*A190
350
6FE
  3
*A191
350
521
  3
*A192
350
2BD
  3
*A193
350
522
  3
*A194
350
523
  3
*A195
350
524
  3
*A196
350
55C
  3
*A197
350
56B
  3
*A198
350
333
  3
*A199
350
2B9
  3
*A2
350
6F6
  3
*A20
350
600
  3
*A200
350
308
  3
*A201
350
513
  3
*A202
350
525
  3
*A203
350
526
  3
*A204
350
328
  3
*A205
350
5DF
  3
*A206
350
557
  3
*A207
350
595
  3
*A208
350
2F3
  3
*A209
350
69B
  3
*A21
350
601
  3
*A210
350
2BE
  3
*A211
350
527
  3
*A212
350
68D
  3
*A213
350
5EE
  3
*A214
350
2C7
  3
*A215
350
335
  3
*A216
350
528
  3
*A217
350
529
  3
*A218
350
52A
  3
*A219
350
52B
  3
*A22
350
602
  3
*A220
350
59F
  3
*A221
350
52C
  3
*A222
350
69C
  3
*A223
350
6F1
  3
*A224
350
6FF
  3
*A225
350
52D
  3
*A226
350
6CF
  3
*A227
350
5E0
  3
*A228
350
2F4
  3
*A229
350
2C2
  3
*A23
350
54B
  3
*A230
350
5E7
  3
*A231
350
56C
  3
*A232
350
52E
  3
*A233
350
52F
  3
*A234
350
32A
  3
*A235
350
700
  3
*A236
350
558
  3
*A237
350
5EC
  3
*A238
350
6D0
  3
*A239
350
530
  3
*A24
350
5F1
  3
*A240
350
2FD
  3
*A241
350
329
  3
*A242
350
531
  3
*A243
350
5A0
  3
*A244
350
2CA
  3
*A245
350
5B3
  3
*A246
350
507
  3
*A247
350
2C3
  3
*A248
350
56D
  3
*A249
350
319
  3
*A25
350
33C
  3
*A250
350
6D1
  3
*A251
350
2F1
  3
*A252
350
56E
  3
*A253
350
303
  3
*A254
350
533
  3
*A255
350
5E4
  3
*A256
350
56F
  3
*A257
350
32E
  3
*A258
350
53D
  3
*A259
350
5A3
  3
*A26
350
2BF
  3
*A260
350
5B4
  3
*A261
350
570
  3
*A262
350
31D
  3
*A263
350
6D2
  3
*A264
350
5D8
  3
*A265
350
589
  3
*A266
350
571
  3
*A267
350
572
  3
*A268
350
54A
  3
*A269
350
58F
  3
*A27
350
5D4
  3
*A270
350
573
  3
*A271
350
534
  3
*A272
350
574
  3
*A273
350
575
  3
*A274
350
576
  3
*A275
350
31B
  3
*A276
350
5B5
  3
*A277
350
30E
  3
*A278
350
50C
  3
*A279
350
549
  3
*A28
350
566
  3
*A280
350
32F
  3
*A281
350
577
  3
*A282
350
304
  3
*A283
350
2C8
  3
*A284
350
5A4
  3
*A285
350
5DB
  3
*A286
350
535
  3
*A287
350
6D3
  3
*A288
350
53E
  3
*A289
350
578
  3
*A29
350
6C6
  3
*A290
350
2D4
  3
*A291
350
325
  3
*A292
350
69D
  3
*A293
350
579
  3
*A294
350
57A
  3
*A295
350
57B
  3
*A296
350
57C
  3
*A297
350
339
  3
*A298
350
57D
  3
*A299
350
6D4
  3
*A3
350
322
  3
*A30
350
603
  3
*A300
350
57E
  3
*A301
350
701
  3
*A302
350
2C9
  3
*A303
350
536
  3
*A304
350
323
  3
*A305
350
2CE
  3
*A306
350
5B6
  3
*A307
350
57F
  3
*A308
350
580
  3
*A309
350
306
  3
*A31
350
604
  3
*A310
350
5A5
  3
*A311
350
2D3
  3
*A312
350
702
  3
*A313
350
330
  3
*A314
350
53F
  3
*A315
350
305
  3
*A316
350
581
  3
*A317
350
5E5
  3
*A318
350
50B
  3
*A319
350
69E
  3
*A32
350
55B
  3
*A320
350
324
  3
*A321
350
5B7
  3
*A322
350
559
  3
*A323
350
703
  3
*A324
350
532
  3
*A325
350
5B8
  3
*A326
350
2C1
  3
*A327
350
583
  3
*A328
350
2CB
  3
*A329
350
5B9
  3
*A33
350
309
  3
*A330
350
58C
  3
*A331
350
5E8
  3
*A332
350
69F
  3
*A333
350
5BA
  3
*A334
350
2FA
  3
*A335
350
704
  3
*A336
350
617
  3
*A337
350
338
  3
*A338
350
5BB
  3
*A339
350
5BC
  3
*A34
350
598
  3
*A340
350
5D6
  3
*A341
350
336
  3
*A342
350
584
  3
*A343
350
5BD
  3
*A344
350
5BE
  3
*A345
350
5BF
  3
*A346
350
68E
  3
*A347
350
6A0
  3
*A348
350
32C
  3
*A349
350
560
  3
*A35
350
597
  3
*A350
350
30A
  3
*A351
350
5C0
  3
*A352
350
32B
  3
*A353
350
509
  3
*A354
350
5E9
  3
*A355
350
340
  3
*A356
350
585
  3
*A357
350
705
  3
*A358
350
58D
  3
*A359
350
5C1
  3
*A36
350
515
  3
*A360
350
301
  3
*A361
350
6D5
  3
*A362
350
5C2
  3
*A363
350
5C3
  3
*A364
350
5C4
  3
*A365
350
5C5
  3
*A366
350
313
  3
*A367
350
5C6
  3
*A368
350
706
  3
*A369
350
337
  3
*A37
350
605
  3
*A370
350
50A
  3
*A371
350
586
  3
*A372
350
2FF
  3
*A373
350
510
  3
*A374
350
6A1
  3
*A375
350
5C7
  3
*A376
350
5C8
  3
*A377
350
546
  3
*A378
350
5EA
  3
*A379
350
514
  3
*A38
350
606
  3
*A380
350
30B
  3
*A381
350
58E
  3
*A382
350
545
  3
*A383
350
5C9
  3
*A384
350
2CC
  3
*A385
350
55F
  3
*A386
350
6D6
  3
*A387
350
6A2
  3
*A388
350
6A3
  3
*A389
350
5A6
  3
*A39
350
607
  3
*A390
350
582
  3
*A391
350
6A4
  3
*A392
350
6A5
  3
*A393
350
5CB
  3
*A394
350
50D
  3
*A395
350
6A6
  3
*A396
350
5ED
  3
*A397
350
2CF
  3
*A398
350
6D7
  3
*A399
350
6A7
  3
*A4
350
53B
  3
*A40
350
608
  3
*A400
350
2F6
  3
*A401
350
6C4
  3
*A402
350
6A8
  3
*A403
350
6A9
  3
*A404
350
616
  3
*A405
350
6AA
  3
*A406
350
5CC
  3
*A407
350
6AB
  3
*A408
350
6AC
  3
*A409
350
6AD
  3
*A41
350
6C7
  3
*A410
350
6D8
  3
*A411
350
307
  3
*A412
350
5AB
  3
*A413
350
6AE
  3
*A414
350
6AF
  3
*A415
350
6B0
  3
*A416
350
55D
  3
*A417
350
2D0
  3
*A418
350
31A
  3
*A419
350
5CD
  3
*A42
350
311
  3
*A420
350
2F8
  3
*A421
350
6B1
  3
*A422
350
543
  3
*A423
350
707
  3
*A424
350
6B2
  3
*A425
350
6B3
  3
*A426
350
6B4
  3
*A427
350
6B5
  3
*A428
350
554
  3
*A429
350
6B6
  3
*A43
350
609
  3
*A430
350
6B7
  3
*A431
350
55E
  3
*A432
350
5CE
  3
*A433
350
541
  3
*A434
350
563
  3
*A435
350
33A
  3
*A436
350
6B8
  3
*A437
350
6B9
  3
*A438
350
332
  3
*A439
350
2D1
  3
*A44
350
567
  3
*A440
350
6BA
  3
*A441
350
592
  3
*A442
350
6BB
  3
*A443
350
6BC
  3
*A444
350
50E
  3
*A445
350
5AA
  3
*A446
350
708
  3
*A447
350
6D9
  3
*A448
350
6DA
  3
*A449
350
68B
  3
*A45
350
5CA
  3
*A450
350
6DB
  3
*A451
350
6DC
  3
*A452
350
6BE
  3
*A453
350
561
  3
*A454
350
6DD
  3
*A455
350
31E
  3
*A456
350
511
  3
*A457
350
709
  3
*A458
350
6DE
  3
*A459
350
538
  3
*A46
350
6F7
  3
*A460
350
6DF
  3
*A461
350
6E0
  3
*A462
350
2F5
  3
*A463
350
6E1
  3
*A464
350
6BF
  3
*A465
350
6E2
  3
*A466
350
30C
  3
*A467
350
5EF
  3
*A468
350
70A
  3
*A469
350
548
  3
*A47
350
693
  3
*A470
350
6E3
  3
*A471
350
6E4
  3
*A472
350
6E5
  3
*A473
350
334
  3
*A474
350
512
  3
*A475
350
55A
  3
*A476
350
6C0
  3
*A477
350
53A
  3
*A478
350
6E6
  3
*A479
350
68F
  3
*A48
350
60A
  3
*A480
350
6E7
  3
*A481
350
6E8
  3
*A482
350
6E9
  3
*A483
350
6EA
  3
*A484
350
5A1
  3
*A485
350
6EB
  3
*A486
350
6EC
  3
*A487
350
5A9
  3
*A488
350
6C1
  3
*A489
350
590
  3
*A49
350
5AE
  3
*A490
350
314
  3
*A491
350
5F0
  3
*A492
350
6ED
  3
*A493
350
30D
  3
*A494
350
326
  3
*A495
350
6EE
  3
*A496
350
5D9
  3
*A497
350
6EF
  3
*A498
350
6F0
  3
*A499
350
562
  3
*A5
350
692
  3
*A50
350
54C
  3
*A500
350
5F2
  3
*A501
350
70B
  3
*A502
350
30F
  3
*A503
350
70C
  3
*A504
350
70D
  3
*A505
350
6F2
  3
*A506
350
5AC
  3
*A507
350
70E
  3
*A508
350
2FB
  3
*A509
350
564
  3
*A51
350
5D5
  3
*A510
350
70F
  3
*A511
350
588
  3
*A512
350
710
  3
*A513
350
711
  3
*A514
350
537
  3
*A515
350
712
  3
*A516
350
6F3
  3
*A517
350
713
  3
*A518
350
54D
  3
*A519
350
2BA
  3
*A52
350
594
  3
*A520
350
596
  3
*A521
350
5F3
  3
*A522
350
5F4
  3
*A523
350
593
  3
*A524
350
690
  3
*A525
350
565
  3
*A526
350
5A7
  3
*A527
350
6F4
  3
*A528
350
58A
  3
*A529
350
5F5
  3
*A53
350
6C8
  3
*A530
350
5F6
  3
*A531
350
5D2
  3
*A532
350
310
  3
*A533
350
5F7
  3
*A534
350
5E6
  3
*A535
350
5F8
  3
*A536
350
33B
  3
*A537
350
691
  3
*A538
350
6F5
  3
*A539
350
5D7
  3
*A54
350
555
  3
*A540
350
2D5
  3
*A541
350
5F9
  3
*A542
350
54E
  3
*A543
350
302
  3
*A544
350
300
  3
*A545
350
618
  3
*A546
350
5FA
  3
*A547
350
5FB
  3
*A548
350
5AD
  3
*A55
350
2D7
  3
*A56
350
60B
  3
*A57
350
54F
  3
*A58
350
60C
  3
*A59
350
31C
  3
*A6
350
5FC
  3
*A60
350
694
  3
*A61
350
33D
  3
*A62
350
53C
  3
*A63
350
5AF
  3
*A64
350
60D
  3
*A65
350
5D0
  3
*A66
350
60E
  3
*A67
350
60F
  3
*A68
350
587
  3
*A69
350
610
  3
*A7
350
5D3
  3
*A70
350
312
  3
*A71
350
59B
  3
*A72
350
516
  3
*A73
350
5DC
  3
*A74
350
2D8
  3
*A75
350
2D9
  3
*A76
350
5DA
  3
*A77
350
6C9
  3
*A78
350
5B0
  3
*A79
350
68C
  3
*A8
350
5FD
  3
*A80
350
5D1
  3
*A81
350
2DA
  3
*A82
350
2DB
  3
*A83
350
612
  3
*A84
350
550
  3
*A85
350
2DC
  3
*A86
350
2CD
  3
*A87
350
31F
  3
*A88
350
315
  3
*A89
350
6CA
  3
*A9
350
5FE
  3
*A90
350
33E
  3
*A91
350
517
  3
*A92
350
2DD
  3
*A93
350
59C
  3
*A94
350
544
  3
*A95
350
542
  3
*A96
350
2F7
  3
*A97
350
2DE
  3
*A98
350
2BB
  3
*A99
350
695
  0
DICTIONARY
  5
180B
102
{ACAD_REACTORS
330
1A
102
}
330
1A
100
AcDbDictionary
281
     1
  3
Layout1
350
180E
  3
Model
350
180D
  0
DICTIONARY
  5
17B9
102
{ACAD_REACTORS
330
1A
102
}
330
1A
100
AcDbDictionary
281
     1
  3
ByBlock
350
17C2
  3
ByLayer
350
17BA
  3
Global
350
17CA
  0
DICTIONARY
  5
1808
102
{ACAD_REACTORS
330
1A
102
}
330
1A
100
AcDbDictionary
281
     1
  3
Standard
350
1809
  0
DICTIONARY
  5
19
102
{ACAD_REACTORS
330
1A
102
}
330
1A
100
AcDbDictionary
281
     1
  3
STANDARD
350
1D
  0
DICTIONARY
  5
180C
102
{ACAD_REACTORS
330
1A
102
}
330
1A
100
AcDbDictionary
281
     1
  0
ACDBDICTIONARYWDFLT
  5
17B7
102
{ACAD_REACTORS
330
1A
102
}
330
1A
100
AcDbDictionary
281
     1
  3
Normal
350
17B8
100
AcDbDictionaryWithDefault
340
17B8
  0
DICTIONARY
  5
17E6
102
{ACAD_REACTORS
330
1A
102
}
330
1A
100
AcDbDictionary
281
     1
  3
A0
350
17E7
  3
A1
350
17E8
  3
A2
350
17E9
  3
A3
350
17EA
  3
A4
350
17EB
  3
A5
350
17EC
  3
A6
350
17ED
  3
A7
350
17EE
  3
A8
350
17EF
  3
A9
350
17F0
  3
B0
350
17F1
  3
B1
350
17F2
  3
B2
350
17F3
  3
B3
350
17F4
  3
B4
350
17F5
  3
B5
350
17F6
  3
B6
350
17F7
  3
B7
350
17F8
  3
B8
350
17F9
  3
B9
350
17FA
  3
C0
350
17FB
  3
C1
350
17FC
  3
C2
350
17FD
  3
C3
350
17FE
  3
C4
350
17FF
  3
C5
350
1800
  3
C6
350
1801
  3
C7
350
1802
  3
C8
350
1803
  3
C9
350
1804
  3
D0
350
1805
  3
D1
350
1806
  3
D2
350
1807
  0
DICTIONARY
  5
17E4
102
{ACAD_REACTORS
330
1A
102
}
330
1A
100
AcDbDictionary
281
     1
  3
Standard
350
17E5
  0
DICTIONARY
  5
17D2
102
{ACAD_REACTORS
330
1A
102
}
330
1A
100
AcDbDictionary
281
     1
  3
2dWireframe
350
17D8
  3
3D Hidden
350
17DA
  3
3dWireframe
350
17D9
  3
Basic
350
17D7
  3
Brighten
350
17DE
  3
ColorChange
350
17E2
  3
Conceptual
350
17DB
  3
Dim
350
17DD
  3
Facepattern
350
17E1
  3
Flat
350
17D3
  3
FlatWithEdges
350
17D4
  3
Gouraud
350
17D5
  3
GouraudWithEdges
350
17D6
  3
Linepattern
350
17E0
  3
Realistic
350
17DC
  3
Thicken
350
17DF
  0
XRECORD
  5
182A
102
{ACAD_REACTORS
330
1A
102
}
330
1A
100
AcDbXrecord
280
     1
 90
        1
330
17E5
  0
DICTIONARY
  5
1824
102
{ACAD_REACTORS
330
1A
102
}
330
1A
100
AcDbDictionary
281
     1
  3
CANNOSCALE
350
1827
  3
CMLEADERSTYLE
350
1826
  3
CTABLESTYLE
350
1825
  0
XRECORD
  5
1813
102
{ACAD_REACTORS
330
1812
102
}
330
1812
100
AcDbXrecord
280
     1
290
     1
  0
XRECORD
  5
1815
102
{ACAD_REACTORS
330
1814
102
}
330
1814
100
AcDbXrecord
280
     1
290
     1
  0
XRECORD
  5
1817
102
{ACAD_REACTORS
330
1816
102
}
330
1816
100
AcDbXrecord
280
     1
290
     1
  0
XRECORD
  5
1819
102
{ACAD_REACTORS
330
1818
102
}
330
1818
100
AcDbXrecord
280
     1
290
     1
  0
XRECORD
  5
181B
102
{ACAD_REACTORS
330
181A
102
}
330
181A
100
AcDbXrecord
280
     1
290
     1
  0
XRECORD
  5
181D
102
{ACAD_REACTORS
330
181C
102
}
330
181C
100
AcDbXrecord
280
     1
290
     1
  0
XRECORD
  5
181F
102
{ACAD_REACTORS
330
181E
102
}
330
181E
100
AcDbXrecord
280
     1
290
     1
  0
XRECORD
  5
1821
102
{ACAD_REACTORS
330
1820
102
}
330
1820
100
AcDbXrecord
280
     1
290
     1
  0
XRECORD
  5
1823
102
{ACAD_REACTORS
330
1822
102
}
330
1822
100
AcDbXrecord
280
     1
290
     1
  0
GROUP
  5
2B8
102
{ACAD_REACTORS
330
18
102
}
330
18
100
AcDbGroup
300
Vite UNI 5931 M8X25
 70
     1
 71
     1
  0
GROUP
  5
5FF
102
{ACAD_REACTORS
330
18
102
}
330
18
100
AcDbGroup
300
Rosetta UNI 1751 A 6.1
 70
     1
 71
     1
  0
GROUP
  5
2FE
102
{ACAD_REACTORS
330
18
102
}
330
18
100
AcDbGroup
300

 70
     3
 71
     1
  0
GROUP
  5
331
102
{ACAD_REACTORS
330
18
102
}
330
18
100
AcDbGroup
300

 70
     3
 71
     1
  0
GROUP
  5
6CB
102
{ACAD_REACTORS
330
18
102
}
330
18
100
AcDbGroup
300
Vite UNI 5933 M6X16
 70
     1
 71
     1
  0
GROUP
  5
2DF
102
{ACAD_REACTORS
330
18
102
}
330
18
100
AcDbGroup
300

 70
     3
 71
     1
  0
GROUP
  5
613
102
{ACAD_REACTORS
330
18
102
}
330
18
100
AcDbGroup
300

 70
     1
 71
     1
  0
GROUP
  5
2E0
102
{ACAD_REACTORS
330
18
102
}
330
18
100
AcDbGroup
300

 70
     3
 71
     1
  0
GROUP
  5
2E1
102
{ACAD_REACTORS
330
18
102
}
330
18
100
AcDbGroup
300

 70
     3
 71
     1
  0
GROUP
  5
2E2
102
{ACAD_REACTORS
330
18
102
}
330
18
100
AcDbGroup
300

 70
     1
 71
     1
  0
GROUP
  5
508
102
{ACAD_REACTORS
330
18
102
}
330
18
100
AcDbGroup
300

 70
     3
 71
     1
  0
GROUP
  5
518
102
{ACAD_REACTORS
330
18
102
}
330
18
100
AcDbGroup
300

 70
     3
 71
     1
  0
GROUP
  5
2C6
102
{ACAD_REACTORS
330
18
102
}
330
18
100
AcDbGroup
300

 70
     3
 71
     1
  0
GROUP
  5
551
102
{ACAD_REACTORS
330
18
102
}
330
18
100
AcDbGroup
300

 70
     3
 71
     1
  0
GROUP
  5
5E3
102
{ACAD_REACTORS
330
18
102
}
330
18
100
AcDbGroup
300

 70
     3
 71
     1
  0
GROUP
  5
6C2
102
{ACAD_REACTORS
330
18
102
}
330
18
100
AcDbGroup
300

 70
     1
 71
     1
  0
GROUP
  5
6F8
102
{ACAD_REACTORS
330
18
102
}
330
18
100
AcDbGroup
300

 70
     3
 71
     1
  0
GROUP
  5
32D
102
{ACAD_REACTORS
330
18
102
}
330
18
100
AcDbGroup
300

 70
     3
 71
     1
  0
GROUP
  5
2D2
102
{ACAD_REACTORS
330
18
102
}
330
18
100
AcDbGroup
300

 70
     1
 71
     1
  0
GROUP
  5
2E3
102
{ACAD_REACTORS
330
18
102
}
330
18
100
AcDbGroup
300

 70
     3
 71
     1
  0
GROUP
  5
2E4
102
{ACAD_REACTORS
330
18
102
}
330
18
100
AcDbGroup
300

 70
     3
 71
     1
  0
GROUP
  5
2E5
102
{ACAD_REACTORS
330
18
102
}
330
18
100
AcDbGroup
300

 70
     3
 71
     1
  0
GROUP
  5
599
102
{ACAD_REACTORS
330
18
102
}
330
18
100
AcDbGroup
300

 70
     3
 71
     1
  0
GROUP
  5
2D6
102
{ACAD_REACTORS
330
18
102
}
330
18
100
AcDbGroup
300

 70
     3
 71
     1
  0
GROUP
  5
316
102
{ACAD_REACTORS
330
18
102
}
330
18
100
AcDbGroup
300

 70
     1
 71
     1
  0
GROUP
  5
547
102
{ACAD_REACTORS
330
18
102
}
330
18
100
AcDbGroup
300
Vite UNI 5933 M6X16
 70
     3
 71
     1
  0
GROUP
  5
614
102
{ACAD_REACTORS
330
18
102
}
330
18
100
AcDbGroup
300

 70
     1
 71
     1
  0
GROUP
  5
5B1
102
{ACAD_REACTORS
330
18
102
}
330
18
100
AcDbGroup
300

 70
     3
 71
     1
  0
GROUP
  5
6F9
102
{ACAD_REACTORS
330
18
102
}
330
18
100
AcDbGroup
300

 70
     3
 71
     1
  0
GROUP
  5
320
102
{ACAD_REACTORS
330
18
102
}
330
18
100
AcDbGroup
300

 70
     3
 71
     1
  0
GROUP
  5
2E6
102
{ACAD_REACTORS
330
18
102
}
330
18
100
AcDbGroup
300

 70
     3
 71
     1
  0
GROUP
  5
5A8
102
{ACAD_REACTORS
330
18
102
}
330
18
100
AcDbGroup
300

 70
     3
 71
     1
  0
GROUP
  5
696
102
{ACAD_REACTORS
330
18
102
}
330
18
100
AcDbGroup
300

 70
     3
 71
     1
  0
GROUP
  5
5DE
102
{ACAD_REACTORS
330
18
102
}
330
18
100
AcDbGroup
300

 70
     1
 71
     1
  0
GROUP
  5
5DD
102
{ACAD_REACTORS
330
18
102
}
330
18
100
AcDbGroup
300

 70
     1
 71
     1
  0
GROUP
  5
568
102
{ACAD_REACTORS
330
18
102
}
330
18
100
AcDbGroup
300

 70
     3
 71
     1
  0
GROUP
  5
2E7
102
{ACAD_REACTORS
330
18
102
}
330
18
100
AcDbGroup
300

 70
     3
 71
     1
  0
GROUP
  5
2E8
102
{ACAD_REACTORS
330
18
102
}
330
18
100
AcDbGroup
300

 70
     3
 71
     1
  0
GROUP
  5
2BC
102
{ACAD_REACTORS
330
18
102
}
330
18
100
AcDbGroup
300

 70
     3
 71
     1
  0
GROUP
  5
2E9
102
{ACAD_REACTORS
330
18
102
}
330
18
100
AcDbGroup
300

 70
     1
 71
     1
  0
GROUP
  5
6FA
102
{ACAD_REACTORS
330
18
102
}
330
18
100
AcDbGroup
300

 70
     1
 71
     1
  0
GROUP
  5
552
102
{ACAD_REACTORS
330
18
102
}
330
18
100
AcDbGroup
300

 70
     1
 71
     1
  0
GROUP
  5
2EA
102
{ACAD_REACTORS
330
18
102
}
330
18
100
AcDbGroup
300

 70
     3
 71
     1
  0
GROUP
  5
5B2
102
{ACAD_REACTORS
330
18
102
}
330
18
100
AcDbGroup
300

 70
     3
 71
     1
  0
GROUP
  5
6BD
102
{ACAD_REACTORS
330
18
102
}
330
18
100
AcDbGroup
300

 70
     1
 71
     1
  0
GROUP
  5
2C0
102
{ACAD_REACTORS
330
18
102
}
330
18
100
AcDbGroup
300

 70
     1
 71
     1
  0
GROUP
  5
6CC
102
{ACAD_REACTORS
330
18
102
}
330
18
100
AcDbGroup
300

 70
     3
 71
     1
  0
GROUP
  5
2EB
102
{ACAD_REACTORS
330
18
102
}
330
18
100
AcDbGroup
300

 70
     3
 71
     1
  0
GROUP
  5
697
102
{ACAD_REACTORS
330
18
102
}
330
18
100
AcDbGroup
300
Ghiera KM4
 70
     3
 71
     1
  0
GROUP
  5
59A
102
{ACAD_REACTORS
330
18
102
}
330
18
100
AcDbGroup
300

 70
     1
 71
     1
  0
GROUP
  5
615
102
{ACAD_REACTORS
330
18
102
}
330
18
100
AcDbGroup
300
Vite UNI 5931 M8X25
 70
     3
 71
     1
  0
GROUP
  5
2C4
102
{ACAD_REACTORS
330
18
102
}
330
18
100
AcDbGroup
300

 70
     3
 71
     1
  0
GROUP
  5
6FB
102
{ACAD_REACTORS
330
18
102
}
330
18
100
AcDbGroup
300

 70
     3
 71
     1
  0
GROUP
  5
5A2
102
{ACAD_REACTORS
330
18
102
}
330
18
100
AcDbGroup
300

 70
     3
 71
     1
  0
GROUP
  5
519
102
{ACAD_REACTORS
330
18
102
}
330
18
100
AcDbGroup
300

 70
     3
 71
     1
  0
GROUP
  5
2EC
102
{ACAD_REACTORS
330
18
102
}
330
18
100
AcDbGroup
300

 70
     3
 71
     1
  0
GROUP
  5
59D
102
{ACAD_REACTORS
330
18
102
}
330
18
100
AcDbGroup
300

 70
     3
 71
     1
  0
GROUP
  5
2ED
102
{ACAD_REACTORS
330
18
102
}
330
18
100
AcDbGroup
300

 70
     3
 71
     1
  0
GROUP
  5
2F9
102
{ACAD_REACTORS
330
18
102
}
330
18
100
AcDbGroup
300

 70
     3
 71
     1
  0
GROUP
  5
6CD
102
{ACAD_REACTORS
330
18
102
}
330
18
100
AcDbGroup
300

 70
     3
 71
     1
  0
GROUP
  5
317
102
{ACAD_REACTORS
330
18
102
}
330
18
100
AcDbGroup
300

 70
     3
 71
     1
  0
GROUP
  5
58B
102
{ACAD_REACTORS
330
18
102
}
330
18
100
AcDbGroup
300

 70
     3
 71
     1
  0
GROUP
  5
698
102
{ACAD_REACTORS
330
18
102
}
330
18
100
AcDbGroup
300

 70
     3
 71
     1
  0
GROUP
  5
2EE
102
{ACAD_REACTORS
330
18
102
}
330
18
100
AcDbGroup
300

 70
     1
 71
     1
  0
GROUP
  5
6C3
102
{ACAD_REACTORS
330
18
102
}
330
18
100
AcDbGroup
300

 70
     3
 71
     1
  0
GROUP
  5
321
102
{ACAD_REACTORS
330
18
102
}
330
18
100
AcDbGroup
300

 70
     3
 71
     1
  0
GROUP
  5
2EF
102
{ACAD_REACTORS
330
18
102
}
330
18
100
AcDbGroup
300

 70
     3
 71
     1
  0
GROUP
  5
5CF
102
{ACAD_REACTORS
330
18
102
}
330
18
100
AcDbGroup
300

 70
     1
 71
     1
  0
GROUP
  5
2F0
102
{ACAD_REACTORS
330
18
102
}
330
18
100
AcDbGroup
300

 70
     1
 71
     1
  0
GROUP
  5
553
102
{ACAD_REACTORS
330
18
102
}
330
18
100
AcDbGroup
300

 70
     1
 71
     1
  0
GROUP
  5
5E1
102
{ACAD_REACTORS
330
18
102
}
330
18
100
AcDbGroup
300
Vite UNI 5933 M6X16
 70
     1
 71
     1
  0
GROUP
  5
569
102
{ACAD_REACTORS
330
18
102
}
330
18
100
AcDbGroup
300

 70
     3
 71
     1
  0
GROUP
  5
2C5
102
{ACAD_REACTORS
330
18
102
}
330
18
100
AcDbGroup
300

 70
     3
 71
     1
  0
GROUP
  5
51A
102
{ACAD_REACTORS
330
18
102
}
330
18
100
AcDbGroup
300
Vite UNI 5933 M6X16
 70
     1
 71
     1
  0
GROUP
  5
51B
102
{ACAD_REACTORS
330
18
102
}
330
18
100
AcDbGroup
300

 70
     3
 71
     1
  0
GROUP
  5
33F
102
{ACAD_REACTORS
330
18
102
}
330
18
100
AcDbGroup
300

 70
     3
 71
     1
  0
GROUP
  5
6FC
102
{ACAD_REACTORS
330
18
102
}
330
18
100
AcDbGroup
300

 70
     3
 71
     1
  0
GROUP
  5
699
102
{ACAD_REACTORS
330
18
102
}
330
18
100
AcDbGroup
300

 70
     3
 71
     1
  0
GROUP
  5
6C5
102
{ACAD_REACTORS
330
18
102
}
330
18
100
AcDbGroup
300

 70
     3
 71
     1
  0
GROUP
  5
611
102
{ACAD_REACTORS
330
18
102
}
330
18
100
AcDbGroup
300

 70
     1
 71
     1
  0
GROUP
  5
51C
102
{ACAD_REACTORS
330
18
102
}
330
18
100
AcDbGroup
300

 70
     3
 71
     1
  0
GROUP
  5
327
102
{ACAD_REACTORS
330
18
102
}
330
18
100
AcDbGroup
300

 70
     1
 71
     1
  0
GROUP
  5
2F2
102
{ACAD_REACTORS
330
18
102
}
330
18
100
AcDbGroup
300

 70
     3
 71
     1
  0
GROUP
  5
59E
102
{ACAD_REACTORS
330
18
102
}
330
18
100
AcDbGroup
300

 70
     3
 71
     1
  0
GROUP
  5
51D
102
{ACAD_REACTORS
330
18
102
}
330
18
100
AcDbGroup
300

 70
     3
 71
     1
  0
GROUP
  5
50F
102
{ACAD_REACTORS
330
18
102
}
330
18
100
AcDbGroup
300

 70
     3
 71
     1
  0
GROUP
  5
2FC
102
{ACAD_REACTORS
330
18
102
}
330
18
100
AcDbGroup
300

 70
     3
 71
     1
  0
GROUP
  5
556
102
{ACAD_REACTORS
330
18
102
}
330
18
100
AcDbGroup
300

 70
     3
 71
     1
  0
GROUP
  5
6FD
102
{ACAD_REACTORS
330
18
102
}
330
18
100
AcDbGroup
300

 70
     3
 71
     1
  0
GROUP
  5
318
102
{ACAD_REACTORS
330
18
102
}
330
18
100
AcDbGroup
300

 70
     1
 71
     1
  0
GROUP
  5
56A
102
{ACAD_REACTORS
330
18
102
}
330
18
100
AcDbGroup
300
Vite UNI 5931 M8X25
 70
     3
 71
     1
  0
GROUP
  5
51E
102
{ACAD_REACTORS
330
18
102
}
330
18
100
AcDbGroup
300

 70
     3
 71
     1
  0
GROUP
  5
5E2
102
{ACAD_REACTORS
330
18
102
}
330
18
100
AcDbGroup
300
Vite UNI 5933 M6X16
 70
     1
 71
     1
  0
GROUP
  5
69A
102
{ACAD_REACTORS
330
18
102
}
330
18
100
AcDbGroup
300

 70
     3
 71
     1
  0
GROUP
  5
591
102
{ACAD_REACTORS
330
18
102
}
330
18
100
AcDbGroup
300

 70
     3
 71
     1
  0
GROUP
  5
539
102
{ACAD_REACTORS
330
18
102
}
330
18
100
AcDbGroup
300

 70
     3
 71
     1
  0
GROUP
  5
51F
102
{ACAD_REACTORS
330
18
102
}
330
18
100
AcDbGroup
300
Ghiera autofrenante M20x1
 70
     3
 71
     1
  0
GROUP
  5
520
102
{ACAD_REACTORS
330
18
102
}
330
18
100
AcDbGroup
300

 70
     1
 71
     1
  0
GROUP
  5
6CE
102
{ACAD_REACTORS
330
18
102
}
330
18
100
AcDbGroup
300

 70
     3
 71
     1
  0
GROUP
  5
540
102
{ACAD_REACTORS
330
18
102
}
330
18
100
AcDbGroup
300

 70
     3
 71
     1
  0
GROUP
  5
5EB
102
{ACAD_REACTORS
330
18
102
}
330
18
100
AcDbGroup
300
Ghiera KM4
 70
     3
 71
     1
  0
GROUP
  5
6FE
102
{ACAD_REACTORS
330
18
102
}
330
18
100
AcDbGroup
300

 70
     3
 71
     1
  0
GROUP
  5
521
102
{ACAD_REACTORS
330
18
102
}
330
18
100
AcDbGroup
300
Vite UNI 5933 M6X16
 70
     3
 71
     1
  0
GROUP
  5
2BD
102
{ACAD_REACTORS
330
18
102
}
330
18
100
AcDbGroup
300
Vite UNI 5931 M8X25
 70
     3
 71
     1
  0
GROUP
  5
522
102
{ACAD_REACTORS
330
18
102
}
330
18
100
AcDbGroup
300
Rosetta UNI 1751 A 3.1
 70
     1
 71
     1
  0
GROUP
  5
523
102
{ACAD_REACTORS
330
18
102
}
330
18
100
AcDbGroup
300

 70
     3
 71
     1
  0
GROUP
  5
524
102
{ACAD_REACTORS
330
18
102
}
330
18
100
AcDbGroup
300

 70
     1
 71
     1
  0
GROUP
  5
55C
102
{ACAD_REACTORS
330
18
102
}
330
18
100
AcDbGroup
300

 70
     3
 71
     1
  0
GROUP
  5
56B
102
{ACAD_REACTORS
330
18
102
}
330
18
100
AcDbGroup
300

 70
     1
 71
     1
  0
GROUP
  5
333
102
{ACAD_REACTORS
330
18
102
}
330
18
100
AcDbGroup
300

 70
     3
 71
     1
  0
GROUP
  5
2B9
102
{ACAD_REACTORS
330
18
102
}
330
18
100
AcDbGroup
300

 70
     3
 71
     1
  0
GROUP
  5
6F6
102
{ACAD_REACTORS
330
18
102
}
330
18
100
AcDbGroup
300

 70
     3
 71
     1
  0
GROUP
  5
600
102
{ACAD_REACTORS
330
18
102
}
330
18
100
AcDbGroup
300

 70
     1
 71
     1
  0
GROUP
  5
308
102
{ACAD_REACTORS
330
18
102
}
330
18
100
AcDbGroup
300

 70
     1
 71
     1
  0
GROUP
  5
513
102
{ACAD_REACTORS
330
18
102
}
330
18
100
AcDbGroup
300
Vite UNI 5933 M6X16
 70
     3
 71
     1
  0
GROUP
  5
525
102
{ACAD_REACTORS
330
18
102
}
330
18
100
AcDbGroup
300

 70
     3
 71
     1
  0
GROUP
  5
526
102
{ACAD_REACTORS
330
18
102
}
330
18
100
AcDbGroup
300

 70
     3
 71
     1
  0
GROUP
  5
328
102
{ACAD_REACTORS
330
18
102
}
330
18
100
AcDbGroup
300

 70
     1
 71
     1
  0
GROUP
  5
5DF
102
{ACAD_REACTORS
330
18
102
}
330
18
100
AcDbGroup
300

 70
     3
 71
     1
  0
GROUP
  5
557
102
{ACAD_REACTORS
330
18
102
}
330
18
100
AcDbGroup
300

 70
     3
 71
     1
  0
GROUP
  5
595
102
{ACAD_REACTORS
330
18
102
}
330
18
100
AcDbGroup
300

 70
     1
 71
     1
  0
GROUP
  5
2F3
102
{ACAD_REACTORS
330
18
102
}
330
18
100
AcDbGroup
300

 70
     3
 71
     1
  0
GROUP
  5
69B
102
{ACAD_REACTORS
330
18
102
}
330
18
100
AcDbGroup
300

 70
     1
 71
     1
  0
GROUP
  5
601
102
{ACAD_REACTORS
330
18
102
}
330
18
100
AcDbGroup
300

 70
     1
 71
     1
  0
GROUP
  5
2BE
102
{ACAD_REACTORS
330
18
102
}
330
18
100
AcDbGroup
300
Vite UNI 5933 M6X16
 70
     3
 71
     1
  0
GROUP
  5
527
102
{ACAD_REACTORS
330
18
102
}
330
18
100
AcDbGroup
300

 70
     3
 71
     1
  0
GROUP
  5
68D
102
{ACAD_REACTORS
330
18
102
}
330
18
100
AcDbGroup
300

 70
     3
 71
     1
  0
GROUP
  5
5EE
102
{ACAD_REACTORS
330
18
102
}
330
18
100
AcDbGroup
300

 70
     3
 71
     1
  0
GROUP
  5
2C7
102
{ACAD_REACTORS
330
18
102
}
330
18
100
AcDbGroup
300
Vite UNI 5933 M6X16
 70
     3
 71
     1
  0
GROUP
  5
335
102
{ACAD_REACTORS
330
18
102
}
330
18
100
AcDbGroup
300

 70
     3
 71
     1
  0
GROUP
  5
528
102
{ACAD_REACTORS
330
18
102
}
330
18
100
AcDbGroup
300

 70
     3
 71
     1
  0
GROUP
  5
529
102
{ACAD_REACTORS
330
18
102
}
330
18
100
AcDbGroup
300
Ghiera KM4
 70
     3
 71
     1
  0
GROUP
  5
52A
102
{ACAD_REACTORS
330
18
102
}
330
18
100
AcDbGroup
300

 70
     3
 71
     1
  0
GROUP
  5
52B
102
{ACAD_REACTORS
330
18
102
}
330
18
100
AcDbGroup
300
Vite UNI 5933 M6X16
 70
     3
 71
     1
  0
GROUP
  5
602
102
{ACAD_REACTORS
330
18
102
}
330
18
100
AcDbGroup
300

 70
     1
 71
     1
  0
GROUP
  5
59F
102
{ACAD_REACTORS
330
18
102
}
330
18
100
AcDbGroup
300

 70
     1
 71
     1
  0
GROUP
  5
52C
102
{ACAD_REACTORS
330
18
102
}
330
18
100
AcDbGroup
300

 70
     3
 71
     1
  0
GROUP
  5
69C
102
{ACAD_REACTORS
330
18
102
}
330
18
100
AcDbGroup
300

 70
     1
 71
     1
  0
GROUP
  5
6F1
102
{ACAD_REACTORS
330
18
102
}
330
18
100
AcDbGroup
300

 70
     3
 71
     1
  0
GROUP
  5
6FF
102
{ACAD_REACTORS
330
18
102
}
330
18
100
AcDbGroup
300

 70
     3
 71
     1
  0
GROUP
  5
52D
102
{ACAD_REACTORS
330
18
102
}
330
18
100
AcDbGroup
300

 70
     3
 71
     1
  0
GROUP
  5
6CF
102
{ACAD_REACTORS
330
18
102
}
330
18
100
AcDbGroup
300
Ghiera autofrenante M20x1
 70
     3
 71
     1
  0
GROUP
  5
5E0
102
{ACAD_REACTORS
330
18
102
}
330
18
100
AcDbGroup
300

 70
     3
 71
     1
  0
GROUP
  5
2F4
102
{ACAD_REACTORS
330
18
102
}
330
18
100
AcDbGroup
300
Vite UNI 5931 M8X25
 70
     3
 71
     1
  0
GROUP
  5
2C2
102
{ACAD_REACTORS
330
18
102
}
330
18
100
AcDbGroup
300

 70
     1
 71
     1
  0
GROUP
  5
54B
102
{ACAD_REACTORS
330
18
102
}
330
18
100
AcDbGroup
300

 70
     1
 71
     1
  0
GROUP
  5
5E7
102
{ACAD_REACTORS
330
18
102
}
330
18
100
AcDbGroup
300

 70
     3
 71
     1
  0
GROUP
  5
56C
102
{ACAD_REACTORS
330
18
102
}
330
18
100
AcDbGroup
300

 70
     3
 71
     1
  0
GROUP
  5
52E
102
{ACAD_REACTORS
330
18
102
}
330
18
100
AcDbGroup
300

 70
     3
 71
     1
  0
GROUP
  5
52F
102
{ACAD_REACTORS
330
18
102
}
330
18
100
AcDbGroup
300

 70
     3
 71
     1
  0
GROUP
  5
32A
102
{ACAD_REACTORS
330
18
102
}
330
18
100
AcDbGroup
300

 70
     3
 71
     1
  0
GROUP
  5
700
102
{ACAD_REACTORS
330
18
102
}
330
18
100
AcDbGroup
300

 70
     3
 71
     1
  0
GROUP
  5
558
102
{ACAD_REACTORS
330
18
102
}
330
18
100
AcDbGroup
300

 70
     3
 71
     1
  0
GROUP
  5
5EC
102
{ACAD_REACTORS
330
18
102
}
330
18
100
AcDbGroup
300

 70
     3
 71
     1
  0
GROUP
  5
6D0
102
{ACAD_REACTORS
330
18
102
}
330
18
100
AcDbGroup
300

 70
     1
 71
     1
  0
GROUP
  5
530
102
{ACAD_REACTORS
330
18
102
}
330
18
100
AcDbGroup
300

 70
     3
 71
     1
  0
GROUP
  5
5F1
102
{ACAD_REACTORS
330
18
102
}
330
18
100
AcDbGroup
300

 70
     1
 71
     1
  0
GROUP
  5
2FD
102
{ACAD_REACTORS
330
18
102
}
330
18
100
AcDbGroup
300

 70
     3
 71
     1
  0
GROUP
  5
329
102
{ACAD_REACTORS
330
18
102
}
330
18
100
AcDbGroup
300
Vite UNI 5931 M8X25
 70
     3
 71
     1
  0
GROUP
  5
531
102
{ACAD_REACTORS
330
18
102
}
330
18
100
AcDbGroup
300

 70
     3
 71
     1
  0
GROUP
  5
5A0
102
{ACAD_REACTORS
330
18
102
}
330
18
100
AcDbGroup
300

 70
     3
 71
     1
  0
GROUP
  5
2CA
102
{ACAD_REACTORS
330
18
102
}
330
18
100
AcDbGroup
300

 70
     3
 71
     1
  0
GROUP
  5
5B3
102
{ACAD_REACTORS
330
18
102
}
330
18
100
AcDbGroup
300

 70
     3
 71
     1
  0
GROUP
  5
507
102
{ACAD_REACTORS
330
18
102
}
330
18
100
AcDbGroup
300
Vite UNI 5931 M8X25
 70
     1
 71
     1
  0
GROUP
  5
2C3
102
{ACAD_REACTORS
330
18
102
}
330
18
100
AcDbGroup
300
Vite UNI 5933 M6X16
 70
     3
 71
     1
  0
GROUP
  5
56D
102
{ACAD_REACTORS
330
18
102
}
330
18
100
AcDbGroup
300

 70
     3
 71
     1
  0
GROUP
  5
319
102
{ACAD_REACTORS
330
18
102
}
330
18
100
AcDbGroup
300
Rosetta UNI 1751 A 6.1
 70
     1
 71
     1
  0
GROUP
  5
33C
102
{ACAD_REACTORS
330
18
102
}
330
18
100
AcDbGroup
300
Vite UNI 5933 M6X16
 70
     3
 71
     1
  0
GROUP
  5
6D1
102
{ACAD_REACTORS
330
18
102
}
330
18
100
AcDbGroup
300
Vite UNI 5933 M6X16
 70
     3
 71
     1
  0
GROUP
  5
2F1
102
{ACAD_REACTORS
330
18
102
}
330
18
100
AcDbGroup
300

 70
     3
 71
     1
  0
GROUP
  5
56E
102
{ACAD_REACTORS
330
18
102
}
330
18
100
AcDbGroup
300
Vite UNI 5931 M8X25
 70
     3
 71
     1
  0
GROUP
  5
303
102
{ACAD_REACTORS
330
18
102
}
330
18
100
AcDbGroup
300

 70
     3
 71
     1
  0
GROUP
  5
533
102
{ACAD_REACTORS
330
18
102
}
330
18
100
AcDbGroup
300

 70
     3
 71
     1
  0
GROUP
  5
5E4
102
{ACAD_REACTORS
330
18
102
}
330
18
100
AcDbGroup
300

 70
     3
 71
     1
  0
GROUP
  5
56F
102
{ACAD_REACTORS
330
18
102
}
330
18
100
AcDbGroup
300

 70
     3
 71
     1
  0
GROUP
  5
32E
102
{ACAD_REACTORS
330
18
102
}
330
18
100
AcDbGroup
300

 70
     3
 71
     1
  0
GROUP
  5
53D
102
{ACAD_REACTORS
330
18
102
}
330
18
100
AcDbGroup
300

 70
     1
 71
     1
  0
GROUP
  5
5A3
102
{ACAD_REACTORS
330
18
102
}
330
18
100
AcDbGroup
300
Vite UNI 5933 M6X16
 70
     1
 71
     1
  0
GROUP
  5
2BF
102
{ACAD_REACTORS
330
18
102
}
330
18
100
AcDbGroup
300

 70
     1
 71
     1
  0
GROUP
  5
5B4
102
{ACAD_REACTORS
330
18
102
}
330
18
100
AcDbGroup
300

 70
     3
 71
     1
  0
GROUP
  5
570
102
{ACAD_REACTORS
330
18
102
}
330
18
100
AcDbGroup
300
Ghiera autofrenante M20x1
 70
     1
 71
     1
  0
GROUP
  5
31D
102
{ACAD_REACTORS
330
18
102
}
330
18
100
AcDbGroup
300

 70
     3
 71
     1
  0
GROUP
  5
6D2
102
{ACAD_REACTORS
330
18
102
}
330
18
100
AcDbGroup
300
Rosetta UNI 1751 A 3.1
 70
     1
 71
     1
  0
GROUP
  5
5D8
102
{ACAD_REACTORS
330
18
102
}
330
18
100
AcDbGroup
300

 70
     3
 71
     1
  0
GROUP
  5
589
102
{ACAD_REACTORS
330
18
102
}
330
18
100
AcDbGroup
300
Vite UNI 5933 M6X16
 70
     3
 71
     1
  0
GROUP
  5
571
102
{ACAD_REACTORS
330
18
102
}
330
18
100
AcDbGroup
300

 70
     1
 71
     1
  0
GROUP
  5
572
102
{ACAD_REACTORS
330
18
102
}
330
18
100
AcDbGroup
300

 70
     3
 71
     1
  0
GROUP
  5
54A
102
{ACAD_REACTORS
330
18
102
}
330
18
100
AcDbGroup
300

 70
     3
 71
     1
  0
GROUP
  5
58F
102
{ACAD_REACTORS
330
18
102
}
330
18
100
AcDbGroup
300

 70
     3
 71
     1
  0
GROUP
  5
5D4
102
{ACAD_REACTORS
330
18
102
}
330
18
100
AcDbGroup
300

 70
     1
 71
     1
  0
GROUP
  5
573
102
{ACAD_REACTORS
330
18
102
}
330
18
100
AcDbGroup
300

 70
     3
 71
     1
  0
GROUP
  5
534
102
{ACAD_REACTORS
330
18
102
}
330
18
100
AcDbGroup
300

 70
     3
 71
     1
  0
GROUP
  5
574
102
{ACAD_REACTORS
330
18
102
}
330
18
100
AcDbGroup
300

 70
     1
 71
     1
  0
GROUP
  5
575
102
{ACAD_REACTORS
330
18
102
}
330
18
100
AcDbGroup
300
Vite UNI 5931 M8X25
 70
     3
 71
     1
  0
GROUP
  5
576
102
{ACAD_REACTORS
330
18
102
}
330
18
100
AcDbGroup
300

 70
     1
 71
     1
  0
GROUP
  5
31B
102
{ACAD_REACTORS
330
18
102
}
330
18
100
AcDbGroup
300

 70
     1
 71
     1
  0
GROUP
  5
5B5
102
{ACAD_REACTORS
330
18
102
}
330
18
100
AcDbGroup
300

 70
     3
 71
     1
  0
GROUP
  5
30E
102
{ACAD_REACTORS
330
18
102
}
330
18
100
AcDbGroup
300

 70
     1
 71
     1
  0
GROUP
  5
50C
102
{ACAD_REACTORS
330
18
102
}
330
18
100
AcDbGroup
300

 70
     3
 71
     1
  0
GROUP
  5
549
102
{ACAD_REACTORS
330
18
102
}
330
18
100
AcDbGroup
300

 70
     3
 71
     1
  0
GROUP
  5
566
102
{ACAD_REACTORS
330
18
102
}
330
18
100
AcDbGroup
300

 70
     3
 71
     1
  0
GROUP
  5
32F
102
{ACAD_REACTORS
330
18
102
}
330
18
100
AcDbGroup
300

 70
     1
 71
     1
  0
GROUP
  5
577
102
{ACAD_REACTORS
330
18
102
}
330
18
100
AcDbGroup
300

 70
     1
 71
     1
  0
GROUP
  5
304
102
{ACAD_REACTORS
330
18
102
}
330
18
100
AcDbGroup
300

 70
     1
 71
     1
  0
GROUP
  5
2C8
102
{ACAD_REACTORS
330
18
102
}
330
18
100
AcDbGroup
300

 70
     3
 71
     1
  0
GROUP
  5
5A4
102
{ACAD_REACTORS
330
18
102
}
330
18
100
AcDbGroup
300

 70
     3
 71
     1
  0
GROUP
  5
5DB
102
{ACAD_REACTORS
330
18
102
}
330
18
100
AcDbGroup
300

 70
     3
 71
     1
  0
GROUP
  5
535
102
{ACAD_REACTORS
330
18
102
}
330
18
100
AcDbGroup
300

 70
     3
 71
     1
  0
GROUP
  5
6D3
102
{ACAD_REACTORS
330
18
102
}
330
18
100
AcDbGroup
300

 70
     1
 71
     1
  0
GROUP
  5
53E
102
{ACAD_REACTORS
330
18
102
}
330
18
100
AcDbGroup
300

 70
     3
 71
     1
  0
GROUP
  5
578
102
{ACAD_REACTORS
330
18
102
}
330
18
100
AcDbGroup
300

 70
     3
 71
     1
  0
GROUP
  5
6C6
102
{ACAD_REACTORS
330
18
102
}
330
18
100
AcDbGroup
300

 70
     3
 71
     1
  0
GROUP
  5
2D4
102
{ACAD_REACTORS
330
18
102
}
330
18
100
AcDbGroup
300

 70
     3
 71
     1
  0
GROUP
  5
325
102
{ACAD_REACTORS
330
18
102
}
330
18
100
AcDbGroup
300

 70
     1
 71
     1
  0
GROUP
  5
69D
102
{ACAD_REACTORS
330
18
102
}
330
18
100
AcDbGroup
300

 70
     1
 71
     1
  0
GROUP
  5
579
102
{ACAD_REACTORS
330
18
102
}
330
18
100
AcDbGroup
300

 70
     3
 71
     1
  0
GROUP
  5
57A
102
{ACAD_REACTORS
330
18
102
}
330
18
100
AcDbGroup
300
Vite UNI 5933 M6X16
 70
     1
 71
     1
  0
GROUP
  5
57B
102
{ACAD_REACTORS
330
18
102
}
330
18
100
AcDbGroup
300

 70
     3
 71
     1
  0
GROUP
  5
57C
102
{ACAD_REACTORS
330
18
102
}
330
18
100
AcDbGroup
300

 70
     3
 71
     1
  0
GROUP
  5
339
102
{ACAD_REACTORS
330
18
102
}
330
18
100
AcDbGroup
300

 70
     3
 71
     1
  0
GROUP
  5
57D
102
{ACAD_REACTORS
330
18
102
}
330
18
100
AcDbGroup
300

 70
     3
 71
     1
  0
GROUP
  5
6D4
102
{ACAD_REACTORS
330
18
102
}
330
18
100
AcDbGroup
300

 70
     3
 71
     1
  0
GROUP
  5
322
102
{ACAD_REACTORS
330
18
102
}
330
18
100
AcDbGroup
300

 70
     1
 71
     1
  0
GROUP
  5
603
102
{ACAD_REACTORS
330
18
102
}
330
18
100
AcDbGroup
300
Vite UNI 5933 M6X16
 70
     3
 71
     1
  0
GROUP
  5
57E
102
{ACAD_REACTORS
330
18
102
}
330
18
100
AcDbGroup
300
Ghiera autofrenante M20x1
 70
     3
 71
     1
  0
GROUP
  5
701
102
{ACAD_REACTORS
330
18
102
}
330
18
100
AcDbGroup
300

 70
     3
 71
     1
  0
GROUP
  5
2C9
102
{ACAD_REACTORS
330
18
102
}
330
18
100
AcDbGroup
300

 70
     3
 71
     1
  0
GROUP
  5
536
102
{ACAD_REACTORS
330
18
102
}
330
18
100
AcDbGroup
300

 70
     3
 71
     1
  0
GROUP
  5
323
102
{ACAD_REACTORS
330
18
102
}
330
18
100
AcDbGroup
300
Ghiera KM4
 70
     3
 71
     1
  0
GROUP
  5
2CE
102
{ACAD_REACTORS
330
18
102
}
330
18
100
AcDbGroup
300

 70
     3
 71
     1
  0
GROUP
  5
5B6
102
{ACAD_REACTORS
330
18
102
}
330
18
100
AcDbGroup
300

 70
     3
 71
     1
  0
GROUP
  5
57F
102
{ACAD_REACTORS
330
18
102
}
330
18
100
AcDbGroup
300

 70
     1
 71
     1
  0
GROUP
  5
580
102
{ACAD_REACTORS
330
18
102
}
330
18
100
AcDbGroup
300
Vite UNI 5933 M6X16
 70
     3
 71
     1
  0
GROUP
  5
306
102
{ACAD_REACTORS
330
18
102
}
330
18
100
AcDbGroup
300

 70
     1
 71
     1
  0
GROUP
  5
604
102
{ACAD_REACTORS
330
18
102
}
330
18
100
AcDbGroup
300

 70
     3
 71
     1
  0
GROUP
  5
5A5
102
{ACAD_REACTORS
330
18
102
}
330
18
100
AcDbGroup
300

 70
     3
 71
     1
  0
GROUP
  5
2D3
102
{ACAD_REACTORS
330
18
102
}
330
18
100
AcDbGroup
300

 70
     3
 71
     1
  0
GROUP
  5
702
102
{ACAD_REACTORS
330
18
102
}
330
18
100
AcDbGroup
300

 70
     3
 71
     1
  0
GROUP
  5
330
102
{ACAD_REACTORS
330
18
102
}
330
18
100
AcDbGroup
300

 70
     3
 71
     1
  0
GROUP
  5
53F
102
{ACAD_REACTORS
330
18
102
}
330
18
100
AcDbGroup
300

 70
     3
 71
     1
  0
GROUP
  5
305
102
{ACAD_REACTORS
330
18
102
}
330
18
100
AcDbGroup
300

 70
     1
 71
     1
  0
GROUP
  5
581
102
{ACAD_REACTORS
330
18
102
}
330
18
100
AcDbGroup
300
Rosetta UNI 1751 A 3.1
 70
     1
 71
     1
  0
GROUP
  5
5E5
102
{ACAD_REACTORS
330
18
102
}
330
18
100
AcDbGroup
300
Vite UNI 5933 M6X16
 70
     3
 71
     1
  0
GROUP
  5
50B
102
{ACAD_REACTORS
330
18
102
}
330
18
100
AcDbGroup
300

 70
     3
 71
     1
  0
GROUP
  5
69E
102
{ACAD_REACTORS
330
18
102
}
330
18
100
AcDbGroup
300

 70
     1
 71
     1
  0
GROUP
  5
55B
102
{ACAD_REACTORS
330
18
102
}
330
18
100
AcDbGroup
300

 70
     3
 71
     1
  0
GROUP
  5
324
102
{ACAD_REACTORS
330
18
102
}
330
18
100
AcDbGroup
300
Vite UNI 5933 M6X16
 70
     1
 71
     1
  0
GROUP
  5
5B7
102
{ACAD_REACTORS
330
18
102
}
330
18
100
AcDbGroup
300

 70
     1
 71
     1
  0
GROUP
  5
559
102
{ACAD_REACTORS
330
18
102
}
330
18
100
AcDbGroup
300

 70
     3
 71
     1
  0
GROUP
  5
703
102
{ACAD_REACTORS
330
18
102
}
330
18
100
AcDbGroup
300

 70
     1
 71
     1
  0
GROUP
  5
532
102
{ACAD_REACTORS
330
18
102
}
330
18
100
AcDbGroup
300
Ghiera autofrenante M20x1
 70
     3
 71
     1
  0
GROUP
  5
5B8
102
{ACAD_REACTORS
330
18
102
}
330
18
100
AcDbGroup
300

 70
     3
 71
     1
  0
GROUP
  5
2C1
102
{ACAD_REACTORS
330
18
102
}
330
18
100
AcDbGroup
300
Vite UNI 5933 M6X16
 70
     3
 71
     1
  0
GROUP
  5
583
102
{ACAD_REACTORS
330
18
102
}
330
18
100
AcDbGroup
300

 70
     1
 71
     1
  0
GROUP
  5
2CB
102
{ACAD_REACTORS
330
18
102
}
330
18
100
AcDbGroup
300
Ghiera autofrenante M20x1
 70
     3
 71
     1
  0
GROUP
  5
5B9
102
{ACAD_REACTORS
330
18
102
}
330
18
100
AcDbGroup
300

 70
     1
 71
     1
  0
GROUP
  5
309
102
{ACAD_REACTORS
330
18
102
}
330
18
100
AcDbGroup
300

 70
     1
 71
     1
  0
GROUP
  5
58C
102
{ACAD_REACTORS
330
18
102
}
330
18
100
AcDbGroup
300

 70
     3
 71
     1
  0
GROUP
  5
5E8
102
{ACAD_REACTORS
330
18
102
}
330
18
100
AcDbGroup
300
Vite UNI 5933 M6X16
 70
     3
 71
     1
  0
GROUP
  5
69F
102
{ACAD_REACTORS
330
18
102
}
330
18
100
AcDbGroup
300

 70
     1
 71
     1
  0
GROUP
  5
5BA
102
{ACAD_REACTORS
330
18
102
}
330
18
100
AcDbGroup
300

 70
     3
 71
     1
  0
GROUP
  5
2FA
102
{ACAD_REACTORS
330
18
102
}
330
18
100
AcDbGroup
300
Vite UNI 5933 M6X16
 70
     1
 71
     1
  0
GROUP
  5
704
102
{ACAD_REACTORS
330
18
102
}
330
18
100
AcDbGroup
300

 70
     3
 71
     1
  0
GROUP
  5
617
102
{ACAD_REACTORS
330
18
102
}
330
18
100
AcDbGroup
300
Vite UNI 5933 M6X16
 70
     3
 71
     1
  0
GROUP
  5
338
102
{ACAD_REACTORS
330
18
102
}
330
18
100
AcDbGroup
300

 70
     3
 71
     1
  0
GROUP
  5
5BB
102
{ACAD_REACTORS
330
18
102
}
330
18
100
AcDbGroup
300

 70
     3
 71
     1
  0
GROUP
  5
5BC
102
{ACAD_REACTORS
330
18
102
}
330
18
100
AcDbGroup
300

 70
     3
 71
     1
  0
GROUP
  5
598
102
{ACAD_REACTORS
330
18
102
}
330
18
100
AcDbGroup
300

 70
     1
 71
     1
  0
GROUP
  5
5D6
102
{ACAD_REACTORS
330
18
102
}
330
18
100
AcDbGroup
300

 70
     1
 71
     1
  0
GROUP
  5
336
102
{ACAD_REACTORS
330
18
102
}
330
18
100
AcDbGroup
300

 70
     3
 71
     1
  0
GROUP
  5
584
102
{ACAD_REACTORS
330
18
102
}
330
18
100
AcDbGroup
300

 70
     3
 71
     1
  0
GROUP
  5
5BD
102
{ACAD_REACTORS
330
18
102
}
330
18
100
AcDbGroup
300

 70
     1
 71
     1
  0
GROUP
  5
5BE
102
{ACAD_REACTORS
330
18
102
}
330
18
100
AcDbGroup
300

 70
     3
 71
     1
  0
GROUP
  5
5BF
102
{ACAD_REACTORS
330
18
102
}
330
18
100
AcDbGroup
300

 70
     3
 71
     1
  0
GROUP
  5
68E
102
{ACAD_REACTORS
330
18
102
}
330
18
100
AcDbGroup
300

 70
     3
 71
     1
  0
GROUP
  5
6A0
102
{ACAD_REACTORS
330
18
102
}
330
18
100
AcDbGroup
300

 70
     1
 71
     1
  0
GROUP
  5
32C
102
{ACAD_REACTORS
330
18
102
}
330
18
100
AcDbGroup
300

 70
     3
 71
     1
  0
GROUP
  5
560
102
{ACAD_REACTORS
330
18
102
}
330
18
100
AcDbGroup
300

 70
     1
 71
     1
  0
GROUP
  5
597
102
{ACAD_REACTORS
330
18
102
}
330
18
100
AcDbGroup
300

 70
     1
 71
     1
  0
GROUP
  5
30A
102
{ACAD_REACTORS
330
18
102
}
330
18
100
AcDbGroup
300

 70
     1
 71
     1
  0
GROUP
  5
5C0
102
{ACAD_REACTORS
330
18
102
}
330
18
100
AcDbGroup
300

 70
     1
 71
     1
  0
GROUP
  5
32B
102
{ACAD_REACTORS
330
18
102
}
330
18
100
AcDbGroup
300

 70
     1
 71
     1
  0
GROUP
  5
509
102
{ACAD_REACTORS
330
18
102
}
330
18
100
AcDbGroup
300

 70
     3
 71
     1
  0
GROUP
  5
5E9
102
{ACAD_REACTORS
330
18
102
}
330
18
100
AcDbGroup
300

 70
     3
 71
     1
  0
GROUP
  5
340
102
{ACAD_REACTORS
330
18
102
}
330
18
100
AcDbGroup
300

 70
     3
 71
     1
  0
GROUP
  5
585
102
{ACAD_REACTORS
330
18
102
}
330
18
100
AcDbGroup
300

 70
     3
 71
     1
  0
GROUP
  5
705
102
{ACAD_REACTORS
330
18
102
}
330
18
100
AcDbGroup
300

 70
     3
 71
     1
  0
GROUP
  5
58D
102
{ACAD_REACTORS
330
18
102
}
330
18
100
AcDbGroup
300

 70
     1
 71
     1
  0
GROUP
  5
5C1
102
{ACAD_REACTORS
330
18
102
}
330
18
100
AcDbGroup
300

 70
     3
 71
     1
  0
GROUP
  5
515
102
{ACAD_REACTORS
330
18
102
}
330
18
100
AcDbGroup
300
Vite UNI 5931 M8X25
 70
     3
 71
     1
  0
GROUP
  5
301
102
{ACAD_REACTORS
330
18
102
}
330
18
100
AcDbGroup
300

 70
     3
 71
     1
  0
GROUP
  5
6D5
102
{ACAD_REACTORS
330
18
102
}
330
18
100
AcDbGroup
300

 70
     3
 71
     1
  0
GROUP
  5
5C2
102
{ACAD_REACTORS
330
18
102
}
330
18
100
AcDbGroup
300

 70
     3
 71
     1
  0
GROUP
  5
5C3
102
{ACAD_REACTORS
330
18
102
}
330
18
100
AcDbGroup
300
Vite UNI 5931 M8X25
 70
     3
 71
     1
  0
GROUP
  5
5C4
102
{ACAD_REACTORS
330
18
102
}
330
18
100
AcDbGroup
300

 70
     1
 71
     1
  0
GROUP
  5
5C5
102
{ACAD_REACTORS
330
18
102
}
330
18
100
AcDbGroup
300

 70
     3
 71
     1
  0
GROUP
  5
313
102
{ACAD_REACTORS
330
18
102
}
330
18
100
AcDbGroup
300
Rosetta UNI 1751 A 6.1
 70
     1
 71
     1
  0
GROUP
  5
5C6
102
{ACAD_REACTORS
330
18
102
}
330
18
100
AcDbGroup
300
Vite UNI 5931 M8X25
 70
     3
 71
     1
  0
GROUP
  5
706
102
{ACAD_REACTORS
330
18
102
}
330
18
100
AcDbGroup
300

 70
     3
 71
     1
  0
GROUP
  5
337
102
{ACAD_REACTORS
330
18
102
}
330
18
100
AcDbGroup
300
Vite UNI 5933 M6X16
 70
     1
 71
     1
  0
GROUP
  5
605
102
{ACAD_REACTORS
330
18
102
}
330
18
100
AcDbGroup
300
Vite UNI 5931 M8X25
 70
     1
 71
     1
  0
GROUP
  5
50A
102
{ACAD_REACTORS
330
18
102
}
330
18
100
AcDbGroup
300

 70
     3
 71
     1
  0
GROUP
  5
586
102
{ACAD_REACTORS
330
18
102
}
330
18
100
AcDbGroup
300

 70
     3
 71
     1
  0
GROUP
  5
2FF
102
{ACAD_REACTORS
330
18
102
}
330
18
100
AcDbGroup
300
Vite UNI 5933 M6X16
 70
     3
 71
     1
  0
GROUP
  5
510
102
{ACAD_REACTORS
330
18
102
}
330
18
100
AcDbGroup
300

 70
     3
 71
     1
  0
GROUP
  5
6A1
102
{ACAD_REACTORS
330
18
102
}
330
18
100
AcDbGroup
300

 70
     1
 71
     1
  0
GROUP
  5
5C7
102
{ACAD_REACTORS
330
18
102
}
330
18
100
AcDbGroup
300

 70
     3
 71
     1
  0
GROUP
  5
5C8
102
{ACAD_REACTORS
330
18
102
}
330
18
100
AcDbGroup
300
Ghiera autofrenante M20x1
 70
     1
 71
     1
  0
GROUP
  5
546
102
{ACAD_REACTORS
330
18
102
}
330
18
100
AcDbGroup
300

 70
     3
 71
     1
  0
GROUP
  5
5EA
102
{ACAD_REACTORS
330
18
102
}
330
18
100
AcDbGroup
300

 70
     1
 71
     1
  0
GROUP
  5
514
102
{ACAD_REACTORS
330
18
102
}
330
18
100
AcDbGroup
300

 70
     1
 71
     1
  0
GROUP
  5
606
102
{ACAD_REACTORS
330
18
102
}
330
18
100
AcDbGroup
300

 70
     1
 71
     1
  0
GROUP
  5
30B
102
{ACAD_REACTORS
330
18
102
}
330
18
100
AcDbGroup
300

 70
     1
 71
     1
  0
GROUP
  5
58E
102
{ACAD_REACTORS
330
18
102
}
330
18
100
AcDbGroup
300

 70
     3
 71
     1
  0
GROUP
  5
545
102
{ACAD_REACTORS
330
18
102
}
330
18
100
AcDbGroup
300

 70
     3
 71
     1
  0
GROUP
  5
5C9
102
{ACAD_REACTORS
330
18
102
}
330
18
100
AcDbGroup
300

 70
     1
 71
     1
  0
GROUP
  5
2CC
102
{ACAD_REACTORS
330
18
102
}
330
18
100
AcDbGroup
300

 70
     3
 71
     1
  0
GROUP
  5
55F
102
{ACAD_REACTORS
330
18
102
}
330
18
100
AcDbGroup
300

 70
     3
 71
     1
  0
GROUP
  5
6D6
102
{ACAD_REACTORS
330
18
102
}
330
18
100
AcDbGroup
300

 70
     3
 71
     1
  0
GROUP
  5
6A2
102
{ACAD_REACTORS
330
18
102
}
330
18
100
AcDbGroup
300
Vite UNI 5933 M6X16
 70
     1
 71
     1
  0
GROUP
  5
6A3
102
{ACAD_REACTORS
330
18
102
}
330
18
100
AcDbGroup
300

 70
     1
 71
     1
  0
GROUP
  5
5A6
102
{ACAD_REACTORS
330
18
102
}
330
18
100
AcDbGroup
300

 70
     1
 71
     1
  0
GROUP
  5
607
102
{ACAD_REACTORS
330
18
102
}
330
18
100
AcDbGroup
300
Rosetta UNI 1751 A 6.1
 70
     1
 71
     1
  0
GROUP
  5
582
102
{ACAD_REACTORS
330
18
102
}
330
18
100
AcDbGroup
300

 70
     1
 71
     1
  0
GROUP
  5
6A4
102
{ACAD_REACTORS
330
18
102
}
330
18
100
AcDbGroup
300

 70
     1
 71
     1
  0
GROUP
  5
6A5
102
{ACAD_REACTORS
330
18
102
}
330
18
100
AcDbGroup
300

 70
     1
 71
     1
  0
GROUP
  5
5CB
102
{ACAD_REACTORS
330
18
102
}
330
18
100
AcDbGroup
300

 70
     1
 71
     1
  0
GROUP
  5
50D
102
{ACAD_REACTORS
330
18
102
}
330
18
100
AcDbGroup
300
Vite UNI 5933 M6X16
 70
     3
 71
     1
  0
GROUP
  5
6A6
102
{ACAD_REACTORS
330
18
102
}
330
18
100
AcDbGroup
300

 70
     1
 71
     1
  0
GROUP
  5
5ED
102
{ACAD_REACTORS
330
18
102
}
330
18
100
AcDbGroup
300

 70
     3
 71
     1
  0
GROUP
  5
2CF
102
{ACAD_REACTORS
330
18
102
}
330
18
100
AcDbGroup
300

 70
     3
 71
     1
  0
GROUP
  5
6D7
102
{ACAD_REACTORS
330
18
102
}
330
18
100
AcDbGroup
300

 70
     3
 71
     1
  0
GROUP
  5
6A7
102
{ACAD_REACTORS
330
18
102
}
330
18
100
AcDbGroup
300

 70
     1
 71
     1
  0
GROUP
  5
53B
102
{ACAD_REACTORS
330
18
102
}
330
18
100
AcDbGroup
300

 70
     3
 71
     1
  0
GROUP
  5
608
102
{ACAD_REACTORS
330
18
102
}
330
18
100
AcDbGroup
300

 70
     1
 71
     1
  0
GROUP
  5
2F6
102
{ACAD_REACTORS
330
18
102
}
330
18
100
AcDbGroup
300
Ghiera autofrenante M20x1
 70
     1
 71
     1
  0
GROUP
  5
6C4
102
{ACAD_REACTORS
330
18
102
}
330
18
100
AcDbGroup
300

 70
     3
 71
     1
  0
GROUP
  5
6A8
102
{ACAD_REACTORS
330
18
102
}
330
18
100
AcDbGroup
300
Rosetta UNI 1751 A 6.1
 70
     1
 71
     1
  0
GROUP
  5
6A9
102
{ACAD_REACTORS
330
18
102
}
330
18
100
AcDbGroup
300

 70
     1
 71
     1
  0
GROUP
  5
616
102
{ACAD_REACTORS
330
18
102
}
330
18
100
AcDbGroup
300

 70
     3
 71
     1
  0
GROUP
  5
6AA
102
{ACAD_REACTORS
330
18
102
}
330
18
100
AcDbGroup
300

 70
     1
 71
     1
  0
GROUP
  5
5CC
102
{ACAD_REACTORS
330
18
102
}
330
18
100
AcDbGroup
300

 70
     3
 71
     1
  0
GROUP
  5
6AB
102
{ACAD_REACTORS
330
18
102
}
330
18
100
AcDbGroup
300

 70
     3
 71
     1
  0
GROUP
  5
6AC
102
{ACAD_REACTORS
330
18
102
}
330
18
100
AcDbGroup
300
Vite UNI 5931 M8X25
 70
     1
 71
     1
  0
GROUP
  5
6AD
102
{ACAD_REACTORS
330
18
102
}
330
18
100
AcDbGroup
300

 70
     1
 71
     1
  0
GROUP
  5
6C7
102
{ACAD_REACTORS
330
18
102
}
330
18
100
AcDbGroup
300

 70
     1
 71
     1
  0
GROUP
  5
6D8
102
{ACAD_REACTORS
330
18
102
}
330
18
100
AcDbGroup
300

 70
     3
 71
     1
  0
GROUP
  5
307
102
{ACAD_REACTORS
330
18
102
}
330
18
100
AcDbGroup
300

 70
     1
 71
     1
  0
GROUP
  5
5AB
102
{ACAD_REACTORS
330
18
102
}
330
18
100
AcDbGroup
300

 70
     3
 71
     1
  0
GROUP
  5
6AE
102
{ACAD_REACTORS
330
18
102
}
330
18
100
AcDbGroup
300
Rosetta UNI 1751 A 6.1
 70
     1
 71
     1
  0
GROUP
  5
6AF
102
{ACAD_REACTORS
330
18
102
}
330
18
100
AcDbGroup
300

 70
     1
 71
     1
  0
GROUP
  5
6B0
102
{ACAD_REACTORS
330
18
102
}
330
18
100
AcDbGroup
300

 70
     3
 71
     1
  0
GROUP
  5
55D
102
{ACAD_REACTORS
330
18
102
}
330
18
100
AcDbGroup
300

 70
     1
 71
     1
  0
GROUP
  5
2D0
102
{ACAD_REACTORS
330
18
102
}
330
18
100
AcDbGroup
300

 70
     1
 71
     1
  0
GROUP
  5
31A
102
{ACAD_REACTORS
330
18
102
}
330
18
100
AcDbGroup
300

 70
     3
 71
     1
  0
GROUP
  5
5CD
102
{ACAD_REACTORS
330
18
102
}
330
18
100
AcDbGroup
300
Rosetta UNI 1751 A 6.1
 70
     1
 71
     1
  0
GROUP
  5
311
102
{ACAD_REACTORS
330
18
102
}
330
18
100
AcDbGroup
300

 70
     3
 71
     1
  0
GROUP
  5
2F8
102
{ACAD_REACTORS
330
18
102
}
330
18
100
AcDbGroup
300

 70
     3
 71
     1
  0
GROUP
  5
6B1
102
{ACAD_REACTORS
330
18
102
}
330
18
100
AcDbGroup
300

 70
     1
 71
     1
  0
GROUP
  5
543
102
{ACAD_REACTORS
330
18
102
}
330
18
100
AcDbGroup
300

 70
     1
 71
     1
  0
GROUP
  5
707
102
{ACAD_REACTORS
330
18
102
}
330
18
100
AcDbGroup
300

 70
     3
 71
     1
  0
GROUP
  5
6B2
102
{ACAD_REACTORS
330
18
102
}
330
18
100
AcDbGroup
300

 70
     3
 71
     1
  0
GROUP
  5
6B3
102
{ACAD_REACTORS
330
18
102
}
330
18
100
AcDbGroup
300

 70
     1
 71
     1
  0
GROUP
  5
6B4
102
{ACAD_REACTORS
330
18
102
}
330
18
100
AcDbGroup
300
Rosetta UNI 1751 A 6.1
 70
     1
 71
     1
  0
GROUP
  5
6B5
102
{ACAD_REACTORS
330
18
102
}
330
18
100
AcDbGroup
300

 70
     3
 71
     1
  0
GROUP
  5
554
102
{ACAD_REACTORS
330
18
102
}
330
18
100
AcDbGroup
300

 70
     3
 71
     1
  0
GROUP
  5
6B6
102
{ACAD_REACTORS
330
18
102
}
330
18
100
AcDbGroup
300

 70
     1
 71
     1
  0
GROUP
  5
609
102
{ACAD_REACTORS
330
18
102
}
330
18
100
AcDbGroup
300

 70
     3
 71
     1
  0
GROUP
  5
6B7
102
{ACAD_REACTORS
330
18
102
}
330
18
100
AcDbGroup
300

 70
     1
 71
     1
  0
GROUP
  5
55E
102
{ACAD_REACTORS
330
18
102
}
330
18
100
AcDbGroup
300

 70
     3
 71
     1
  0
GROUP
  5
5CE
102
{ACAD_REACTORS
330
18
102
}
330
18
100
AcDbGroup
300

 70
     1
 71
     1
  0
GROUP
  5
541
102
{ACAD_REACTORS
330
18
102
}
330
18
100
AcDbGroup
300

 70
     3
 71
     1
  0
GROUP
  5
563
102
{ACAD_REACTORS
330
18
102
}
330
18
100
AcDbGroup
300

 70
     3
 71
     1
  0
GROUP
  5
33A
102
{ACAD_REACTORS
330
18
102
}
330
18
100
AcDbGroup
300
Ghiera autofrenante M20x1
 70
     3
 71
     1
  0
GROUP
  5
6B8
102
{ACAD_REACTORS
330
18
102
}
330
18
100
AcDbGroup
300

 70
     1
 71
     1
  0
GROUP
  5
6B9
102
{ACAD_REACTORS
330
18
102
}
330
18
100
AcDbGroup
300

 70
     1
 71
     1
  0
GROUP
  5
332
102
{ACAD_REACTORS
330
18
102
}
330
18
100
AcDbGroup
300

 70
     3
 71
     1
  0
GROUP
  5
2D1
102
{ACAD_REACTORS
330
18
102
}
330
18
100
AcDbGroup
300

 70
     3
 71
     1
  0
GROUP
  5
567
102
{ACAD_REACTORS
330
18
102
}
330
18
100
AcDbGroup
300

 70
     1
 71
     1
  0
GROUP
  5
6BA
102
{ACAD_REACTORS
330
18
102
}
330
18
100
AcDbGroup
300
Vite UNI 5931 M8X25
 70
     3
 71
     1
  0
GROUP
  5
592
102
{ACAD_REACTORS
330
18
102
}
330
18
100
AcDbGroup
300

 70
     3
 71
     1
  0
GROUP
  5
6BB
102
{ACAD_REACTORS
330
18
102
}
330
18
100
AcDbGroup
300

 70
     3
 71
     1
  0
GROUP
  5
6BC
102
{ACAD_REACTORS
330
18
102
}
330
18
100
AcDbGroup
300
Vite UNI 5933 M6X16
 70
     3
 71
     1
  0
GROUP
  5
50E
102
{ACAD_REACTORS
330
18
102
}
330
18
100
AcDbGroup
300

 70
     1
 71
     1
  0
GROUP
  5
5AA
102
{ACAD_REACTORS
330
18
102
}
330
18
100
AcDbGroup
300

 70
     3
 71
     1
  0
GROUP
  5
708
102
{ACAD_REACTORS
330
18
102
}
330
18
100
AcDbGroup
300

 70
     1
 71
     1
  0
GROUP
  5
6D9
102
{ACAD_REACTORS
330
18
102
}
330
18
100
AcDbGroup
300
Vite UNI 5933 M6X16
 70
     3
 71
     1
  0
GROUP
  5
6DA
102
{ACAD_REACTORS
330
18
102
}
330
18
100
AcDbGroup
300

 70
     3
 71
     1
  0
GROUP
  5
68B
102
{ACAD_REACTORS
330
18
102
}
330
18
100
AcDbGroup
300
Vite UNI 5931 M8X25
 70
     1
 71
     1
  0
GROUP
  5
5CA
102
{ACAD_REACTORS
330
18
102
}
330
18
100
AcDbGroup
300

 70
     1
 71
     1
  0
GROUP
  5
6DB
102
{ACAD_REACTORS
330
18
102
}
330
18
100
AcDbGroup
300

 70
     3
 71
     1
  0
GROUP
  5
6DC
102
{ACAD_REACTORS
330
18
102
}
330
18
100
AcDbGroup
300

 70
     3
 71
     1
  0
GROUP
  5
6BE
102
{ACAD_REACTORS
330
18
102
}
330
18
100
AcDbGroup
300

 70
     3
 71
     1
  0
GROUP
  5
561
102
{ACAD_REACTORS
330
18
102
}
330
18
100
AcDbGroup
300

 70
     3
 71
     1
  0
GROUP
  5
6DD
102
{ACAD_REACTORS
330
18
102
}
330
18
100
AcDbGroup
300

 70
     3
 71
     1
  0
GROUP
  5
31E
102
{ACAD_REACTORS
330
18
102
}
330
18
100
AcDbGroup
300

 70
     1
 71
     1
  0
GROUP
  5
511
102
{ACAD_REACTORS
330
18
102
}
330
18
100
AcDbGroup
300

 70
     3
 71
     1
  0
GROUP
  5
709
102
{ACAD_REACTORS
330
18
102
}
330
18
100
AcDbGroup
300

 70
     3
 71
     1
  0
GROUP
  5
6DE
102
{ACAD_REACTORS
330
18
102
}
330
18
100
AcDbGroup
300

 70
     3
 71
     1
  0
GROUP
  5
538
102
{ACAD_REACTORS
330
18
102
}
330
18
100
AcDbGroup
300

 70
     1
 71
     1
  0
GROUP
  5
6F7
102
{ACAD_REACTORS
330
18
102
}
330
18
100
AcDbGroup
300

 70
     3
 71
     1
  0
GROUP
  5
6DF
102
{ACAD_REACTORS
330
18
102
}
330
18
100
AcDbGroup
300
Ghiera autofrenante M20x1
 70
     3
 71
     1
  0
GROUP
  5
6E0
102
{ACAD_REACTORS
330
18
102
}
330
18
100
AcDbGroup
300

 70
     3
 71
     1
  0
GROUP
  5
2F5
102
{ACAD_REACTORS
330
18
102
}
330
18
100
AcDbGroup
300

 70
     3
 71
     1
  0
GROUP
  5
6E1
102
{ACAD_REACTORS
330
18
102
}
330
18
100
AcDbGroup
300

 70
     3
 71
     1
  0
GROUP
  5
6BF
102
{ACAD_REACTORS
330
18
102
}
330
18
100
AcDbGroup
300

 70
     3
 71
     1
  0
GROUP
  5
6E2
102
{ACAD_REACTORS
330
18
102
}
330
18
100
AcDbGroup
300

 70
     3
 71
     1
  0
GROUP
  5
30C
102
{ACAD_REACTORS
330
18
102
}
330
18
100
AcDbGroup
300

 70
     1
 71
     1
  0
GROUP
  5
5EF
102
{ACAD_REACTORS
330
18
102
}
330
18
100
AcDbGroup
300

 70
     3
 71
     1
  0
GROUP
  5
70A
102
{ACAD_REACTORS
330
18
102
}
330
18
100
AcDbGroup
300

 70
     3
 71
     1
  0
GROUP
  5
548
102
{ACAD_REACTORS
330
18
102
}
330
18
100
AcDbGroup
300

 70
     3
 71
     1
  0
GROUP
  5
693
102
{ACAD_REACTORS
330
18
102
}
330
18
100
AcDbGroup
300

 70
     3
 71
     1
  0
GROUP
  5
6E3
102
{ACAD_REACTORS
330
18
102
}
330
18
100
AcDbGroup
300

 70
     3
 71
     1
  0
GROUP
  5
6E4
102
{ACAD_REACTORS
330
18
102
}
330
18
100
AcDbGroup
300

 70
     1
 71
     1
  0
GROUP
  5
6E5
102
{ACAD_REACTORS
330
18
102
}
330
18
100
AcDbGroup
300

 70
     3
 71
     1
  0
GROUP
  5
334
102
{ACAD_REACTORS
330
18
102
}
330
18
100
AcDbGroup
300
Vite UNI 5931 M8X25
 70
     3
 71
     1
  0
GROUP
  5
512
102
{ACAD_REACTORS
330
18
102
}
330
18
100
AcDbGroup
300

 70
     3
 71
     1
  0
GROUP
  5
55A
102
{ACAD_REACTORS
330
18
102
}
330
18
100
AcDbGroup
300

 70
     3
 71
     1
  0
GROUP
  5
6C0
102
{ACAD_REACTORS
330
18
102
}
330
18
100
AcDbGroup
300

 70
     3
 71
     1
  0
GROUP
  5
53A
102
{ACAD_REACTORS
330
18
102
}
330
18
100
AcDbGroup
300

 70
     1
 71
     1
  0
GROUP
  5
6E6
102
{ACAD_REACTORS
330
18
102
}
330
18
100
AcDbGroup
300

 70
     1
 71
     1
  0
GROUP
  5
68F
102
{ACAD_REACTORS
330
18
102
}
330
18
100
AcDbGroup
300
Vite UNI 5933 M6X16
 70
     1
 71
     1
  0
GROUP
  5
60A
102
{ACAD_REACTORS
330
18
102
}
330
18
100
AcDbGroup
300

 70
     1
 71
     1
  0
GROUP
  5
6E7
102
{ACAD_REACTORS
330
18
102
}
330
18
100
AcDbGroup
300

 70
     3
 71
     1
  0
GROUP
  5
6E8
102
{ACAD_REACTORS
330
18
102
}
330
18
100
AcDbGroup
300

 70
     1
 71
     1
  0
GROUP
  5
6E9
102
{ACAD_REACTORS
330
18
102
}
330
18
100
AcDbGroup
300

 70
     3
 71
     1
  0
GROUP
  5
6EA
102
{ACAD_REACTORS
330
18
102
}
330
18
100
AcDbGroup
300

 70
     3
 71
     1
  0
GROUP
  5
5A1
102
{ACAD_REACTORS
330
18
102
}
330
18
100
AcDbGroup
300

 70
     3
 71
     1
  0
GROUP
  5
6EB
102
{ACAD_REACTORS
330
18
102
}
330
18
100
AcDbGroup
300

 70
     3
 71
     1
  0
GROUP
  5
6EC
102
{ACAD_REACTORS
330
18
102
}
330
18
100
AcDbGroup
300

 70
     3
 71
     1
  0
GROUP
  5
5A9
102
{ACAD_REACTORS
330
18
102
}
330
18
100
AcDbGroup
300

 70
     3
 71
     1
  0
GROUP
  5
6C1
102
{ACAD_REACTORS
330
18
102
}
330
18
100
AcDbGroup
300
Vite UNI 5933 M6X16
 70
     3
 71
     1
  0
GROUP
  5
590
102
{ACAD_REACTORS
330
18
102
}
330
18
100
AcDbGroup
300
Ghiera autofrenante M20x1
 70
     3
 71
     1
  0
GROUP
  5
5AE
102
{ACAD_REACTORS
330
18
102
}
330
18
100
AcDbGroup
300

 70
     1
 71
     1
  0
GROUP
  5
314
102
{ACAD_REACTORS
330
18
102
}
330
18
100
AcDbGroup
300

 70
     1
 71
     1
  0
GROUP
  5
5F0
102
{ACAD_REACTORS
330
18
102
}
330
18
100
AcDbGroup
300

 70
     1
 71
     1
  0
GROUP
  5
6ED
102
{ACAD_REACTORS
330
18
102
}
330
18
100
AcDbGroup
300

 70
     1
 71
     1
  0
GROUP
  5
30D
102
{ACAD_REACTORS
330
18
102
}
330
18
100
AcDbGroup
300

 70
     1
 71
     1
  0
GROUP
  5
326
102
{ACAD_REACTORS
330
18
102
}
330
18
100
AcDbGroup
300

 70
     1
 71
     1
  0
GROUP
  5
6EE
102
{ACAD_REACTORS
330
18
102
}
330
18
100
AcDbGroup
300

 70
     3
 71
     1
  0
GROUP
  5
5D9
102
{ACAD_REACTORS
330
18
102
}
330
18
100
AcDbGroup
300

 70
     1
 71
     1
  0
GROUP
  5
6EF
102
{ACAD_REACTORS
330
18
102
}
330
18
100
AcDbGroup
300

 70
     3
 71
     1
  0
GROUP
  5
6F0
102
{ACAD_REACTORS
330
18
102
}
330
18
100
AcDbGroup
300

 70
     3
 71
     1
  0
GROUP
  5
562
102
{ACAD_REACTORS
330
18
102
}
330
18
100
AcDbGroup
300

 70
     3
 71
     1
  0
GROUP
  5
692
102
{ACAD_REACTORS
330
18
102
}
330
18
100
AcDbGroup
300
Vite UNI 5933 M6X16
 70
     3
 71
     1
  0
GROUP
  5
54C
102
{ACAD_REACTORS
330
18
102
}
330
18
100
AcDbGroup
300

 70
     1
 71
     1
  0
GROUP
  5
5F2
102
{ACAD_REACTORS
330
18
102
}
330
18
100
AcDbGroup
300

 70
     1
 71
     1
  0
GROUP
  5
70B
102
{ACAD_REACTORS
330
18
102
}
330
18
100
AcDbGroup
300

 70
     1
 71
     1
  0
GROUP
  5
30F
102
{ACAD_REACTORS
330
18
102
}
330
18
100
AcDbGroup
300
Rosetta UNI 1751 A 6.1
 70
     1
 71
     1
  0
GROUP
  5
70C
102
{ACAD_REACTORS
330
18
102
}
330
18
100
AcDbGroup
300

 70
     3
 71
     1
  0
GROUP
  5
70D
102
{ACAD_REACTORS
330
18
102
}
330
18
100
AcDbGroup
300

 70
     3
 71
     1
  0
GROUP
  5
6F2
102
{ACAD_REACTORS
330
18
102
}
330
18
100
AcDbGroup
300

 70
     3
 71
     1
  0
GROUP
  5
5AC
102
{ACAD_REACTORS
330
18
102
}
330
18
100
AcDbGroup
300

 70
     3
 71
     1
  0
GROUP
  5
70E
102
{ACAD_REACTORS
330
18
102
}
330
18
100
AcDbGroup
300
Vite UNI 5931 M8X25
 70
     3
 71
     1
  0
GROUP
  5
2FB
102
{ACAD_REACTORS
330
18
102
}
330
18
100
AcDbGroup
300

 70
     3
 71
     1
  0
GROUP
  5
564
102
{ACAD_REACTORS
330
18
102
}
330
18
100
AcDbGroup
300

 70
     1
 71
     1
  0
GROUP
  5
5D5
102
{ACAD_REACTORS
330
18
102
}
330
18
100
AcDbGroup
300

 70
     3
 71
     1
  0
GROUP
  5
70F
102
{ACAD_REACTORS
330
18
102
}
330
18
100
AcDbGroup
300

 70
     3
 71
     1
  0
GROUP
  5
588
102
{ACAD_REACTORS
330
18
102
}
330
18
100
AcDbGroup
300

 70
     3
 71
     1
  0
GROUP
  5
710
102
{ACAD_REACTORS
330
18
102
}
330
18
100
AcDbGroup
300
Vite UNI 5931 M8X25
 70
     3
 71
     1
  0
GROUP
  5
711
102
{ACAD_REACTORS
330
18
102
}
330
18
100
AcDbGroup
300

 70
     3
 71
     1
  0
GROUP
  5
537
102
{ACAD_REACTORS
330
18
102
}
330
18
100
AcDbGroup
300

 70
     3
 71
     1
  0
GROUP
  5
712
102
{ACAD_REACTORS
330
18
102
}
330
18
100
AcDbGroup
300
Ghiera autofrenante M20x1
 70
     1
 71
     1
  0
GROUP
  5
6F3
102
{ACAD_REACTORS
330
18
102
}
330
18
100
AcDbGroup
300

 70
     1
 71
     1
  0
GROUP
  5
713
102
{ACAD_REACTORS
330
18
102
}
330
18
100
AcDbGroup
300

 70
     1
 71
     1
  0
GROUP
  5
54D
102
{ACAD_REACTORS
330
18
102
}
330
18
100
AcDbGroup
300

 70
     3
 71
     1
  0
GROUP
  5
2BA
102
{ACAD_REACTORS
330
18
102
}
330
18
100
AcDbGroup
300

 70
     3
 71
     1
  0
GROUP
  5
594
102
{ACAD_REACTORS
330
18
102
}
330
18
100
AcDbGroup
300

 70
     3
 71
     1
  0
GROUP
  5
596
102
{ACAD_REACTORS
330
18
102
}
330
18
100
AcDbGroup
300

 70
     3
 71
     1
  0
GROUP
  5
5F3
102
{ACAD_REACTORS
330
18
102
}
330
18
100
AcDbGroup
300

 70
     1
 71
     1
  0
GROUP
  5
5F4
102
{ACAD_REACTORS
330
18
102
}
330
18
100
AcDbGroup
300

 70
     1
 71
     1
  0
GROUP
  5
593
102
{ACAD_REACTORS
330
18
102
}
330
18
100
AcDbGroup
300

 70
     3
 71
     1
  0
GROUP
  5
690
102
{ACAD_REACTORS
330
18
102
}
330
18
100
AcDbGroup
300

 70
     3
 71
     1
  0
GROUP
  5
565
102
{ACAD_REACTORS
330
18
102
}
330
18
100
AcDbGroup
300

 70
     3
 71
     1
  0
GROUP
  5
5A7
102
{ACAD_REACTORS
330
18
102
}
330
18
100
AcDbGroup
300

 70
     1
 71
     1
  0
GROUP
  5
6F4
102
{ACAD_REACTORS
330
18
102
}
330
18
100
AcDbGroup
300

 70
     1
 71
     1
  0
GROUP
  5
58A
102
{ACAD_REACTORS
330
18
102
}
330
18
100
AcDbGroup
300

 70
     3
 71
     1
  0
GROUP
  5
5F5
102
{ACAD_REACTORS
330
18
102
}
330
18
100
AcDbGroup
300

 70
     1
 71
     1
  0
GROUP
  5
6C8
102
{ACAD_REACTORS
330
18
102
}
330
18
100
AcDbGroup
300
Vite UNI 5931 M8X25
 70
     3
 71
     1
  0
GROUP
  5
5F6
102
{ACAD_REACTORS
330
18
102
}
330
18
100
AcDbGroup
300

 70
     1
 71
     1
  0
GROUP
  5
5D2
102
{ACAD_REACTORS
330
18
102
}
330
18
100
AcDbGroup
300

 70
     1
 71
     1
  0
GROUP
  5
310
102
{ACAD_REACTORS
330
18
102
}
330
18
100
AcDbGroup
300

 70
     1
 71
     1
  0
GROUP
  5
5F7
102
{ACAD_REACTORS
330
18
102
}
330
18
100
AcDbGroup
300

 70
     1
 71
     1
  0
GROUP
  5
5E6
102
{ACAD_REACTORS
330
18
102
}
330
18
100
AcDbGroup
300

 70
     3
 71
     1
  0
GROUP
  5
5F8
102
{ACAD_REACTORS
330
18
102
}
330
18
100
AcDbGroup
300

 70
     3
 71
     1
  0
GROUP
  5
33B
102
{ACAD_REACTORS
330
18
102
}
330
18
100
AcDbGroup
300

 70
     1
 71
     1
  0
GROUP
  5
691
102
{ACAD_REACTORS
330
18
102
}
330
18
100
AcDbGroup
300

 70
     3
 71
     1
  0
GROUP
  5
6F5
102
{ACAD_REACTORS
330
18
102
}
330
18
100
AcDbGroup
300

 70
     3
 71
     1
  0
GROUP
  5
5D7
102
{ACAD_REACTORS
330
18
102
}
330
18
100
AcDbGroup
300

 70
     3
 71
     1
  0
GROUP
  5
555
102
{ACAD_REACTORS
330
18
102
}
330
18
100
AcDbGroup
300

 70
     1
 71
     1
  0
GROUP
  5
2D5
102
{ACAD_REACTORS
330
18
102
}
330
18
100
AcDbGroup
300

 70
     3
 71
     1
  0
GROUP
  5
5F9
102
{ACAD_REACTORS
330
18
102
}
330
18
100
AcDbGroup
300
Vite UNI 5933 M6X16
 70
     1
 71
     1
  0
GROUP
  5
54E
102
{ACAD_REACTORS
330
18
102
}
330
18
100
AcDbGroup
300

 70
     3
 71
     1
  0
GROUP
  5
302
102
{ACAD_REACTORS
330
18
102
}
330
18
100
AcDbGroup
300

 70
     3
 71
     1
  0
GROUP
  5
300
102
{ACAD_REACTORS
330
18
102
}
330
18
100
AcDbGroup
300

 70
     3
 71
     1
  0
GROUP
  5
618
102
{ACAD_REACTORS
330
18
102
}
330
18
100
AcDbGroup
300

 70
     1
 71
     1
  0
GROUP
  5
5FA
102
{ACAD_REACTORS
330
18
102
}
330
18
100
AcDbGroup
300

 70
     1
 71
     1
  0
GROUP
  5
5FB
102
{ACAD_REACTORS
330
18
102
}
330
18
100
AcDbGroup
300

 70
     1
 71
     1
  0
GROUP
  5
5AD
102
{ACAD_REACTORS
330
18
102
}
330
18
100
AcDbGroup
300

 70
     1
 71
     1
  0
GROUP
  5
2D7
102
{ACAD_REACTORS
330
18
102
}
330
18
100
AcDbGroup
300

 70
     1
 71
     1
  0
GROUP
  5
60B
102
{ACAD_REACTORS
330
18
102
}
330
18
100
AcDbGroup
300

 70
     3
 71
     1
  0
GROUP
  5
54F
102
{ACAD_REACTORS
330
18
102
}
330
18
100
AcDbGroup
300

 70
     3
 71
     1
  0
GROUP
  5
60C
102
{ACAD_REACTORS
330
18
102
}
330
18
100
AcDbGroup
300

 70
     1
 71
     1
  0
GROUP
  5
31C
102
{ACAD_REACTORS
330
18
102
}
330
18
100
AcDbGroup
300
Rosetta UNI 1751 A 3.1
 70
     1
 71
     1
  0
GROUP
  5
5FC
102
{ACAD_REACTORS
330
18
102
}
330
18
100
AcDbGroup
300

 70
     1
 71
     1
  0
GROUP
  5
694
102
{ACAD_REACTORS
330
18
102
}
330
18
100
AcDbGroup
300

 70
     3
 71
     1
  0
GROUP
  5
33D
102
{ACAD_REACTORS
330
18
102
}
330
18
100
AcDbGroup
300

 70
     1
 71
     1
  0
GROUP
  5
53C
102
{ACAD_REACTORS
330
18
102
}
330
18
100
AcDbGroup
300

 70
     3
 71
     1
  0
GROUP
  5
5AF
102
{ACAD_REACTORS
330
18
102
}
330
18
100
AcDbGroup
300

 70
     3
 71
     1
  0
GROUP
  5
60D
102
{ACAD_REACTORS
330
18
102
}
330
18
100
AcDbGroup
300
Rosetta UNI 1751 A 6.1
 70
     1
 71
     1
  0
GROUP
  5
5D0
102
{ACAD_REACTORS
330
18
102
}
330
18
100
AcDbGroup
300

 70
     3
 71
     1
  0
GROUP
  5
60E
102
{ACAD_REACTORS
330
18
102
}
330
18
100
AcDbGroup
300

 70
     3
 71
     1
  0
GROUP
  5
60F
102
{ACAD_REACTORS
330
18
102
}
330
18
100
AcDbGroup
300
Vite UNI 5931 M8X25
 70
     3
 71
     1
  0
GROUP
  5
587
102
{ACAD_REACTORS
330
18
102
}
330
18
100
AcDbGroup
300

 70
     3
 71
     1
  0
GROUP
  5
610
102
{ACAD_REACTORS
330
18
102
}
330
18
100
AcDbGroup
300

 70
     3
 71
     1
  0
GROUP
  5
5D3
102
{ACAD_REACTORS
330
18
102
}
330
18
100
AcDbGroup
300
Rosetta UNI 1751 A 6.1
 70
     1
 71
     1
  0
GROUP
  5
312
102
{ACAD_REACTORS
330
18
102
}
330
18
100
AcDbGroup
300
Vite UNI 5931 M8X25
 70
     1
 71
     1
  0
GROUP
  5
59B
102
{ACAD_REACTORS
330
18
102
}
330
18
100
AcDbGroup
300

 70
     3
 71
     1
  0
GROUP
  5
516
102
{ACAD_REACTORS
330
18
102
}
330
18
100
AcDbGroup
300
Vite UNI 5933 M6X16
 70
     3
 71
     1
  0
GROUP
  5
5DC
102
{ACAD_REACTORS
330
18
102
}
330
18
100
AcDbGroup
300
Vite UNI 5931 M8X25
 70
     1
 71
     1
  0
GROUP
  5
2D8
102
{ACAD_REACTORS
330
18
102
}
330
18
100
AcDbGroup
300

 70
     3
 71
     1
  0
GROUP
  5
2D9
102
{ACAD_REACTORS
330
18
102
}
330
18
100
AcDbGroup
300

 70
     3
 71
     1
  0
GROUP
  5
5DA
102
{ACAD_REACTORS
330
18
102
}
330
18
100
AcDbGroup
300
Rosetta UNI 1751 A 6.1
 70
     1
 71
     1
  0
GROUP
  5
6C9
102
{ACAD_REACTORS
330
18
102
}
330
18
100
AcDbGroup
300

 70
     3
 71
     1
  0
GROUP
  5
5B0
102
{ACAD_REACTORS
330
18
102
}
330
18
100
AcDbGroup
300

 70
     3
 71
     1
  0
GROUP
  5
68C
102
{ACAD_REACTORS
330
18
102
}
330
18
100
AcDbGroup
300

 70
     1
 71
     1
  0
GROUP
  5
5FD
102
{ACAD_REACTORS
330
18
102
}
330
18
100
AcDbGroup
300

 70
     1
 71
     1
  0
GROUP
  5
5D1
102
{ACAD_REACTORS
330
18
102
}
330
18
100
AcDbGroup
300
Vite UNI 5931 M8X25
 70
     1
 71
     1
  0
GROUP
  5
2DA
102
{ACAD_REACTORS
330
18
102
}
330
18
100
AcDbGroup
300

 70
     3
 71
     1
  0
GROUP
  5
2DB
102
{ACAD_REACTORS
330
18
102
}
330
18
100
AcDbGroup
300

 70
     3
 71
     1
  0
GROUP
  5
612
102
{ACAD_REACTORS
330
18
102
}
330
18
100
AcDbGroup
300

 70
     1
 71
     1
  0
GROUP
  5
550
102
{ACAD_REACTORS
330
18
102
}
330
18
100
AcDbGroup
300

 70
     3
 71
     1
  0
GROUP
  5
2DC
102
{ACAD_REACTORS
330
18
102
}
330
18
100
AcDbGroup
300

 70
     3
 71
     1
  0
GROUP
  5
2CD
102
{ACAD_REACTORS
330
18
102
}
330
18
100
AcDbGroup
300

 70
     3
 71
     1
  0
GROUP
  5
31F
102
{ACAD_REACTORS
330
18
102
}
330
18
100
AcDbGroup
300

 70
     1
 71
     1
  0
GROUP
  5
315
102
{ACAD_REACTORS
330
18
102
}
330
18
100
AcDbGroup
300

 70
     3
 71
     1
  0
GROUP
  5
6CA
102
{ACAD_REACTORS
330
18
102
}
330
18
100
AcDbGroup
300

 70
     3
 71
     1
  0
GROUP
  5
5FE
102
{ACAD_REACTORS
330
18
102
}
330
18
100
AcDbGroup
300

 70
     1
 71
     1
  0
GROUP
  5
33E
102
{ACAD_REACTORS
330
18
102
}
330
18
100
AcDbGroup
300

 70
     3
 71
     1
  0
GROUP
  5
517
102
{ACAD_REACTORS
330
18
102
}
330
18
100
AcDbGroup
300

 70
     1
 71
     1
  0
GROUP
  5
2DD
102
{ACAD_REACTORS
330
18
102
}
330
18
100
AcDbGroup
300

 70
     1
 71
     1
  0
GROUP
  5
59C
102
{ACAD_REACTORS
330
18
102
}
330
18
100
AcDbGroup
300

 70
     3
 71
     1
  0
GROUP
  5
544
102
{ACAD_REACTORS
330
18
102
}
330
18
100
AcDbGroup
300

 70
     3
 71
     1
  0
GROUP
  5
542
102
{ACAD_REACTORS
330
18
102
}
330
18
100
AcDbGroup
300

 70
     3
 71
     1
  0
GROUP
  5
2F7
102
{ACAD_REACTORS
330
18
102
}
330
18
100
AcDbGroup
300

 70
     1
 71
     1
  0
GROUP
  5
2DE
102
{ACAD_REACTORS
330
18
102
}
330
18
100
AcDbGroup
300

 70
     3
 71
     1
  0
GROUP
  5
2BB
102
{ACAD_REACTORS
330
18
102
}
330
18
100
AcDbGroup
300

 70
     3
 71
     1
  0
GROUP
  5
695
102
{ACAD_REACTORS
330
18
102
}
330
18
100
AcDbGroup
300
Vite UNI 5933 M6X16
 70
     3
 71
     1
  0
LAYOUT
  5
180E
102
{ACAD_REACTORS
330
180B
102
}
330
180B
100
AcDbPlotSettings
  1

  2
Brother HL-5140
  4

  6

 40
0.0
 41
0.0
 42
0.0
 43
0.0
 44
0.0
 45
0.0
 46
0.0
 47
0.0
 48
0.0
 49
0.0
140
0.0
141
0.0
142
1.0
143
1.0
 70
   688
 72
     0
 73
     0
 74
     5
  7

 75
    16
147
1.0
 76
     0
 77
     2
 78
   300
148
0.0
149
0.0
100
AcDbLayout
  1
Layout1
 70
     1
 71
     1
 10
0.0
 20
0.0
 11
12.0
 21
9.0
 12
0.0
 22
0.0
 32
0.0
 14
1.000000000000000E+20
 24
1.000000000000000E+20
 34
1.000000000000000E+20
 15
-1.000000000000000E+20
 25
-1.000000000000000E+20
 35
-1.000000000000000E+20
146
0.0
 13
0.0
 23
0.0
 33
0.0
 16
1.0
 26
0.0
 36
0.0
 17
0.0
 27
1.0
 37
0.0
 76
     0
330
7
  0
LAYOUT
  5
180D
102
{ACAD_REACTORS
330
180B
102
}
330
180B
100
AcDbPlotSettings
  1

  2
Brother HL-5140
  4

  6

 40
0.0
 41
0.0
 42
0.0
 43
0.0
 44
0.0
 45
0.0
 46
0.0
 47
0.0
 48
0.0
 49
0.0
140
0.0
141
0.0
142
1.0
143
1.0
 70
  1712
 72
     0
 73
     0
 74
     0
  7

 75
     0
147
1.0
 76
     0
 77
     2
 78
   300
148
0.0
149
0.0
100
AcDbLayout
  1
Model
 70
     1
 71
     0
 10
0.0
 20
0.0
 11
12.0
 21
9.0
 12
0.0
 22
0.0
 32
0.0
 14
0.0
 24
0.0
 34
0.0
 15
0.0
 25
0.0
 35
0.0
146
0.0
 13
0.0
 23
0.0
 33
0.0
 16
1.0
 26
0.0
 36
0.0
 17
0.0
 27
1.0
 37
0.0
 76
     0
330
2
331
17B5
  0
MATERIAL
  5
17C2
102
{ACAD_XDICTIONARY
360
17C3
102
}
102
{ACAD_REACTORS
330
17B9
102
}
330
17B9
100
AcDbMaterial
  1
ByBlock
 72
     0
 43
0.0208333333333333
 43
0.0
 43
0.0
 43
0.0
 43
0.0
 43
0.0208333333333333
 43
0.0
 43
0.0
 43
0.0
 43
0.0
 43
1.0
 43
0.0
 43
0.0
 43
0.0
 43
0.0
 43
1.0
 77
     0
 47
0.0208333333333333
 47
0.0
 47
0.0
 47
0.0
 47
0.0
 47
0.0208333333333333
 47
0.0
 47
0.0
 47
0.0
 47
0.0
 47
1.0
 47
0.0
 47
0.0
 47
0.0
 47
0.0
 47
1.0
171
     0
 49
0.0208333333333333
 49
0.0
 49
0.0
 49
0.0
 49
0.0
 49
0.0208333333333333
 49
0.0
 49
0.0
 49
0.0
 49
0.0
 49
1.0
 49
0.0
 49
0.0
 49
0.0
 49
0.0
 49
1.0
175
     0
142
0.0208333333333333
142
0.0
142
0.0
142
0.0
142
0.0
142
0.0208333333333333
142
0.0
142
0.0
142
0.0
142
0.0
142
1.0
142
0.0
142
0.0
142
0.0
142
0.0
142
1.0
179
     0
144
0.0208333333333333
144
0.0
144
0.0
144
0.0
144
0.0
144
0.0208333333333333
144
0.0
144
0.0
144
0.0
144
0.0
144
1.0
144
0.0
144
0.0
144
0.0
144
0.0
144
1.0
147
0.0208333333333333
147
0.0
147
0.0
147
0.0
147
0.0
147
0.0208333333333333
147
0.0
147
0.0
147
0.0
147
0.0
147
1.0
147
0.0
147
0.0
147
0.0
147
0.0
147
1.0
  0
MATERIAL
  5
17BA
102
{ACAD_XDICTIONARY
360
17BB
102
}
102
{ACAD_REACTORS
330
17B9
102
}
330
17B9
100
AcDbMaterial
  1
ByLayer
 72
     0
 43
0.0208333333333333
 43
0.0
 43
0.0
 43
0.0
 43
0.0
 43
0.0208333333333333
 43
0.0
 43
0.0
 43
0.0
 43
0.0
 43
1.0
 43
0.0
 43
0.0
 43
0.0
 43
0.0
 43
1.0
 77
     0
 47
0.0208333333333333
 47
0.0
 47
0.0
 47
0.0
 47
0.0
 47
0.0208333333333333
 47
0.0
 47
0.0
 47
0.0
 47
0.0
 47
1.0
 47
0.0
 47
0.0
 47
0.0
 47
0.0
 47
1.0
171
     0
 49
0.0208333333333333
 49
0.0
 49
0.0
 49
0.0
 49
0.0
 49
0.0208333333333333
 49
0.0
 49
0.0
 49
0.0
 49
0.0
 49
1.0
 49
0.0
 49
0.0
 49
0.0
 49
0.0
 49
1.0
175
     0
142
0.0208333333333333
142
0.0
142
0.0
142
0.0
142
0.0
142
0.0208333333333333
142
0.0
142
0.0
142
0.0
142
0.0
142
1.0
142
0.0
142
0.0
142
0.0
142
0.0
142
1.0
179
     0
144
0.0208333333333333
144
0.0
144
0.0
144
0.0
144
0.0
144
0.0208333333333333
144
0.0
144
0.0
144
0.0
144
0.0
144
1.0
144
0.0
144
0.0
144
0.0
144
0.0
144
1.0
147
0.0208333333333333
147
0.0
147
0.0
147
0.0
147
0.0
147
0.0208333333333333
147
0.0
147
0.0
147
0.0
147
0.0
147
1.0
147
0.0
147
0.0
147
0.0
147
0.0
147
1.0
  0
MATERIAL
  5
17CA
102
{ACAD_XDICTIONARY
360
17CB
102
}
102
{ACAD_REACTORS
330
17B9
102
}
330
17B9
100
AcDbMaterial
  1
Global
 72
     0
 43
0.0208333333333333
 43
0.0
 43
0.0
 43
0.0
 43
0.0
 43
0.0208333333333333
 43
0.0
 43
0.0
 43
0.0
 43
0.0
 43
1.0
 43
0.0
 43
0.0
 43
0.0
 43
0.0
 43
1.0
 77
     0
 47
0.0208333333333333
 47
0.0
 47
0.0
 47
0.0
 47
0.0
 47
0.0208333333333333
 47
0.0
 47
0.0
 47
0.0
 47
0.0
 47
1.0
 47
0.0
 47
0.0
 47
0.0
 47
0.0
 47
1.0
171
     0
 49
0.0208333333333333
 49
0.0
 49
0.0
 49
0.0
 49
0.0
 49
0.0208333333333333
 49
0.0
 49
0.0
 49
0.0
 49
0.0
 49
1.0
 49
0.0
 49
0.0
 49
0.0
 49
0.0
 49
1.0
175
     0
142
0.0208333333333333
142
0.0
142
0.0
142
0.0
142
0.0
142
0.0208333333333333
142
0.0
142
0.0
142
0.0
142
0.0
142
1.0
142
0.0
142
0.0
142
0.0
142
0.0
142
1.0
179
     0
144
0.0208333333333333
144
0.0
144
0.0
144
0.0
144
0.0
144
0.0208333333333333
144
0.0
144
0.0
144
0.0
144
0.0
144
1.0
144
0.0
144
0.0
144
0.0
144
0.0
144
1.0
147
0.0208333333333333
147
0.0
147
0.0
147
0.0
147
0.0
147
0.0208333333333333
147
0.0
147
0.0
147
0.0
147
0.0
147
1.0
147
0.0
147
0.0
147
0.0
147
0.0
147
1.0
  0
MLEADERSTYLE
  5
1809
102
{ACAD_REACTORS
330
1808
102
}
330
1808
100
AcDbMLeaderStyle
170
     2
171
     1
172
     0
 90
        2
 40
0.0
 41
0.0
173
     1
 91
-1056964608
340
E
 92
       -2
290
     1
 42
0.09
291
     1
 43
0.36
  3
Standard
 44
0.18
300

342
C
174
     1
178
     6
175
     1
176
     0
 93
-1056964608
 45
0.18
292
     0
297
     0
 46
0.18
 94
-1056964608
 47
1.0
 49
1.0
140
1.0
293
     1
141
0.0
294
     1
177
     0
142
1.0
295
     0
296
     0
143
0.125
1001
ACAD_MLEADERVER
1070
     2
  0
MLINESTYLE
  5
1D
102
{ACAD_REACTORS
330
19
102
}
330
19
100
AcDbMlineStyle
  2
STANDARD
 70
     0
  3

 62
     0
 51
90.0
 52
90.0
 71
     2
 49
0.5
 62
   256
  6
BYLAYER
 49
-0.5
 62
   256
  6
BYLAYER
  0
ACDBPLACEHOLDER
  5
17B8
102
{ACAD_REACTORS
330
17B7
102
}
330
17B7
  0
SCALE
  5
17E7
102
{ACAD_REACTORS
330
17E6
102
}
330
17E6
100
AcDbScale
 70
     0
300
1:1
140
1.0
141
1.0
290
     1
  0
SCALE
  5
17E8
102
{ACAD_REACTORS
330
17E6
102
}
330
17E6
100
AcDbScale
 70
     0
300
1:2
140
1.0
141
2.0
290
     0
  0
SCALE
  5
17E9
102
{ACAD_REACTORS
330
17E6
102
}
330
17E6
100
AcDbScale
 70
     0
300
1:4
140
1.0
141
4.0
290
     0
  0
SCALE
  5
17EA
102
{ACAD_REACTORS
330
17E6
102
}
330
17E6
100
AcDbScale
 70
     0
300
1:5
140
1.0
141
5.0
290
     0
  0
SCALE
  5
17EB
102
{ACAD_REACTORS
330
17E6
102
}
330
17E6
100
AcDbScale
 70
     0
300
1:8
140
1.0
141
8.0
290
     0
  0
SCALE
  5
17EC
102
{ACAD_REACTORS
330
17E6
102
}
330
17E6
100
AcDbScale
 70
     0
300
1:10
140
1.0
141
10.0
290
     0
  0
SCALE
  5
17ED
102
{ACAD_REACTORS
330
17E6
102
}
330
17E6
100
AcDbScale
 70
     0
300
1:16
140
1.0
141
16.0
290
     0
  0
SCALE
  5
17EE
102
{ACAD_REACTORS
330
17E6
102
}
330
17E6
100
AcDbScale
 70
     0
300
1:20
140
1.0
141
20.0
290
     0
  0
SCALE
  5
17EF
102
{ACAD_REACTORS
330
17E6
102
}
330
17E6
100
AcDbScale
 70
     0
300
1:30
140
1.0
141
30.0
290
     0
  0
SCALE
  5
17F0
102
{ACAD_REACTORS
330
17E6
102
}
330
17E6
100
AcDbScale
 70
     0
300
1:40
140
1.0
141
40.0
290
     0
  0
SCALE
  5
17F1
102
{ACAD_REACTORS
330
17E6
102
}
330
17E6
100
AcDbScale
 70
     0
300
1:50
140
1.0
141
50.0
290
     0
  0
SCALE
  5
17F2
102
{ACAD_REACTORS
330
17E6
102
}
330
17E6
100
AcDbScale
 70
     0
300
1:100
140
1.0
141
100.0
290
     0
  0
SCALE
  5
17F3
102
{ACAD_REACTORS
330
17E6
102
}
330
17E6
100
AcDbScale
 70
     0
300
2:1
140
2.0
141
1.0
290
     0
  0
SCALE
  5
17F4
102
{ACAD_REACTORS
330
17E6
102
}
330
17E6
100
AcDbScale
 70
     0
300
4:1
140
4.0
141
1.0
290
     0
  0
SCALE
  5
17F5
102
{ACAD_REACTORS
330
17E6
102
}
330
17E6
100
AcDbScale
 70
     0
300
8:1
140
8.0
141
1.0
290
     0
  0
SCALE
  5
17F6
102
{ACAD_REACTORS
330
17E6
102
}
330
17E6
100
AcDbScale
 70
     0
300
10:1
140
10.0
141
1.0
290
     0
  0
SCALE
  5
17F7
102
{ACAD_REACTORS
330
17E6
102
}
330
17E6
100
AcDbScale
 70
     0
300
100:1
140
100.0
141
1.0
290
     0
  0
SCALE
  5
17F8
102
{ACAD_REACTORS
330
17E6
102
}
330
17E6
100
AcDbScale
 70
     0
300
1/128" = 1'-0"
140
0.0078125
141
12.0
290
     0
  0
SCALE
  5
17F9
102
{ACAD_REACTORS
330
17E6
102
}
330
17E6
100
AcDbScale
 70
     0
300
1/64" = 1'-0"
140
0.015625
141
12.0
290
     0
  0
SCALE
  5
17FA
102
{ACAD_REACTORS
330
17E6
102
}
330
17E6
100
AcDbScale
 70
     0
300
1/32" = 1'-0"
140
0.03125
141
12.0
290
     0
  0
SCALE
  5
17FB
102
{ACAD_REACTORS
330
17E6
102
}
330
17E6
100
AcDbScale
 70
     0
300
1/16" = 1'-0"
140
0.0625
141
12.0
290
     0
  0
SCALE
  5
17FC
102
{ACAD_REACTORS
330
17E6
102
}
330
17E6
100
AcDbScale
 70
     0
300
3/32" = 1'-0"
140
0.09375
141
12.0
290
     0
  0
SCALE
  5
17FD
102
{ACAD_REACTORS
330
17E6
102
}
330
17E6
100
AcDbScale
 70
     0
300
1/8" = 1'-0"
140
0.125
141
12.0
290
     0
  0
SCALE
  5
17FE
102
{ACAD_REACTORS
330
17E6
102
}
330
17E6
100
AcDbScale
 70
     0
300
3/16" = 1'-0"
140
0.1875
141
12.0
290
     0
  0
SCALE
  5
17FF
102
{ACAD_REACTORS
330
17E6
102
}
330
17E6
100
AcDbScale
 70
     0
300
1/4" = 1'-0"
140
0.25
141
12.0
290
     0
  0
SCALE
  5
1800
102
{ACAD_REACTORS
330
17E6
102
}
330
17E6
100
AcDbScale
 70
     0
300
3/8" = 1'-0"
140
0.375
141
12.0
290
     0
  0
SCALE
  5
1801
102
{ACAD_REACTORS
330
17E6
102
}
330
17E6
100
AcDbScale
 70
     0
300
1/2" = 1'-0"
140
0.5
141
12.0
290
     0
  0
SCALE
  5
1802
102
{ACAD_REACTORS
330
17E6
102
}
330
17E6
100
AcDbScale
 70
     0
300
3/4" = 1'-0"
140
0.75
141
12.0
290
     0
  0
SCALE
  5
1803
102
{ACAD_REACTORS
330
17E6
102
}
330
17E6
100
AcDbScale
 70
     0
300
1" = 1'-0"
140
1.0
141
12.0
290
     0
  0
SCALE
  5
1804
102
{ACAD_REACTORS
330
17E6
102
}
330
17E6
100
AcDbScale
 70
     0
300
1-1/2" = 1'-0"
140
1.5
141
12.0
290
     0
  0
SCALE
  5
1805
102
{ACAD_REACTORS
330
17E6
102
}
330
17E6
100
AcDbScale
 70
     0
300
3" = 1'-0"
140
3.0
141
12.0
290
     0
  0
SCALE
  5
1806
102
{ACAD_REACTORS
330
17E6
102
}
330
17E6
100
AcDbScale
 70
     0
300
6" = 1'-0"
140
6.0
141
12.0
290
     0
  0
SCALE
  5
1807
102
{ACAD_REACTORS
330
17E6
102
}
330
17E6
100
AcDbScale
 70
     0
300
1'-0" = 1'-0"
140
12.0
141
12.0
290
     0
  0
TABLESTYLE
  5
17E5
102
{ACAD_XDICTIONARY
360
1828
102
}
102
{ACAD_REACTORS
330
17E4
102
}
330
17E4
100
AcDbTableStyle
  3
Standard
 70
     0
 71
     0
 40
0.06
 41
0.06
280
     0
281
     0
  7
STANDARD
140
0.18
170
     2
 62
     0
 63
     7
283
     0
274
    -2
284
     1
 64
     0
275
    -2
285
     1
 65
     0
276
    -2
286
     1
 66
     0
277
    -2
287
     1
 67
     0
278
    -2
288
     1
 68
     0
279
    -2
289
     1
 69
     0
  7
STANDARD
140
0.25
170
     5
 62
     0
 63
     7
283
     0
274
    -2
284
     1
 64
     0
275
    -2
285
     1
 65
     0
276
    -2
286
     1
 66
     0
277
    -2
287
     1
 67
     0
278
    -2
288
     1
 68
     0
279
    -2
289
     1
 69
     0
  7
STANDARD
140
0.18
170
     5
 62
     0
 63
     7
283
     0
274
    -2
284
     1
 64
     0
275
    -2
285
     1
 65
     0
276
    -2
286
     1
 66
     0
277
    -2
287
     1
 67
     0
278
    -2
288
     1
 68
     0
279
    -2
289
     1
 69
     0
  0
VISUALSTYLE
  5
17D8
102
{ACAD_REACTORS
330
17D2
102
}
330
17D2
100
AcDbVisualStyle
  2
2dWireframe
 70
     4
 71
     0
 72
     2
 73
     0
 90
        0
 40
-0.6
 41
-30.0
 62
     5
 63
     7
421
 16777215
 74
     1
 91
        4
 64
     7
 65
   257
 75
     1
175
     1
 42
1.0
 92
        0
 66
   257
 43
1.0
 76
     1
 77
     6
 78
     2
 67
     7
 79
     5
170
     0
171
     0
290
     0
174
     0
 93
        1
 44
0.0
173
     0
291
     0
 45
0.0
1001
ACAD
1000
AcDbSavedByObjectVersion
1070
     0
  0
VISUALSTYLE
  5
17DA
102
{ACAD_REACTORS
330
17D2
102
}
330
17D2
100
AcDbVisualStyle
  2
3D Hidden
 70
     6
 71
     1
 72
     2
 73
     2
 90
        0
 40
-0.6
 41
-30.0
 62
     5
 63
     7
421
 16777215
 74
     2
 91
        2
 64
     7
 65
   257
 75
     2
175
     1
 42
40.0
 92
        0
 66
   257
 43
1.0
 76
     1
 77
     6
 78
     2
 67
     7
 79
     3
170
     0
171
     0
290
     0
174
     0
 93
        1
 44
0.0
173
     0
291
     0
 45
0.0
1001
ACAD
1000
AcDbSavedByObjectVersion
1070
     0
  0
VISUALSTYLE
  5
17D9
102
{ACAD_REACTORS
330
17D2
102
}
330
17D2
100
AcDbVisualStyle
  2
3dWireframe
 70
     5
 71
     0
 72
     2
 73
     0
 90
        0
 40
-0.6
 41
-30.0
 62
     5
 63
     7
421
 16777215
 74
     1
 91
        4
 64
     7
 65
   257
 75
     1
175
     1
 42
1.0
 92
        0
 66
   257
 43
1.0
 76
     1
 77
     6
 78
     2
 67
     7
 79
     5
170
     0
171
     0
290
     0
174
     0
 93
        1
 44
0.0
173
     0
291
     0
 45
0.0
1001
ACAD
1000
AcDbSavedByObjectVersion
1070
     0
  0
VISUALSTYLE
  5
17D7
102
{ACAD_REACTORS
330
17D2
102
}
330
17D2
100
AcDbVisualStyle
  2
Basic
 70
     7
 71
     1
 72
     0
 73
     1
 90
        0
 40
-0.6
 41
-30.0
 62
     5
 63
     7
421
 16777215
 74
     0
 91
        4
 64
     7
 65
   257
 75
     1
175
     1
 42
1.0
 92
        8
 66
     7
 43
1.0
 76
     1
 77
     6
 78
     2
 67
     7
 79
     5
170
     0
171
     0
290
     0
174
     0
 93
        1
 44
0.0
173
     0
291
     1
 45
0.0
1001
ACAD
1000
AcDbSavedByObjectVersion
1070
     0
  0
VISUALSTYLE
  5
17DE
102
{ACAD_REACTORS
330
17D2
102
}
330
17D2
100
AcDbVisualStyle
  2
Brighten
 70
    12
 71
     2
 72
     2
 73
     0
 90
        0
 40
-0.6
 41
-30.0
 62
     5
 63
     7
421
 16777215
 74
     1
 91
        4
 64
     7
 65
   257
 75
     1
175
     1
 42
1.0
 92
        8
 66
     7
 43
1.0
 76
     1
 77
     6
 78
     2
 67
     7
 79
     5
170
     0
171
     0
290
     0
174
     0
 93
        1
 44
50.0
173
     0
291
     1
 45
0.0
1001
ACAD
1000
AcDbSavedByObjectVersion
1070
     0
  0
VISUALSTYLE
  5
17E2
102
{ACAD_REACTORS
330
17D2
102
}
330
17D2
100
AcDbVisualStyle
  2
ColorChange
 70
    16
 71
     2
 72
     2
 73
     3
 90
        0
 40
-0.6
 41
-30.0
 62
     5
 63
     8
421
  8421504
 74
     1
 91
        4
 64
     7
 65
   257
 75
     1
175
     1
 42
1.0
 92
        8
 66
     8
424
  8421504
 43
1.0
 76
     1
 77
     6
 78
     2
 67
     7
 79
     5
170
     0
171
     0
290
     0
174
     0
 93
        1
 44
0.0
173
     0
291
     1
 45
0.0
1001
ACAD
1000
AcDbSavedByObjectVersion
1070
     0
  0
VISUALSTYLE
  5
17DB
102
{ACAD_REACTORS
330
17D2
102
}
330
17D2
100
AcDbVisualStyle
  2
Conceptual
 70
     9
 71
     3
 72
     2
 73
     0
 90
        0
 40
-0.6
 41
-30.0
 62
     5
 63
     7
421
 16777215
 74
     2
 91
        2
 64
     7
 65
   257
 75
     1
175
     1
 42
40.0
 92
        8
 66
     7
 43
1.0
 76
     1
 77
     6
 78
     2
 67
     7
 79
     3
170
     0
171
     0
290
     0
174
     0
 93
        1
 44
0.0
173
     0
291
     0
 45
0.0
1001
ACAD
1000
AcDbSavedByObjectVersion
1070
     0
  0
VISUALSTYLE
  5
17DD
102
{ACAD_REACTORS
330
17D2
102
}
330
17D2
100
AcDbVisualStyle
  2
Dim
 70
    11
 71
     2
 72
     2
 73
     0
 90
        0
 40
-0.6
 41
-30.0
 62
     5
 63
     7
421
 16777215
 74
     1
 91
        4
 64
     7
 65
   257
 75
     1
175
     1
 42
1.0
 92
        8
 66
     7
 43
1.0
 76
     1
 77
     6
 78
     2
 67
     7
 79
     5
170
     0
171
     0
290
     0
174
     0
 93
        1
 44
-50.0
173
     0
291
     1
 45
0.0
1001
ACAD
1000
AcDbSavedByObjectVersion
1070
     0
  0
VISUALSTYLE
  5
17E1
102
{ACAD_REACTORS
330
17D2
102
}
330
17D2
100
AcDbVisualStyle
  2
Facepattern
 70
    15
 71
     2
 72
     2
 73
     0
 90
        0
 40
-0.6
 41
-30.0
 62
     5
 63
     7
421
 16777215
 74
     1
 91
        4
 64
     7
 65
   257
 75
     1
175
     1
 42
1.0
 92
        8
 66
     7
 43
1.0
 76
     1
 77
     6
 78
     2
 67
     7
 79
     5
170
     0
171
     0
290
     0
174
     0
 93
        1
 44
0.0
173
     0
291
     1
 45
0.0
1001
ACAD
1000
AcDbSavedByObjectVersion
1070
     0
  0
VISUALSTYLE
  5
17D3
102
{ACAD_REACTORS
330
17D2
102
}
330
17D2
100
AcDbVisualStyle
  2
Flat
 70
     0
 71
     2
 72
     1
 73
     1
 90
        2
 40
-0.6
 41
30.0
 62
     5
 63
     7
421
 16777215
 74
     0
 91
        4
 64
     7
 65
   257
 75
     1
175
     1
 42
1.0
 92
        8
 66
     7
 43
1.0
 76
     1
 77
     6
 78
     2
 67
     7
 79
     5
170
     0
171
     0
290
     0
174
     0
 93
       13
 44
0.0
173
     0
291
     1
 45
0.0
1001
ACAD
1000
AcDbSavedByObjectVersion
1070
     0
  0
VISUALSTYLE
  5
17D4
102
{ACAD_REACTORS
330
17D2
102
}
330
17D2
100
AcDbVisualStyle
  2
FlatWithEdges
 70
     1
 71
     2
 72
     1
 73
     1
 90
        2
 40
-0.6
 41
30.0
 62
     5
 63
     7
421
 16777215
 74
     1
 91
        4
 64
     7
 65
   257
 75
     1
175
     1
 42
1.0
 92
        0
 66
   257
 43
1.0
 76
     1
 77
     6
 78
     2
 67
     7
 79
     5
170
     0
171
     0
290
     0
174
     0
 93
       13
 44
0.0
173
     0
291
     1
 45
0.0
1001
ACAD
1000
AcDbSavedByObjectVersion
1070
     0
  0
VISUALSTYLE
  5
17D5
102
{ACAD_REACTORS
330
17D2
102
}
330
17D2
100
AcDbVisualStyle
  2
Gouraud
 70
     2
 71
     2
 72
     2
 73
     1
 90
        2
 40
-0.6
 41
30.0
 62
     5
 63
     7
421
 16777215
 74
     0
 91
        4
 64
     7
 65
   257
 75
     1
175
     1
 42
1.0
 92
        0
 66
     7
 43
1.0
 76
     1
 77
     6
 78
     2
 67
     7
 79
     5
170
     0
171
     0
290
     0
174
     0
 93
       13
 44
0.0
173
     0
291
     1
 45
0.0
1001
ACAD
1000
AcDbSavedByObjectVersion
1070
     0
  0
VISUALSTYLE
  5
17D6
102
{ACAD_REACTORS
330
17D2
102
}
330
17D2
100
AcDbVisualStyle
  2
GouraudWithEdges
 70
     3
 71
     2
 72
     2
 73
     1
 90
        2
 40
-0.6
 41
30.0
 62
     5
 63
     7
421
 16777215
 74
     1
 91
        4
 64
     7
 65
   257
 75
     1
175
     1
 42
1.0
 92
        0
 66
   257
 43
1.0
 76
     1
 77
     6
 78
     2
 67
     7
 79
     5
170
     0
171
     0
290
     0
174
     0
 93
       13
 44
0.0
173
     0
291
     1
 45
0.0
1001
ACAD
1000
AcDbSavedByObjectVersion
1070
     0
  0
VISUALSTYLE
  5
17E0
102
{ACAD_REACTORS
330
17D2
102
}
330
17D2
100
AcDbVisualStyle
  2
Linepattern
 70
    14
 71
     2
 72
     2
 73
     0
 90
        0
 40
-0.6
 41
-30.0
 62
     5
 63
     7
421
 16777215
 74
     1
 91
        4
 64
     7
 65
   257
 75
     7
175
     7
 42
1.0
 92
        8
 66
     7
 43
1.0
 76
     1
 77
     6
 78
     2
 67
     7
 79
     5
170
     0
171
     0
290
     0
174
     0
 93
        1
 44
0.0
173
     0
291
     1
 45
0.0
1001
ACAD
1000
AcDbSavedByObjectVersion
1070
     0
  0
VISUALSTYLE
  5
17DC
102
{ACAD_REACTORS
330
17D2
102
}
330
17D2
100
AcDbVisualStyle
  2
Realistic
 70
     8
 71
     2
 72
     2
 73
     0
 90
        0
 40
-0.6
 41
-30.0
 62
     5
 63
     7
421
 16777215
 74
     1
 91
        0
 64
     7
 65
   257
 75
     1
175
     1
 42
1.0
 92
        8
 66
     8
424
  7895160
 43
1.0
 76
     1
 77
     6
 78
     2
 67
     7
 79
     5
170
     0
171
     0
290
     0
174
     0
 93
       13
 44
0.0
173
     0
291
     0
 45
0.0
1001
ACAD
1000
AcDbSavedByObjectVersion
1070
     0
  0
VISUALSTYLE
  5
17DF
102
{ACAD_REACTORS
330
17D2
102
}
330
17D2
100
AcDbVisualStyle
  2
Thicken
 70
    13
 71
     2
 72
     2
 73
     0
 90
        0
 40
-0.6
 41
-30.0
 62
     5
 63
     7
421
 16777215
 74
     1
 91
        4
 64
     7
 65
   257
 75
     1
175
     1
 42
1.0
 92
       12
 66
     7
 43
1.0
 76
     1
 77
     6
 78
     2
 67
     7
 79
     5
170
     0
171
     0
290
     0
174
     0
 93
        1
 44
0.0
173
     0
291
     1
 45
0.0
1001
ACAD
1000
AcDbSavedByObjectVersion
1070
     0
  0
DICTIONARYVAR
  5
1827
102
{ACAD_REACTORS
330
1824
102
}
330
1824
100
DictionaryVariables
280
     0
  1
1:1
  0
DICTIONARYVAR
  5
1826
102
{ACAD_REACTORS
330
1824
102
}
330
1824
100
DictionaryVariables
280
     0
  1
STANDARD
  0
DICTIONARYVAR
  5
1825
102
{ACAD_REACTORS
330
1824
102
}
330
1824
100
DictionaryVariables
280
     0
  1
STANDARD
  0
DICTIONARY
  5
17C3
330
17C2
100
AcDbDictionary
280
     1
281
     1
  3
ACAD_XREC_ROUNDTRIP
360
182C
  3
BUMPTILE
360
17C5
  3
DIFFUSETILE
360
17C4
  3
OPACITYTILE
360
17C8
  3
REFLECTIONTILE
360
17C7
  3
REFRACTIONTILE
360
17C9
  3
SPECULARTILE
360
17C6
  0
DICTIONARY
  5
17BB
330
17BA
100
AcDbDictionary
280
     1
281
     1
  3
ACAD_XREC_ROUNDTRIP
360
182B
  3
BUMPTILE
360
17BD
  3
DIFFUSETILE
360
17BC
  3
OPACITYTILE
360
17C0
  3
REFLECTIONTILE
360
17BF
  3
REFRACTIONTILE
360
17C1
  3
SPECULARTILE
360
17BE
  0
DICTIONARY
  5
17CB
330
17CA
100
AcDbDictionary
280
     1
281
     1
  3
ACAD_XREC_ROUNDTRIP
360
182D
  3
BUMPTILE
360
17CD
  3
DIFFUSETILE
360
17CC
  3
OPACITYTILE
360
17D0
  3
REFLECTIONTILE
360
17CF
  3
REFRACTIONTILE
360
17D1
  3
SPECULARTILE
360
17CE
  0
DICTIONARY
  5
1828
330
17E5
100
AcDbDictionary
280
     1
281
     1
  3
ACAD_ROUNDTRIP_2008_TABLESTYLE_CELLSTYLEMAP
360
1829
  3
ACAD_XREC_ROUNDTRIP
360
182E
  0
XRECORD
  5
182C
102
{ACAD_REACTORS
330
17C3
102
}
330
17C3
100
AcDbXrecord
280
     1
102
MATERIAL
148
0.0
149
0.0
149
0.0
 93
        0
 94
      127
282
     0
 72
     0
 77
     0
171
     0
175
     0
179
     0
273
     0
  0
XRECORD
  5
17C5
102
{ACAD_REACTORS
330
17C3
102
}
330
17C3
100
AcDbXrecord
280
     1
270
     1
271
     1
  0
XRECORD
  5
17C4
102
{ACAD_REACTORS
330
17C3
102
}
330
17C3
100
AcDbXrecord
280
     1
270
     1
271
     1
  0
XRECORD
  5
17C8
102
{ACAD_REACTORS
330
17C3
102
}
330
17C3
100
AcDbXrecord
280
     1
270
     1
271
     1
  0
XRECORD
  5
17C7
102
{ACAD_REACTORS
330
17C3
102
}
330
17C3
100
AcDbXrecord
280
     1
270
     1
271
     1
  0
XRECORD
  5
17C9
102
{ACAD_REACTORS
330
17C3
102
}
330
17C3
100
AcDbXrecord
280
     1
270
     1
271
     1
  0
XRECORD
  5
17C6
102
{ACAD_REACTORS
330
17C3
102
}
330
17C3
100
AcDbXrecord
280
     1
270
     1
271
     1
  0
XRECORD
  5
182B
102
{ACAD_REACTORS
330
17BB
102
}
330
17BB
100
AcDbXrecord
280
     1
102
MATERIAL
148
0.0
149
0.0
149
0.0
 93
        0
 94
      127
282
     0
 72
     0
 77
     0
171
     0
175
     0
179
     0
273
     0
  0
XRECORD
  5
17BD
102
{ACAD_REACTORS
330
17BB
102
}
330
17BB
100
AcDbXrecord
280
     1
270
     1
271
     1
  0
XRECORD
  5
17BC
102
{ACAD_REACTORS
330
17BB
102
}
330
17BB
100
AcDbXrecord
280
     1
270
     1
271
     1
  0
XRECORD
  5
17C0
102
{ACAD_REACTORS
330
17BB
102
}
330
17BB
100
AcDbXrecord
280
     1
270
     1
271
     1
  0
XRECORD
  5
17BF
102
{ACAD_REACTORS
330
17BB
102
}
330
17BB
100
AcDbXrecord
280
     1
270
     1
271
     1
  0
XRECORD
  5
17C1
102
{ACAD_REACTORS
330
17BB
102
}
330
17BB
100
AcDbXrecord
280
     1
270
     1
271
     1
  0
XRECORD
  5
17BE
102
{ACAD_REACTORS
330
17BB
102
}
330
17BB
100
AcDbXrecord
280
     1
270
     1
271
     1
  0
XRECORD
  5
182D
102
{ACAD_REACTORS
330
17CB
102
}
330
17CB
100
AcDbXrecord
280
     1
102
MATERIAL
148
0.0
149
0.0
149
0.0
 93
        0
 94
      127
282
     0
 72
     0
 77
     0
171
     0
175
     0
179
     0
273
     0
  0
XRECORD
  5
17CD
102
{ACAD_REACTORS
330
17CB
102
}
330
17CB
100
AcDbXrecord
280
     1
270
     1
271
     1
  0
XRECORD
  5
17CC
102
{ACAD_REACTORS
330
17CB
102
}
330
17CB
100
AcDbXrecord
280
     1
270
     1
271
     1
  0
XRECORD
  5
17D0
102
{ACAD_REACTORS
330
17CB
102
}
330
17CB
100
AcDbXrecord
280
     1
270
     1
271
     1
  0
XRECORD
  5
17CF
102
{ACAD_REACTORS
330
17CB
102
}
330
17CB
100
AcDbXrecord
280
     1
270
     1
271
     1
  0
XRECORD
  5
17D1
102
{ACAD_REACTORS
330
17CB
102
}
330
17CB
100
AcDbXrecord
280
     1
270
     1
271
     1
  0
XRECORD
  5
17CE
102
{ACAD_REACTORS
330
17CB
102
}
330
17CB
100
AcDbXrecord
280
     1
270
     1
271
     1
  0
CELLSTYLEMAP
  5
1829
102
{ACAD_REACTORS
330
1828
102
}
330
1828
100
AcDbCellStyleMap
 90
        3
300
CELLSTYLE
  1
TABLEFORMAT_BEGIN
 90
        5
170
     1
 91
        0
 92
    32768
 62
   257
 93
        1
300
CONTENTFORMAT
  1
CONTENTFORMAT_BEGIN
 90
        0
 91
        0
 92
      512
 93
        0
300

 40
0.0
140
1.0
 94
        5
 62
     0
340
C
144
0.25
309
CONTENTFORMAT_END
171
     0
 94
        0
309
TABLEFORMAT_END
  1
CELLSTYLE_BEGIN
 90
        1
 91
        1
300
_TITLE
309
CELLSTYLE_END
300
CELLSTYLE
  1
TABLEFORMAT_BEGIN
 90
        5
170
     1
 91
        0
 92
        0
 62
   257
 93
        1
300
CONTENTFORMAT
  1
CONTENTFORMAT_BEGIN
 90
        0
 91
        0
 92
      512
 93
        0
300

 40
0.0
140
1.0
 94
        5
 62
     0
340
C
144
0.18
309
CONTENTFORMAT_END
171
     0
 94
        0
309
TABLEFORMAT_END
  1
CELLSTYLE_BEGIN
 90
        2
 91
        1
300
_HEADER
309
CELLSTYLE_END
300
CELLSTYLE
  1
TABLEFORMAT_BEGIN
 90
        5
170
     1
 91
        0
 92
        0
 62
   257
 93
        1
300
CONTENTFORMAT
  1
CONTENTFORMAT_BEGIN
 90
        0
 91
        0
 92
      512
 93
        0
300

 40
0.0
140
1.0
 94
        2
 62
     0
340
C
144
0.18
309
CONTENTFORMAT_END
171
     0
 94
        0
309
TABLEFORMAT_END
  1
CELLSTYLE_BEGIN
 90
        3
 91
        2
300
_DATA
309
CELLSTYLE_END
  0
XRECORD
  5
182E
102
{ACAD_REACTORS
330
1828
102
}
330
1828
100
AcDbXrecord
280
     1
102
ACAD_ROUNDTRIP_PRE2007_TABLESTYLE
 90
      512
 91
        0
  1

 92
      512
 93
        0
  2

 94
      512
 95
        0
  3

  0
ENDSEC
  0
EOF
