  0
SECTION
  2
HEADER
  9
$ACADVER
  1
AC1015
  9
$ACADMAINTVER
 70
    20
  9
$DWGCODEPAGE
  3
ANSI_1252
  9
$INSBASE
 10
0.0
 20
0.0
 30
0.0
  9
$EXTMIN
 10
-45.41421356237309
 20
-90.41421356237306
 30
0.0
  9
$EXTMAX
 10
45.4146135623731
 20
110.6135837428605
 30
0.0
  9
$LIMMIN
 10
-26.195
 20
0.0
  9
$LIMMAX
 10
126.195
 20
100.0
  9
$ORTHOMODE
 70
     1
  9
$REGENMODE
 70
     1
  9
$FILLMODE
 70
     1
  9
$QTEXTMODE
 70
     0
  9
$MIRRTEXT
 70
     1
  9
$LTSCALE
 40
8.0
  9
$ATTMODE
 70
     1
  9
$TEXTSIZE
 40
0.2
  9
$TRACEWID
 40
0.05
  9
$TEXTSTYLE
  7
STANDARD
  9
$CLAYER
  8
0
  9
$CELTYPE
  6
CONTINUOUS
  9
$CECOLOR
 62
   256
  9
$CELTSCALE
 40
1.0
  9
$DISPSILH
 70
     0
  9
$DIMSCALE
 40
1.0
  9
$DIMASZ
 40
0.18
  9
$DIMEXO
 40
0.0625
  9
$DIMDLI
 40
0.38
  9
$DIMRND
 40
0.0
  9
$DIMDLE
 40
0.0
  9
$DIMEXE
 40
0.18
  9
$DIMTP
 40
0.0
  9
$DIMTM
 40
0.0
  9
$DIMTXT
 40
0.18
  9
$DIMCEN
 40
0.09
  9
$DIMTSZ
 40
0.0
  9
$DIMTOL
 70
     0
  9
$DIMLIM
 70
     0
  9
$DIMTIH
 70
     1
  9
$DIMTOH
 70
     1
  9
$DIMSE1
 70
     0
  9
$DIMSE2
 70
     0
  9
$DIMTAD
 70
     0
  9
$DIMZIN
 70
     0
  9
$DIMBLK
  1

  9
$DIMASO
 70
     1
  9
$DIMSHO
 70
     1
  9
$DIMPOST
  1

  9
$DIMAPOST
  1

  9
$DIMALT
 70
     0
  9
$DIMALTD
 70
     2
  9
$DIMALTF
 40
25.4
  9
$DIMLFAC
 40
1.0
  9
$DIMTOFL
 70
     0
  9
$DIMTVP
 40
0.0
  9
$DIMTIX
 70
     0
  9
$DIMSOXD
 70
     0
  9
$DIMSAH
 70
     0
  9
$DIMBLK1
  1

  9
$DIMBLK2
  1

  9
$DIMSTYLE
  2
STANDARD
  9
$DIMCLRD
 70
     0
  9
$DIMCLRE
 70
     0
  9
$DIMCLRT
 70
     0
  9
$DIMTFAC
 40
1.0
  9
$DIMGAP
 40
0.09
  9
$DIMJUST
 70
     0
  9
$DIMSD1
 70
     0
  9
$DIMSD2
 70
     0
  9
$DIMTOLJ
 70
     1
  9
$DIMTZIN
 70
     0
  9
$DIMALTZ
 70
     0
  9
$DIMALTTZ
 70
     0
  9
$DIMUPT
 70
     0
  9
$DIMDEC
 70
     4
  9
$DIMTDEC
 70
     4
  9
$DIMALTU
 70
     2
  9
$DIMALTTD
 70
     2
  9
$DIMTXSTY
  7
STANDARD
  9
$DIMAUNIT
 70
     0
  9
$DIMADEC
 70
     0
  9
$DIMALTRND
 40
0.0
  9
$DIMAZIN
 70
     0
  9
$DIMDSEP
 70
    46
  9
$DIMATFIT
 70
     3
  9
$DIMFRAC
 70
     0
  9
$DIMLDRBLK
  1

  9
$DIMLUNIT
 70
     2
  9
$DIMLWD
 70
    -2
  9
$DIMLWE
 70
    -2
  9
$DIMTMOVE
 70
     0
  9
$LUNITS
 70
     2
  9
$LUPREC
 70
     4
  9
$SKETCHINC
 40
0.1
  9
$FILLETRAD
 40
0.0
  9
$AUNITS
 70
     0
  9
$AUPREC
 70
     0
  9
$MENU
  1
.
  9
$ELEVATION
 40
0.0
  9
$PELEVATION
 40
0.0
  9
$THICKNESS
 40
0.0
  9
$LIMCHECK
 70
     0
  9
$CHAMFERA
 40
0.0
  9
$CHAMFERB
 40
0.0
  9
$CHAMFERC
 40
0.0
  9
$CHAMFERD
 40
0.0
  9
$SKPOLY
 70
     0
  9
$TDCREATE
 40
2444972.041666667
  9
$TDUCREATE
 40
2444972.000000000
  9
$TDUPDATE
 40
2453352.753104017
  9
$TDUUPDATE
 40
2453352.711437350
  9
$TDINDWG
 40
0.0217480556
  9
$TDUSRTIMER
 40
0.0217480556
  9
$USRTIMER
 70
     1
  9
$ANGBASE
 50
0.0
  9
$ANGDIR
 70
     0
  9
$PDMODE
 70
     0
  9
$PDSIZE
 40
0.0
  9
$PLINEWID
 40
0.0
  9
$SPLFRAME
 70
     0
  9
$SPLINETYPE
 70
     6
  9
$SPLINESEGS
 70
     8
  9
$HANDSEED
  5
19E0
  9
$SURFTAB1
 70
     6
  9
$SURFTAB2
 70
     6
  9
$SURFTYPE
 70
     6
  9
$SURFU
 70
     6
  9
$SURFV
 70
     6
  9
$UCSBASE
  2

  9
$UCSNAME
  2

  9
$UCSORG
 10
0.0
 20
0.0
 30
0.0
  9
$UCSXDIR
 10
1.0
 20
0.0
 30
0.0
  9
$UCSYDIR
 10
0.0
 20
1.0
 30
0.0
  9
$UCSORTHOREF
  2

  9
$UCSORTHOVIEW
 70
     0
  9
$UCSORGTOP
 10
0.0
 20
0.0
 30
0.0
  9
$UCSORGBOTTOM
 10
0.0
 20
0.0
 30
0.0
  9
$UCSORGLEFT
 10
0.0
 20
0.0
 30
0.0
  9
$UCSORGRIGHT
 10
0.0
 20
0.0
 30
0.0
  9
$UCSORGFRONT
 10
0.0
 20
0.0
 30
0.0
  9
$UCSORGBACK
 10
0.0
 20
0.0
 30
0.0
  9
$PUCSBASE
  2

  9
$PUCSNAME
  2

  9
$PUCSORG
 10
0.0
 20
0.0
 30
0.0
  9
$PUCSXDIR
 10
1.0
 20
0.0
 30
0.0
  9
$PUCSYDIR
 10
0.0
 20
1.0
 30
0.0
  9
$PUCSORTHOREF
  2

  9
$PUCSORTHOVIEW
 70
     0
  9
$PUCSORGTOP
 10
0.0
 20
0.0
 30
0.0
  9
$PUCSORGBOTTOM
 10
0.0
 20
0.0
 30
0.0
  9
$PUCSORGLEFT
 10
0.0
 20
0.0
 30
0.0
  9
$PUCSORGRIGHT
 10
0.0
 20
0.0
 30
0.0
  9
$PUCSORGFRONT
 10
0.0
 20
0.0
 30
0.0
  9
$PUCSORGBACK
 10
0.0
 20
0.0
 30
0.0
  9
$USERI1
 70
     0
  9
$USERI2
 70
     0
  9
$USERI3
 70
     0
  9
$USERI4
 70
     0
  9
$USERI5
 70
     0
  9
$USERR1
 40
0.0
  9
$USERR2
 40
0.0
  9
$USERR3
 40
0.0
  9
$USERR4
 40
0.0
  9
$USERR5
 40
0.0
  9
$WORLDVIEW
 70
     1
  9
$SHADEDGE
 70
     3
  9
$SHADEDIF
 70
    70
  9
$TILEMODE
 70
     1
  9
$MAXACTVP
 70
    48
  9
$PINSBASE
 10
0.0
 20
0.0
 30
0.0
  9
$PLIMCHECK
 70
     0
  9
$PEXTMIN
 10
1.000000000000000E+20
 20
1.000000000000000E+20
 30
1.000000000000000E+20
  9
$PEXTMAX
 10
-1.000000000000000E+20
 20
-1.000000000000000E+20
 30
-1.000000000000000E+20
  9
$PLIMMIN
 10
0.0
 20
0.0
  9
$PLIMMAX
 10
12.0
 20
9.0
  9
$UNITMODE
 70
     0
  9
$VISRETAIN
 70
     1
  9
$PLINEGEN
 70
     0
  9
$PSLTSCALE
 70
     1
  9
$TREEDEPTH
 70
  3020
  9
$CMLSTYLE
  2
STANDARD
  9
$CMLJUST
 70
     0
  9
$CMLSCALE
 40
1.0
  9
$PROXYGRAPHICS
 70
     1
  9
$MEASUREMENT
 70
     0
  9
$CELWEIGHT
370
    -1
  9
$ENDCAPS
280
     0
  9
$JOINSTYLE
280
     0
  9
$LWDISPLAY
290
     0
  9
$INSUNITS
 70
     0
  9
$HYPERLINKBASE
  1

  9
$STYLESHEET
  1

  9
$XEDIT
290
     1
  9
$CEPSNTYPE
380
     0
  9
$PSTYLEMODE
290
     1
  9
$FINGERPRINTGUID
  2
{4329FD20-2EE6-11D7-BD62-00E098043A1B}
  9
$VERSIONGUID
  2
{4329FD38-2EE6-11D7-BD62-00E098043A1B}
  9
$EXTNAMES
290
     1
  9
$PSVPSCALE
 40
0.0
  9
$OLESTARTUP
290
     0
  0
ENDSEC
  0
SECTION
  2
CLASSES
  0
CLASS
  1
ACDBDICTIONARYWDFLT
  2
AcDbDictionaryWithDefault
  3
ObjectDBX Classes
 90
        0
280
     0
281
     0
  0
CLASS
  1
ACDBPLACEHOLDER
  2
AcDbPlaceHolder
  3
ObjectDBX Classes
 90
        0
280
     0
281
     0
  0
CLASS
  1
LAYOUT
  2
AcDbLayout
  3
ObjectDBX Classes
 90
        0
280
     0
281
     0
  0
CLASS
  1
ACME_DOCUMENT
  2
AcMeDbDoc
  3
AcMeServices
 90
    32768
280
     0
281
     0
  0
CLASS
  1
ACMESCOPE
  2
AcMeScope
  3
AcMeServices
 90
        0
280
     0
281
     0
  0
CLASS
  1
ACMECOMMANDHISTORY
  2
AcMeCommandHistory
  3
AcMeServices
 90
        0
280
     0
281
     0
  0
CLASS
  1
ACIMSYSVARMAN
  2
AcImSysVarManager
  3
AcMeServices
 90
        0
280
     0
281
     0
  0
CLASS
  1
ACIMREALSYSVAR
  2
AcImRealSysVar
  3
AcMeServices
 90
        0
280
     0
281
     0
  0
CLASS
  1
ACIMINTSYSVAR
  2
AcImIntSysVar
  3
AcMeServices
 90
        0
280
     0
281
     0
  0
CLASS
  1
ACMEDRAWINGMAN
  2
AcMeDrawingMan
  3
AcMeServices
 90
        0
280
     0
281
     0
  0
CLASS
  1
ACMEVIEW
  2
AcMeView
  3
AcMeServices
 90
        0
280
     0
281
     0
  0
CLASS
  1
ACDBENTITYCACHE
  2
AcMeEntityCache
  3
AcMeServices
 90
    32768
280
     0
281
     0
  0
CLASS
  1
GSMANAGER
  2
AcMeGSManager
  3
AcMeServices
 90
    32768
280
     0
281
     0
  0
CLASS
  1
AMDTINTERNALREACTOR
  2
AmdtInternalReactor
  3
AcMeServices
 90
    32768
280
     0
281
     0
  0
CLASS
  1
ACMESTATEMGR
  2
AcMeStateMgr
  3
AcMeServices
 90
        0
280
     0
281
     0
  0
CLASS
  1
ACGREFMASTER
  2
AcGrefMaster
  3
AcAttribServices
 90
        0
280
     0
281
     0
  0
CLASS
  1
ACME_DATABASE
  2
AcMeDbDatabase
  3
AcMeServices
 90
    32768
280
     0
281
     0
  0
CLASS
  1
ACRFINSADJUSTERMGR
  2
AcRfInsAdjusterMgr
  3
AcMeServices
 90
    32768
280
     0
281
     0
  0
CLASS
  1
ACGREFACADMASTER
  2
AcGrefacadMaster
  3
AcGrefServices
 90
        0
280
     0
281
     0
  0
CLASS
  1
AMIMASTER
  2
AmiMaster
  3
AmiServices
 90
        0
280
     0
281
     0
  0
CLASS
  1
AMGSETTINGSOBJ
  2
AmgSettingsObj
  3
"AcadM|Product Description: AutoCAD Mechanical 2000|Company: Autodesk"
 90
        0
280
     0
281
     0
  0
CLASS
  1
ACMDATADICTIONARY
  2
AcmDataDictionary
  3
"AcmSymBB|Product Description: AutoCAD Mechanical 2000|Company: Autodesk"
 90
        0
280
     0
281
     0
  0
CLASS
  1
ACMDATAENTRYBLOCK
  2
AcmDataEntryBlock
  3
"AcmSymBB|Product Description: AutoCAD Mechanical 2000|Company: Autodesk"
 90
        0
280
     0
281
     0
  0
CLASS
  1
ACIMSTRSYSVAR
  2
AcImStrSysVar
  3
AcMeServices
 90
        0
280
     0
281
     0
  0
CLASS
  1
ACMSTANDARDANSI
  2
AcmStandardANSI
  3
"Amdt_StdImp|Product Description: AutoCAD Mechanical 2000|Company: Autodesk"
 90
        0
280
     0
281
     0
  0
CLASS
  1
AMGOBJPROPCFG
  2
AmgObjPropCfg
  3
"AmgLay|Product Description: AutoCAD Mechanical 2000|Company: Autodesk"
 90
        1
280
     0
281
     0
  0
CLASS
  1
ACMSURFSTANDARDANSI
  2
AcmSurfTextStdANSI
  3
"Amdt_StdImp|Product Description: AutoCAD Mechanical 2000|Company: Autodesk"
 90
        0
280
     0
281
     0
  0
CLASS
  1
ACMFCFSTANDARDANSI
  2
AcmFCFStdANSI
  3
"Amdt_StdImp|Product Description: AutoCAD Mechanical 2000|Company: Autodesk"
 90
        0
280
     0
281
     0
  0
CLASS
  1
ACMWELDSTANDARDANSI
  2
AcmWeldingStdANSI
  3
"Amdt_StdImp|Product Description: AutoCAD Mechanical 2000|Company: Autodesk"
 90
        0
280
     0
281
     0
  0
CLASS
  1
ACMIDSTANDARDANSI
  2
AcmIdStdANSI
  3
"Amdt_StdImp|Product Description: AutoCAD Mechanical 2000|Company: Autodesk"
 90
        0
280
     0
281
     0
  0
CLASS
  1
ACMDATUMSTANDARDANSI
  2
AcmDatumStdANSI
  3
"Amdt_StdImp|Product Description: AutoCAD Mechanical 2000|Company: Autodesk"
 90
        0
280
     0
281
     0
  0
CLASS
  1
ACMBOMSTANDARDANSI
  2
AcmBOMStdANSI
  3
"Amdt_StdImp|Product Description: AutoCAD Mechanical 2000|Company: Autodesk"
 90
        0
280
     0
281
     0
  0
CLASS
  1
ACMDETAILSTANDARDANSI
  2
AmdtDetailSymStdANSI
  3
"Amdt_StdImp|Product Description: AutoCAD Mechanical 2000|Company: Autodesk"
 90
        0
280
     0
281
     0
  0
CLASS
  1
ACMSECTIONSTANDARDANSI
  2
AmdtSectionSymStdANSI
  3
"Amdt_StdImp|Product Description: AutoCAD Mechanical 2000|Company: Autodesk"
 90
        0
280
     0
281
     0
  0
CLASS
  1
ACMCENTERLINESTANDARDANSI
  2
AmdtCenterLineStdANSI
  3
"Amdt_StdImp|Product Description: AutoCAD Mechanical 2000|Company: Autodesk"
 90
        0
280
     0
281
     0
  0
CLASS
  1
ACMNOTESTANDARDANSI
  2
AmdtNoteStdANSI
  3
"Amdt_StdImp|Product Description: AutoCAD Mechanical 2000|Company: Autodesk"
 90
        0
280
     0
281
     0
  0
CLASS
  1
ACAMGLAYSTD
  2
AcAmgLayStd
  3
"AcAmgLayStd|Product Description: AutoCAD Mechanical 2000|Company: Autodesk"
 90
        0
280
     0
281
     0
  0
CLASS
  1
ACAMGDIMSTD
  2
AcAmgDimStd
  3
"AcAmgDimStd|Product Description: AutoCAD Mechanical 2000|Company: Autodesk"
 90
        0
280
     0
281
     0
  0
CLASS
  1
ACAMGHOLECHARTSTDANSI
  2
AcAmgHoleChartStdANSI
  3
ACMSYMBB_MODULE_NAME
 90
        0
280
     0
281
     0
  0
CLASS
  1
ACAMGTITLESTD
  2
AcAmgTitleStd
  3
"TITLEAPP"
 90
        0
280
     0
281
     0
  0
CLASS
  1
ACAMGFILTERDAT
  2
AcAmgFilterDat
  3
"AcadM|Product Description: AutoCAD Mechanical 2000|Company: Autodesk"
 90
        0
280
     0
281
     0
  0
CLASS
  1
LAYER_INDEX
  2
AcDbLayerIndex
  3
ObjectDBX Classes
 90
        0
280
     0
281
     0
  0
CLASS
  1
IDBUFFER
  2
AcDbIdBuffer
  3
ObjectDBX Classes
 90
        0
280
     0
281
     0
  0
CLASS
  1
DICTIONARYVAR
  2
AcDbDictionaryVar
  3
ObjectDBX Classes
 90
        0
280
     0
281
     0
  0
ENDSEC
  0
SECTION
  2
TABLES
  0
TABLE
  2
VPORT
  5
8
330
0
100
AcDbSymbolTable
 70
     2
  0
VPORT
  5
19D7
330
8
100
AcDbSymbolTableRecord
100
AcDbViewportTableRecord
  2
*Active
 70
     0
 10
0.0
 20
0.0
 11
1.0
 21
1.0
 12
-0.0089336832731703
 22
14.31390477933034
 13
0.0
 23
0.0
 14
1.0
 24
1.0
 15
0.0
 25
0.0
 16
0.0
 26
0.0
 36
1.0
 17
0.0
 27
0.0
 37
0.0
 40
211.6453025573365
 41
1.700743494423791
 42
50.0
 43
0.0
 44
0.0
 50
0.0
 51
0.0
 71
     0
 72
   100
 73
     1
 74
     1
 75
     0
 76
     0
 77
     0
 78
     0
281
     0
 65
     1
110
0.0
120
0.0
130
0.0
111
1.0
121
0.0
131
0.0
112
0.0
122
1.0
132
0.0
 79
     0
146
0.0
  0
ENDTAB
  0
TABLE
  2
LTYPE
  5
5
330
0
100
AcDbSymbolTable
 70
    10
  0
LTYPE
  5
12
330
5
100
AcDbSymbolTableRecord
100
AcDbLinetypeTableRecord
  2
BYBLOCK
 70
     0
  3

 72
    65
 73
     0
 40
0.0
  0
LTYPE
  5
13
330
5
100
AcDbSymbolTableRecord
100
AcDbLinetypeTableRecord
  2
BYLAYER
 70
     0
  3

 72
    65
 73
     0
 40
0.0
  0
LTYPE
  5
14
330
5
100
AcDbSymbolTableRecord
100
AcDbLinetypeTableRecord
  2
CONTINUOUS
 70
     0
  3

 72
    65
 73
     0
 40
0.0
  0
LTYPE
  5
21
330
5
100
AcDbSymbolTableRecord
100
AcDbLinetypeTableRecord
  2
CENTER
 70
     0
  3

 72
    65
 73
     4
 40
2.0
 49
1.25
 74
     0
 49
-0.25
 74
     0
 49
0.25
 74
     0
 49
-0.25
 74
     0
  0
LTYPE
  5
951
330
5
100
AcDbSymbolTableRecord
100
AcDbLinetypeTableRecord
  2
Amconstr
 70
     0
  3
_______________________
 72
    65
 73
     2
 40
9999.0
 49
9999.0
 74
     0
 49
0.0
 74
     0
  0
LTYPE
  5
957
330
5
100
AcDbSymbolTableRecord
100
AcDbLinetypeTableRecord
  2
HIDDEN
 70
     0
  3
Hidden __ __ __ __ __ __ __ __ __ __ __ __ __ _
 72
    65
 73
     2
 40
0.375
 49
0.25
 74
     0
 49
-0.125
 74
     0
  0
LTYPE
  5
958
330
5
100
AcDbSymbolTableRecord
100
AcDbLinetypeTableRecord
  2
PHANTOM2
 70
     0
  3
Phantom (.5x) ___ _ _ ___ _ _ ___ _ _ ___ _ _
 72
    65
 73
     6
 40
1.25
 49
0.625
 74
     0
 49
-0.125
 74
     0
 49
0.125
 74
     0
 49
-0.125
 74
     0
 49
0.125
 74
     0
 49
-0.125
 74
     0
  0
LTYPE
  5
959
330
5
100
AcDbSymbolTableRecord
100
AcDbLinetypeTableRecord
  2
CENTER2
 70
     0
  3
Center (.5x) ___ _ ___ _ ___ _ ___ _ ___ _ ___
 72
    65
 73
     4
 40
1.125
 49
0.75
 74
     0
 49
-0.125
 74
     0
 49
0.125
 74
     0
 49
-0.125
 74
     0
  0
LTYPE
  5
95A
330
5
100
AcDbSymbolTableRecord
100
AcDbLinetypeTableRecord
  2
HIDDEN2
 70
     0
  3
Hidden (.5x) _ _ _ _ _ _ _ _ _ _ _ _ _ _ _ _ _
 72
    65
 73
     2
 40
0.1875
 49
0.125
 74
     0
 49
-0.0625
 74
     0
  0
LTYPE
  5
95B
330
5
100
AcDbSymbolTableRecord
100
AcDbLinetypeTableRecord
  2
Amzigzag2
 70
     0
  3
/\/-/\/-/\/-/\/-/\/-/\/
 72
    65
 73
     2
 40
0.4401
 49
0.0001
 74
     4
 75
   135
340
955
 46
0.0016
 50
0.0
 44
0.0
 45
0.0
 49
-0.4400000000000001
 74
     0
  0
LTYPE
  5
968
330
5
100
AcDbSymbolTableRecord
100
AcDbLinetypeTableRecord
  2
ACANSTGB
 70
     0
  3
__ . . __ . .
 72
    65
 73
     6
 40
0.35433070866
 49
0.15748031496
 74
     0
 49
-0.03937007874
 74
     0
 49
0.03937007874
 74
     0
 49
-0.03937007874
 74
     0
 49
0.03937007874
 74
     0
 49
-0.03937007874
 74
     0
  0
LTYPE
  5
969
330
5
100
AcDbSymbolTableRecord
100
AcDbLinetypeTableRecord
  2
ACANSTGL
 70
     0
  3
_ _ _ _ _
 72
    65
 73
     2
 40
0.11811023622
 49
0.07874015748
 74
     0
 49
-0.03937007874
 74
     0
  0
ENDTAB
  0
TABLE
  2
LAYER
  5
2
330
0
100
AcDbSymbolTable
 70
     6
  0
LAYER
  5
E
330
2
100
AcDbSymbolTableRecord
100
AcDbLayerTableRecord
  2
0
 70
     0
 62
     7
  6
CONTINUOUS
370
    -3
390
924
  0
LAYER
  5
27
330
2
100
AcDbSymbolTableRecord
100
AcDbLayerTableRecord
  2
1
 70
     0
 62
     1
  6
CONTINUOUS
370
    -3
390
924
  0
LAYER
  5
28
330
2
100
AcDbSymbolTableRecord
100
AcDbLayerTableRecord
  2
2
 70
     0
 62
     1
  6
CONTINUOUS
370
    -3
390
924
  0
LAYER
  5
2A
330
2
100
AcDbSymbolTableRecord
100
AcDbLayerTableRecord
  2
4
 70
     0
 62
     1
  6
CONTINUOUS
370
    -3
390
924
  0
LAYER
  5
35
330
2
100
AcDbSymbolTableRecord
100
AcDbLayerTableRecord
  2
15
 70
     0
 62
     1
  6
CONTINUOUS
370
    -3
390
924
  0
LAYER
  5
11A9
330
2
100
AcDbSymbolTableRecord
100
AcDbLayerTableRecord
  2
10
 70
     0
 62
     1
  6
CONTINUOUS
370
    -3
390
924
  0
ENDTAB
  0
TABLE
  2
STYLE
  5
3
330
0
100
AcDbSymbolTable
 70
     4
  0
STYLE
  5
F
330
3
100
AcDbSymbolTableRecord
100
AcDbTextStyleTableRecord
  2
STANDARD
 70
     0
 40
0.0
 41
1.0
 50
0.0
 71
     0
 42
0.2
  3
TXT
  4

  0
STYLE
  5
955
330
3
100
AcDbSymbolTableRecord
100
AcDbTextStyleTableRecord
  2

 70
     1
 40
0.0
 41
1.0
 50
0.0
 71
     0
 42
0.2
  3
ltypeshp.shx
  4

  0
STYLE
  5
95C
330
3
100
AcDbSymbolTableRecord
100
AcDbTextStyleTableRecord
  2
ACANSTS
 70
     0
 40
1.0
 41
1.0
 50
0.0
 71
     0
 42
0.2
  3
romans.shx
  4

  0
STYLE
  5
967
330
3
100
AcDbSymbolTableRecord
100
AcDbTextStyleTableRecord
  2
ACANSGDT
 70
     0
 40
0.0
 41
1.0
 50
0.0
 71
     0
 42
0.2
  3
amgdtans.shx
  4

  0
ENDTAB
  0
TABLE
  2
VIEW
  5
6
330
0
100
AcDbSymbolTable
 70
     0
  0
ENDTAB
  0
TABLE
  2
UCS
  5
7
330
0
100
AcDbSymbolTable
 70
     0
  0
ENDTAB
  0
TABLE
  2
APPID
  5
9
330
0
100
AcDbSymbolTable
 70
     4
  0
APPID
  5
10
330
9
100
AcDbSymbolTableRecord
100
AcDbRegAppTableRecord
  2
ACAD
 70
     0
  0
APPID
  5
92C
330
9
100
AcDbSymbolTableRecord
100
AcDbRegAppTableRecord
  2
MCAD_NO_VIS
 70
     0
  0
APPID
  5
92D
330
9
100
AcDbSymbolTableRecord
100
AcDbRegAppTableRecord
  2
ACAD_TEMP_GRAPHIC
 70
     0
  0
APPID
  5
93E
330
9
100
AcDbSymbolTableRecord
100
AcDbRegAppTableRecord
  2
ACATTRIBSERVICES
 70
     0
  0
ENDTAB
  0
TABLE
  2
DIMSTYLE
  5
A
330
0
100
AcDbSymbolTable
 70
     7
100
AcDbDimStyleTable
 71
     0
  0
DIMSTYLE
105
920
330
A
100
AcDbSymbolTableRecord
100
AcDbDimStyleTableRecord
  2
STANDARD
 70
     0
340
F
  0
DIMSTYLE
105
96D
330
A
100
AcDbSymbolTableRecord
100
AcDbDimStyleTableRecord
  2
AM_ANSI
 70
     0
  4
mm
 41
0.1
 42
0.05
 43
0.5
 44
0.1
 47
0.1
 48
0.1
 78
     7
 79
     2
140
0.12
141
0.0
146
0.71
147
0.06
176
   256
177
   256
178
     2
274
     4
284
     7
340
F
371
    -1
372
    -1
  0
DIMSTYLE
105
96E
330
A
100
AcDbSymbolTableRecord
100
AcDbDimStyleTableRecord
  2
AM_ANSI$3
 70
     0
  4
mm
 41
0.1
 42
0.05
 43
0.5
 44
0.1
 47
0.1
 48
0.1
 78
     7
 79
     2
140
0.12
141
0.0
146
0.71
147
0.06
176
   256
177
   256
178
     2
274
     4
284
     7
288
     1
289
     0
340
F
371
    -1
372
    -1
  0
DIMSTYLE
105
96F
330
A
100
AcDbSymbolTableRecord
100
AcDbDimStyleTableRecord
  2
AM_ANSI$4
 70
     0
  4
mm
 41
0.1
 42
0.05
 43
0.5
 44
0.1
 47
0.1
 48
0.1
 78
     7
 79
     2
140
0.12
141
0.0
146
0.71
147
0.06
176
   256
177
   256
178
     2
274
     4
284
     7
288
     1
289
     0
340
F
371
    -1
372
    -1
  0
DIMSTYLE
105
970
330
A
100
AcDbSymbolTableRecord
100
AcDbDimStyleTableRecord
  2
AM_ANSI$7
 70
     0
  4
mm
 41
0.1
 42
0.05
 43
0.5
 44
0.1
 47
0.1
 48
0.1
 78
     7
 79
     2
140
0.24
141
0.0
146
0.71
147
0.06
176
   256
177
   256
178
     2
274
     4
284
     7
340
F
371
    -1
372
    -1
  0
DIMSTYLE
105
971
330
A
100
AcDbSymbolTableRecord
100
AcDbDimStyleTableRecord
  2
AM_ANSI$SF
 70
     0
  4
mm
 41
0.1
 42
0.05
 43
0.5
 44
0.1
 47
0.1
 48
0.1
 75
     1
 76
     1
 78
     7
 79
     2
140
0.12
141
0.0
146
0.71
147
0.06
176
   256
177
   256
178
     2
274
     4
284
     7
340
F
371
    -1
372
    -1
  0
DIMSTYLE
105
976
330
A
100
AcDbSymbolTableRecord
100
AcDbDimStyleTableRecord
  2
AM_ANSI$SH
 70
     0
  4
mm
 41
0.1
 42
0.05
 43
0.5
 44
0.1
 47
0.1
 48
0.1
 75
     1
 76
     1
 78
     7
 79
     2
140
0.12
141
0.0
146
0.71
147
0.06
173
     1
176
   256
177
   256
178
     2
274
     4
284
     7
340
F
343
972
371
    -1
372
    -1
  0
ENDTAB
  0
TABLE
  2
BLOCK_RECORD
  5
1
330
0
100
AcDbSymbolTable
 70
     1
  0
BLOCK_RECORD
  5
18
102
{ACAD_XDICTIONARY
360
981
102
}
330
1
100
AcDbSymbolTableRecord
100
AcDbBlockTableRecord
  2
*MODEL_SPACE
340
927
  0
BLOCK_RECORD
  5
15
330
1
100
AcDbSymbolTableRecord
100
AcDbBlockTableRecord
  2
*PAPER_SPACE
340
928
  0
BLOCK_RECORD
  5
972
330
1
100
AcDbSymbolTableRecord
100
AcDbBlockTableRecord
  2
GENAXEH
340
0
  0
ENDTAB
  0
ENDSEC
  0
SECTION
  2
BLOCKS
  0
BLOCK
  5
19
330
18
100
AcDbEntity
  8
0
100
AcDbBlockBegin
  2
*MODEL_SPACE
 70
     0
 10
0.0
 20
0.0
 30
0.0
  3
*MODEL_SPACE
  1

  0
ENDBLK
  5
1A
330
18
100
AcDbEntity
  8
0
100
AcDbBlockEnd
  0
BLOCK
  5
16
330
15
100
AcDbEntity
 67
     1
  8
0
100
AcDbBlockBegin
  2
*PAPER_SPACE
 70
     0
 10
0.0
 20
0.0
 30
0.0
  3
*PAPER_SPACE
  1

  0
ENDBLK
  5
17
330
15
100
AcDbEntity
 67
     1
  8
0
100
AcDbBlockEnd
  0
BLOCK
  5
974
330
972
100
AcDbEntity
  8
0
100
AcDbBlockBegin
  2
GENAXEH
 70
     0
 10
0.0
 20
0.0
 30
0.0
  3
GENAXEH
  1

  0
LINE
  5
973
330
972
100
AcDbEntity
  8
0
100
AcDbLine
 10
-1.0
 20
0.0
 30
0.0
 11
1.0
 21
0.0
 31
0.0
  0
ENDBLK
  5
975
330
972
100
AcDbEntity
  8
0
100
AcDbBlockEnd
  0
ENDSEC
  0
SECTION
  2
ENTITIES
  0
LINE
  5
15BD
330
18
100
AcDbEntity
  8
1
  6
Continuous
 62
     1
100
AcDbLine
 10
13.36599999999998
 20
-31.79999999999996
 30
0.0
 11
27.14940000000002
 21
-31.79999999999996
 31
0.0
  0
ARC
  5
15BE
330
18
100
AcDbEntity
  8
10
  6
Continuous
 62
     1
100
AcDbCircle
 10
17.69999999999999
 20
-62.69999999999999
 30
0.0
 40
6.0
100
AcDbArc
 50
90.0
 51
180.0
  0
LINE
  5
15BF
330
18
100
AcDbEntity
  8
1
  6
Continuous
 62
     1
100
AcDbLine
 10
13.36599999999998
 20
-28.29999999999996
 30
0.0
 11
25.30039999999997
 21
-28.29999999999996
 31
0.0
  0
ARC
  5
15C0
330
18
100
AcDbEntity
  8
1
  6
Continuous
 62
     1
100
AcDbCircle
 10
17.59999999999996
 20
-82.29999999999998
 30
0.0
 40
5.0
100
AcDbArc
 50
90.0
 51
135.0
  0
LINE
  5
15C1
330
18
100
AcDbEntity
  8
10
  6
Continuous
 62
     1
100
AcDbLine
 10
12.5
 20
-86.19999999999999
 30
0.0
 11
18.39999999999998
 21
-86.19999999999999
 31
0.0
  0
LINE
  5
15C2
330
18
100
AcDbEntity
  8
10
  6
Continuous
 62
     1
100
AcDbLine
 10
10.5
 20
-89.99999999999998
 30
0.0
 11
18.39999999999998
 21
-89.99999999999998
 31
0.0
  0
ARC
  5
15C3
330
18
100
AcDbEntity
  8
10
  6
Continuous
 62
     1
100
AcDbCircle
 10
17.69999999999999
 20
62.69999999999999
 30
0.0
 40
6.0
100
AcDbArc
 50
180.0
 51
270.0
  0
ARC
  5
15C4
330
18
100
AcDbEntity
  8
1
  6
Continuous
 62
     1
100
AcDbCircle
 10
17.59999999999996
 20
82.30000000000002
 30
0.0
 40
5.0
100
AcDbArc
 50
225.0
 51
270.0
  0
LINE
  5
15C5
330
18
100
AcDbEntity
  8
10
  6
Continuous
 62
     1
100
AcDbLine
 10
12.5
 20
86.19999999999999
 30
0.0
 11
18.39999999999998
 21
86.19999999999999
 31
0.0
  0
LINE
  5
15C6
330
18
100
AcDbEntity
  8
10
  6
Continuous
 62
     1
100
AcDbLine
 10
10.5
 20
90.0
 30
0.0
 11
18.39999999999998
 21
90.0
 31
0.0
  0
LINE
  5
15C7
330
18
100
AcDbEntity
  8
10
  6
CENTER
 62
     2
100
AcDbLine
 10
-45.0
 20
-67.5
 30
0.0
 11
45.00040000000001
 21
-67.5
 31
0.0
  0
LINE
  5
15C8
330
18
100
AcDbEntity
  8
1
  6
Continuous
 62
     1
100
AcDbLine
 10
13.36599999999998
 20
31.80000000000001
 30
0.0
 11
27.14940000000002
 21
31.80000000000001
 31
0.0
  0
LINE
  5
15C9
330
18
100
AcDbEntity
  8
10
  6
CENTER
 62
     2
100
AcDbLine
 10
44.85039999999997
 20
0.0
 30
0.0
 11
-45.0
 21
0.0
 31
0.0
  0
LINE
  5
15CA
330
18
100
AcDbEntity
  8
1
  6
Continuous
 62
     1
100
AcDbLine
 10
13.36599999999998
 20
28.30000000000001
 30
0.0
 11
25.30039999999997
 21
28.30000000000001
 31
0.0
  0
LINE
  5
15CB
330
18
100
AcDbEntity
  8
10
  6
CENTER
 62
     2
100
AcDbLine
 10
-45.0
 20
67.5
 30
0.0
 11
45.00040000000001
 21
67.5
 31
0.0
  0
ARC
  5
1642
330
18
100
AcDbEntity
  8
1
  6
Continuous
 62
     1
100
AcDbCircle
 10
4.5
 20
83.0
 30
0.0
 40
2.0
100
AcDbArc
 50
0.000000004841364
 51
90.0
  0
ARC
  5
1643
330
18
100
AcDbEntity
  8
1
  6
Continuous
 62
     1
100
AcDbCircle
 10
-4.5
 20
83.0
 30
0.0
 40
2.0
100
AcDbArc
 50
90.0
 51
180.0
  0
LINE
  5
1644
330
18
100
AcDbEntity
  8
10
  6
Continuous
 62
     1
100
AcDbLine
 10
11.5
 20
85.19999999999999
 30
0.0
 11
11.5
 21
82.15700000000003
 31
0.0
  0
LINE
  5
1645
330
18
100
AcDbEntity
  8
10
  6
CENTER
 62
     2
100
AcDbLine
 10
0.0
 20
-89.99999999999998
 30
0.0
 11
0.0
 21
90.0
 31
0.0
  0
ARC
  5
1646
330
18
100
AcDbEntity
  8
10
  6
Continuous
 62
     1
100
AcDbCircle
 10
-39.5
 20
84.50000000000001
 30
0.0
 40
3.45
100
AcDbArc
 50
158.5770000000004
 51
201.4229999999995
  0
ARC
  5
1647
330
18
100
AcDbEntity
  8
10
  6
Continuous
 62
     1
100
AcDbCircle
 10
-39.5
 20
84.50000000000001
 30
0.0
 40
3.45
100
AcDbArc
 50
338.5770000000004
 51
21.42280000000004
  0
LINE
  5
1648
330
18
100
AcDbEntity
  8
10
  6
Continuous
 62
     1
100
AcDbLine
 10
-45.0
 20
88.0
 30
0.0
 11
-45.0
 21
82.0
 31
0.0
  0
LINE
  5
1649
330
18
100
AcDbEntity
  8
10
  6
Continuous
 62
     1
100
AcDbLine
 10
-33.5
 20
85.19999999999999
 30
0.0
 11
-33.5
 21
82.15700000000003
 31
0.0
  0
LINE
  5
164A
330
18
100
AcDbEntity
  8
10
  6
CENTER
 62
     2
100
AcDbLine
 10
-22.5
 20
90.0
 30
0.0
 11
-22.5
 21
-89.99999999999998
 31
0.0
  0
LINE
  5
164B
330
18
100
AcDbEntity
  8
10
  6
Continuous
 62
     1
100
AcDbLine
 10
-11.5
 20
85.19999999999999
 30
0.0
 11
-11.5
 21
82.15700000000003
 31
0.0
  0
LINE
  5
164E
330
18
100
AcDbEntity
  8
1
  6
Continuous
 62
     1
100
AcDbLine
 10
-27.149
 20
-31.79999999999996
 30
0.0
 11
-13.36599999999998
 21
-31.79999999999996
 31
0.0
  0
LINE
  5
164F
330
18
100
AcDbEntity
  8
10
  6
Continuous
 62
     1
100
AcDbLine
 10
-17.70000000000004
 20
-56.69999999999999
 30
0.0
 11
-27.815
 21
-56.69999999999999
 31
0.0
  0
LINE
  5
1650
330
18
100
AcDbEntity
  8
1
  6
Continuous
 62
     1
100
AcDbLine
 10
-25.30000000000001
 20
-28.29999999999996
 30
0.0
 11
-13.36599999999998
 21
-28.29999999999996
 31
0.0
  0
ARC
  5
1651
330
18
100
AcDbEntity
  8
10
  6
Continuous
 62
     1
100
AcDbCircle
 10
-17.54900000000003
 20
-62.54799999999995
 30
0.0
 40
2.0
100
AcDbArc
 50
313.1599999999999
 51
136.8540000000007
  0
ARC
  5
1652
330
18
100
AcDbEntity
  8
10
  6
Continuous
 62
     1
100
AcDbCircle
 10
-17.54900000000003
 20
-72.452
 30
0.0
 40
2.0
100
AcDbArc
 50
223.1459999999993
 51
46.83989999999971
  0
LINE
  5
1653
330
18
100
AcDbEntity
  8
10
  6
Continuous
 62
     1
100
AcDbLine
 10
-27.40000000000004
 20
-77.29999999999998
 30
0.0
 11
-17.59900000000004
 21
-77.29999999999998
 31
0.0
  0
LINE
  5
1654
330
18
100
AcDbEntity
  8
10
  6
Continuous
 62
     1
100
AcDbLine
 10
-12.5
 20
-86.19999999999999
 30
0.0
 11
-18.40000000000003
 21
-86.19999999999999
 31
0.0
  0
LINE
  5
1655
330
18
100
AcDbEntity
  8
10
  6
Continuous
 62
     1
100
AcDbLine
 10
-10.5
 20
-89.99999999999998
 30
0.0
 11
-18.40000000000003
 21
-89.99999999999998
 31
0.0
  0
LINE
  5
1656
330
18
100
AcDbEntity
  8
1
  6
Continuous
 62
     1
100
AcDbLine
 10
-27.149
 20
31.80000000000001
 30
0.0
 11
-13.36599999999998
 21
31.80000000000001
 31
0.0
  0
LINE
  5
1657
330
18
100
AcDbEntity
  8
1
  6
Continuous
 62
     1
100
AcDbLine
 10
-25.30000000000001
 20
28.30000000000001
 30
0.0
 11
-13.36599999999998
 21
28.30000000000001
 31
0.0
  0
LINE
  5
1658
330
18
100
AcDbEntity
  8
10
  6
Continuous
 62
     1
100
AcDbLine
 10
-17.70000000000004
 20
56.69999999999999
 30
0.0
 11
-27.815
 21
56.69999999999999
 31
0.0
  0
ARC
  5
1659
330
18
100
AcDbEntity
  8
10
  6
Continuous
 62
     1
100
AcDbCircle
 10
-17.54900000000003
 20
62.548
 30
0.0
 40
2.0
100
AcDbArc
 50
223.1459999999993
 51
46.83989999999971
  0
ARC
  5
165A
330
18
100
AcDbEntity
  8
10
  6
Continuous
 62
     1
100
AcDbCircle
 10
-17.54900000000003
 20
72.45200000000005
 30
0.0
 40
2.0
100
AcDbArc
 50
313.1599999999999
 51
136.8540000000007
  0
LINE
  5
165B
330
18
100
AcDbEntity
  8
10
  6
Continuous
 62
     1
100
AcDbLine
 10
-27.40000000000004
 20
77.30000000000001
 30
0.0
 11
-17.59900000000004
 21
77.30000000000001
 31
0.0
  0
ARC
  5
165C
330
18
100
AcDbEntity
  8
1
  6
Continuous
 62
     1
100
AcDbCircle
 10
-37.30000000000001
 20
-17.59899999999999
 30
0.0
 40
10.0
100
AcDbArc
 50
0.0
 51
45.0
  0
LINE
  5
165D
330
18
100
AcDbEntity
  8
1
  6
Continuous
 62
     1
100
AcDbLine
 10
-30.22900000000004
 20
-10.52799999999996
 30
0.0
 11
-32.12100000000004
 21
-8.636000000000024
 31
0.0
  0
LINE
  5
165E
330
18
100
AcDbEntity
  8
10
  6
Continuous
 62
     1
100
AcDbLine
 10
-44.85000000000002
 20
-10.5
 30
0.0
 11
-44.85000000000002
 21
-8.0
 31
0.0
  0
ARC
  5
165F
330
18
100
AcDbEntity
  8
1
  6
Continuous
 62
     1
100
AcDbCircle
 10
-37.15700000000004
 20
-31.5
 30
0.0
 40
7.0
100
AcDbArc
 50
270.0
 51
315.0
  0
ARC
  5
1660
330
18
100
AcDbEntity
  8
1
  6
Continuous
 62
     1
100
AcDbCircle
 10
-37.15700000000004
 20
-58.5
 30
0.0
 40
7.0
100
AcDbArc
 50
45.0
 51
90.0
  0
LINE
  5
1661
330
18
100
AcDbEntity
  8
1
  6
Continuous
 62
     1
100
AcDbLine
 10
-33.76400000000001
 20
-30.93599999999998
 30
0.0
 11
-35.743
 21
-32.91399999999999
 31
0.0
  0
LINE
  5
1662
330
18
100
AcDbEntity
  8
1
  6
Continuous
 62
     1
100
AcDbLine
 10
-33.76400000000001
 20
-14.06399999999996
 30
0.0
 11
-35.743
 21
-12.08600000000001
 31
0.0
  0
LINE
  5
1663
330
18
100
AcDbEntity
  8
1
  6
Continuous
 62
     1
100
AcDbLine
 10
-33.76400000000001
 20
-59.06399999999996
 30
0.0
 11
-35.743
 21
-57.08600000000001
 31
0.0
  0
LINE
  5
1664
330
18
100
AcDbEntity
  8
1
  6
Continuous
 62
     1
100
AcDbLine
 10
-33.76400000000001
 20
-75.93600000000001
 30
0.0
 11
-35.743
 21
-77.91399999999999
 31
0.0
  0
LINE
  5
1665
330
18
100
AcDbEntity
  8
10
  6
Continuous
 62
     1
100
AcDbLine
 10
-34.5
 20
-89.99999999999998
 30
0.0
 11
-26.60000000000002
 21
-89.99999999999998
 31
0.0
  0
LINE
  5
1666
330
18
100
AcDbEntity
  8
10
  6
CENTER
 62
     2
100
AcDbLine
 10
-32.30000000000001
 20
-22.5
 30
0.0
 11
-45.0
 21
-22.5
 31
0.0
  0
LINE
  5
1667
330
18
100
AcDbEntity
  8
10
  6
Continuous
 62
     1
100
AcDbLine
 10
-45.0
 20
-55.5
 30
0.0
 11
-45.0
 21
-63.39999999999998
 31
0.0
  0
LINE
  5
1668
330
18
100
AcDbEntity
  8
10
  6
Continuous
 62
     1
100
AcDbLine
 10
-41.20000000000004
 20
-57.5
 30
0.0
 11
-41.20000000000004
 21
-63.39999999999998
 31
0.0
  0
LINE
  5
1669
330
18
100
AcDbEntity
  8
10
  6
Continuous
 62
     1
100
AcDbLine
 10
-41.20000000000004
 20
-63.39999999999998
 30
0.0
 11
-45.0
 21
-63.39999999999998
 31
0.0
  0
ARC
  5
166A
330
18
100
AcDbEntity
  8
10
  6
Continuous
 62
     1
100
AcDbCircle
 10
-42.99100000000004
 20
-83.12999999999997
 30
0.0
 40
0.3
100
AcDbArc
 50
338.5770000000004
 51
45.50129999999869
  0
ARC
  5
166B
330
18
100
AcDbEntity
  8
10
  6
Continuous
 62
     1
100
AcDbCircle
 10
-41.93999999999999
 20
-82.05999999999997
 30
0.0
 40
1.199999999999999
100
AcDbArc
 50
44.49870000000014
 51
225.5009999999995
  0
ARC
  5
166C
330
18
100
AcDbEntity
  8
10
  6
Continuous
 62
     1
100
AcDbCircle
 10
-42.99100000000004
 20
-85.86999999999997
 30
0.0
 40
0.3
100
AcDbArc
 50
314.4990000000005
 51
21.42280000000004
  0
ARC
  5
166D
330
18
100
AcDbEntity
  8
10
  6
Continuous
 62
     1
100
AcDbCircle
 10
-41.93999999999999
 20
-86.93999999999997
 30
0.0
 40
1.199999999999999
100
AcDbArc
 50
134.4990000000005
 51
315.5010000000007
  0
LINE
  5
166E
330
18
100
AcDbEntity
  8
10
  6
Continuous
 62
     1
100
AcDbLine
 10
-41.20000000000004
 20
-71.59999999999996
 30
0.0
 11
-45.0
 21
-71.59999999999996
 31
0.0
  0
LINE
  5
166F
330
18
100
AcDbEntity
  8
10
  6
Continuous
 62
     1
100
AcDbLine
 10
-43.0
 20
-89.99999999999998
 30
0.0
 11
-37.0
 21
-89.99999999999998
 31
0.0
  0
LINE
  5
1670
330
18
100
AcDbEntity
  8
10
  6
Continuous
 62
     1
100
AcDbLine
 10
-44.85000000000002
 20
-79.49999999999997
 30
0.0
 11
-44.85000000000002
 21
-81.99999999999997
 31
0.0
  0
ARC
  5
1671
330
18
100
AcDbEntity
  8
10
  6
Continuous
 62
     1
100
AcDbCircle
 10
-39.5
 20
-84.49999999999997
 30
0.0
 40
3.45
100
AcDbArc
 50
158.5770000000004
 51
201.4229999999995
  0
LINE
  5
1672
330
18
100
AcDbEntity
  8
10
  6
Continuous
 62
     1
100
AcDbLine
 10
-45.0
 20
-87.99999999999997
 30
0.0
 11
-45.0
 21
-81.99999999999997
 31
0.0
  0
LINE
  5
1673
330
18
100
AcDbEntity
  8
10
  6
Continuous
 62
     1
100
AcDbLine
 10
-44.85000000000002
 20
-81.99999999999997
 30
0.0
 11
-45.0
 21
-81.99999999999997
 31
0.0
  0
ARC
  5
1674
330
18
100
AcDbEntity
  8
10
  6
Continuous
 62
     1
100
AcDbCircle
 10
-43.0
 20
-87.99999999999997
 30
0.0
 40
2.0
100
AcDbArc
 50
180.0
 51
270.0
  0
LINE
  5
1675
330
18
100
AcDbEntity
  8
1
  6
Continuous
 62
     1
100
AcDbLine
 10
-44.85000000000002
 20
-79.49999999999997
 30
0.0
 11
-45.0
 21
-79.49999999999997
 31
0.0
  0
LINE
  5
1676
330
18
100
AcDbEntity
  8
10
  6
Continuous
 62
     1
100
AcDbLine
 10
-45.0
 20
-79.49999999999997
 30
0.0
 11
-45.0
 21
-71.59999999999996
 31
0.0
  0
ARC
  5
1677
330
18
100
AcDbEntity
  8
10
  6
Continuous
 62
     1
100
AcDbCircle
 10
-40.87
 20
-81.00899999999999
 30
0.0
 40
0.3
100
AcDbArc
 50
224.4989999999993
 51
291.4230000000011
  0
ARC
  5
1678
330
18
100
AcDbEntity
  8
10
  6
Continuous
 62
     1
100
AcDbCircle
 10
-38.13
 20
-81.00899999999999
 30
0.0
 40
0.3
100
AcDbArc
 50
248.5769999999989
 51
315.5010000000007
  0
ARC
  5
1679
330
18
100
AcDbEntity
  8
10
  6
Continuous
 62
     1
100
AcDbCircle
 10
-37.06
 20
-82.05999999999997
 30
0.0
 40
1.199999999999999
100
AcDbArc
 50
314.4990000000005
 51
135.5010000000007
  0
ARC
  5
167A
330
18
100
AcDbEntity
  8
10
  6
Continuous
 62
     1
100
AcDbCircle
 10
-39.5
 20
-84.49999999999997
 30
0.0
 40
3.45
100
AcDbArc
 50
68.57719999999996
 51
111.423000000001
  0
ARC
  5
1683
330
18
100
AcDbEntity
  8
10
  6
Continuous
 62
     1
100
AcDbCircle
 10
-39.5
 20
-84.49999999999997
 30
0.0
 40
3.45
100
AcDbArc
 50
248.5769999999989
 51
291.4230000000011
  0
ARC
  5
1685
330
18
100
AcDbEntity
  8
10
  6
Continuous
 62
     1
100
AcDbCircle
 10
-40.87
 20
-87.99099999999999
 30
0.0
 40
0.3
100
AcDbArc
 50
68.57719999999996
 51
135.5010000000007
  0
LINE
  5
1686
330
18
100
AcDbEntity
  8
10
  6
Continuous
 62
     2
100
AcDbLine
 10
-39.5
 20
-84.49999999999997
 30
0.0
 11
-39.5
 21
-85.92599999999999
 31
0.0
  0
LINE
  5
1687
330
18
100
AcDbEntity
  8
10
  6
Continuous
 62
     2
100
AcDbLine
 10
-39.5
 20
-84.49999999999997
 30
0.0
 11
-40.94499999999999
 21
-84.49999999999997
 31
0.0
  0
ARC
  5
1688
330
18
100
AcDbEntity
  8
10
  6
Continuous
 62
     1
100
AcDbCircle
 10
-36.00900000000001
 20
-83.12999999999997
 30
0.0
 40
0.3
100
AcDbArc
 50
134.4990000000005
 51
201.4229999999995
  0
ARC
  5
1689
330
18
100
AcDbEntity
  8
10
  6
Continuous
 62
     1
100
AcDbCircle
 10
-38.13
 20
-87.99099999999999
 30
0.0
 40
0.3
100
AcDbArc
 50
44.49870000000014
 51
111.423000000001
  0
ARC
  5
168A
330
18
100
AcDbEntity
  8
10
  6
Continuous
 62
     1
100
AcDbCircle
 10
-36.00900000000001
 20
-85.86999999999997
 30
0.0
 40
0.3
100
AcDbArc
 50
158.5770000000004
 51
225.5009999999995
  0
ARC
  5
168B
330
18
100
AcDbEntity
  8
10
  6
Continuous
 62
     1
100
AcDbCircle
 10
-37.06
 20
-86.93999999999997
 30
0.0
 40
1.199999999999999
100
AcDbArc
 50
224.4989999999993
 51
45.50129999999869
  0
ARC
  5
168C
330
18
100
AcDbEntity
  8
10
  6
Continuous
 62
     1
100
AcDbCircle
 10
-39.5
 20
-84.49999999999997
 30
0.0
 40
3.45
100
AcDbArc
 50
338.5770000000004
 51
21.42280000000004
  0
LINE
  5
168D
330
18
100
AcDbEntity
  8
10
  6
Continuous
 62
     1
100
AcDbLine
 10
-34.5
 20
-89.84999999999997
 30
0.0
 11
-37.0
 21
-89.84999999999997
 31
0.0
  0
LINE
  5
168E
330
18
100
AcDbEntity
  8
10
  6
Continuous
 62
     1
100
AcDbLine
 10
-34.5
 20
-89.84999999999997
 30
0.0
 11
-34.5
 21
-89.99999999999998
 31
0.0
  0
LINE
  5
168F
330
18
100
AcDbEntity
  8
10
  6
Continuous
 62
     1
100
AcDbLine
 10
-37.0
 20
-89.84999999999997
 30
0.0
 11
-37.0
 21
-89.99999999999998
 31
0.0
  0
LINE
  5
1690
330
18
100
AcDbEntity
  8
10
  6
Continuous
 62
     1
100
AcDbLine
 10
-40.20000000000004
 20
-78.49999999999997
 30
0.0
 11
-37.15700000000004
 21
-78.49999999999997
 31
0.0
  0
LINE
  5
1691
330
18
100
AcDbEntity
  8
10
  6
Continuous
 62
     1
100
AcDbLine
 10
-41.20000000000004
 20
-77.49999999999997
 30
0.0
 11
-41.20000000000004
 21
-71.59999999999996
 31
0.0
  0
ARC
  5
1692
330
18
100
AcDbEntity
  8
10
  6
Continuous
 62
     1
100
AcDbCircle
 10
-40.20000000000004
 20
-77.49999999999997
 30
0.0
 40
1.0
100
AcDbArc
 50
180.0
 51
270.0
  0
ARC
  5
1693
330
18
100
AcDbEntity
  8
1
  6
Continuous
 62
     1
100
AcDbCircle
 10
-37.15700000000004
 20
-76.49999999999997
 30
0.0
 40
2.0
100
AcDbArc
 50
270.0
 51
315.0
  0
LINE
  5
1694
330
18
100
AcDbEntity
  8
10
  6
Continuous
 62
     1
100
AcDbLine
 10
-41.20000000000004
 20
-26.59999999999997
 30
0.0
 11
-45.0
 21
-26.59999999999997
 31
0.0
  0
LINE
  5
1695
330
18
100
AcDbEntity
  8
10
  6
Continuous
 62
     1
100
AcDbLine
 10
-41.20000000000004
 20
-18.39999999999998
 30
0.0
 11
-45.0
 21
-18.39999999999998
 31
0.0
  0
LINE
  5
1696
330
18
100
AcDbEntity
  8
10
  6
Continuous
 62
     1
100
AcDbLine
 10
-45.0
 20
-34.5
 30
0.0
 11
-45.0
 21
-26.59999999999997
 31
0.0
  0
LINE
  5
1697
330
18
100
AcDbEntity
  8
10
  6
Continuous
 62
     1
100
AcDbLine
 10
-44.85000000000002
 20
-55.5
 30
0.0
 11
-44.85000000000002
 21
-53.0
 31
0.0
  0
LINE
  5
1698
330
18
100
AcDbEntity
  8
10
  6
Continuous
 62
     1
100
AcDbLine
 10
-44.85000000000002
 20
-55.5
 30
0.0
 11
-45.0
 21
-55.5
 31
0.0
  0
LINE
  5
1699
330
18
100
AcDbEntity
  8
10
  6
Continuous
 62
     1
100
AcDbLine
 10
-44.85000000000002
 20
-53.0
 30
0.0
 11
-45.0
 21
-53.0
 31
0.0
  0
LINE
  5
169A
330
18
100
AcDbEntity
  8
10
  6
Continuous
 62
     1
100
AcDbLine
 10
-44.85000000000002
 20
-34.5
 30
0.0
 11
-44.85000000000002
 21
-37.0
 31
0.0
  0
LINE
  5
169B
330
18
100
AcDbEntity
  8
10
  6
Continuous
 62
     1
100
AcDbLine
 10
-44.85000000000002
 20
-34.5
 30
0.0
 11
-45.0
 21
-34.5
 31
0.0
  0
LINE
  5
169C
330
18
100
AcDbEntity
  8
10
  6
Continuous
 62
     1
100
AcDbLine
 10
-44.85000000000002
 20
-37.0
 30
0.0
 11
-45.0
 21
-37.0
 31
0.0
  0
LINE
  5
169D
330
18
100
AcDbEntity
  8
10
  6
Continuous
 62
     1
100
AcDbLine
 10
-45.0
 20
-53.0
 30
0.0
 11
-45.0
 21
-37.0
 31
0.0
  0
LINE
  5
169E
330
18
100
AcDbEntity
  8
10
  6
Continuous
 62
     1
100
AcDbLine
 10
-45.0
 20
-10.5
 30
0.0
 11
-45.0
 21
-18.39999999999998
 31
0.0
  0
LINE
  5
169F
330
18
100
AcDbEntity
  8
10
  6
Continuous
 62
     1
100
AcDbLine
 10
-44.85000000000002
 20
-10.5
 30
0.0
 11
-45.0
 21
-10.5
 31
0.0
  0
ARC
  5
16A0
330
18
100
AcDbEntity
  8
1
  6
Continuous
 62
     1
100
AcDbCircle
 10
-38.0
 20
-40.49999999999999
 30
0.0
 40
2.0
100
AcDbArc
 50
90.0
 51
180.0
  0
ARC
  5
16A1
330
18
100
AcDbEntity
  8
1
  6
Continuous
 62
     1
100
AcDbCircle
 10
-38.0
 20
-49.5
 30
0.0
 40
2.0
100
AcDbArc
 50
180.0
 51
270.0
  0
LINE
  5
16A2
330
18
100
AcDbEntity
  8
10
  6
Continuous
 62
     1
100
AcDbLine
 10
-40.20000000000004
 20
-56.5
 30
0.0
 11
-37.15700000000004
 21
-56.5
 31
0.0
  0
LINE
  5
16A3
330
18
100
AcDbEntity
  8
1
  6
Continuous
 62
     1
100
AcDbLine
 10
-40.0
 20
-49.5
 30
0.0
 11
-40.0
 21
-40.49999999999999
 31
0.0
  0
ARC
  5
16A4
330
18
100
AcDbEntity
  8
10
  6
Continuous
 62
     1
100
AcDbCircle
 10
-40.20000000000004
 20
-57.5
 30
0.0
 40
1.0
100
AcDbArc
 50
90.0
 51
180.0
  0
LINE
  5
16A5
330
18
100
AcDbEntity
  8
1
  6
Continuous
 62
     1
100
AcDbLine
 10
-38.0
 20
-38.5
 30
0.0
 11
-37.15700000000004
 21
-38.5
 31
0.0
  0
LINE
  5
16A6
330
18
100
AcDbEntity
  8
1
  6
Continuous
 62
     1
100
AcDbLine
 10
-38.0
 20
-51.5
 30
0.0
 11
-37.15700000000004
 21
-51.5
 31
0.0
  0
ARC
  5
16A7
330
18
100
AcDbEntity
  8
1
  6
Continuous
 62
     1
100
AcDbCircle
 10
-37.15700000000004
 20
-58.5
 30
0.0
 40
2.0
100
AcDbArc
 50
45.0
 51
90.0
  0
LINE
  5
16A8
330
18
100
AcDbEntity
  8
10
  6
Continuous
 62
     1
100
AcDbLine
 10
-40.20000000000004
 20
-33.5
 30
0.0
 11
-37.15700000000004
 21
-33.5
 31
0.0
  0
LINE
  5
16A9
330
18
100
AcDbEntity
  8
10
  6
Continuous
 62
     1
100
AcDbLine
 10
-40.20000000000004
 20
-11.5
 30
0.0
 11
-37.15700000000004
 21
-11.5
 31
0.0
  0
ARC
  5
16AA
330
18
100
AcDbEntity
  8
10
  6
Continuous
 62
     1
100
AcDbCircle
 10
-40.20000000000004
 20
-32.5
 30
0.0
 40
1.0
100
AcDbArc
 50
180.0
 51
270.0
  0
ARC
  5
16AB
330
18
100
AcDbEntity
  8
10
  6
Continuous
 62
     1
100
AcDbCircle
 10
-40.20000000000004
 20
-12.5
 30
0.0
 40
1.0
100
AcDbArc
 50
90.0
 51
180.0
  0
LINE
  5
16AC
330
18
100
AcDbEntity
  8
10
  6
Continuous
 62
     1
100
AcDbLine
 10
-41.20000000000004
 20
-12.5
 30
0.0
 11
-41.20000000000004
 21
-18.39999999999998
 31
0.0
  0
LINE
  5
16AD
330
18
100
AcDbEntity
  8
10
  6
Continuous
 62
     1
100
AcDbLine
 10
-41.20000000000004
 20
-32.5
 30
0.0
 11
-41.20000000000004
 21
-26.59999999999997
 31
0.0
  0
ARC
  5
16AE
330
18
100
AcDbEntity
  8
1
  6
Continuous
 62
     1
100
AcDbCircle
 10
-37.15700000000004
 20
-31.5
 30
0.0
 40
2.0
100
AcDbArc
 50
270.0
 51
315.0
  0
ARC
  5
16AF
330
18
100
AcDbEntity
  8
1
  6
Continuous
 62
     1
100
AcDbCircle
 10
-37.15700000000004
 20
-13.5
 30
0.0
 40
2.0
100
AcDbArc
 50
45.0
 51
90.0
  0
ARC
  5
16B0
330
18
100
AcDbEntity
  8
10
  6
Continuous
 62
     1
100
AcDbCircle
 10
-27.45100000000002
 20
-62.54799999999995
 30
0.0
 40
2.0
100
AcDbArc
 50
43.1463000000006
 51
226.8400000000001
  0
ARC
  5
16B1
330
18
100
AcDbEntity
  8
10
  6
Continuous
 62
     1
100
AcDbCircle
 10
-27.45100000000002
 20
-72.452
 30
0.0
 40
2.0
100
AcDbArc
 50
133.1599999999998
 51
316.8540000000007
  0
ARC
  5
16B2
330
18
100
AcDbEntity
  8
1
  6
Continuous
 62
     1
100
AcDbCircle
 10
-31.5
 20
-82.15699999999998
 30
0.0
 40
2.0
100
AcDbArc
 50
135.0
 51
180.0
  0
LINE
  5
16B3
330
18
100
AcDbEntity
  8
10
  6
Continuous
 62
     1
100
AcDbLine
 10
-32.5
 20
-86.19999999999999
 30
0.0
 11
-26.60000000000002
 21
-86.19999999999999
 31
0.0
  0
ARC
  5
16B4
330
18
100
AcDbEntity
  8
10
  6
Continuous
 62
     1
100
AcDbCircle
 10
-32.5
 20
-85.19999999999999
 30
0.0
 40
1.0
100
AcDbArc
 50
180.0
 51
270.0
  0
LINE
  5
16B5
330
18
100
AcDbEntity
  8
10
  6
Continuous
 62
     1
100
AcDbLine
 10
-33.5
 20
-85.19999999999999
 30
0.0
 11
-33.5
 21
-82.15699999999998
 31
0.0
  0
LINE
  5
16B6
330
18
100
AcDbEntity
  8
10
  6
Continuous
 62
     1
100
AcDbLine
 10
-26.60000000000002
 20
-86.19999999999999
 30
0.0
 11
-26.60000000000002
 21
-89.99999999999998
 31
0.0
  0
ARC
  5
16B7
330
18
100
AcDbEntity
  8
1
  6
Continuous
 62
     1
100
AcDbCircle
 10
-27.40000000000004
 20
-82.29999999999998
 30
0.0
 40
5.0
100
AcDbArc
 50
90.0
 51
135.0
  0
LINE
  5
16B8
330
18
100
AcDbEntity
  8
1
  6
Continuous
 62
     1
100
AcDbLine
 10
-30.93600000000004
 20
-78.76399999999998
 30
0.0
 11
-32.91399999999999
 21
-80.74299999999997
 31
0.0
  0
ARC
  5
16B9
330
18
100
AcDbEntity
  8
1
  6
Continuous
 62
     1
100
AcDbCircle
 10
-37.30000000000001
 20
-72.39999999999998
 30
0.0
 40
5.0
100
AcDbArc
 50
315.0
 51
0.0
  0
ARC
  5
16BA
330
18
100
AcDbEntity
  8
1
  6
Continuous
 62
     1
100
AcDbCircle
 10
-37.30000000000001
 20
-62.59899999999999
 30
0.0
 40
5.0
100
AcDbArc
 50
0.0
 51
45.0
  0
LINE
  5
16BB
330
18
100
AcDbEntity
  8
10
  6
Continuous
 62
     1
100
AcDbLine
 10
-32.30000000000001
 20
-72.39999999999998
 30
0.0
 11
-32.30000000000001
 21
-62.59899999999999
 31
0.0
  0
ARC
  5
16BC
330
18
100
AcDbEntity
  8
10
  6
Continuous
 62
     1
100
AcDbCircle
 10
-22.5
 20
-67.5
 30
0.0
 40
7.0
100
AcDbArc
 50
153.3619999999999
 51
206.6519999999993
  0
ARC
  5
16BD
330
18
100
AcDbEntity
  8
10
  6
Continuous
 62
     1
100
AcDbCircle
 10
-29.024
 20
-64.22499999999996
 30
0.0
 40
0.3
100
AcDbArc
 50
333.3480000000007
 51
46.83989999999971
  0
ARC
  5
16BE
330
18
100
AcDbEntity
  8
10
  6
Continuous
 62
     1
100
AcDbCircle
 10
-29.024
 20
-70.77499999999997
 30
0.0
 40
0.3
100
AcDbArc
 50
313.1599999999999
 51
26.65189999999941
  0
LINE
  5
16BF
330
18
100
AcDbEntity
  8
10
  6
Continuous
 62
     1
100
AcDbLine
 10
-18.40000000000003
 20
-86.19999999999999
 30
0.0
 11
-18.40000000000003
 21
-89.99999999999998
 31
0.0
  0
ARC
  5
16C0
330
18
100
AcDbEntity
  8
10
  6
Continuous
 62
     1
100
AcDbCircle
 10
-22.5
 20
-67.5
 30
0.0
 40
7.0
100
AcDbArc
 50
63.36199999999994
 51
116.652
  0
ARC
  5
16C1
330
18
100
AcDbEntity
  8
10
  6
Continuous
 62
     1
100
AcDbCircle
 10
-22.5
 20
-67.5
 30
0.0
 40
7.0
100
AcDbArc
 50
243.348
 51
296.638
  0
ARC
  5
16C2
330
18
100
AcDbEntity
  8
10
  6
Continuous
 62
     1
100
AcDbCircle
 10
-25.77300000000003
 20
-60.97499999999996
 30
0.0
 40
0.3
100
AcDbArc
 50
223.1459999999993
 51
296.638
  0
ARC
  5
16C3
330
18
100
AcDbEntity
  8
10
  6
Continuous
 62
     1
100
AcDbCircle
 10
-25.77300000000003
 20
-74.02499999999998
 30
0.0
 40
0.3
100
AcDbArc
 50
63.36199999999994
 51
136.8540000000007
  0
ARC
  5
16C4
330
18
100
AcDbEntity
  8
10
  6
Continuous
 62
     1
100
AcDbCircle
 10
-19.22700000000003
 20
-60.97499999999996
 30
0.0
 40
0.3
100
AcDbArc
 50
243.3619999999999
 51
316.8540000000007
  0
ARC
  5
16C5
330
18
100
AcDbEntity
  8
10
  6
Continuous
 62
     1
100
AcDbCircle
 10
-19.22700000000003
 20
-74.02499999999998
 30
0.0
 40
0.3
100
AcDbArc
 50
43.1463000000006
 51
116.638
  0
ARC
  5
16C6
330
18
100
AcDbEntity
  8
1
  6
Continuous
 62
     1
100
AcDbCircle
 10
-25.30000000000001
 20
-26.29999999999995
 30
0.0
 40
2.0
100
AcDbArc
 50
180.0
 51
270.0
  0
ARC
  5
16C7
330
18
100
AcDbEntity
  8
1
  6
Continuous
 62
     1
100
AcDbCircle
 10
-37.30000000000001
 20
-27.39999999999998
 30
0.0
 40
10.0
100
AcDbArc
 50
315.0
 51
327.772000000001
  0
LINE
  5
16C8
330
18
100
AcDbEntity
  8
1
  6
Continuous
 62
     1
100
AcDbLine
 10
-30.22900000000004
 20
-34.47100000000001
 30
0.0
 11
-32.20699999999999
 21
-36.44999999999999
 31
0.0
  0
LINE
  5
16C9
330
18
100
AcDbEntity
  8
1
  6
Continuous
 62
     1
100
AcDbLine
 10
-29.93600000000004
 20
-55.82099999999996
 30
0.0
 11
-32.20699999999999
 21
-53.54999999999995
 31
0.0
  0
ARC
  5
16CA
330
18
100
AcDbEntity
  8
1
  6
Continuous
 62
     1
100
AcDbCircle
 10
-27.815
 20
-53.69999999999999
 30
0.0
 40
3.0
100
AcDbArc
 50
225.0
 51
270.0
  0
ARC
  5
16CB
330
18
100
AcDbEntity
  8
1
  6
Continuous
 62
     1
100
AcDbCircle
 10
-37.30000000000001
 20
-27.39999999999998
 30
0.0
 40
5.0
100
AcDbArc
 50
315.0
 51
0.0
  0
LINE
  5
16CC
330
18
100
AcDbEntity
  8
10
  6
Continuous
 62
     1
100
AcDbLine
 10
-32.30000000000001
 20
-27.39999999999998
 30
0.0
 11
-32.30000000000001
 21
-17.59899999999999
 31
0.0
  0
ARC
  5
16CD
330
18
100
AcDbEntity
  8
1
  6
Continuous
 62
     1
100
AcDbCircle
 10
-37.30000000000001
 20
-17.59899999999999
 30
0.0
 40
5.0
100
AcDbArc
 50
0.0
 51
45.0
  0
ARC
  5
16CE
330
18
100
AcDbEntity
  8
1
  6
Continuous
 62
     1
100
AcDbCircle
 10
-27.149
 20
-33.79999999999995
 30
0.0
 40
2.0
100
AcDbArc
 50
90.0
 51
147.772000000001
  0
LINE
  5
16CF
330
18
100
AcDbEntity
  8
1
  6
Continuous
 62
     1
100
AcDbLine
 10
-27.30000000000001
 20
-26.29999999999995
 30
0.0
 11
-27.30000000000001
 21
-17.59899999999999
 31
0.0
  0
ARC
  5
16D1
330
18
100
AcDbEntity
  8
1
  6
Continuous
 62
     1
100
AcDbCircle
 10
-37.15700000000004
 20
31.5
 30
0.0
 40
7.0
100
AcDbArc
 50
45.0
 51
90.0
  0
ARC
  5
16D2
330
18
100
AcDbEntity
  8
1
  6
Continuous
 62
     1
100
AcDbCircle
 10
-37.15700000000004
 20
58.5
 30
0.0
 40
7.0
100
AcDbArc
 50
270.0
 51
315.0
  0
LINE
  5
16D3
330
18
100
AcDbEntity
  8
1
  6
Continuous
 62
     1
100
AcDbLine
 10
-33.76400000000001
 20
30.93600000000004
 30
0.0
 11
-35.743
 21
32.91399999999999
 31
0.0
  0
LINE
  5
16D4
330
18
100
AcDbEntity
  8
1
  6
Continuous
 62
     1
100
AcDbLine
 10
-33.76400000000001
 20
14.06400000000002
 30
0.0
 11
-35.743
 21
12.08600000000007
 31
0.0
  0
LINE
  5
16D5
330
18
100
AcDbEntity
  8
1
  6
Continuous
 62
     1
100
AcDbLine
 10
-33.76400000000001
 20
59.06400000000002
 30
0.0
 11
-35.743
 21
57.08600000000007
 31
0.0
  0
LINE
  5
16D6
330
18
100
AcDbEntity
  8
1
  6
Continuous
 62
     1
100
AcDbLine
 10
-33.76400000000001
 20
75.93600000000003
 30
0.0
 11
-35.743
 21
77.91399999999999
 31
0.0
  0
LINE
  5
16D7
330
18
100
AcDbEntity
  8
10
  6
CENTER
 62
     2
100
AcDbLine
 10
-32.30000000000001
 20
22.5
 30
0.0
 11
-45.0
 21
22.5
 31
0.0
  0
LINE
  5
16D8
330
18
100
AcDbEntity
  8
10
  6
Continuous
 62
     1
100
AcDbLine
 10
-44.85000000000002
 20
34.5
 30
0.0
 11
-44.85000000000002
 21
37.0
 31
0.0
  0
ARC
  5
16D9
330
18
100
AcDbEntity
  8
10
  6
Continuous
 62
     1
100
AcDbCircle
 10
-41.93999999999999
 20
-7.938999999999964
 30
0.0
 40
1.199999999999999
100
AcDbArc
 50
134.4990000000005
 51
315.5010000000007
  0
ARC
  5
16DA
330
18
100
AcDbEntity
  8
10
  6
Continuous
 62
     1
100
AcDbCircle
 10
-42.99100000000004
 20
-6.869999999999947
 30
0.0
 40
0.3
100
AcDbArc
 50
314.4990000000005
 51
21.42280000000004
  0
ARC
  5
16DB
330
18
100
AcDbEntity
  8
10
  6
Continuous
 62
     1
100
AcDbCircle
 10
-39.5
 20
-5.5
 30
0.0
 40
3.45
100
AcDbArc
 50
120.4200000000004
 51
201.4229999999995
  0
ARC
  5
16DC
330
18
100
AcDbEntity
  8
10
  6
Continuous
 62
     1
100
AcDbCircle
 10
-41.93999999999999
 20
7.939999999999997
 30
0.0
 40
1.199999999999999
100
AcDbArc
 50
44.49870000000014
 51
225.5009999999995
  0
ARC
  5
16DD
330
18
100
AcDbEntity
  8
10
  6
Continuous
 62
     1
100
AcDbCircle
 10
-42.99100000000004
 20
6.870000000000004
 30
0.0
 40
0.3
100
AcDbArc
 50
338.5770000000004
 51
45.50129999999869
  0
ARC
  5
16DE
330
18
100
AcDbEntity
  8
10
  6
Continuous
 62
     1
100
AcDbCircle
 10
-39.5
 20
5.5
 30
0.0
 40
3.45
100
AcDbArc
 50
158.5770000000004
 51
239.5799999999996
  0
LINE
  5
16DF
330
18
100
AcDbEntity
  8
10
  6
Continuous
 62
     1
100
AcDbLine
 10
-41.20000000000004
 20
26.59999999999997
 30
0.0
 11
-45.0
 21
26.59999999999997
 31
0.0
  0
LINE
  5
16E0
330
18
100
AcDbEntity
  8
10
  6
Continuous
 62
     1
100
AcDbLine
 10
-41.20000000000004
 20
18.39999999999998
 30
0.0
 11
-45.0
 21
18.39999999999998
 31
0.0
  0
LINE
  5
16E1
330
18
100
AcDbEntity
  8
10
  6
Continuous
 62
     1
100
AcDbLine
 10
-45.0
 20
10.5
 30
0.0
 11
-45.0
 21
18.39999999999998
 31
0.0
  0
LINE
  5
16E2
330
18
100
AcDbEntity
  8
10
  6
Continuous
 62
     1
100
AcDbLine
 10
-44.85000000000002
 20
-8.0
 30
0.0
 11
-45.0
 21
-8.0
 31
0.0
  0
LINE
  5
16E3
330
18
100
AcDbEntity
  8
10
  6
Continuous
 62
     1
100
AcDbLine
 10
-44.85000000000002
 20
10.5
 30
0.0
 11
-44.85000000000002
 21
8.0
 31
0.0
  0
LINE
  5
16E4
330
18
100
AcDbEntity
  8
10
  6
Continuous
 62
     1
100
AcDbLine
 10
-44.85000000000002
 20
10.5
 30
0.0
 11
-45.0
 21
10.5
 31
0.0
  0
LINE
  5
16E5
330
18
100
AcDbEntity
  8
10
  6
Continuous
 62
     1
100
AcDbLine
 10
-44.85000000000002
 20
8.0
 30
0.0
 11
-45.0
 21
8.0
 31
0.0
  0
LINE
  5
16E6
330
18
100
AcDbEntity
  8
10
  6
Continuous
 62
     1
100
AcDbLine
 10
-45.0
 20
8.0
 30
0.0
 11
-45.0
 21
-8.0
 31
0.0
  0
LINE
  5
16E7
330
18
100
AcDbEntity
  8
10
  6
Continuous
 62
     1
100
AcDbLine
 10
-45.0
 20
34.5
 30
0.0
 11
-45.0
 21
26.59999999999997
 31
0.0
  0
LINE
  5
16E8
330
18
100
AcDbEntity
  8
10
  6
Continuous
 62
     1
100
AcDbLine
 10
-44.85000000000002
 20
34.5
 30
0.0
 11
-45.0
 21
34.5
 31
0.0
  0
LINE
  5
16E9
330
18
100
AcDbEntity
  8
10
  6
Continuous
 62
     1
100
AcDbLine
 10
-41.20000000000004
 20
12.5
 30
0.0
 11
-41.20000000000004
 21
18.39999999999998
 31
0.0
  0
ARC
  5
16EA
330
18
100
AcDbEntity
  8
10
  6
Continuous
 62
     1
100
AcDbCircle
 10
-39.5
 20
-5.5
 30
0.0
 40
3.45
100
AcDbArc
 50
248.5769999999989
 51
291.4230000000011
  0
ARC
  5
16EB
330
18
100
AcDbEntity
  8
10
  6
Continuous
 62
     1
100
AcDbCircle
 10
-39.5
 20
5.5
 30
0.0
 40
3.45
100
AcDbArc
 50
68.57719999999996
 51
111.423000000001
  0
LINE
  5
16EC
330
18
100
AcDbEntity
  8
10
  6
Continuous
 62
     1
100
AcDbLine
 10
-40.20000000000004
 20
11.5
 30
0.0
 11
-37.15700000000004
 21
11.5
 31
0.0
  0
ARC
  5
16ED
330
18
100
AcDbEntity
  8
10
  6
Continuous
 62
     1
100
AcDbCircle
 10
-40.87
 20
-8.990999999999985
 30
0.0
 40
0.3
100
AcDbArc
 50
68.57719999999996
 51
135.5010000000007
  0
ARC
  5
16EE
330
18
100
AcDbEntity
  8
1
  6
Continuous
 62
     1
100
AcDbCircle
 10
-41.5
 20
-2.093999999999937
 30
0.0
 40
0.5
100
AcDbArc
 50
300.4200000000004
 51
0.0
  0
LINE
  5
16EF
330
18
100
AcDbEntity
  8
10
  6
Continuous
 62
     2
100
AcDbLine
 10
-39.5
 20
-5.5
 30
0.0
 11
-39.5
 21
-4.072999999999979
 31
0.0
  0
LINE
  5
16F0
330
18
100
AcDbEntity
  8
10
  6
Continuous
 62
     2
100
AcDbLine
 10
-39.5
 20
-5.5
 30
0.0
 11
-40.94499999999999
 21
-5.5
 31
0.0
  0
ARC
  5
16F1
330
18
100
AcDbEntity
  8
10
  6
Continuous
 62
     1
100
AcDbCircle
 10
-40.87
 20
8.991000000000042
 30
0.0
 40
0.3
100
AcDbArc
 50
224.4989999999993
 51
291.4230000000011
  0
ARC
  5
16F2
330
18
100
AcDbEntity
  8
10
  6
Continuous
 62
     1
100
AcDbCircle
 10
-40.20000000000004
 20
12.5
 30
0.0
 40
1.0
100
AcDbArc
 50
180.0
 51
270.0
  0
ARC
  5
16F3
330
18
100
AcDbEntity
  8
1
  6
Continuous
 62
     1
100
AcDbCircle
 10
-41.5
 20
2.093999999999994
 30
0.0
 40
0.5
100
AcDbArc
 50
0.0000000052224199
 51
59.58040000000121
  0
LINE
  5
16F4
330
18
100
AcDbEntity
  8
1
  6
Continuous
 62
     1
100
AcDbLine
 10
-41.0
 20
2.093999999999994
 30
0.0
 11
-41.0
 21
-2.093999999999937
 31
0.0
  0
LINE
  5
16F5
330
18
100
AcDbEntity
  8
10
  6
Continuous
 62
     2
100
AcDbLine
 10
-39.5
 20
5.5
 30
0.0
 11
-39.5
 21
4.074000000000012
 31
0.0
  0
LINE
  5
16F6
330
18
100
AcDbEntity
  8
10
  6
Continuous
 62
     2
100
AcDbLine
 10
-39.5
 20
5.5
 30
0.0
 11
-40.94499999999999
 21
5.5
 31
0.0
  0
ARC
  5
16F7
330
18
100
AcDbEntity
  8
10
  6
Continuous
 62
     1
100
AcDbCircle
 10
-39.5
 20
-5.5
 30
0.0
 40
3.45
100
AcDbArc
 50
338.5770000000004
 51
59.58040000000121
  0
ARC
  5
16F8
330
18
100
AcDbEntity
  8
10
  6
Continuous
 62
     1
100
AcDbCircle
 10
-36.00900000000001
 20
-6.869999999999947
 30
0.0
 40
0.3
100
AcDbArc
 50
158.5770000000004
 51
225.5009999999995
  0
ARC
  5
16F9
330
18
100
AcDbEntity
  8
10
  6
Continuous
 62
     1
100
AcDbCircle
 10
-37.06
 20
-7.938999999999964
 30
0.0
 40
1.199999999999999
100
AcDbArc
 50
224.4989999999993
 51
45.50129999999869
  0
ARC
  5
16FA
330
18
100
AcDbEntity
  8
10
  6
Continuous
 62
     1
100
AcDbCircle
 10
-38.13
 20
-8.990999999999985
 30
0.0
 40
0.3
100
AcDbArc
 50
44.49870000000014
 51
111.423000000001
  0
ARC
  5
16FB
330
18
100
AcDbEntity
  8
1
  6
Continuous
 62
     1
100
AcDbCircle
 10
-37.5
 20
-2.093999999999937
 30
0.0
 40
0.5
100
AcDbArc
 50
180.0
 51
239.5799999999996
  0
ARC
  5
16FC
330
18
100
AcDbEntity
  8
10
  6
Continuous
 62
     1
100
AcDbCircle
 10
-39.5
 20
5.5
 30
0.0
 40
3.45
100
AcDbArc
 50
300.4200000000004
 51
21.42280000000004
  0
ARC
  5
16FD
330
18
100
AcDbEntity
  8
10
  6
Continuous
 62
     1
100
AcDbCircle
 10
-36.00900000000001
 20
6.870000000000004
 30
0.0
 40
0.3
100
AcDbArc
 50
134.4990000000005
 51
201.4229999999995
  0
ARC
  5
16FE
330
18
100
AcDbEntity
  8
10
  6
Continuous
 62
     1
100
AcDbCircle
 10
-37.06
 20
7.939999999999997
 30
0.0
 40
1.199999999999999
100
AcDbArc
 50
314.4990000000005
 51
135.5010000000007
  0
ARC
  5
16FF
330
18
100
AcDbEntity
  8
10
  6
Continuous
 62
     1
100
AcDbCircle
 10
-38.13
 20
8.991000000000042
 30
0.0
 40
0.3
100
AcDbArc
 50
248.5769999999989
 51
315.5010000000007
  0
ARC
  5
1700
330
18
100
AcDbEntity
  8
1
  6
Continuous
 62
     1
100
AcDbCircle
 10
-37.15700000000004
 20
13.5
 30
0.0
 40
2.0
100
AcDbArc
 50
270.0
 51
315.0
  0
ARC
  5
1701
330
18
100
AcDbEntity
  8
1
  6
Continuous
 62
     1
100
AcDbCircle
 10
-37.5
 20
2.093999999999994
 30
0.0
 40
0.5
100
AcDbArc
 50
120.4200000000004
 51
180.0
  0
LINE
  5
1702
330
18
100
AcDbEntity
  8
1
  6
Continuous
 62
     1
100
AcDbLine
 10
-38.0
 20
2.093999999999994
 30
0.0
 11
-38.0
 21
-2.093999999999937
 31
0.0
  0
LINE
  5
1703
330
18
100
AcDbEntity
  8
10
  6
Continuous
 62
     1
100
AcDbLine
 10
-40.20000000000004
 20
33.5
 30
0.0
 11
-37.15700000000004
 21
33.5
 31
0.0
  0
ARC
  5
1704
330
18
100
AcDbEntity
  8
10
  6
Continuous
 62
     1
100
AcDbCircle
 10
-40.20000000000004
 20
32.5
 30
0.0
 40
1.0
100
AcDbArc
 50
90.0
 51
180.0
  0
LINE
  5
1705
330
18
100
AcDbEntity
  8
10
  6
Continuous
 62
     1
100
AcDbLine
 10
-41.20000000000004
 20
32.5
 30
0.0
 11
-41.20000000000004
 21
26.59999999999997
 31
0.0
  0
ARC
  5
1706
330
18
100
AcDbEntity
  8
1
  6
Continuous
 62
     1
100
AcDbCircle
 10
-37.15700000000004
 20
31.5
 30
0.0
 40
2.0
100
AcDbArc
 50
45.0
 51
90.0
  0
LINE
  5
1708
330
18
100
AcDbEntity
  8
10
  6
Continuous
 62
     1
100
AcDbLine
 10
-41.20000000000004
 20
63.39999999999998
 30
0.0
 11
-45.0
 21
63.39999999999998
 31
0.0
  0
ARC
  5
1709
330
18
100
AcDbEntity
  8
10
  6
Continuous
 62
     1
100
AcDbCircle
 10
-42.99100000000004
 20
83.13
 30
0.0
 40
0.3
100
AcDbArc
 50
314.4990000000005
 51
21.42280000000004
  0
ARC
  5
170A
330
18
100
AcDbEntity
  8
10
  6
Continuous
 62
     1
100
AcDbCircle
 10
-41.93999999999999
 20
82.06000000000001
 30
0.0
 40
1.199999999999999
100
AcDbArc
 50
134.4990000000005
 51
315.5010000000007
  0
LINE
  5
170B
330
18
100
AcDbEntity
  8
10
  6
Continuous
 62
     1
100
AcDbLine
 10
-41.20000000000004
 20
71.59999999999996
 30
0.0
 11
-45.0
 21
71.59999999999996
 31
0.0
  0
LINE
  5
170C
330
18
100
AcDbEntity
  8
10
  6
Continuous
 62
     1
100
AcDbLine
 10
-45.0
 20
55.5
 30
0.0
 11
-45.0
 21
63.39999999999998
 31
0.0
  0
LINE
  5
1716
330
18
100
AcDbEntity
  8
10
  6
Continuous
 62
     1
100
AcDbLine
 10
-44.85000000000002
 20
55.5
 30
0.0
 11
-44.85000000000002
 21
53.0
 31
0.0
  0
LINE
  5
1717
330
18
100
AcDbEntity
  8
10
  6
Continuous
 62
     1
100
AcDbLine
 10
-44.85000000000002
 20
55.5
 30
0.0
 11
-45.0
 21
55.5
 31
0.0
  0
LINE
  5
1718
330
18
100
AcDbEntity
  8
10
  6
Continuous
 62
     1
100
AcDbLine
 10
-44.85000000000002
 20
53.0
 30
0.0
 11
-45.0
 21
53.0
 31
0.0
  0
LINE
  5
1719
330
18
100
AcDbEntity
  8
10
  6
Continuous
 62
     1
100
AcDbLine
 10
-44.85000000000002
 20
37.0
 30
0.0
 11
-45.0
 21
37.0
 31
0.0
  0
LINE
  5
171A
330
18
100
AcDbEntity
  8
10
  6
Continuous
 62
     1
100
AcDbLine
 10
-45.0
 20
53.0
 30
0.0
 11
-45.0
 21
37.0
 31
0.0
  0
LINE
  5
171B
330
18
100
AcDbEntity
  8
1
  6
Continuous
 62
     1
100
AcDbLine
 10
-44.85000000000002
 20
79.5
 30
0.0
 11
-45.0
 21
79.5
 31
0.0
  0
LINE
  5
171C
330
18
100
AcDbEntity
  8
10
  6
Continuous
 62
     1
100
AcDbLine
 10
-45.0
 20
79.5
 30
0.0
 11
-45.0
 21
71.59999999999996
 31
0.0
  0
LINE
  5
171D
330
18
100
AcDbEntity
  8
10
  6
Continuous
 62
     1
100
AcDbLine
 10
-44.85000000000002
 20
79.5
 30
0.0
 11
-44.85000000000002
 21
82.0
 31
0.0
  0
LINE
  5
171E
330
18
100
AcDbEntity
  8
10
  6
Continuous
 62
     1
100
AcDbLine
 10
-44.85000000000002
 20
82.0
 30
0.0
 11
-45.0
 21
82.0
 31
0.0
  0
LINE
  5
1720
330
18
100
AcDbEntity
  8
10
  6
Continuous
 62
     1
100
AcDbLine
 10
-41.20000000000004
 20
57.5
 30
0.0
 11
-41.20000000000004
 21
63.39999999999998
 31
0.0
  0
ARC
  5
1731
330
18
100
AcDbEntity
  8
1
  6
Continuous
 62
     1
100
AcDbCircle
 10
-38.0
 20
40.49999999999999
 30
0.0
 40
2.0
100
AcDbArc
 50
180.0
 51
270.0
  0
ARC
  5
1732
330
18
100
AcDbEntity
  8
1
  6
Continuous
 62
     1
100
AcDbCircle
 10
-38.0
 20
49.5
 30
0.0
 40
2.0
100
AcDbArc
 50
90.0
 51
180.0
  0
LINE
  5
1733
330
18
100
AcDbEntity
  8
10
  6
Continuous
 62
     1
100
AcDbLine
 10
-40.20000000000004
 20
56.5
 30
0.0
 11
-37.15700000000004
 21
56.5
 31
0.0
  0
LINE
  5
1734
330
18
100
AcDbEntity
  8
1
  6
Continuous
 62
     1
100
AcDbLine
 10
-40.0
 20
49.5
 30
0.0
 11
-40.0
 21
40.49999999999999
 31
0.0
  0
ARC
  5
1735
330
18
100
AcDbEntity
  8
10
  6
Continuous
 62
     1
100
AcDbCircle
 10
-40.20000000000004
 20
57.5
 30
0.0
 40
1.0
100
AcDbArc
 50
180.0
 51
270.0
  0
LINE
  5
1736
330
18
100
AcDbEntity
  8
1
  6
Continuous
 62
     1
100
AcDbLine
 10
-38.0
 20
38.5
 30
0.0
 11
-37.15700000000004
 21
38.5
 31
0.0
  0
LINE
  5
1737
330
18
100
AcDbEntity
  8
1
  6
Continuous
 62
     1
100
AcDbLine
 10
-38.0
 20
51.5
 30
0.0
 11
-37.15700000000004
 21
51.5
 31
0.0
  0
ARC
  5
1738
330
18
100
AcDbEntity
  8
1
  6
Continuous
 62
     1
100
AcDbCircle
 10
-37.15700000000004
 20
58.5
 30
0.0
 40
2.0
100
AcDbArc
 50
270.0
 51
315.0
  0
ARC
  5
1741
330
18
100
AcDbEntity
  8
10
  6
Continuous
 62
     1
100
AcDbCircle
 10
-39.5
 20
84.50000000000001
 30
0.0
 40
3.45
100
AcDbArc
 50
248.5769999999989
 51
291.4230000000011
  0
LINE
  5
1742
330
18
100
AcDbEntity
  8
10
  6
Continuous
 62
     1
100
AcDbLine
 10
-40.20000000000004
 20
78.5
 30
0.0
 11
-37.15700000000004
 21
78.5
 31
0.0
  0
ARC
  5
1744
330
18
100
AcDbEntity
  8
10
  6
Continuous
 62
     1
100
AcDbCircle
 10
-40.87
 20
81.00900000000001
 30
0.0
 40
0.3
100
AcDbArc
 50
68.57719999999996
 51
135.5010000000007
  0
LINE
  5
1745
330
18
100
AcDbEntity
  8
10
  6
Continuous
 62
     1
100
AcDbLine
 10
-41.20000000000004
 20
77.5
 30
0.0
 11
-41.20000000000004
 21
71.59999999999996
 31
0.0
  0
ARC
  5
1746
330
18
100
AcDbEntity
  8
10
  6
Continuous
 62
     1
100
AcDbCircle
 10
-40.20000000000004
 20
77.5
 30
0.0
 40
1.0
100
AcDbArc
 50
90.0
 51
180.0
  0
ARC
  5
1747
330
18
100
AcDbEntity
  8
10
  6
Continuous
 62
     1
100
AcDbCircle
 10
-36.00900000000001
 20
83.13
 30
0.0
 40
0.3
100
AcDbArc
 50
158.5770000000004
 51
225.5009999999995
  0
ARC
  5
1748
330
18
100
AcDbEntity
  8
10
  6
Continuous
 62
     1
100
AcDbCircle
 10
-38.13
 20
81.00900000000001
 30
0.0
 40
0.3
100
AcDbArc
 50
44.49870000000014
 51
111.423000000001
  0
ARC
  5
1749
330
18
100
AcDbEntity
  8
10
  6
Continuous
 62
     1
100
AcDbCircle
 10
-37.06
 20
82.06000000000001
 30
0.0
 40
1.199999999999999
100
AcDbArc
 50
224.4989999999993
 51
45.50129999999869
  0
ARC
  5
174A
330
18
100
AcDbEntity
  8
1
  6
Continuous
 62
     1
100
AcDbCircle
 10
-37.15700000000004
 20
76.5
 30
0.0
 40
2.0
100
AcDbArc
 50
45.0
 51
90.0
  0
ARC
  5
1753
330
18
100
AcDbEntity
  8
1
  6
Continuous
 62
     1
100
AcDbCircle
 10
-25.30000000000001
 20
26.30000000000001
 30
0.0
 40
2.0
100
AcDbArc
 50
90.0
 51
180.0
  0
ARC
  5
1754
330
18
100
AcDbEntity
  8
1
  6
Continuous
 62
     1
100
AcDbCircle
 10
-37.30000000000001
 20
17.59999999999996
 30
0.0
 40
10.0
100
AcDbArc
 50
315.0
 51
0.000000004841364
  0
LINE
  5
1755
330
18
100
AcDbEntity
  8
1
  6
Continuous
 62
     1
100
AcDbLine
 10
-30.22900000000004
 20
10.52899999999999
 30
0.0
 11
-32.12100000000004
 21
8.636000000000024
 31
0.0
  0
ARC
  5
1756
330
18
100
AcDbEntity
  8
1
  6
Continuous
 62
     1
100
AcDbCircle
 10
-30.0
 20
-6.514999999999986
 30
0.0
 40
3.0
100
AcDbArc
 50
180.0
 51
225.0
  0
ARC
  5
1757
330
18
100
AcDbEntity
  8
1
  6
Continuous
 62
     1
100
AcDbCircle
 10
-30.0
 20
6.514999999999986
 30
0.0
 40
3.0
100
AcDbArc
 50
135.0
 51
180.0
  0
LINE
  5
1758
330
18
100
AcDbEntity
  8
10
  6
Continuous
 62
     1
100
AcDbLine
 10
-33.0
 20
6.514999999999986
 30
0.0
 11
-33.0
 21
-6.514999999999986
 31
0.0
  0
LINE
  5
1759
330
18
100
AcDbEntity
  8
1
  6
Continuous
 62
     1
100
AcDbLine
 10
-30.22900000000004
 20
34.47200000000004
 30
0.0
 11
-32.20699999999999
 21
36.44999999999999
 31
0.0
  0
ARC
  5
175A
330
18
100
AcDbEntity
  8
1
  6
Continuous
 62
     1
100
AcDbCircle
 10
-37.30000000000001
 20
27.40100000000007
 30
0.0
 40
5.0
100
AcDbArc
 50
0.000000004841364
 51
45.0
  0
LINE
  5
175B
330
18
100
AcDbEntity
  8
10
  6
Continuous
 62
     1
100
AcDbLine
 10
-32.30000000000001
 20
27.40100000000007
 30
0.0
 11
-32.30000000000001
 21
17.59999999999996
 31
0.0
  0
ARC
  5
175C
330
18
100
AcDbEntity
  8
1
  6
Continuous
 62
     1
100
AcDbCircle
 10
-37.30000000000001
 20
17.59999999999996
 30
0.0
 40
5.0
100
AcDbArc
 50
315.0
 51
0.000000004841364
  0
LINE
  5
175D
330
18
100
AcDbEntity
  8
1
  6
Continuous
 62
     1
100
AcDbLine
 10
-27.30000000000001
 20
26.30000000000001
 30
0.0
 11
-27.30000000000001
 21
17.59999999999996
 31
0.0
  0
ARC
  5
175E
330
18
100
AcDbEntity
  8
1
  6
Continuous
 62
     1
100
AcDbCircle
 10
-37.30000000000001
 20
27.40100000000007
 30
0.0
 40
10.0
100
AcDbArc
 50
32.22809999999949
 51
45.0
  0
ARC
  5
175F
330
18
100
AcDbEntity
  8
1
  6
Continuous
 62
     1
100
AcDbCircle
 10
-27.149
 20
33.80000000000001
 30
0.0
 40
2.0
100
AcDbArc
 50
212.227999999999
 51
270.0
  0
ARC
  5
1760
330
18
100
AcDbEntity
  8
10
  6
Continuous
 62
     1
100
AcDbCircle
 10
-27.45100000000002
 20
62.548
 30
0.0
 40
2.0
100
AcDbArc
 50
133.1599999999998
 51
316.8540000000007
  0
ARC
  5
1761
330
18
100
AcDbEntity
  8
10
  6
Continuous
 62
     1
100
AcDbCircle
 10
-27.45100000000002
 20
72.45200000000005
 30
0.0
 40
2.0
100
AcDbArc
 50
43.1463000000006
 51
226.8400000000001
  0
ARC
  5
1762
330
18
100
AcDbEntity
  8
1
  6
Continuous
 62
     1
100
AcDbCircle
 10
-37.30000000000001
 20
62.59899999999999
 30
0.0
 40
5.0
100
AcDbArc
 50
315.0
 51
0.000000004841364
  0
LINE
  5
1764
330
18
100
AcDbEntity
  8
1
  6
Continuous
 62
     1
100
AcDbLine
 10
-29.93600000000004
 20
55.82100000000003
 30
0.0
 11
-32.20699999999999
 21
53.55000000000001
 31
0.0
  0
ARC
  5
1765
330
18
100
AcDbEntity
  8
1
  6
Continuous
 62
     1
100
AcDbCircle
 10
-27.815
 20
53.69999999999999
 30
0.0
 40
3.0
100
AcDbArc
 50
90.0
 51
135.0
  0
ARC
  5
1766
330
18
100
AcDbEntity
  8
1
  6
Continuous
 62
     1
100
AcDbCircle
 10
-27.40000000000004
 20
82.30000000000002
 30
0.0
 40
5.0
100
AcDbArc
 50
225.0
 51
270.0
  0
LINE
  5
1767
330
18
100
AcDbEntity
  8
1
  6
Continuous
 62
     1
100
AcDbLine
 10
-30.93600000000004
 20
78.76400000000001
 30
0.0
 11
-32.91399999999999
 21
80.74299999999999
 31
0.0
  0
ARC
  5
1768
330
18
100
AcDbEntity
  8
1
  6
Continuous
 62
     1
100
AcDbCircle
 10
-37.30000000000001
 20
72.39999999999998
 30
0.0
 40
5.0
100
AcDbArc
 50
0.000000004841364
 51
45.0
  0
LINE
  5
1769
330
18
100
AcDbEntity
  8
10
  6
Continuous
 62
     1
100
AcDbLine
 10
-32.30000000000001
 20
72.39999999999998
 30
0.0
 11
-32.30000000000001
 21
62.59899999999999
 31
0.0
  0
ARC
  5
176A
330
18
100
AcDbEntity
  8
1
  6
Continuous
 62
     1
100
AcDbCircle
 10
-31.5
 20
82.15700000000003
 30
0.0
 40
2.0
100
AcDbArc
 50
180.0
 51
225.0
  0
ARC
  5
176B
330
18
100
AcDbEntity
  8
10
  6
Continuous
 62
     1
100
AcDbCircle
 10
-22.5
 20
67.5
 30
0.0
 40
7.0
100
AcDbArc
 50
153.3480000000007
 51
206.638
  0
ARC
  5
176C
330
18
100
AcDbEntity
  8
10
  6
Continuous
 62
     1
100
AcDbCircle
 10
-29.024
 20
64.22499999999996
 30
0.0
 40
0.3
100
AcDbArc
 50
313.1599999999999
 51
26.65189999999941
  0
ARC
  5
176D
330
18
100
AcDbEntity
  8
10
  6
Continuous
 62
     1
100
AcDbCircle
 10
-29.024
 20
70.77499999999997
 30
0.0
 40
0.3
100
AcDbArc
 50
333.3480000000007
 51
46.83989999999971
  0
ARC
  5
176E
330
18
100
AcDbEntity
  8
10
  6
Continuous
 62
     1
100
AcDbCircle
 10
-22.5
 20
67.5
 30
0.0
 40
7.0
100
AcDbArc
 50
243.348
 51
296.638
  0
ARC
  5
176F
330
18
100
AcDbEntity
  8
10
  6
Continuous
 62
     1
100
AcDbCircle
 10
-22.5
 20
67.5
 30
0.0
 40
7.0
100
AcDbArc
 50
63.36199999999994
 51
116.652
  0
ARC
  5
1770
330
18
100
AcDbEntity
  8
10
  6
Continuous
 62
     1
100
AcDbCircle
 10
-25.77300000000003
 20
60.97499999999996
 30
0.0
 40
0.3
100
AcDbArc
 50
63.36199999999994
 51
136.8540000000007
  0
ARC
  5
1771
330
18
100
AcDbEntity
  8
10
  6
Continuous
 62
     1
100
AcDbCircle
 10
-25.77300000000003
 20
74.02499999999998
 30
0.0
 40
0.3
100
AcDbArc
 50
223.1459999999993
 51
296.638
  0
ARC
  5
1772
330
18
100
AcDbEntity
  8
10
  6
Continuous
 62
     1
100
AcDbCircle
 10
-19.22700000000003
 20
60.97499999999996
 30
0.0
 40
0.3
100
AcDbArc
 50
43.1463000000006
 51
116.638
  0
ARC
  5
1773
330
18
100
AcDbEntity
  8
10
  6
Continuous
 62
     1
100
AcDbCircle
 10
-19.22700000000003
 20
74.02499999999998
 30
0.0
 40
0.3
100
AcDbArc
 50
243.3619999999999
 51
316.8540000000007
  0
LINE
  5
1776
330
18
100
AcDbEntity
  8
1
  6
Continuous
 62
     1
100
AcDbLine
 10
-12.5
 20
-31.29999999999995
 30
0.0
 11
12.5
 21
-31.29999999999995
 31
0.0
  0
LINE
  5
1777
330
18
100
AcDbEntity
  8
1
  6
Continuous
 62
     1
100
AcDbLine
 10
4.5
 20
-84.99999999999998
 30
0.0
 11
-4.5
 21
-84.99999999999998
 31
0.0
  0
LINE
  5
1778
330
18
100
AcDbEntity
  8
1
  6
Continuous
 62
     1
100
AcDbLine
 10
-12.5
 20
-28.79999999999995
 30
0.0
 11
12.5
 21
-28.79999999999995
 31
0.0
  0
LINE
  5
1779
330
18
100
AcDbEntity
  8
10
  6
Continuous
 62
     1
100
AcDbLine
 10
8.0
 20
-89.99999999999998
 30
0.0
 11
-8.0
 21
-89.99999999999998
 31
0.0
  0
ARC
  5
177A
330
18
100
AcDbEntity
  8
10
  6
Continuous
 62
     1
100
AcDbCircle
 10
-17.70000000000004
 20
-62.69999999999999
 30
0.0
 40
6.0
100
AcDbArc
 50
0.0000160724002763
 51
90.0
  0
LINE
  5
177B
330
18
100
AcDbEntity
  8
1
  6
Continuous
 62
     1
100
AcDbLine
 10
-10.82100000000002
 20
-74.93599999999998
 30
0.0
 11
-8.550000000000011
 21
-77.20699999999999
 31
0.0
  0
LINE
  5
177C
330
18
100
AcDbEntity
  8
10
  6
Continuous
 62
     1
100
AcDbLine
 10
-10.5
 20
-89.84999999999997
 30
0.0
 11
-8.0
 21
-89.84999999999997
 31
0.0
  0
ARC
  5
177D
330
18
100
AcDbEntity
  8
1
  6
Continuous
 62
     1
100
AcDbCircle
 10
-13.5
 20
-82.15699999999998
 30
0.0
 40
2.0
100
AcDbArc
 50
0.0
 51
45.0
  0
ARC
  5
177E
330
18
100
AcDbEntity
  8
10
  6
Continuous
 62
     1
100
AcDbCircle
 10
-12.5
 20
-85.19999999999999
 30
0.0
 40
1.0
100
AcDbArc
 50
270.0
 51
0.0
  0
LINE
  5
177F
330
18
100
AcDbEntity
  8
10
  6
Continuous
 62
     1
100
AcDbLine
 10
-11.5
 20
-85.19999999999999
 30
0.0
 11
-11.5
 21
-82.15699999999998
 31
0.0
  0
LINE
  5
1780
330
18
100
AcDbEntity
  8
10
  6
Continuous
 62
     1
100
AcDbLine
 10
-10.5
 20
-89.84999999999997
 30
0.0
 11
-10.5
 21
-89.99999999999998
 31
0.0
  0
LINE
  5
1781
330
18
100
AcDbEntity
  8
1
  6
Continuous
 62
     1
100
AcDbLine
 10
-14.06400000000002
 20
-78.76399999999998
 30
0.0
 11
-12.08600000000001
 21
-80.74299999999997
 31
0.0
  0
ARC
  5
1782
330
18
100
AcDbEntity
  8
10
  6
Continuous
 62
     1
100
AcDbCircle
 10
-15.976
 20
-64.22499999999996
 30
0.0
 40
0.3
100
AcDbArc
 50
133.1599999999998
 51
206.6519999999993
  0
ARC
  5
1783
330
18
100
AcDbEntity
  8
10
  6
Continuous
 62
     1
100
AcDbCircle
 10
-15.976
 20
-70.77499999999997
 30
0.0
 40
0.3
100
AcDbArc
 50
153.3480000000007
 51
226.8400000000001
  0
ARC
  5
1784
330
18
100
AcDbEntity
  8
10
  6
Continuous
 62
     1
100
AcDbCircle
 10
-22.5
 20
-67.5
 30
0.0
 40
7.0
100
AcDbArc
 50
333.3480000000007
 51
26.63770000000132
  0
ARC
  5
1785
330
18
100
AcDbEntity
  8
1
  6
Continuous
 62
     1
100
AcDbCircle
 10
-17.59900000000004
 20
-82.29999999999998
 30
0.0
 40
5.0
100
AcDbArc
 50
45.0
 51
90.0
  0
LINE
  5
1786
330
18
100
AcDbEntity
  8
10
  6
Continuous
 62
     1
100
AcDbLine
 10
-11.70000000000004
 20
-62.69999999999999
 30
0.0
 11
-11.70000000000004
 21
-72.815
 31
0.0
  0
ARC
  5
1787
330
18
100
AcDbEntity
  8
1
  6
Continuous
 62
     1
100
AcDbCircle
 10
-8.700000000000045
 20
-72.815
 30
0.0
 40
3.0
100
AcDbArc
 50
180.0
 51
225.0
  0
ARC
  5
1789
330
18
100
AcDbEntity
  8
1
  6
Continuous
 62
     1
100
AcDbCircle
 10
-13.5
 20
-82.15699999999998
 30
0.0
 40
7.0
100
AcDbArc
 50
0.0
 51
45.0
  0
ARC
  5
178A
330
18
100
AcDbEntity
  8
1
  6
Continuous
 62
     1
100
AcDbCircle
 10
-4.5
 20
-82.99999999999997
 30
0.0
 40
2.0
100
AcDbArc
 50
180.0
 51
270.0
  0
LINE
  5
178B
330
18
100
AcDbEntity
  8
1
  6
Continuous
 62
     1
100
AcDbLine
 10
-6.5
 20
-82.99999999999997
 30
0.0
 11
-6.5
 21
-82.15699999999998
 31
0.0
  0
LINE
  5
178C
330
18
100
AcDbEntity
  8
10
  6
Continuous
 62
     1
100
AcDbLine
 10
-8.0
 20
-89.84999999999997
 30
0.0
 11
-8.0
 21
-89.99999999999998
 31
0.0
  0
LINE
  5
17A9
330
18
100
AcDbEntity
  8
1
  6
Continuous
 62
     1
100
AcDbLine
 10
-12.5
 20
-31.29999999999995
 30
0.0
 11
-13.36599999999998
 21
-31.79999999999996
 31
0.0
  0
LINE
  5
17AA
330
18
100
AcDbEntity
  8
1
  6
Continuous
 62
     1
100
AcDbLine
 10
-12.5
 20
-28.79999999999995
 30
0.0
 11
-13.36599999999998
 21
-28.29999999999996
 31
0.0
  0
ARC
  5
17AB
330
18
100
AcDbEntity
  8
1
  6
Continuous
 62
     1
100
AcDbCircle
 10
4.5
 20
-82.99999999999997
 30
0.0
 40
2.0
100
AcDbArc
 50
270.0
 51
0.0
  0
ARC
  5
17AC
330
18
100
AcDbEntity
  8
1
  6
Continuous
 62
     1
100
AcDbCircle
 10
13.5
 20
-82.15699999999998
 30
0.0
 40
7.0
100
AcDbArc
 50
135.0
 51
180.0
  0
LINE
  5
17AD
330
18
100
AcDbEntity
  8
1
  6
Continuous
 62
     1
100
AcDbLine
 10
6.5
 20
-82.99999999999997
 30
0.0
 11
6.5
 21
-82.15699999999998
 31
0.0
  0
ARC
  5
17AE
330
18
100
AcDbEntity
  8
1
  6
Continuous
 62
     1
100
AcDbCircle
 10
13.5
 20
-82.15699999999998
 30
0.0
 40
2.0
100
AcDbArc
 50
135.0
 51
180.0
  0
LINE
  5
17AF
330
18
100
AcDbEntity
  8
10
  6
Continuous
 62
     1
100
AcDbLine
 10
10.5
 20
-89.84999999999997
 30
0.0
 11
8.0
 21
-89.84999999999997
 31
0.0
  0
LINE
  5
17B0
330
18
100
AcDbEntity
  8
10
  6
Continuous
 62
     1
100
AcDbLine
 10
10.5
 20
-89.84999999999997
 30
0.0
 11
10.5
 21
-89.99999999999998
 31
0.0
  0
LINE
  5
17B1
330
18
100
AcDbEntity
  8
10
  6
Continuous
 62
     1
100
AcDbLine
 10
8.0
 20
-89.84999999999997
 30
0.0
 11
8.0
 21
-89.99999999999998
 31
0.0
  0
ARC
  5
17B2
330
18
100
AcDbEntity
  8
10
  6
Continuous
 62
     1
100
AcDbCircle
 10
12.5
 20
-85.19999999999999
 30
0.0
 40
1.0
100
AcDbArc
 50
180.0
 51
270.0
  0
LINE
  5
17B3
330
18
100
AcDbEntity
  8
10
  6
Continuous
 62
     1
100
AcDbLine
 10
11.5
 20
-85.19999999999999
 30
0.0
 11
11.5
 21
-82.15699999999998
 31
0.0
  0
ARC
  5
17B4
330
18
100
AcDbEntity
  8
1
  6
Continuous
 62
     1
100
AcDbCircle
 10
8.699999999999988
 20
-72.815
 30
0.0
 40
3.0
100
AcDbArc
 50
315.0
 51
0.0000160917005945
  0
LINE
  5
17B5
330
18
100
AcDbEntity
  8
1
  6
Continuous
 62
     1
100
AcDbLine
 10
10.82099999999997
 20
-74.93599999999998
 30
0.0
 11
8.549999999999954
 21
-77.20699999999999
 31
0.0
  0
LINE
  5
17B6
330
18
100
AcDbEntity
  8
10
  6
Continuous
 62
     1
100
AcDbLine
 10
11.69999999999999
 20
-62.69999999999999
 30
0.0
 11
11.69999999999999
 21
-72.815
 31
0.0
  0
LINE
  5
17B7
330
18
100
AcDbEntity
  8
1
  6
Continuous
 62
     1
100
AcDbLine
 10
14.06399999999996
 20
-78.76399999999998
 30
0.0
 11
12.08600000000001
 21
-80.74299999999997
 31
0.0
  0
LINE
  5
17B8
330
18
100
AcDbEntity
  8
1
  6
Continuous
 62
     1
100
AcDbLine
 10
12.5
 20
-31.29999999999995
 30
0.0
 11
13.36599999999998
 21
-31.79999999999996
 31
0.0
  0
LINE
  5
17B9
330
18
100
AcDbEntity
  8
1
  6
Continuous
 62
     1
100
AcDbLine
 10
12.5
 20
-28.79999999999995
 30
0.0
 11
13.36599999999998
 21
-28.29999999999996
 31
0.0
  0
LINE
  5
17BB
330
18
100
AcDbEntity
  8
1
  6
Continuous
 62
     1
100
AcDbLine
 10
-12.5
 20
28.80000000000001
 30
0.0
 11
12.5
 21
28.80000000000001
 31
0.0
  0
LINE
  5
17BC
330
18
100
AcDbEntity
  8
1
  6
Continuous
 62
     1
100
AcDbLine
 10
-12.5
 20
31.30000000000001
 30
0.0
 11
12.5
 21
31.30000000000001
 31
0.0
  0
LINE
  5
17C5
330
18
100
AcDbEntity
  8
1
  6
Continuous
 62
     1
100
AcDbLine
 10
-12.5
 20
28.80000000000001
 30
0.0
 11
-13.36599999999998
 21
28.30000000000001
 31
0.0
  0
LINE
  5
17C6
330
18
100
AcDbEntity
  8
1
  6
Continuous
 62
     1
100
AcDbLine
 10
-12.5
 20
31.30000000000001
 30
0.0
 11
-13.36599999999998
 21
31.80000000000001
 31
0.0
  0
LINE
  5
17CA
330
18
100
AcDbEntity
  8
1
  6
Continuous
 62
     1
100
AcDbLine
 10
-10.82100000000002
 20
74.93600000000004
 30
0.0
 11
-8.550000000000011
 21
77.20700000000005
 31
0.0
  0
ARC
  5
17CB
330
18
100
AcDbEntity
  8
10
  6
Continuous
 62
     1
100
AcDbCircle
 10
-17.70000000000004
 20
62.69999999999999
 30
0.0
 40
6.0
100
AcDbArc
 50
270.0
 51
0.0
  0
LINE
  5
17D4
330
18
100
AcDbEntity
  8
1
  6
Continuous
 62
     1
100
AcDbLine
 10
-14.06400000000002
 20
78.76400000000001
 30
0.0
 11
-12.08600000000001
 21
80.74299999999999
 31
0.0
  0
ARC
  5
17D5
330
18
100
AcDbEntity
  8
10
  6
Continuous
 62
     1
100
AcDbCircle
 10
-15.976
 20
64.22499999999996
 30
0.0
 40
0.3
100
AcDbArc
 50
153.3480000000007
 51
226.8400000000001
  0
ARC
  5
17D6
330
18
100
AcDbEntity
  8
10
  6
Continuous
 62
     1
100
AcDbCircle
 10
-15.976
 20
70.77499999999997
 30
0.0
 40
0.3
100
AcDbArc
 50
133.1599999999998
 51
206.6519999999993
  0
ARC
  5
17D7
330
18
100
AcDbEntity
  8
10
  6
Continuous
 62
     1
100
AcDbCircle
 10
-22.5
 20
67.5
 30
0.0
 40
7.0
100
AcDbArc
 50
333.362
 51
26.65189999999941
  0
ARC
  5
17D8
330
18
100
AcDbEntity
  8
1
  6
Continuous
 62
     1
100
AcDbCircle
 10
-17.59900000000004
 20
82.30000000000002
 30
0.0
 40
5.0
100
AcDbArc
 50
270.0
 51
315.0
  0
ARC
  5
17D9
330
18
100
AcDbEntity
  8
1
  6
Continuous
 62
     1
100
AcDbCircle
 10
-8.700000000000045
 20
72.815
 30
0.0
 40
3.0
100
AcDbArc
 50
135.0
 51
180.0
  0
LINE
  5
17DA
330
18
100
AcDbEntity
  8
10
  6
Continuous
 62
     1
100
AcDbLine
 10
-11.70000000000004
 20
62.69999999999999
 30
0.0
 11
-11.70000000000004
 21
72.815
 31
0.0
  0
ARC
  5
17DB
330
18
100
AcDbEntity
  8
1
  6
Continuous
 62
     1
100
AcDbCircle
 10
-13.5
 20
82.15700000000003
 30
0.0
 40
2.0
100
AcDbArc
 50
315.0
 51
0.000000004841364
  0
LINE
  5
17E4
330
18
100
AcDbEntity
  8
1
  6
Continuous
 62
     1
100
AcDbLine
 10
-6.5
 20
83.0
 30
0.0
 11
-6.5
 21
82.15700000000003
 31
0.0
  0
ARC
  5
17E5
330
18
100
AcDbEntity
  8
1
  6
Continuous
 62
     1
100
AcDbCircle
 10
-13.5
 20
82.15700000000003
 30
0.0
 40
7.0
100
AcDbArc
 50
315.0
 51
0.000000004841364
  0
LINE
  5
17E6
330
18
100
AcDbEntity
  8
1
  6
Continuous
 62
     1
100
AcDbLine
 10
12.5
 20
28.80000000000001
 30
0.0
 11
13.36599999999998
 21
28.30000000000001
 31
0.0
  0
LINE
  5
17E7
330
18
100
AcDbEntity
  8
1
  6
Continuous
 62
     1
100
AcDbLine
 10
12.5
 20
31.30000000000001
 30
0.0
 11
13.36599999999998
 21
31.80000000000001
 31
0.0
  0
ARC
  5
17E8
330
18
100
AcDbEntity
  8
1
  6
Continuous
 62
     1
100
AcDbCircle
 10
13.5
 20
82.15700000000003
 30
0.0
 40
7.0
100
AcDbArc
 50
180.0
 51
225.0
  0
LINE
  5
17E9
330
18
100
AcDbEntity
  8
1
  6
Continuous
 62
     1
100
AcDbLine
 10
6.5
 20
83.0
 30
0.0
 11
6.5
 21
82.15700000000003
 31
0.0
  0
ARC
  5
17EA
330
18
100
AcDbEntity
  8
1
  6
Continuous
 62
     1
100
AcDbCircle
 10
8.699999999999988
 20
72.815
 30
0.0
 40
3.0
100
AcDbArc
 50
0.0
 51
45.0
  0
LINE
  5
17EB
330
18
100
AcDbEntity
  8
1
  6
Continuous
 62
     1
100
AcDbLine
 10
10.82099999999997
 20
74.93600000000004
 30
0.0
 11
8.549999999999954
 21
77.20700000000005
 31
0.0
  0
LINE
  5
17EC
330
18
100
AcDbEntity
  8
1
  6
Continuous
 62
     1
100
AcDbLine
 10
14.06399999999996
 20
78.76400000000001
 30
0.0
 11
12.08600000000001
 21
80.74299999999999
 31
0.0
  0
LINE
  5
17ED
330
18
100
AcDbEntity
  8
10
  6
Continuous
 62
     1
100
AcDbLine
 10
11.69999999999999
 20
62.69999999999999
 30
0.0
 11
11.69999999999999
 21
72.815
 31
0.0
  0
ARC
  5
17EE
330
18
100
AcDbEntity
  8
1
  6
Continuous
 62
     1
100
AcDbCircle
 10
13.5
 20
82.15700000000003
 30
0.0
 40
2.0
100
AcDbArc
 50
180.0
 51
225.0
  0
LINE
  5
17EF
330
18
100
AcDbEntity
  8
10
  6
Continuous
 62
     1
100
AcDbLine
 10
-12.5
 20
86.19999999999999
 30
0.0
 11
-18.40000000000003
 21
86.19999999999999
 31
0.0
  0
LINE
  5
17F0
330
18
100
AcDbEntity
  8
10
  6
Continuous
 62
     1
100
AcDbLine
 10
-10.5
 20
90.0
 30
0.0
 11
-18.40000000000003
 21
90.0
 31
0.0
  0
LINE
  5
17F3
330
18
100
AcDbEntity
  8
10
  6
Continuous
 62
     1
100
AcDbLine
 10
-34.5
 20
90.0
 30
0.0
 11
-26.60000000000002
 21
90.0
 31
0.0
  0
ARC
  5
1804
330
18
100
AcDbEntity
  8
10
  6
Continuous
 62
     1
100
AcDbCircle
 10
-42.99100000000004
 20
85.87000000000001
 30
0.0
 40
0.3
100
AcDbArc
 50
338.5770000000004
 51
45.50129999999869
  0
ARC
  5
1805
330
18
100
AcDbEntity
  8
10
  6
Continuous
 62
     1
100
AcDbCircle
 10
-41.93999999999999
 20
86.94
 30
0.0
 40
1.199999999999999
100
AcDbArc
 50
44.49870000000014
 51
225.5009999999995
  0
LINE
  5
1806
330
18
100
AcDbEntity
  8
10
  6
Continuous
 62
     1
100
AcDbLine
 10
-43.0
 20
90.0
 30
0.0
 11
-37.0
 21
90.0
 31
0.0
  0
ARC
  5
1809
330
18
100
AcDbEntity
  8
10
  6
Continuous
 62
     1
100
AcDbCircle
 10
-43.0
 20
88.0
 30
0.0
 40
2.0
100
AcDbArc
 50
90.0
 51
180.0
  0
ARC
  5
180A
330
18
100
AcDbEntity
  8
10
  6
Continuous
 62
     1
100
AcDbCircle
 10
-39.5
 20
84.50000000000001
 30
0.0
 40
3.45
100
AcDbArc
 50
68.57719999999996
 51
111.423000000001
  0
ARC
  5
180B
330
18
100
AcDbEntity
  8
10
  6
Continuous
 62
     1
100
AcDbCircle
 10
-40.87
 20
87.99100000000004
 30
0.0
 40
0.3
100
AcDbArc
 50
224.4989999999993
 51
291.4230000000011
  0
LINE
  5
180C
330
18
100
AcDbEntity
  8
10
  6
Continuous
 62
     2
100
AcDbLine
 10
-39.5
 20
84.50000000000001
 30
0.0
 11
-39.5
 21
85.92600000000004
 31
0.0
  0
LINE
  5
180D
330
18
100
AcDbEntity
  8
10
  6
Continuous
 62
     2
100
AcDbLine
 10
-39.5
 20
84.50000000000001
 30
0.0
 11
-40.94499999999999
 21
84.50000000000001
 31
0.0
  0
ARC
  5
180E
330
18
100
AcDbEntity
  8
10
  6
Continuous
 62
     1
100
AcDbCircle
 10
-38.13
 20
87.99100000000004
 30
0.0
 40
0.3
100
AcDbArc
 50
248.5769999999989
 51
315.5010000000007
  0
ARC
  5
180F
330
18
100
AcDbEntity
  8
10
  6
Continuous
 62
     1
100
AcDbCircle
 10
-36.00900000000001
 20
85.87000000000001
 30
0.0
 40
0.3
100
AcDbArc
 50
134.4990000000005
 51
201.4229999999995
  0
ARC
  5
1810
330
18
100
AcDbEntity
  8
10
  6
Continuous
 62
     1
100
AcDbCircle
 10
-37.06
 20
86.94
 30
0.0
 40
1.199999999999999
100
AcDbArc
 50
314.4990000000005
 51
135.5010000000007
  0
LINE
  5
1811
330
18
100
AcDbEntity
  8
10
  6
Continuous
 62
     1
100
AcDbLine
 10
-34.5
 20
89.84999999999997
 30
0.0
 11
-37.0
 21
89.84999999999997
 31
0.0
  0
LINE
  5
1812
330
18
100
AcDbEntity
  8
10
  6
Continuous
 62
     1
100
AcDbLine
 10
-34.5
 20
89.84999999999997
 30
0.0
 11
-34.5
 21
90.0
 31
0.0
  0
LINE
  5
1813
330
18
100
AcDbEntity
  8
10
  6
Continuous
 62
     1
100
AcDbLine
 10
-37.0
 20
89.84999999999997
 30
0.0
 11
-37.0
 21
90.0
 31
0.0
  0
LINE
  5
1814
330
18
100
AcDbEntity
  8
10
  6
Continuous
 62
     1
100
AcDbLine
 10
-32.5
 20
86.19999999999999
 30
0.0
 11
-26.60000000000002
 21
86.19999999999999
 31
0.0
  0
ARC
  5
1815
330
18
100
AcDbEntity
  8
10
  6
Continuous
 62
     1
100
AcDbCircle
 10
-32.5
 20
85.19999999999999
 30
0.0
 40
1.0
100
AcDbArc
 50
90.0
 51
180.0
  0
LINE
  5
1816
330
18
100
AcDbEntity
  8
10
  6
Continuous
 62
     1
100
AcDbLine
 10
-26.60000000000002
 20
86.19999999999999
 30
0.0
 11
-26.60000000000002
 21
90.0
 31
0.0
  0
LINE
  5
1829
330
18
100
AcDbEntity
  8
10
  6
Continuous
 62
     1
100
AcDbLine
 10
-18.40000000000003
 20
86.19999999999999
 30
0.0
 11
-18.40000000000003
 21
90.0
 31
0.0
  0
LINE
  5
182C
330
18
100
AcDbEntity
  8
1
  6
Continuous
 62
     1
100
AcDbLine
 10
4.5
 20
85.0
 30
0.0
 11
-4.5
 21
85.0
 31
0.0
  0
LINE
  5
182D
330
18
100
AcDbEntity
  8
10
  6
Continuous
 62
     1
100
AcDbLine
 10
8.0
 20
90.0
 30
0.0
 11
-8.0
 21
90.0
 31
0.0
  0
LINE
  5
182E
330
18
100
AcDbEntity
  8
10
  6
Continuous
 62
     1
100
AcDbLine
 10
-10.5
 20
89.84999999999997
 30
0.0
 11
-8.0
 21
89.84999999999997
 31
0.0
  0
ARC
  5
182F
330
18
100
AcDbEntity
  8
10
  6
Continuous
 62
     1
100
AcDbCircle
 10
-12.5
 20
85.19999999999999
 30
0.0
 40
1.0
100
AcDbArc
 50
0.000000004841364
 51
90.0
  0
LINE
  5
1830
330
18
100
AcDbEntity
  8
10
  6
Continuous
 62
     1
100
AcDbLine
 10
-10.5
 20
89.84999999999997
 30
0.0
 11
-10.5
 21
90.0
 31
0.0
  0
LINE
  5
1831
330
18
100
AcDbEntity
  8
10
  6
Continuous
 62
     1
100
AcDbLine
 10
-8.0
 20
89.84999999999997
 30
0.0
 11
-8.0
 21
90.0
 31
0.0
  0
LINE
  5
1832
330
18
100
AcDbEntity
  8
10
  6
Continuous
 62
     1
100
AcDbLine
 10
10.5
 20
89.84999999999997
 30
0.0
 11
8.0
 21
89.84999999999997
 31
0.0
  0
LINE
  5
1833
330
18
100
AcDbEntity
  8
10
  6
Continuous
 62
     1
100
AcDbLine
 10
10.5
 20
89.84999999999997
 30
0.0
 11
10.5
 21
90.0
 31
0.0
  0
LINE
  5
1834
330
18
100
AcDbEntity
  8
10
  6
Continuous
 62
     1
100
AcDbLine
 10
8.0
 20
89.84999999999997
 30
0.0
 11
8.0
 21
90.0
 31
0.0
  0
ARC
  5
1835
330
18
100
AcDbEntity
  8
10
  6
Continuous
 62
     1
100
AcDbCircle
 10
12.5
 20
85.19999999999999
 30
0.0
 40
1.0
100
AcDbArc
 50
90.0
 51
180.0
  0
ARC
  5
1840
330
18
100
AcDbEntity
  8
10
  6
Continuous
 62
     1
100
AcDbCircle
 10
39.50040000000001
 20
84.50000000000001
 30
0.0
 40
3.45
100
AcDbArc
 50
338.5770000000004
 51
21.42280000000004
  0
ARC
  5
1841
330
18
100
AcDbEntity
  8
10
  6
Continuous
 62
     1
100
AcDbCircle
 10
39.50040000000001
 20
84.50000000000001
 30
0.0
 40
3.45
100
AcDbArc
 50
158.5770000000004
 51
201.4229999999995
  0
LINE
  5
1842
330
18
100
AcDbEntity
  8
10
  6
Continuous
 62
     1
100
AcDbLine
 10
45.00040000000001
 20
88.0
 30
0.0
 11
45.00040000000001
 21
82.0
 31
0.0
  0
LINE
  5
1843
330
18
100
AcDbEntity
  8
10
  6
Continuous
 62
     1
100
AcDbLine
 10
33.50040000000002
 20
85.19999999999999
 30
0.0
 11
33.50040000000002
 21
82.15700000000003
 31
0.0
  0
LINE
  5
1844
330
18
100
AcDbEntity
  8
10
  6
CENTER
 62
     2
100
AcDbLine
 10
22.50040000000002
 20
90.0
 30
0.0
 11
22.50040000000002
 21
-89.99999999999998
 31
0.0
  0
ARC
  5
1847
330
18
100
AcDbEntity
  8
1
  6
Continuous
 62
     1
100
AcDbCircle
 10
37.30039999999997
 20
-17.59899999999999
 30
0.0
 40
10.0
100
AcDbArc
 50
135.0
 51
180.0
  0
LINE
  5
1848
330
18
100
AcDbEntity
  8
1
  6
Continuous
 62
     1
100
AcDbLine
 10
30.2294
 20
-10.52799999999996
 30
0.0
 11
32.1214
 21
-8.636000000000024
 31
0.0
  0
LINE
  5
1849
330
18
100
AcDbEntity
  8
10
  6
Continuous
 62
     1
100
AcDbLine
 10
44.85039999999997
 20
-10.5
 30
0.0
 11
44.85039999999997
 21
-8.0
 31
0.0
  0
LINE
  5
184B
330
18
100
AcDbEntity
  8
1
  6
Continuous
 62
     1
100
AcDbLine
 10
30.2294
 20
-34.47100000000001
 30
0.0
 11
32.20740000000001
 21
-36.44999999999999
 31
0.0
  0
LINE
  5
184C
330
18
100
AcDbEntity
  8
1
  6
Continuous
 62
     1
100
AcDbLine
 10
29.93639999999999
 20
-55.82099999999996
 30
0.0
 11
32.20740000000001
 21
-53.54999999999995
 31
0.0
  0
LINE
  5
184D
330
18
100
AcDbEntity
  8
1
  6
Continuous
 62
     1
100
AcDbLine
 10
30.93639999999999
 20
-78.76399999999998
 30
0.0
 11
32.9144
 21
-80.74299999999997
 31
0.0
  0
LINE
  5
184E
330
18
100
AcDbEntity
  8
10
  6
Continuous
 62
     1
100
AcDbLine
 10
32.50040000000002
 20
-86.19999999999999
 30
0.0
 11
26.60039999999998
 21
-86.19999999999999
 31
0.0
  0
LINE
  5
184F
330
18
100
AcDbEntity
  8
10
  6
Continuous
 62
     1
100
AcDbLine
 10
34.50040000000001
 20
-89.99999999999998
 30
0.0
 11
26.60039999999998
 21
-89.99999999999998
 31
0.0
  0
ARC
  5
1850
330
18
100
AcDbEntity
  8
10
  6
Continuous
 62
     1
100
AcDbCircle
 10
22.50040000000002
 20
-67.5
 30
0.0
 40
7.0
100
AcDbArc
 50
63.34809999999913
 51
116.638
  0
ARC
  5
1851
330
18
100
AcDbEntity
  8
10
  6
Continuous
 62
     1
100
AcDbCircle
 10
22.50040000000002
 20
-67.5
 30
0.0
 40
7.0
100
AcDbArc
 50
243.3619999999999
 51
296.652
  0
LINE
  5
1852
330
18
100
AcDbEntity
  8
10
  6
Continuous
 62
     1
100
AcDbLine
 10
27.40139999999997
 20
-77.29999999999998
 30
0.0
 11
17.59999999999996
 21
-77.29999999999998
 31
0.0
  0
LINE
  5
1853
330
18
100
AcDbEntity
  8
10
  6
Continuous
 62
     1
100
AcDbLine
 10
18.39999999999998
 20
-86.19999999999999
 30
0.0
 11
18.39999999999998
 21
-89.99999999999998
 31
0.0
  0
ARC
  5
1854
330
18
100
AcDbEntity
  8
10
  6
Continuous
 62
     1
100
AcDbCircle
 10
19.22739999999999
 20
-60.97499999999996
 30
0.0
 40
0.3
100
AcDbArc
 50
223.1459999999993
 51
296.638
  0
ARC
  5
1855
330
18
100
AcDbEntity
  8
10
  6
Continuous
 62
     1
100
AcDbCircle
 10
17.54899999999998
 20
-62.54799999999995
 30
0.0
 40
2.0
100
AcDbArc
 50
43.1463000000006
 51
226.8400000000001
  0
ARC
  5
1856
330
18
100
AcDbEntity
  8
10
  6
Continuous
 62
     1
100
AcDbCircle
 10
19.22739999999999
 20
-74.02499999999998
 30
0.0
 40
0.3
100
AcDbArc
 50
63.36199999999994
 51
136.8540000000007
  0
ARC
  5
1857
330
18
100
AcDbEntity
  8
10
  6
Continuous
 62
     1
100
AcDbCircle
 10
17.54899999999998
 20
-72.452
 30
0.0
 40
2.0
100
AcDbArc
 50
133.1599999999998
 51
316.8540000000007
  0
ARC
  5
1858
330
18
100
AcDbEntity
  8
10
  6
Continuous
 62
     1
100
AcDbCircle
 10
15.976
 20
-64.22499999999996
 30
0.0
 40
0.3
100
AcDbArc
 50
333.3480000000007
 51
46.8398000000003
  0
ARC
  5
1859
330
18
100
AcDbEntity
  8
10
  6
Continuous
 62
     1
100
AcDbCircle
 10
15.976
 20
-70.77499999999997
 30
0.0
 40
0.3
100
AcDbArc
 50
313.1599999999999
 51
26.65189999999941
  0
ARC
  5
185A
330
18
100
AcDbEntity
  8
10
  6
Continuous
 62
     1
100
AcDbCircle
 10
22.50040000000002
 20
-67.5
 30
0.0
 40
7.0
100
AcDbArc
 50
153.3619999999999
 51
206.6519999999993
  0
LINE
  5
185B
330
18
100
AcDbEntity
  8
10
  6
Continuous
 62
     1
100
AcDbLine
 10
26.60039999999998
 20
-86.19999999999999
 30
0.0
 11
26.60039999999998
 21
-89.99999999999998
 31
0.0
  0
ARC
  5
185C
330
18
100
AcDbEntity
  8
10
  6
Continuous
 62
     1
100
AcDbCircle
 10
27.45139999999998
 20
-62.54799999999995
 30
0.0
 40
2.0
100
AcDbArc
 50
313.1599999999999
 51
136.8540000000007
  0
ARC
  5
185D
330
18
100
AcDbEntity
  8
10
  6
Continuous
 62
     1
100
AcDbCircle
 10
27.45139999999998
 20
-72.452
 30
0.0
 40
2.0
100
AcDbArc
 50
223.1459999999993
 51
46.8398000000003
  0
ARC
  5
185E
330
18
100
AcDbEntity
  8
10
  6
Continuous
 62
     1
100
AcDbCircle
 10
25.77339999999998
 20
-60.97499999999996
 30
0.0
 40
0.3
100
AcDbArc
 50
243.3619999999999
 51
316.8540000000007
  0
ARC
  5
185F
330
18
100
AcDbEntity
  8
10
  6
Continuous
 62
     1
100
AcDbCircle
 10
25.77339999999998
 20
-74.02499999999998
 30
0.0
 40
0.3
100
AcDbArc
 50
43.1463000000006
 51
116.638
  0
ARC
  5
1860
330
18
100
AcDbEntity
  8
10
  6
Continuous
 62
     1
100
AcDbCircle
 10
22.50040000000002
 20
-67.5
 30
0.0
 40
7.0
100
AcDbArc
 50
333.3480000000007
 51
26.63770000000132
  0
ARC
  5
1861
330
18
100
AcDbEntity
  8
10
  6
Continuous
 62
     1
100
AcDbCircle
 10
29.02440000000002
 20
-64.22499999999996
 30
0.0
 40
0.3
100
AcDbArc
 50
133.1599999999998
 51
206.6519999999993
  0
ARC
  5
1862
330
18
100
AcDbEntity
  8
10
  6
Continuous
 62
     1
100
AcDbCircle
 10
29.02440000000002
 20
-70.77499999999997
 30
0.0
 40
0.3
100
AcDbArc
 50
153.3480000000007
 51
226.8400000000001
  0
ARC
  5
1863
330
18
100
AcDbEntity
  8
1
  6
Continuous
 62
     1
100
AcDbCircle
 10
27.40139999999997
 20
-82.29999999999998
 30
0.0
 40
5.0
100
AcDbArc
 50
45.0
 51
90.0
  0
LINE
  5
1864
330
18
100
AcDbEntity
  8
10
  6
Continuous
 62
     1
100
AcDbLine
 10
17.69999999999999
 20
-56.69999999999999
 30
0.0
 11
27.81539999999996
 21
-56.69999999999999
 31
0.0
  0
ARC
  5
1866
330
18
100
AcDbEntity
  8
1
  6
Continuous
 62
     1
100
AcDbCircle
 10
37.30039999999997
 20
-27.39999999999998
 30
0.0
 40
10.0
100
AcDbArc
 50
212.227999999999
 51
225.0
  0
ARC
  5
1867
330
18
100
AcDbEntity
  8
1
  6
Continuous
 62
     1
100
AcDbCircle
 10
27.81539999999996
 20
-53.69999999999999
 30
0.0
 40
3.0
100
AcDbArc
 50
270.0
 51
315.0
  0
ARC
  5
1868
330
18
100
AcDbEntity
  8
1
  6
Continuous
 62
     1
100
AcDbCircle
 10
27.14940000000002
 20
-33.79999999999995
 30
0.0
 40
2.0
100
AcDbArc
 50
32.22809999999949
 51
90.0
  0
ARC
  5
1869
330
18
100
AcDbEntity
  8
1
  6
Continuous
 62
     1
100
AcDbCircle
 10
25.30039999999997
 20
-26.29999999999995
 30
0.0
 40
2.0
100
AcDbArc
 50
270.0
 51
0.000000004841364
  0
LINE
  5
1872
330
18
100
AcDbEntity
  8
1
  6
Continuous
 62
     1
100
AcDbLine
 10
27.30039999999997
 20
-26.29999999999995
 30
0.0
 11
27.30039999999997
 21
-17.59899999999999
 31
0.0
  0
LINE
  5
1873
330
18
100
AcDbEntity
  8
1
  6
Continuous
 62
     1
100
AcDbLine
 10
33.76439999999997
 20
-59.06399999999996
 30
0.0
 11
35.74239999999998
 21
-57.08600000000001
 31
0.0
  0
LINE
  5
1874
330
18
100
AcDbEntity
  8
10
  6
Continuous
 62
     1
100
AcDbLine
 10
45.00040000000001
 20
-55.5
 30
0.0
 11
45.00040000000001
 21
-63.39999999999998
 31
0.0
  0
LINE
  5
1875
330
18
100
AcDbEntity
  8
10
  6
Continuous
 62
     1
100
AcDbLine
 10
41.2004
 20
-57.5
 30
0.0
 11
41.2004
 21
-63.39999999999998
 31
0.0
  0
LINE
  5
1876
330
18
100
AcDbEntity
  8
10
  6
Continuous
 62
     2
100
AcDbLine
 10
39.50040000000001
 20
-84.49999999999997
 30
0.0
 11
40.94540000000001
 21
-84.49999999999997
 31
0.0
  0
ARC
  5
1877
330
18
100
AcDbEntity
  8
10
  6
Continuous
 62
     1
100
AcDbCircle
 10
39.50040000000001
 20
-84.49999999999997
 30
0.0
 40
3.45
100
AcDbArc
 50
68.57719999999996
 51
111.423000000001
  0
ARC
  5
1878
330
18
100
AcDbEntity
  8
10
  6
Continuous
 62
     1
100
AcDbCircle
 10
39.50040000000001
 20
-84.49999999999997
 30
0.0
 40
3.45
100
AcDbArc
 50
248.5769999999989
 51
291.4230000000011
  0
LINE
  5
1879
330
18
100
AcDbEntity
  8
10
  6
Continuous
 62
     1
100
AcDbLine
 10
40.2004
 20
-78.49999999999997
 30
0.0
 11
37.15639999999996
 21
-78.49999999999997
 31
0.0
  0
LINE
  5
187A
330
18
100
AcDbEntity
  8
10
  6
Continuous
 62
     1
100
AcDbLine
 10
43.00040000000001
 20
-89.99999999999998
 30
0.0
 11
37.00040000000001
 21
-89.99999999999998
 31
0.0
  0
ARC
  5
187B
330
18
100
AcDbEntity
  8
10
  6
Continuous
 62
     1
100
AcDbCircle
 10
38.13040000000001
 20
-81.00899999999999
 30
0.0
 40
0.3
100
AcDbArc
 50
224.4989999999993
 51
291.4230000000011
  0
ARC
  5
187C
330
18
100
AcDbEntity
  8
10
  6
Continuous
 62
     1
100
AcDbCircle
 10
37.06039999999996
 20
-82.05999999999997
 30
0.0
 40
1.199999999999999
100
AcDbArc
 50
44.49870000000014
 51
225.5009999999995
  0
ARC
  5
187D
330
18
100
AcDbEntity
  8
1
  6
Continuous
 62
     1
100
AcDbCircle
 10
31.50040000000001
 20
-82.15699999999998
 30
0.0
 40
2.0
100
AcDbArc
 50
0.000000004841364
 51
45.0
  0
LINE
  5
187E
330
18
100
AcDbEntity
  8
10
  6
Continuous
 62
     1
100
AcDbLine
 10
34.50040000000001
 20
-89.84999999999997
 30
0.0
 11
37.00040000000001
 21
-89.84999999999997
 31
0.0
  0
ARC
  5
187F
330
18
100
AcDbEntity
  8
10
  6
Continuous
 62
     1
100
AcDbCircle
 10
32.50040000000002
 20
-85.19999999999999
 30
0.0
 40
1.0
100
AcDbArc
 50
270.0
 51
0.000000004841364
  0
LINE
  5
1880
330
18
100
AcDbEntity
  8
10
  6
Continuous
 62
     1
100
AcDbLine
 10
33.50040000000002
 20
-85.19999999999999
 30
0.0
 11
33.50040000000002
 21
-82.15699999999998
 31
0.0
  0
LINE
  5
1881
330
18
100
AcDbEntity
  8
10
  6
Continuous
 62
     1
100
AcDbLine
 10
34.50040000000001
 20
-89.84999999999997
 30
0.0
 11
34.50040000000001
 21
-89.99999999999998
 31
0.0
  0
ARC
  5
188B
330
18
100
AcDbEntity
  8
10
  6
Continuous
 62
     1
100
AcDbCircle
 10
36.00939999999997
 20
-83.12999999999997
 30
0.0
 40
0.3
100
AcDbArc
 50
338.5770000000004
 51
45.50129999999869
  0
ARC
  5
188C
330
18
100
AcDbEntity
  8
10
  6
Continuous
 62
     1
100
AcDbCircle
 10
38.13040000000001
 20
-87.99099999999999
 30
0.0
 40
0.3
100
AcDbArc
 50
68.57719999999996
 51
135.5010000000007
  0
ARC
  5
188D
330
18
100
AcDbEntity
  8
10
  6
Continuous
 62
     1
100
AcDbCircle
 10
36.00939999999997
 20
-85.86999999999997
 30
0.0
 40
0.3
100
AcDbArc
 50
314.4990000000005
 51
21.42280000000004
  0
ARC
  5
188E
330
18
100
AcDbEntity
  8
10
  6
Continuous
 62
     1
100
AcDbCircle
 10
37.06039999999996
 20
-86.93999999999997
 30
0.0
 40
1.199999999999999
100
AcDbArc
 50
134.4990000000005
 51
315.5010000000007
  0
LINE
  5
188F
330
18
100
AcDbEntity
  8
10
  6
Continuous
 62
     2
100
AcDbLine
 10
39.50040000000001
 20
-84.49999999999997
 30
0.0
 11
39.50040000000001
 21
-85.92599999999999
 31
0.0
  0
ARC
  5
1890
330
18
100
AcDbEntity
  8
10
  6
Continuous
 62
     1
100
AcDbCircle
 10
39.50040000000001
 20
-84.49999999999997
 30
0.0
 40
3.45
100
AcDbArc
 50
158.5770000000004
 51
201.4229999999995
  0
LINE
  5
1891
330
18
100
AcDbEntity
  8
10
  6
Continuous
 62
     1
100
AcDbLine
 10
37.00040000000001
 20
-89.84999999999997
 30
0.0
 11
37.00040000000001
 21
-89.99999999999998
 31
0.0
  0
LINE
  5
1892
330
18
100
AcDbEntity
  8
1
  6
Continuous
 62
     1
100
AcDbLine
 10
33.76439999999997
 20
-75.93600000000001
 30
0.0
 11
35.74239999999998
 21
-77.91399999999999
 31
0.0
  0
ARC
  5
1893
330
18
100
AcDbEntity
  8
1
  6
Continuous
 62
     1
100
AcDbCircle
 10
37.30039999999997
 20
-72.39999999999998
 30
0.0
 40
5.0
100
AcDbArc
 50
180.0
 51
225.0
  0
ARC
  5
1894
330
18
100
AcDbEntity
  8
1
  6
Continuous
 62
     1
100
AcDbCircle
 10
37.30039999999997
 20
-62.59899999999999
 30
0.0
 40
5.0
100
AcDbArc
 50
135.0
 51
180.0
  0
LINE
  5
1895
330
18
100
AcDbEntity
  8
10
  6
Continuous
 62
     1
100
AcDbLine
 10
32.30039999999997
 20
-72.39999999999998
 30
0.0
 11
32.30039999999997
 21
-62.59899999999999
 31
0.0
  0
ARC
  5
1896
330
18
100
AcDbEntity
  8
1
  6
Continuous
 62
     1
100
AcDbCircle
 10
37.15639999999996
 20
-76.49999999999997
 30
0.0
 40
2.0
100
AcDbArc
 50
225.0
 51
270.0
  0
ARC
  5
1897
330
18
100
AcDbEntity
  8
10
  6
Continuous
 62
     1
100
AcDbCircle
 10
40.86939999999998
 20
-81.00899999999999
 30
0.0
 40
0.3
100
AcDbArc
 50
248.5769999999989
 51
315.5010000000007
  0
ARC
  5
1898
330
18
100
AcDbEntity
  8
10
  6
Continuous
 62
     1
100
AcDbCircle
 10
41.93939999999997
 20
-82.05999999999997
 30
0.0
 40
1.199999999999999
100
AcDbArc
 50
314.4990000000005
 51
135.5010000000007
  0
LINE
  5
1899
330
18
100
AcDbEntity
  8
10
  6
Continuous
 62
     1
100
AcDbLine
 10
44.85039999999997
 20
-79.49999999999997
 30
0.0
 11
44.85039999999997
 21
-81.99999999999997
 31
0.0
  0
ARC
  5
189A
330
18
100
AcDbEntity
  8
10
  6
Continuous
 62
     1
100
AcDbCircle
 10
43.00040000000001
 20
-87.99999999999997
 30
0.0
 40
2.0
100
AcDbArc
 50
270.0
 51
0.0
  0
ARC
  5
189B
330
18
100
AcDbEntity
  8
10
  6
Continuous
 62
     1
100
AcDbCircle
 10
42.9914
 20
-83.12999999999997
 30
0.0
 40
0.3
100
AcDbArc
 50
134.4990000000005
 51
201.4229999999995
  0
ARC
  5
189C
330
18
100
AcDbEntity
  8
10
  6
Continuous
 62
     1
100
AcDbCircle
 10
40.86939999999998
 20
-87.99099999999999
 30
0.0
 40
0.3
100
AcDbArc
 50
44.49870000000014
 51
111.423000000001
  0
ARC
  5
189D
330
18
100
AcDbEntity
  8
10
  6
Continuous
 62
     1
100
AcDbCircle
 10
42.9914
 20
-85.86999999999997
 30
0.0
 40
0.3
100
AcDbArc
 50
158.5770000000004
 51
225.5009999999995
  0
ARC
  5
189E
330
18
100
AcDbEntity
  8
10
  6
Continuous
 62
     1
100
AcDbCircle
 10
41.93939999999997
 20
-86.93999999999997
 30
0.0
 40
1.199999999999999
100
AcDbArc
 50
224.4989999999993
 51
45.50129999999869
  0
ARC
  5
189F
330
18
100
AcDbEntity
  8
10
  6
Continuous
 62
     1
100
AcDbCircle
 10
39.50040000000001
 20
-84.49999999999997
 30
0.0
 40
3.45
100
AcDbArc
 50
338.5770000000004
 51
21.42280000000004
  0
LINE
  5
18A0
330
18
100
AcDbEntity
  8
10
  6
Continuous
 62
     1
100
AcDbLine
 10
45.00040000000001
 20
-87.99999999999997
 30
0.0
 11
45.00040000000001
 21
-81.99999999999997
 31
0.0
  0
LINE
  5
18A1
330
18
100
AcDbEntity
  8
10
  6
Continuous
 62
     1
100
AcDbLine
 10
44.85039999999997
 20
-81.99999999999997
 30
0.0
 11
45.00040000000001
 21
-81.99999999999997
 31
0.0
  0
LINE
  5
18A2
330
18
100
AcDbEntity
  8
10
  6
Continuous
 62
     1
100
AcDbLine
 10
41.2004
 20
-63.39999999999998
 30
0.0
 11
45.00040000000001
 21
-63.39999999999998
 31
0.0
  0
LINE
  5
18A3
330
18
100
AcDbEntity
  8
10
  6
Continuous
 62
     1
100
AcDbLine
 10
41.2004
 20
-71.59999999999996
 30
0.0
 11
45.00040000000001
 21
-71.59999999999996
 31
0.0
  0
LINE
  5
18A4
330
18
100
AcDbEntity
  8
10
  6
Continuous
 62
     1
100
AcDbLine
 10
41.2004
 20
-77.49999999999997
 30
0.0
 11
41.2004
 21
-71.59999999999996
 31
0.0
  0
ARC
  5
18A5
330
18
100
AcDbEntity
  8
10
  6
Continuous
 62
     1
100
AcDbCircle
 10
40.2004
 20
-77.49999999999997
 30
0.0
 40
1.0
100
AcDbArc
 50
270.0
 51
0.000000004841364
  0
LINE
  5
18A6
330
18
100
AcDbEntity
  8
1
  6
Continuous
 62
     1
100
AcDbLine
 10
44.85039999999997
 20
-79.49999999999997
 30
0.0
 11
45.00040000000001
 21
-79.49999999999997
 31
0.0
  0
LINE
  5
18A7
330
18
100
AcDbEntity
  8
10
  6
Continuous
 62
     1
100
AcDbLine
 10
45.00040000000001
 20
-79.49999999999997
 30
0.0
 11
45.00040000000001
 21
-71.59999999999996
 31
0.0
  0
ARC
  5
18A8
330
18
100
AcDbEntity
  8
1
  6
Continuous
 62
     1
100
AcDbCircle
 10
38.00040000000001
 20
-49.5
 30
0.0
 40
2.0
100
AcDbArc
 50
270.0
 51
0.0
  0
ARC
  5
18A9
330
18
100
AcDbEntity
  8
1
  6
Continuous
 62
     1
100
AcDbCircle
 10
38.00040000000001
 20
-40.49999999999999
 30
0.0
 40
2.0
100
AcDbArc
 50
0.0
 51
90.0
  0
LINE
  5
18AA
330
18
100
AcDbEntity
  8
10
  6
Continuous
 62
     1
100
AcDbLine
 10
40.2004
 20
-33.5
 30
0.0
 11
37.15639999999996
 21
-33.5
 31
0.0
  0
LINE
  5
18AB
330
18
100
AcDbEntity
  8
10
  6
Continuous
 62
     1
100
AcDbLine
 10
40.2004
 20
-11.5
 30
0.0
 11
37.15639999999996
 21
-11.5
 31
0.0
  0
LINE
  5
18AC
330
18
100
AcDbEntity
  8
10
  6
Continuous
 62
     1
100
AcDbLine
 10
40.2004
 20
-56.5
 30
0.0
 11
37.15639999999996
 21
-56.5
 31
0.0
  0
LINE
  5
18AD
330
18
100
AcDbEntity
  8
10
  6
CENTER
 62
     2
100
AcDbLine
 10
45.00040000000001
 20
-22.5
 30
0.0
 11
32.30039999999997
 21
-22.5
 31
0.0
  0
ARC
  5
18AE
330
18
100
AcDbEntity
  8
1
  6
Continuous
 62
     1
100
AcDbCircle
 10
37.15639999999996
 20
-58.5
 30
0.0
 40
7.0
100
AcDbArc
 50
90.0
 51
135.0
  0
ARC
  5
18AF
330
18
100
AcDbEntity
  8
1
  6
Continuous
 62
     1
100
AcDbCircle
 10
37.15639999999996
 20
-31.5
 30
0.0
 40
7.0
100
AcDbArc
 50
225.0
 51
270.0
  0
LINE
  5
18B0
330
18
100
AcDbEntity
  8
1
  6
Continuous
 62
     1
100
AcDbLine
 10
38.00040000000001
 20
-51.5
 30
0.0
 11
37.15639999999996
 21
-51.5
 31
0.0
  0
LINE
  5
18B1
330
18
100
AcDbEntity
  8
1
  6
Continuous
 62
     1
100
AcDbLine
 10
38.00040000000001
 20
-38.5
 30
0.0
 11
37.15639999999996
 21
-38.5
 31
0.0
  0
ARC
  5
18B2
330
18
100
AcDbEntity
  8
1
  6
Continuous
 62
     1
100
AcDbCircle
 10
37.15639999999996
 20
-58.5
 30
0.0
 40
2.0
100
AcDbArc
 50
90.0
 51
135.0
  0
LINE
  5
18B4
330
18
100
AcDbEntity
  8
1
  6
Continuous
 62
     1
100
AcDbLine
 10
33.76439999999997
 20
-30.93599999999998
 30
0.0
 11
35.74239999999998
 21
-32.91399999999999
 31
0.0
  0
LINE
  5
18B5
330
18
100
AcDbEntity
  8
1
  6
Continuous
 62
     1
100
AcDbLine
 10
33.76439999999997
 20
-14.06399999999996
 30
0.0
 11
35.74239999999998
 21
-12.08600000000001
 31
0.0
  0
ARC
  5
18BE
330
18
100
AcDbEntity
  8
1
  6
Continuous
 62
     1
100
AcDbCircle
 10
37.30039999999997
 20
-27.39999999999998
 30
0.0
 40
5.0
100
AcDbArc
 50
180.0
 51
225.0
  0
LINE
  5
18BF
330
18
100
AcDbEntity
  8
10
  6
Continuous
 62
     1
100
AcDbLine
 10
32.30039999999997
 20
-27.39999999999998
 30
0.0
 11
32.30039999999997
 21
-17.59899999999999
 31
0.0
  0
ARC
  5
18C0
330
18
100
AcDbEntity
  8
1
  6
Continuous
 62
     1
100
AcDbCircle
 10
37.30039999999997
 20
-17.59899999999999
 30
0.0
 40
5.0
100
AcDbArc
 50
135.0
 51
180.0
  0
ARC
  5
18C1
330
18
100
AcDbEntity
  8
1
  6
Continuous
 62
     1
100
AcDbCircle
 10
37.15639999999996
 20
-31.5
 30
0.0
 40
2.0
100
AcDbArc
 50
225.0
 51
270.0
  0
ARC
  5
18C2
330
18
100
AcDbEntity
  8
1
  6
Continuous
 62
     1
100
AcDbCircle
 10
37.15639999999996
 20
-13.5
 30
0.0
 40
2.0
100
AcDbArc
 50
90.0
 51
135.0
  0
LINE
  5
18C3
330
18
100
AcDbEntity
  8
10
  6
Continuous
 62
     1
100
AcDbLine
 10
45.00040000000001
 20
-34.5
 30
0.0
 11
45.00040000000001
 21
-26.59999999999997
 31
0.0
  0
LINE
  5
18C4
330
18
100
AcDbEntity
  8
1
  6
Continuous
 62
     1
100
AcDbLine
 10
40.00040000000001
 20
-49.5
 30
0.0
 11
40.00040000000001
 21
-40.49999999999999
 31
0.0
  0
ARC
  5
18C5
330
18
100
AcDbEntity
  8
10
  6
Continuous
 62
     1
100
AcDbCircle
 10
40.2004
 20
-57.5
 30
0.0
 40
1.0
100
AcDbArc
 50
0.0
 51
90.0
  0
LINE
  5
18C6
330
18
100
AcDbEntity
  8
10
  6
Continuous
 62
     1
100
AcDbLine
 10
44.85039999999997
 20
-55.5
 30
0.0
 11
44.85039999999997
 21
-53.0
 31
0.0
  0
LINE
  5
18C7
330
18
100
AcDbEntity
  8
10
  6
Continuous
 62
     1
100
AcDbLine
 10
44.85039999999997
 20
-55.5
 30
0.0
 11
45.00040000000001
 21
-55.5
 31
0.0
  0
LINE
  5
18C8
330
18
100
AcDbEntity
  8
10
  6
Continuous
 62
     1
100
AcDbLine
 10
44.85039999999997
 20
-53.0
 30
0.0
 11
45.00040000000001
 21
-53.0
 31
0.0
  0
LINE
  5
18C9
330
18
100
AcDbEntity
  8
10
  6
Continuous
 62
     1
100
AcDbLine
 10
44.85039999999997
 20
-34.5
 30
0.0
 11
44.85039999999997
 21
-37.0
 31
0.0
  0
LINE
  5
18CA
330
18
100
AcDbEntity
  8
10
  6
Continuous
 62
     1
100
AcDbLine
 10
44.85039999999997
 20
-34.5
 30
0.0
 11
45.00040000000001
 21
-34.5
 31
0.0
  0
LINE
  5
18CB
330
18
100
AcDbEntity
  8
10
  6
Continuous
 62
     1
100
AcDbLine
 10
44.85039999999997
 20
-37.0
 30
0.0
 11
45.00040000000001
 21
-37.0
 31
0.0
  0
LINE
  5
18CC
330
18
100
AcDbEntity
  8
10
  6
Continuous
 62
     1
100
AcDbLine
 10
45.00040000000001
 20
-53.0
 30
0.0
 11
45.00040000000001
 21
-37.0
 31
0.0
  0
LINE
  5
18CD
330
18
100
AcDbEntity
  8
10
  6
Continuous
 62
     1
100
AcDbLine
 10
41.2004
 20
-26.59999999999997
 30
0.0
 11
45.00040000000001
 21
-26.59999999999997
 31
0.0
  0
LINE
  5
18CE
330
18
100
AcDbEntity
  8
10
  6
Continuous
 62
     1
100
AcDbLine
 10
41.2004
 20
-18.39999999999998
 30
0.0
 11
45.00040000000001
 21
-18.39999999999998
 31
0.0
  0
ARC
  5
18CF
330
18
100
AcDbEntity
  8
10
  6
Continuous
 62
     1
100
AcDbCircle
 10
40.2004
 20
-32.5
 30
0.0
 40
1.0
100
AcDbArc
 50
270.0
 51
0.000000004841364
  0
ARC
  5
18D0
330
18
100
AcDbEntity
  8
10
  6
Continuous
 62
     1
100
AcDbCircle
 10
40.2004
 20
-12.5
 30
0.0
 40
1.0
100
AcDbArc
 50
0.0
 51
90.0
  0
LINE
  5
18D1
330
18
100
AcDbEntity
  8
10
  6
Continuous
 62
     1
100
AcDbLine
 10
41.2004
 20
-12.5
 30
0.0
 11
41.2004
 21
-18.39999999999998
 31
0.0
  0
LINE
  5
18D2
330
18
100
AcDbEntity
  8
10
  6
Continuous
 62
     1
100
AcDbLine
 10
41.2004
 20
-32.5
 30
0.0
 11
41.2004
 21
-26.59999999999997
 31
0.0
  0
LINE
  5
18D3
330
18
100
AcDbEntity
  8
10
  6
Continuous
 62
     1
100
AcDbLine
 10
45.00040000000001
 20
-10.5
 30
0.0
 11
45.00040000000001
 21
-18.39999999999998
 31
0.0
  0
LINE
  5
18D4
330
18
100
AcDbEntity
  8
10
  6
Continuous
 62
     1
100
AcDbLine
 10
44.85039999999997
 20
-10.5
 30
0.0
 11
45.00040000000001
 21
-10.5
 31
0.0
  0
LINE
  5
18D5
330
18
100
AcDbEntity
  8
1
  6
Continuous
 62
     1
100
AcDbLine
 10
30.2294
 20
10.52899999999999
 30
0.0
 11
32.1214
 21
8.636000000000024
 31
0.0
  0
LINE
  5
18D6
330
18
100
AcDbEntity
  8
1
  6
Continuous
 62
     1
100
AcDbLine
 10
30.2294
 20
34.47200000000004
 30
0.0
 11
32.20740000000001
 21
36.44999999999999
 31
0.0
  0
LINE
  5
18D7
330
18
100
AcDbEntity
  8
1
  6
Continuous
 62
     1
100
AcDbLine
 10
29.93639999999999
 20
55.82100000000003
 30
0.0
 11
32.20740000000001
 21
53.55000000000001
 31
0.0
  0
LINE
  5
18D8
330
18
100
AcDbEntity
  8
1
  6
Continuous
 62
     1
100
AcDbLine
 10
30.93639999999999
 20
78.76400000000001
 30
0.0
 11
32.9144
 21
80.74299999999999
 31
0.0
  0
ARC
  5
18D9
330
18
100
AcDbEntity
  8
1
  6
Continuous
 62
     1
100
AcDbCircle
 10
37.30039999999997
 20
17.59999999999996
 30
0.0
 40
10.0
100
AcDbArc
 50
180.0
 51
225.0
  0
ARC
  5
18E2
330
18
100
AcDbEntity
  8
1
  6
Continuous
 62
     1
100
AcDbCircle
 10
25.30039999999997
 20
26.30000000000001
 30
0.0
 40
2.0
100
AcDbArc
 50
0.0000053477807739
 51
90.0
  0
ARC
  5
18E3
330
18
100
AcDbEntity
  8
1
  6
Continuous
 62
     1
100
AcDbCircle
 10
27.14940000000002
 20
33.80000000000001
 30
0.0
 40
2.0
100
AcDbArc
 50
270.0
 51
327.772000000001
  0
LINE
  5
18E4
330
18
100
AcDbEntity
  8
1
  6
Continuous
 62
     1
100
AcDbLine
 10
27.30039999999997
 20
26.30000000000001
 30
0.0
 11
27.30039999999997
 21
17.59999999999996
 31
0.0
  0
ARC
  5
18E5
330
18
100
AcDbEntity
  8
1
  6
Continuous
 62
     1
100
AcDbCircle
 10
37.30039999999997
 20
27.40100000000007
 30
0.0
 40
10.0
100
AcDbArc
 50
135.0
 51
147.772000000001
  0
LINE
  5
18E6
330
18
100
AcDbEntity
  8
10
  6
Continuous
 62
     1
100
AcDbLine
 10
17.69999999999999
 20
56.69999999999999
 30
0.0
 11
27.81539999999996
 21
56.69999999999999
 31
0.0
  0
ARC
  5
18E7
330
18
100
AcDbEntity
  8
10
  6
Continuous
 62
     1
100
AcDbCircle
 10
22.50040000000002
 20
67.5
 30
0.0
 40
7.0
100
AcDbArc
 50
243.3619999999999
 51
296.652
  0
ARC
  5
18E8
330
18
100
AcDbEntity
  8
10
  6
Continuous
 62
     1
100
AcDbCircle
 10
22.50040000000002
 20
67.5
 30
0.0
 40
7.0
100
AcDbArc
 50
63.34820000000093
 51
116.638
  0
LINE
  5
18E9
330
18
100
AcDbEntity
  8
10
  6
Continuous
 62
     1
100
AcDbLine
 10
27.40139999999997
 20
77.30000000000001
 30
0.0
 11
17.59999999999996
 21
77.30000000000001
 31
0.0
  0
ARC
  5
18EA
330
18
100
AcDbEntity
  8
10
  6
Continuous
 62
     1
100
AcDbCircle
 10
19.22739999999999
 20
60.97499999999996
 30
0.0
 40
0.3
100
AcDbArc
 50
63.36199999999994
 51
136.8540000000007
  0
ARC
  5
18EB
330
18
100
AcDbEntity
  8
10
  6
Continuous
 62
     1
100
AcDbCircle
 10
17.54899999999998
 20
62.548
 30
0.0
 40
2.0
100
AcDbArc
 50
133.1599999999998
 51
316.8540000000007
  0
ARC
  5
18EC
330
18
100
AcDbEntity
  8
10
  6
Continuous
 62
     1
100
AcDbCircle
 10
19.22739999999999
 20
74.02499999999998
 30
0.0
 40
0.3
100
AcDbArc
 50
223.1459999999993
 51
296.638
  0
ARC
  5
18ED
330
18
100
AcDbEntity
  8
10
  6
Continuous
 62
     1
100
AcDbCircle
 10
17.54899999999998
 20
72.45200000000005
 30
0.0
 40
2.0
100
AcDbArc
 50
43.1463000000006
 51
226.8400000000001
  0
ARC
  5
18EE
330
18
100
AcDbEntity
  8
10
  6
Continuous
 62
     1
100
AcDbCircle
 10
15.976
 20
64.22499999999996
 30
0.0
 40
0.3
100
AcDbArc
 50
313.1599999999999
 51
26.65189999999941
  0
ARC
  5
18EF
330
18
100
AcDbEntity
  8
10
  6
Continuous
 62
     1
100
AcDbCircle
 10
15.976
 20
70.77499999999997
 30
0.0
 40
0.3
100
AcDbArc
 50
333.3480000000007
 51
46.8398000000003
  0
ARC
  5
18F0
330
18
100
AcDbEntity
  8
10
  6
Continuous
 62
     1
100
AcDbCircle
 10
22.50040000000002
 20
67.5
 30
0.0
 40
7.0
100
AcDbArc
 50
153.3480000000007
 51
206.638
  0
ARC
  5
18F1
330
18
100
AcDbEntity
  8
1
  6
Continuous
 62
     1
100
AcDbCircle
 10
27.81539999999996
 20
53.69999999999999
 30
0.0
 40
3.0
100
AcDbArc
 50
45.0
 51
90.0
  0
ARC
  5
18F2
330
18
100
AcDbEntity
  8
10
  6
Continuous
 62
     1
100
AcDbCircle
 10
27.45139999999998
 20
62.548
 30
0.0
 40
2.0
100
AcDbArc
 50
223.1459999999993
 51
46.8398000000003
  0
ARC
  5
18F3
330
18
100
AcDbEntity
  8
10
  6
Continuous
 62
     1
100
AcDbCircle
 10
27.45139999999998
 20
72.45200000000005
 30
0.0
 40
2.0
100
AcDbArc
 50
313.1599999999999
 51
136.8540000000007
  0
ARC
  5
18F4
330
18
100
AcDbEntity
  8
10
  6
Continuous
 62
     1
100
AcDbCircle
 10
25.77339999999998
 20
60.97499999999996
 30
0.0
 40
0.3
100
AcDbArc
 50
43.1463000000006
 51
116.638
  0
ARC
  5
18F5
330
18
100
AcDbEntity
  8
10
  6
Continuous
 62
     1
100
AcDbCircle
 10
25.77339999999998
 20
74.02499999999998
 30
0.0
 40
0.3
100
AcDbArc
 50
243.3619999999999
 51
316.8540000000007
  0
ARC
  5
18F6
330
18
100
AcDbEntity
  8
10
  6
Continuous
 62
     1
100
AcDbCircle
 10
22.50040000000002
 20
67.5
 30
0.0
 40
7.0
100
AcDbArc
 50
333.362
 51
26.65189999999941
  0
ARC
  5
18F7
330
18
100
AcDbEntity
  8
10
  6
Continuous
 62
     1
100
AcDbCircle
 10
29.02440000000002
 20
64.22499999999996
 30
0.0
 40
0.3
100
AcDbArc
 50
153.3480000000007
 51
226.8400000000001
  0
ARC
  5
18F8
330
18
100
AcDbEntity
  8
10
  6
Continuous
 62
     1
100
AcDbCircle
 10
29.02440000000002
 20
70.77499999999997
 30
0.0
 40
0.3
100
AcDbArc
 50
133.1599999999998
 51
206.6519999999993
  0
ARC
  5
18F9
330
18
100
AcDbEntity
  8
1
  6
Continuous
 62
     1
100
AcDbCircle
 10
27.40139999999997
 20
82.30000000000002
 30
0.0
 40
5.0
100
AcDbArc
 50
270.0
 51
315.0
  0
ARC
  5
18FA
330
18
100
AcDbEntity
  8
1
  6
Continuous
 62
     1
100
AcDbCircle
 10
37.15639999999996
 20
31.5
 30
0.0
 40
7.0
100
AcDbArc
 50
90.0
 51
135.0
  0
LINE
  5
18FB
330
18
100
AcDbEntity
  8
10
  6
Continuous
 62
     1
100
AcDbLine
 10
44.85039999999997
 20
34.5
 30
0.0
 11
44.85039999999997
 21
37.0
 31
0.0
  0
ARC
  5
18FC
330
18
100
AcDbEntity
  8
10
  6
Continuous
 62
     1
100
AcDbCircle
 10
39.50040000000001
 20
-5.5
 30
0.0
 40
3.45
100
AcDbArc
 50
248.5769999999989
 51
291.4230000000011
  0
LINE
  5
18FD
330
18
100
AcDbEntity
  8
10
  6
Continuous
 62
     2
100
AcDbLine
 10
39.50040000000001
 20
-5.5
 30
0.0
 11
40.94540000000001
 21
-5.5
 31
0.0
  0
ARC
  5
18FE
330
18
100
AcDbEntity
  8
10
  6
Continuous
 62
     1
100
AcDbCircle
 10
39.50040000000001
 20
5.5
 30
0.0
 40
3.45
100
AcDbArc
 50
68.57719999999996
 51
111.423000000001
  0
LINE
  5
18FF
330
18
100
AcDbEntity
  8
10
  6
Continuous
 62
     1
100
AcDbLine
 10
40.2004
 20
33.5
 30
0.0
 11
37.15639999999996
 21
33.5
 31
0.0
  0
LINE
  5
1900
330
18
100
AcDbEntity
  8
10
  6
Continuous
 62
     1
100
AcDbLine
 10
40.2004
 20
11.5
 30
0.0
 11
37.15639999999996
 21
11.5
 31
0.0
  0
LINE
  5
1901
330
18
100
AcDbEntity
  8
10
  6
Continuous
 62
     2
100
AcDbLine
 10
39.50040000000001
 20
5.5
 30
0.0
 11
40.94540000000001
 21
5.5
 31
0.0
  0
LINE
  5
1902
330
18
100
AcDbEntity
  8
10
  6
CENTER
 62
     2
100
AcDbLine
 10
45.00040000000001
 20
22.5
 30
0.0
 11
32.30039999999997
 21
22.5
 31
0.0
  0
LINE
  5
1903
330
18
100
AcDbEntity
  8
1
  6
Continuous
 62
     1
100
AcDbLine
 10
33.76439999999997
 20
14.06400000000002
 30
0.0
 11
35.74239999999998
 21
12.08600000000007
 31
0.0
  0
ARC
  5
1904
330
18
100
AcDbEntity
  8
10
  6
Continuous
 62
     1
100
AcDbCircle
 10
39.50040000000001
 20
-5.5
 30
0.0
 40
3.45
100
AcDbArc
 50
120.4200000000004
 51
201.4229999999995
  0
ARC
  5
1905
330
18
100
AcDbEntity
  8
10
  6
Continuous
 62
     1
100
AcDbCircle
 10
39.50040000000001
 20
5.5
 30
0.0
 40
3.45
100
AcDbArc
 50
158.5770000000004
 51
239.5799999999996
  0
ARC
  5
1906
330
18
100
AcDbEntity
  8
1
  6
Continuous
 62
     1
100
AcDbCircle
 10
30.00040000000002
 20
-6.514999999999986
 30
0.0
 40
3.0
100
AcDbArc
 50
315.0
 51
0.000000004841364
  0
LINE
  5
1907
330
18
100
AcDbEntity
  8
10
  6
Continuous
 62
     1
100
AcDbLine
 10
33.00040000000001
 20
6.514999999999986
 30
0.0
 11
33.00040000000001
 21
-6.514999999999986
 31
0.0
  0
ARC
  5
1908
330
18
100
AcDbEntity
  8
1
  6
Continuous
 62
     1
100
AcDbCircle
 10
30.00040000000002
 20
6.514999999999986
 30
0.0
 40
3.0
100
AcDbArc
 50
0.0000053477807739
 51
45.0
  0
ARC
  5
1909
330
18
100
AcDbEntity
  8
10
  6
Continuous
 62
     1
100
AcDbCircle
 10
36.00939999999997
 20
-6.869999999999947
 30
0.0
 40
0.3
100
AcDbArc
 50
314.4990000000005
 51
21.42280000000004
  0
ARC
  5
190A
330
18
100
AcDbEntity
  8
10
  6
Continuous
 62
     1
100
AcDbCircle
 10
37.06039999999996
 20
-7.938999999999964
 30
0.0
 40
1.199999999999999
100
AcDbArc
 50
134.4990000000005
 51
315.5010000000007
  0
ARC
  5
190B
330
18
100
AcDbEntity
  8
10
  6
Continuous
 62
     1
100
AcDbCircle
 10
38.13040000000001
 20
-8.990999999999985
 30
0.0
 40
0.3
100
AcDbArc
 50
68.57719999999996
 51
135.5010000000007
  0
ARC
  5
190C
330
18
100
AcDbEntity
  8
1
  6
Continuous
 62
     1
100
AcDbCircle
 10
37.50040000000002
 20
-2.093999999999937
 30
0.0
 40
0.5
100
AcDbArc
 50
300.4200000000004
 51
0.0000000045189321
  0
LINE
  5
190D
330
18
100
AcDbEntity
  8
10
  6
Continuous
 62
     2
100
AcDbLine
 10
39.50040000000001
 20
-5.5
 30
0.0
 11
39.50040000000001
 21
-4.072999999999979
 31
0.0
  0
ARC
  5
190E
330
18
100
AcDbEntity
  8
10
  6
Continuous
 62
     1
100
AcDbCircle
 10
36.00939999999997
 20
6.870000000000004
 30
0.0
 40
0.3
100
AcDbArc
 50
338.5770000000004
 51
45.50129999999869
  0
ARC
  5
190F
330
18
100
AcDbEntity
  8
10
  6
Continuous
 62
     1
100
AcDbCircle
 10
37.06039999999996
 20
7.939999999999997
 30
0.0
 40
1.199999999999999
100
AcDbArc
 50
44.49870000000014
 51
225.5009999999995
  0
ARC
  5
1910
330
18
100
AcDbEntity
  8
10
  6
Continuous
 62
     1
100
AcDbCircle
 10
38.13040000000001
 20
8.991000000000042
 30
0.0
 40
0.3
100
AcDbArc
 50
224.4989999999993
 51
291.4230000000011
  0
ARC
  5
1911
330
18
100
AcDbEntity
  8
1
  6
Continuous
 62
     1
100
AcDbCircle
 10
37.15639999999996
 20
13.5
 30
0.0
 40
2.0
100
AcDbArc
 50
225.0
 51
270.0
  0
ARC
  5
1912
330
18
100
AcDbEntity
  8
1
  6
Continuous
 62
     1
100
AcDbCircle
 10
37.50040000000002
 20
2.093999999999994
 30
0.0
 40
0.5
100
AcDbArc
 50
0.0000053480999489
 51
59.58040000000121
  0
LINE
  5
1913
330
18
100
AcDbEntity
  8
1
  6
Continuous
 62
     1
100
AcDbLine
 10
38.00040000000001
 20
2.093999999999994
 30
0.0
 11
38.00040000000001
 21
-2.093999999999937
 31
0.0
  0
LINE
  5
1914
330
18
100
AcDbEntity
  8
10
  6
Continuous
 62
     2
100
AcDbLine
 10
39.50040000000001
 20
5.5
 30
0.0
 11
39.50040000000001
 21
4.074000000000012
 31
0.0
  0
LINE
  5
1915
330
18
100
AcDbEntity
  8
1
  6
Continuous
 62
     1
100
AcDbLine
 10
33.76439999999997
 20
30.93600000000004
 30
0.0
 11
35.74239999999998
 21
32.91399999999999
 31
0.0
  0
ARC
  5
1916
330
18
100
AcDbEntity
  8
1
  6
Continuous
 62
     1
100
AcDbCircle
 10
37.30039999999997
 20
27.40100000000007
 30
0.0
 40
5.0
100
AcDbArc
 50
135.0
 51
180.0
  0
LINE
  5
1917
330
18
100
AcDbEntity
  8
10
  6
Continuous
 62
     1
100
AcDbLine
 10
32.30039999999997
 20
27.40100000000007
 30
0.0
 11
32.30039999999997
 21
17.59999999999996
 31
0.0
  0
ARC
  5
1918
330
18
100
AcDbEntity
  8
1
  6
Continuous
 62
     1
100
AcDbCircle
 10
37.30039999999997
 20
17.59999999999996
 30
0.0
 40
5.0
100
AcDbArc
 50
180.0
 51
225.0
  0
ARC
  5
1919
330
18
100
AcDbEntity
  8
1
  6
Continuous
 62
     1
100
AcDbCircle
 10
37.15639999999996
 20
31.5
 30
0.0
 40
2.0
100
AcDbArc
 50
90.0
 51
135.0
  0
LINE
  5
191A
330
18
100
AcDbEntity
  8
10
  6
Continuous
 62
     1
100
AcDbLine
 10
41.2004
 20
12.5
 30
0.0
 11
41.2004
 21
18.39999999999998
 31
0.0
  0
LINE
  5
191B
330
18
100
AcDbEntity
  8
10
  6
Continuous
 62
     1
100
AcDbLine
 10
45.00040000000001
 20
10.5
 30
0.0
 11
45.00040000000001
 21
18.39999999999998
 31
0.0
  0
ARC
  5
191C
330
18
100
AcDbEntity
  8
10
  6
Continuous
 62
     1
100
AcDbCircle
 10
40.86939999999998
 20
-8.990999999999985
 30
0.0
 40
0.3
100
AcDbArc
 50
44.49870000000014
 51
111.423000000001
  0
ARC
  5
191D
330
18
100
AcDbEntity
  8
10
  6
Continuous
 62
     1
100
AcDbCircle
 10
41.93939999999997
 20
-7.938999999999964
 30
0.0
 40
1.199999999999999
100
AcDbArc
 50
224.4989999999993
 51
45.50129999999869
  0
ARC
  5
191E
330
18
100
AcDbEntity
  8
10
  6
Continuous
 62
     1
100
AcDbCircle
 10
42.9914
 20
-6.869999999999947
 30
0.0
 40
0.3
100
AcDbArc
 50
158.5770000000004
 51
225.5009999999995
  0
ARC
  5
191F
330
18
100
AcDbEntity
  8
10
  6
Continuous
 62
     1
100
AcDbCircle
 10
39.50040000000001
 20
-5.5
 30
0.0
 40
3.45
100
AcDbArc
 50
338.5770000000004
 51
59.58040000000121
  0
ARC
  5
1920
330
18
100
AcDbEntity
  8
1
  6
Continuous
 62
     1
100
AcDbCircle
 10
41.50040000000001
 20
-2.093999999999937
 30
0.0
 40
0.5
100
AcDbArc
 50
180.0
 51
239.5799999999996
  0
ARC
  5
1921
330
18
100
AcDbEntity
  8
10
  6
Continuous
 62
     1
100
AcDbCircle
 10
40.86939999999998
 20
8.991000000000042
 30
0.0
 40
0.3
100
AcDbArc
 50
248.5769999999989
 51
315.5010000000007
  0
ARC
  5
1922
330
18
100
AcDbEntity
  8
10
  6
Continuous
 62
     1
100
AcDbCircle
 10
41.93939999999997
 20
7.939999999999997
 30
0.0
 40
1.199999999999999
100
AcDbArc
 50
314.4990000000005
 51
135.5010000000007
  0
ARC
  5
1923
330
18
100
AcDbEntity
  8
10
  6
Continuous
 62
     1
100
AcDbCircle
 10
42.9914
 20
6.870000000000004
 30
0.0
 40
0.3
100
AcDbArc
 50
134.4990000000005
 51
201.4229999999995
  0
ARC
  5
1924
330
18
100
AcDbEntity
  8
10
  6
Continuous
 62
     1
100
AcDbCircle
 10
39.50040000000001
 20
5.5
 30
0.0
 40
3.45
100
AcDbArc
 50
300.4200000000004
 51
21.42280000000004
  0
ARC
  5
1925
330
18
100
AcDbEntity
  8
10
  6
Continuous
 62
     1
100
AcDbCircle
 10
40.2004
 20
12.5
 30
0.0
 40
1.0
100
AcDbArc
 50
270.0
 51
0.0000107390996264
  0
ARC
  5
1926
330
18
100
AcDbEntity
  8
1
  6
Continuous
 62
     1
100
AcDbCircle
 10
41.50040000000001
 20
2.093999999999994
 30
0.0
 40
0.5
100
AcDbArc
 50
120.4200000000004
 51
180.0
  0
LINE
  5
1927
330
18
100
AcDbEntity
  8
1
  6
Continuous
 62
     1
100
AcDbLine
 10
41.00040000000001
 20
2.093999999999994
 30
0.0
 11
41.00040000000001
 21
-2.093999999999937
 31
0.0
  0
LINE
  5
1928
330
18
100
AcDbEntity
  8
10
  6
Continuous
 62
     1
100
AcDbLine
 10
44.85039999999997
 20
-8.0
 30
0.0
 11
45.00040000000001
 21
-8.0
 31
0.0
  0
LINE
  5
1929
330
18
100
AcDbEntity
  8
10
  6
Continuous
 62
     1
100
AcDbLine
 10
44.85039999999997
 20
10.5
 30
0.0
 11
44.85039999999997
 21
8.0
 31
0.0
  0
LINE
  5
192A
330
18
100
AcDbEntity
  8
10
  6
Continuous
 62
     1
100
AcDbLine
 10
44.85039999999997
 20
10.5
 30
0.0
 11
45.00040000000001
 21
10.5
 31
0.0
  0
LINE
  5
192B
330
18
100
AcDbEntity
  8
10
  6
Continuous
 62
     1
100
AcDbLine
 10
44.85039999999997
 20
8.0
 30
0.0
 11
45.00040000000001
 21
8.0
 31
0.0
  0
LINE
  5
192C
330
18
100
AcDbEntity
  8
10
  6
Continuous
 62
     1
100
AcDbLine
 10
45.00040000000001
 20
8.0
 30
0.0
 11
45.00040000000001
 21
-8.0
 31
0.0
  0
LINE
  5
192D
330
18
100
AcDbEntity
  8
10
  6
Continuous
 62
     1
100
AcDbLine
 10
41.2004
 20
26.59999999999997
 30
0.0
 11
45.00040000000001
 21
26.59999999999997
 31
0.0
  0
LINE
  5
192E
330
18
100
AcDbEntity
  8
10
  6
Continuous
 62
     1
100
AcDbLine
 10
41.2004
 20
18.39999999999998
 30
0.0
 11
45.00040000000001
 21
18.39999999999998
 31
0.0
  0
ARC
  5
192F
330
18
100
AcDbEntity
  8
10
  6
Continuous
 62
     1
100
AcDbCircle
 10
40.2004
 20
32.5
 30
0.0
 40
1.0
100
AcDbArc
 50
0.0000053477807739
 51
90.0
  0
LINE
  5
1930
330
18
100
AcDbEntity
  8
10
  6
Continuous
 62
     1
100
AcDbLine
 10
41.2004
 20
32.5
 30
0.0
 11
41.2004
 21
26.59999999999997
 31
0.0
  0
LINE
  5
1931
330
18
100
AcDbEntity
  8
10
  6
Continuous
 62
     1
100
AcDbLine
 10
45.00040000000001
 20
34.5
 30
0.0
 11
45.00040000000001
 21
26.59999999999997
 31
0.0
  0
LINE
  5
1932
330
18
100
AcDbEntity
  8
10
  6
Continuous
 62
     1
100
AcDbLine
 10
44.85039999999997
 20
34.5
 30
0.0
 11
45.00040000000001
 21
34.5
 31
0.0
  0
ARC
  5
193D
330
18
100
AcDbEntity
  8
1
  6
Continuous
 62
     1
100
AcDbCircle
 10
38.00040000000001
 20
40.49999999999999
 30
0.0
 40
2.0
100
AcDbArc
 50
270.0
 51
0.0000053477807739
  0
ARC
  5
193E
330
18
100
AcDbEntity
  8
1
  6
Continuous
 62
     1
100
AcDbCircle
 10
38.00040000000001
 20
49.5
 30
0.0
 40
2.0
100
AcDbArc
 50
0.0000053477807739
 51
90.0
  0
LINE
  5
193F
330
18
100
AcDbEntity
  8
10
  6
Continuous
 62
     1
100
AcDbLine
 10
40.2004
 20
56.5
 30
0.0
 11
37.15639999999996
 21
56.5
 31
0.0
  0
ARC
  5
1940
330
18
100
AcDbEntity
  8
10
  6
Continuous
 62
     1
100
AcDbCircle
 10
39.50040000000001
 20
84.50000000000001
 30
0.0
 40
3.45
100
AcDbArc
 50
248.5769999999989
 51
291.4230000000011
  0
LINE
  5
1941
330
18
100
AcDbEntity
  8
10
  6
Continuous
 62
     1
100
AcDbLine
 10
40.2004
 20
78.5
 30
0.0
 11
37.15639999999996
 21
78.5
 31
0.0
  0
ARC
  5
1942
330
18
100
AcDbEntity
  8
1
  6
Continuous
 62
     1
100
AcDbCircle
 10
37.30039999999997
 20
62.59899999999999
 30
0.0
 40
5.0
100
AcDbArc
 50
180.0
 51
225.0
  0
ARC
  5
1943
330
18
100
AcDbEntity
  8
1
  6
Continuous
 62
     1
100
AcDbCircle
 10
37.15639999999996
 20
58.5
 30
0.0
 40
7.0
100
AcDbArc
 50
225.0
 51
270.0
  0
LINE
  5
1944
330
18
100
AcDbEntity
  8
1
  6
Continuous
 62
     1
100
AcDbLine
 10
33.76439999999997
 20
59.06400000000002
 30
0.0
 11
35.74239999999998
 21
57.08600000000007
 31
0.0
  0
LINE
  5
1945
330
18
100
AcDbEntity
  8
1
  6
Continuous
 62
     1
100
AcDbLine
 10
38.00040000000001
 20
38.5
 30
0.0
 11
37.15639999999996
 21
38.5
 31
0.0
  0
LINE
  5
1946
330
18
100
AcDbEntity
  8
1
  6
Continuous
 62
     1
100
AcDbLine
 10
38.00040000000001
 20
51.5
 30
0.0
 11
37.15639999999996
 21
51.5
 31
0.0
  0
ARC
  5
1947
330
18
100
AcDbEntity
  8
1
  6
Continuous
 62
     1
100
AcDbCircle
 10
37.15639999999996
 20
58.5
 30
0.0
 40
2.0
100
AcDbArc
 50
225.0
 51
270.0
  0
LINE
  5
1948
330
18
100
AcDbEntity
  8
1
  6
Continuous
 62
     1
100
AcDbLine
 10
33.76439999999997
 20
75.93600000000003
 30
0.0
 11
35.74239999999998
 21
77.91399999999999
 31
0.0
  0
ARC
  5
1951
330
18
100
AcDbEntity
  8
1
  6
Continuous
 62
     1
100
AcDbCircle
 10
37.30039999999997
 20
72.39999999999998
 30
0.0
 40
5.0
100
AcDbArc
 50
135.0
 51
180.0
  0
LINE
  5
1952
330
18
100
AcDbEntity
  8
10
  6
Continuous
 62
     1
100
AcDbLine
 10
32.30039999999997
 20
72.39999999999998
 30
0.0
 11
32.30039999999997
 21
62.59899999999999
 31
0.0
  0
ARC
  5
1953
330
18
100
AcDbEntity
  8
1
  6
Continuous
 62
     1
100
AcDbCircle
 10
31.50040000000001
 20
82.15700000000003
 30
0.0
 40
2.0
100
AcDbArc
 50
315.0
 51
0.0000053477807739
  0
ARC
  5
1954
330
18
100
AcDbEntity
  8
10
  6
Continuous
 62
     1
100
AcDbCircle
 10
36.00939999999997
 20
83.13
 30
0.0
 40
0.3
100
AcDbArc
 50
314.4990000000005
 51
21.42280000000004
  0
ARC
  5
1955
330
18
100
AcDbEntity
  8
10
  6
Continuous
 62
     1
100
AcDbCircle
 10
38.13040000000001
 20
81.00900000000001
 30
0.0
 40
0.3
100
AcDbArc
 50
68.57719999999996
 51
135.5010000000007
  0
ARC
  5
1956
330
18
100
AcDbEntity
  8
10
  6
Continuous
 62
     1
100
AcDbCircle
 10
37.06039999999996
 20
82.06000000000001
 30
0.0
 40
1.199999999999999
100
AcDbArc
 50
134.4990000000005
 51
315.5010000000007
  0
ARC
  5
1957
330
18
100
AcDbEntity
  8
1
  6
Continuous
 62
     1
100
AcDbCircle
 10
37.15639999999996
 20
76.5
 30
0.0
 40
2.0
100
AcDbArc
 50
90.0
 51
135.0
  0
LINE
  5
1958
330
18
100
AcDbEntity
  8
10
  6
Continuous
 62
     1
100
AcDbLine
 10
45.00040000000001
 20
55.5
 30
0.0
 11
45.00040000000001
 21
63.39999999999998
 31
0.0
  0
LINE
  5
1959
330
18
100
AcDbEntity
  8
10
  6
Continuous
 62
     1
100
AcDbLine
 10
41.2004
 20
57.5
 30
0.0
 11
41.2004
 21
63.39999999999998
 31
0.0
  0
LINE
  5
195A
330
18
100
AcDbEntity
  8
1
  6
Continuous
 62
     1
100
AcDbLine
 10
40.00040000000001
 20
49.5
 30
0.0
 11
40.00040000000001
 21
40.49999999999999
 31
0.0
  0
ARC
  5
195B
330
18
100
AcDbEntity
  8
10
  6
Continuous
 62
     1
100
AcDbCircle
 10
40.2004
 20
57.5
 30
0.0
 40
1.0
100
AcDbArc
 50
270.0
 51
0.0000107390996264
  0
LINE
  5
195C
330
18
100
AcDbEntity
  8
10
  6
Continuous
 62
     1
100
AcDbLine
 10
44.85039999999997
 20
55.5
 30
0.0
 11
44.85039999999997
 21
53.0
 31
0.0
  0
LINE
  5
195D
330
18
100
AcDbEntity
  8
10
  6
Continuous
 62
     1
100
AcDbLine
 10
44.85039999999997
 20
55.5
 30
0.0
 11
45.00040000000001
 21
55.5
 31
0.0
  0
LINE
  5
195E
330
18
100
AcDbEntity
  8
10
  6
Continuous
 62
     1
100
AcDbLine
 10
44.85039999999997
 20
53.0
 30
0.0
 11
45.00040000000001
 21
53.0
 31
0.0
  0
LINE
  5
195F
330
18
100
AcDbEntity
  8
10
  6
Continuous
 62
     1
100
AcDbLine
 10
44.85039999999997
 20
37.0
 30
0.0
 11
45.00040000000001
 21
37.0
 31
0.0
  0
LINE
  5
1960
330
18
100
AcDbEntity
  8
10
  6
Continuous
 62
     1
100
AcDbLine
 10
45.00040000000001
 20
53.0
 30
0.0
 11
45.00040000000001
 21
37.0
 31
0.0
  0
LINE
  5
1961
330
18
100
AcDbEntity
  8
10
  6
Continuous
 62
     1
100
AcDbLine
 10
41.2004
 20
71.59999999999996
 30
0.0
 11
45.00040000000001
 21
71.59999999999996
 31
0.0
  0
LINE
  5
1962
330
18
100
AcDbEntity
  8
10
  6
Continuous
 62
     1
100
AcDbLine
 10
41.2004
 20
63.39999999999998
 30
0.0
 11
45.00040000000001
 21
63.39999999999998
 31
0.0
  0
ARC
  5
1963
330
18
100
AcDbEntity
  8
10
  6
Continuous
 62
     1
100
AcDbCircle
 10
40.86939999999998
 20
81.00900000000001
 30
0.0
 40
0.3
100
AcDbArc
 50
44.49870000000014
 51
111.423000000001
  0
ARC
  5
1964
330
18
100
AcDbEntity
  8
10
  6
Continuous
 62
     1
100
AcDbCircle
 10
42.9914
 20
83.13
 30
0.0
 40
0.3
100
AcDbArc
 50
158.5770000000004
 51
225.5009999999995
  0
ARC
  5
1965
330
18
100
AcDbEntity
  8
10
  6
Continuous
 62
     1
100
AcDbCircle
 10
41.93939999999997
 20
82.06000000000001
 30
0.0
 40
1.199999999999999
100
AcDbArc
 50
224.4989999999993
 51
45.50129999999869
  0
LINE
  5
1966
330
18
100
AcDbEntity
  8
10
  6
Continuous
 62
     1
100
AcDbLine
 10
41.2004
 20
77.5
 30
0.0
 11
41.2004
 21
71.59999999999996
 31
0.0
  0
ARC
  5
1967
330
18
100
AcDbEntity
  8
10
  6
Continuous
 62
     1
100
AcDbCircle
 10
40.2004
 20
77.5
 30
0.0
 40
1.0
100
AcDbArc
 50
0.0000053477807739
 51
90.0
  0
LINE
  5
1968
330
18
100
AcDbEntity
  8
1
  6
Continuous
 62
     1
100
AcDbLine
 10
44.85039999999997
 20
79.5
 30
0.0
 11
45.00040000000001
 21
79.5
 31
0.0
  0
LINE
  5
1969
330
18
100
AcDbEntity
  8
10
  6
Continuous
 62
     1
100
AcDbLine
 10
45.00040000000001
 20
79.5
 30
0.0
 11
45.00040000000001
 21
71.59999999999996
 31
0.0
  0
LINE
  5
196A
330
18
100
AcDbEntity
  8
10
  6
Continuous
 62
     1
100
AcDbLine
 10
44.85039999999997
 20
79.5
 30
0.0
 11
44.85039999999997
 21
82.0
 31
0.0
  0
LINE
  5
196B
330
18
100
AcDbEntity
  8
10
  6
Continuous
 62
     1
100
AcDbLine
 10
44.85039999999997
 20
82.0
 30
0.0
 11
45.00040000000001
 21
82.0
 31
0.0
  0
LINE
  5
1980
330
18
100
AcDbEntity
  8
10
  6
Continuous
 62
     1
100
AcDbLine
 10
32.50040000000002
 20
86.19999999999999
 30
0.0
 11
26.60039999999998
 21
86.19999999999999
 31
0.0
  0
LINE
  5
1981
330
18
100
AcDbEntity
  8
10
  6
Continuous
 62
     1
100
AcDbLine
 10
34.50040000000001
 20
90.0
 30
0.0
 11
26.60039999999998
 21
90.0
 31
0.0
  0
LINE
  5
1982
330
18
100
AcDbEntity
  8
10
  6
Continuous
 62
     1
100
AcDbLine
 10
18.39999999999998
 20
86.19999999999999
 30
0.0
 11
18.39999999999998
 21
90.0
 31
0.0
  0
LINE
  5
198C
330
18
100
AcDbEntity
  8
10
  6
Continuous
 62
     1
100
AcDbLine
 10
26.60039999999998
 20
86.19999999999999
 30
0.0
 11
26.60039999999998
 21
90.0
 31
0.0
  0
LINE
  5
1997
330
18
100
AcDbEntity
  8
10
  6
Continuous
 62
     2
100
AcDbLine
 10
39.50040000000001
 20
84.50000000000001
 30
0.0
 11
40.94540000000001
 21
84.50000000000001
 31
0.0
  0
ARC
  5
1998
330
18
100
AcDbEntity
  8
10
  6
Continuous
 62
     1
100
AcDbCircle
 10
39.50040000000001
 20
84.50000000000001
 30
0.0
 40
3.45
100
AcDbArc
 50
68.57719999999996
 51
111.423000000001
  0
LINE
  5
1999
330
18
100
AcDbEntity
  8
10
  6
Continuous
 62
     1
100
AcDbLine
 10
43.00040000000001
 20
90.0
 30
0.0
 11
37.00040000000001
 21
90.0
 31
0.0
  0
LINE
  5
199A
330
18
100
AcDbEntity
  8
10
  6
Continuous
 62
     1
100
AcDbLine
 10
34.50040000000001
 20
89.84999999999997
 30
0.0
 11
37.00040000000001
 21
89.84999999999997
 31
0.0
  0
ARC
  5
199B
330
18
100
AcDbEntity
  8
10
  6
Continuous
 62
     1
100
AcDbCircle
 10
32.50040000000002
 20
85.19999999999999
 30
0.0
 40
1.0
100
AcDbArc
 50
0.0000053477807739
 51
90.0
  0
LINE
  5
199C
330
18
100
AcDbEntity
  8
10
  6
Continuous
 62
     1
100
AcDbLine
 10
34.50040000000001
 20
89.84999999999997
 30
0.0
 11
34.50040000000001
 21
90.0
 31
0.0
  0
ARC
  5
199E
330
18
100
AcDbEntity
  8
10
  6
Continuous
 62
     1
100
AcDbCircle
 10
38.13040000000001
 20
87.99100000000004
 30
0.0
 40
0.3
100
AcDbArc
 50
224.4989999999993
 51
291.4230000000011
  0
ARC
  5
199F
330
18
100
AcDbEntity
  8
10
  6
Continuous
 62
     1
100
AcDbCircle
 10
36.00939999999997
 20
85.87000000000001
 30
0.0
 40
0.3
100
AcDbArc
 50
338.5770000000004
 51
45.50129999999869
  0
ARC
  5
19A0
330
18
100
AcDbEntity
  8
10
  6
Continuous
 62
     1
100
AcDbCircle
 10
37.06039999999996
 20
86.94
 30
0.0
 40
1.199999999999999
100
AcDbArc
 50
44.49870000000014
 51
225.5009999999995
  0
LINE
  5
19A1
330
18
100
AcDbEntity
  8
10
  6
Continuous
 62
     2
100
AcDbLine
 10
39.50040000000001
 20
84.50000000000001
 30
0.0
 11
39.50040000000001
 21
85.92600000000004
 31
0.0
  0
LINE
  5
19A2
330
18
100
AcDbEntity
  8
10
  6
Continuous
 62
     1
100
AcDbLine
 10
37.00040000000001
 20
89.84999999999997
 30
0.0
 11
37.00040000000001
 21
90.0
 31
0.0
  0
ARC
  5
19B3
330
18
100
AcDbEntity
  8
10
  6
Continuous
 62
     1
100
AcDbCircle
 10
43.00040000000001
 20
88.0
 30
0.0
 40
2.0
100
AcDbArc
 50
0.0000053961895286
 51
90.0
  0
ARC
  5
19B4
330
18
100
AcDbEntity
  8
10
  6
Continuous
 62
     1
100
AcDbCircle
 10
40.86939999999998
 20
87.99100000000004
 30
0.0
 40
0.3
100
AcDbArc
 50
248.5769999999989
 51
315.5010000000007
  0
ARC
  5
19B5
330
18
100
AcDbEntity
  8
10
  6
Continuous
 62
     1
100
AcDbCircle
 10
42.9914
 20
85.87000000000001
 30
0.0
 40
0.3
100
AcDbArc
 50
134.4990000000005
 51
201.4229999999995
  0
ARC
  5
19B6
330
18
100
AcDbEntity
  8
10
  6
Continuous
 62
     1
100
AcDbCircle
 10
41.93939999999997
 20
86.94
 30
0.0
 40
1.199999999999999
100
AcDbArc
 50
314.4990000000005
 51
135.5010000000007
  0
TEXT
  5
19C3
330
18
100
AcDbEntity
  8
1
  6
Continuous
 62
     1
100
AcDbText
 10
-6.547815983015311
 20
104.6135837428605
 30
0.0
 40
6.0
  1
EO1-5
 41
0.99
100
AcDbText
  0
ENDSEC
  0
SECTION
  2
OBJECTS
  0
DICTIONARY
  5
C
330
0
100
AcDbDictionary
281
     1
  3
ACAD_COLOR
350
19D1
  3
ACAD_GROUP
350
D
  3
ACAD_LAYOUT
350
925
  3
ACAD_MATERIAL
350
19D0
  3
ACAD_MLINESTYLE
350
1B
  3
ACAD_PLOTSETTINGS
350
926
  3
ACAD_PLOTSTYLENAME
350
923
  3
ACDBHEADERROUNDTRIPXREC
350
19D9
  3
AcDbVariableDictionary
350
98A
  3
ACGREF_MASTER
350
93B
  3
ACGREFACAD_MASTER
350
93F
  3
AcmDictionary
350
945
  3
ACME_BOM_MANAGER_NAME
350
934
  3
ACME_COMMAND_HISTORY
350
92F
  3
ACME_SCOPE_NAME
350
92E
  3
ACMESTATEMGR
350
939
  3
AcmeSysVarManager
350
930
  3
AcmSystemVariableManager
350
949
  3
AMG
350
941
  3
AMGSNAPSETTINGS
350
97A
  3
AMI_MASTER
350
940
  3
DWGPROPS
350
19D8
  0
DICTIONARY
  5
981
330
18
100
AcDbDictionary
280
     1
281
     1
  3
ACAD_INDEX
360
982
  0
DICTIONARY
  5
19D1
102
{ACAD_REACTORS
330
C
102
}
330
C
100
AcDbDictionary
281
     1
  0
DICTIONARY
  5
D
102
{ACAD_REACTORS
330
C
102
}
330
C
100
AcDbDictionary
281
     1
  0
DICTIONARY
  5
925
102
{ACAD_REACTORS
330
C
102
}
330
C
100
AcDbDictionary
281
     1
  3
Layout1
350
928
  3
Model
350
927
  0
DICTIONARY
  5
19D0
102
{ACAD_REACTORS
330
C
102
}
330
C
100
AcDbDictionary
281
     1
  0
DICTIONARY
  5
1B
102
{ACAD_REACTORS
330
C
102
}
330
C
100
AcDbDictionary
281
     1
  3
STANDARD
350
1C
  0
DICTIONARY
  5
926
102
{ACAD_REACTORS
330
C
102
}
330
C
100
AcDbDictionary
281
     1
  0
ACDBDICTIONARYWDFLT
  5
923
102
{ACAD_REACTORS
330
C
102
}
330
C
100
AcDbDictionary
281
     1
  3
Normal
350
924
100
AcDbDictionaryWithDefault
340
924
  0
DICTIONARY
  5
19D9
102
{ACAD_REACTORS
330
C
102
}
330
C
100
AcDbDictionary
281
     1
  3
COLORDICT
350
19DB
  3
MATERIALDICT
350
19DA
  0
DICTIONARY
  5
98A
102
{ACAD_REACTORS
330
C
102
}
330
C
100
AcDbDictionary
281
     1
  3
DIMASSOC
350
98C
  3
INDEXCTL
350
98B
  3
PROJECTNAME
350
19D6
  0
ACAD_PROXY_OBJECT
  5
93B
102
{ACAD_REACTORS
330
C
102
}
330
C
100
AcDbProxyObject
 90
      499
 91
      515
 95
   917527
 70
     0
 93
       34
310
0400004291
 94
        0
1001
ACAD
1000
AcRTDxfName
1000
ACGREFMASTER
  0
ACAD_PROXY_OBJECT
  5
93F
102
{ACAD_REACTORS
330
C
102
}
330
C
100
AcDbProxyObject
 90
      499
 91
      518
 95
   917527
 70
     0
 93
      114
310
04000041C000000000000000000000
 94
        0
1001
ACAD
1000
AcRTDxfName
1000
ACGREFACADMASTER
  0
DICTIONARY
  5
945
102
{ACAD_REACTORS
330
C
102
}
330
C
100
AcDbDictionary
281
     1
  3
AcmBOMDATA
350
946
  3
AcmStdDictionary
350
94B
  0
ACAD_PROXY_OBJECT
  5
934
102
{ACAD_REACTORS
330
C
102
}
330
C
100
AcDbProxyObject
 90
      499
 91
      509
 95
   917527
 70
     0
 93
       50
310
00000040400013
330
0
330
0
330
935
 94
        0
1001
ACAD
1000
AcRTDxfName
1000
ACMEDRAWINGMAN
  0
ACAD_PROXY_OBJECT
  5
92F
102
{ACAD_REACTORS
330
C
102
}
330
C
100
AcDbProxyObject
 90
      499
 91
      505
 95
   917527
 70
     0
 93
     2726
310
47805045A4F4F4D805045A4F4F4D8050C475249505F535452455443488050C475249505F535452455443488050C475249505F535452455443488050C475249505F535452455443488050C475249505F535452455443488050C475249505F535452455443488050C475249505F535452455443488050C475249505F53545245
310
544348805045A4F4F4D8050551534156458050653455456415280505524547454E80505505552474580505515341564580506534156454153805065341564541538050653415645415340405184D5347202D20436F6D6D616E642043414E43454C4C45442E014194D055915054E014194D055915054E014194D055915054E0
310
14194D055915054E014194D055915054E014194D055915054D0101461354D1C80B4810DBDB5B585B990810D05390D1531311510B805054552415345805045A4F4F4D805044D4F5645805045A4F4F4D8050551534156458
 94
        0
1001
ACAD
1000
AcRTDxfName
1000
ACMECOMMANDHISTORY
  0
ACAD_PROXY_OBJECT
  5
92E
102
{ACAD_REACTORS
330
C
102
}
330
C
100
AcDbProxyObject
 90
      499
 91
      504
 95
   917527
 70
     0
 93
      202
310
06000044400000000000000000001054220000000000AAAAAA80
360
931
360
932
360
933
360
935
360
94A
 94
        0
1001
ACAD
1000
AcRTDxfName
1000
ACMESCOPE
  0
ACAD_PROXY_OBJECT
  5
939
102
{ACAD_REACTORS
330
C
102
}
330
C
100
AcDbProxyObject
 90
      499
 91
      514
 95
   917527
 70
     0
 93
       50
310
06000041641280
 94
        0
1001
ACAD
1000
AcRTDxfName
1000
ACMESTATEMGR
  0
ACAD_PROXY_OBJECT
  5
930
102
{ACAD_REACTORS
330
C
102
}
330
C
100
AcDbProxyObject
 90
      499
 91
      506
 95
   917527
 70
     0
 93
       48
310
903422000000F8
330
931
330
932
330
933
 94
        0
1001
ACAD
1000
AcRTDxfName
1000
ACIMSYSVARMAN
  0
ACAD_PROXY_OBJECT
  5
949
102
{ACAD_REACTORS
330
C
102
}
330
C
100
AcDbProxyObject
 90
      499
 91
      506
 95
   917527
 70
     0
 93
       32
310
90142200F8
330
94A
 94
        0
1001
ACAD
1000
AcRTDxfName
1000
ACIMSYSVARMAN
  0
DICTIONARY
  5
941
102
{ACAD_REACTORS
330
C
102
}
330
C
100
AcDbDictionary
281
     1
  3
AcMgSettings
350
942
  3
AMGLAYCFG
350
94D
  0
DICTIONARY
  5
97A
102
{ACAD_REACTORS
330
C
102
}
330
C
100
AcDbDictionary
281
     1
  3
DIMENSION
350
97F
  3
FEA
350
97E
  3
HATCH (1)
350
97B
  3
HATCH (2)
350
97C
  3
SIMPLE WELD
350
980
  3
SYMBOLS
350
97D
  0
ACAD_PROXY_OBJECT
  5
940
102
{ACAD_REACTORS
330
C
102
}
330
C
100
AcDbProxyObject
 90
      499
 91
      519
 95
   917527
 70
     0
 93
       34
310
0500004291
 94
        0
1001
ACAD
1000
AcRTDxfName
1000
AMIMASTER
  0
XRECORD
  5
19D8
102
{ACAD_REACTORS
330
C
102
}
330
C
100
AcDbXrecord
280
     1
  1
DWGPROPS COOKIE
  2

  3

  4

  6

  7

  8

  9

300
AmdtFileType=84
301
=
302
=
303
=
304
=
305
=
306
=
307
=
308
=
309
=
 40
0.0217480555555556
 41
2444972.041666667
 42
2453352.753104017
  1

 90
        1
  0
DICTIONARY
  5
982
102
{ACAD_REACTORS
330
981
102
}
330
981
100
AcDbDictionary
281
     1
  3
*A1
350
983
  0
LAYOUT
  5
928
102
{ACAD_XDICTIONARY
360
19DE
102
}
102
{ACAD_REACTORS
330
925
102
}
330
925
100
AcDbPlotSettings
  1

  2
RICOH Aficio 200 PCL (Copia 3)
  4

  6

 40
0.0
 41
0.0
 42
0.0
 43
0.0
 44
0.0
 45
0.0
 46
0.0
 47
0.0
 48
0.0
 49
0.0
140
0.0
141
0.0
142
1.0
143
1.0
 70
   688
 72
     0
 73
     0
 74
     5
  7
monochrome.ctb
 75
    16
147
1.0
148
0.0
149
0.0
100
AcDbLayout
  1
Layout1
 70
     1
 71
     1
 10
0.0
 20
0.0
 11
12.0
 21
9.0
 12
0.0
 22
0.0
 32
0.0
 14
1.000000000000000E+20
 24
1.000000000000000E+20
 34
1.000000000000000E+20
 15
-1.000000000000000E+20
 25
-1.000000000000000E+20
 35
-1.000000000000000E+20
146
0.0
 13
0.0
 23
0.0
 33
0.0
 16
1.0
 26
0.0
 36
0.0
 17
0.0
 27
1.0
 37
0.0
 76
     0
330
15
  0
LAYOUT
  5
927
102
{ACAD_XDICTIONARY
360
19DC
102
}
102
{ACAD_REACTORS
330
925
102
}
330
925
100
AcDbPlotSettings
  1

  2
RICOH Aficio 200 PCL (Copia 3)
  4

  6

 40
0.0
 41
0.0
 42
0.0
 43
0.0
 44
0.0
 45
0.0
 46
0.0
 47
0.0
 48
0.0
 49
0.0
140
0.0
141
0.0
142
1.0
143
1.0
 70
  1712
 72
     0
 73
     0
 74
     0
  7
monochrome.ctb
 75
     0
147
1.0
148
0.0
149
0.0
100
AcDbLayout
  1
Model
 70
     1
 71
     0
 10
0.0
 20
0.0
 11
12.0
 21
9.0
 12
0.0
 22
0.0
 32
0.0
 14
0.0
 24
0.0
 34
0.0
 15
0.0
 25
0.0
 35
0.0
146
0.0
 13
0.0
 23
0.0
 33
0.0
 16
1.0
 26
0.0
 36
0.0
 17
0.0
 27
1.0
 37
0.0
 76
     0
330
18
  0
MLINESTYLE
  5
1C
102
{ACAD_REACTORS
330
1B
102
}
330
1B
100
AcDbMlineStyle
  2
STANDARD
 70
     0
  3

 62
   256
 51
90.0
 52
90.0
 71
     2
 49
0.5
 62
   256
  6
BYLAYER
 49
-0.5
 62
   256
  6
BYLAYER
  0
ACDBPLACEHOLDER
  5
924
102
{ACAD_REACTORS
330
923
102
}
330
923
  0
XRECORD
  5
19DB
102
{ACAD_REACTORS
330
19D9
102
}
330
19D9
100
AcDbXrecord
280
     1
340
19D1
  0
XRECORD
  5
19DA
102
{ACAD_REACTORS
330
19D9
102
}
330
19D9
100
AcDbXrecord
280
     1
340
19D0
  0
DICTIONARYVAR
  5
98C
102
{ACAD_REACTORS
330
98A
102
}
330
98A
100
DictionaryVariables
280
     0
  1
1
  0
DICTIONARYVAR
  5
98B
102
{ACAD_REACTORS
330
98A
102
}
330
98A
100
DictionaryVariables
280
     0
  1
1
  0
DICTIONARYVAR
  5
19D6
102
{ACAD_REACTORS
330
98A
102
}
330
98A
100
DictionaryVariables
280
     0
  1

  0
ACAD_PROXY_OBJECT
  5
946
102
{ACAD_REACTORS
330
945
102
}
330
945
100
AcDbProxyObject
 90
      499
 91
      521
 95
   917527
 70
     0
 93
      118
310
405010040CA904C415CD5B0757102A
350
947
 94
        0
1001
ACAD
1000
AcRTDxfName
1000
ACMDATADICTIONARY
  0
DICTIONARY
  5
94B
102
{ACAD_REACTORS
330
945
102
}
330
945
100
AcDbDictionary
281
     1
  3
ANSI
350
94C
  0
ACAD_PROXY_OBJECT
  5
931
330
0
100
AcDbProxyObject
 90
      499
 91
      507
 95
   917527
 70
     0
 93
      156
310
00010143D050D351505391D5531054925390D495
330
92E
 94
        0
1001
ACAD
1000
AcRTDxfName
1000
ACIMREALSYSVAR
  0
ACAD_PROXY_OBJECT
  5
932
330
0
100
AcDbProxyObject
 90
      499
 91
      507
 95
   917527
 70
     0
 93
      148
310
000101439050D351531253915054925390D490
330
92E
 94
        0
1001
ACAD
1000
AcRTDxfName
1000
ACIMREALSYSVAR
  0
ACAD_PROXY_OBJECT
  5
933
330
0
100
AcDbProxyObject
 90
      499
 91
      508
 95
   917527
 70
     0
 93
      156
310
000101439050D35154D6535093D314D256915085
330
92E
 94
        0
1001
ACAD
1000
AcRTDxfName
1000
ACIMINTSYSVAR
  0
ACAD_PROXY_OBJECT
  5
935
330
0
100
AcDbProxyObject
 90
      499
 91
      510
 95
   917527
 70
     0
 93
      216
310
00010145111A5CDD1A5B9D184818DBDB5C1BDB995B9D1A4C402B00FE
330
92E
330
0
330
0
 94
        0
1001
ACAD
1000
AcRTDxfName
1000
ACMEVIEW
  0
ACAD_PROXY_OBJECT
  5
94A
330
0
100
AcDbProxyObject
 90
      499
 91
      523
 95
   917527
 70
     0
 93
      148
310
00010142105350D55494D51100504414E53494
330
92E
 94
        0
1001
ACAD
1000
AcRTDxfName
1000
ACIMSTRSYSVAR
  0
DICTIONARY
  5
942
102
{ACAD_REACTORS
330
941
102
}
330
941
100
AcDbDictionary
281
     1
  3
DWGSETTINGS
350
943
  3
TRANSSETTINGS
350
944
  0
ACAD_PROXY_OBJECT
  5
94D
102
{ACAD_REACTORS
330
941
102
}
330
941
100
AcDbProxyObject
 90
      499
 91
      525
 95
   917527
 70
     0
 93
    12922
310
41103491013041105357CC10747A404C504414D5F314391E9013241105357CC90547A404CD04414D5F334190F9013441105357CD10343E404D504414D5F3540D0F9013641105357CD90247A404DD04414D5F374110F9013841105357CE10143E404E504414D5F397F641102324141505357CC4C10747A408D10505414D5F31
310
3140D0F902495041505357CC4C90747902408C13905414D5F304E41D1E902314E41505357CC5390E47A408C93905414D5F324E4151E902334E41505357CCD390643E408D13905414D5F344E40D0F902354E41505357CD5390343E408D93905414D5F364E4091E902374E41505357CDD390443E408E13905414D5F384E4050F
310
902394E41505357CE539FD90440CC9053906414D5F31304E41D1E90334414E41905357CC4C5390343E40D25413906414D5F31324E41D1E409044B4C494E41505357D0D310143D094112539193D08414D5F50415245464110F42D055241484D3541905357D093D4907479094115925155D08414D5F56494557534050F42D064
310
24548494E4441905357D253959FD90D415514905253105414D5F545240D0F4250348494441905357D2125110743D0940D59254D06414D5F56495341D1E4250650415244494D42505357D4105491125350343D0941949151911253509414D5F52454644494D4110F42553411092139590139CFFFFFFFF415092139594D06424
310
548494E44CFFFFFFFF411093D48C9055241484D354050F411093D48CD055241484D354091E411093D48D5055241484D35CFFFFFFFF4110D0530C90134CFFFFFFFF4110D0530CD01344091E4110D0530D5013441D1E4110D0530DD01344793C4110D1539390137CFFFFFFFF4110D15395D0137CFFFFFFFF4110D312539044B4
310
C494ECFFFFFFFF4110D3D38C50130CFFFFFFFF4110D3D38C90131CFFFFFFFF4110D3D38CD0132CFFFFFFFF4110D3D38D10132CFFFFFFFF411111551050134CFFFFFFFF4111125051D0135CFFFFFFFF411112531250135CFFFFFFFF411112535410650415244494DCFFFFFFFF411112535490652454644494DCFFFFFFFF4111
310
91535390138CFFFFFFFF4151915354139013840CFFFFFFFF4151915354D41023441CFFFFFFFF4151915354D5102344140D0F41519153559390132CFFFFFFFF4151915355951013240D0F4112105510D0138CFFFFFFFF411212511390133CFFFFFFFF4112125115D0133CFFFFFFFF411213125390134CFFFFFFFF411213D0D3
310
90137CFFFFFFFF411213D0D5D0137CFFFFFFFF4112539193D04494E464FCFFFFFFFF411311505110135CFFFFFFFF419397D0921395902394ECFFFFFFFF419397D0D3D38C502304ECFFFFFFFF419397D0D3D38C902314ECFFFFFFFF419397D0D3D38CD02324ECFFFFFFFF419397D0D3D38D102324ECFFFFFFFF419397D0D153
310
93902374ECFFFFFFFF419397D0D15395D02374ECFFFFFFFF419397D1125312502354ECFFFFFFFF419397D2105510D02384ECFFFFFFFF419397D2125113902334ECFFFFFFFF419397D2125115D02334ECFFFFFFFF419397D3115051102354ECFFFFFFFF419397D391D25410349504ECFFFFFFFF419397D412105390334414EC
310
FFFFFFFF419397D510D3D3902304ECFFFFFFFF419397D5121312502344ECFFFFFFFF419397D5131153902304ECFFFFFFFF419397D594131250332414ECFFFFFFFF411391D2541024950CFFFFFFFF411410530C9055241484D354050F411410530CD055241484D354091E411410530D5055241484D35CFFFFFFFF4114121053
310
9023441CFFFFFFFF411413D4D390135CFFFFFFFF411490D1D390137CFFFFFFFF411490D1D5D0137CFFFFFFFF4114D09492D013441D1E4114D150D510134CFFFFFFFF4114D6508CD01354091E411354D653501354091E411510D3D390130CFFFFFFFF411512131250134CFFFFFFFF411512550C9055241484D354050F411512
310
550CD055241484D354091E411512550D5055241484D35CFFFFFFFF411513115390130CFFFFFFFF415514905253105545241494CCFFFFFFFF411514931250134CFFFFFFFF411516150C5013640D0F411516150C9013640D0F411516150CD0136CFFFFFFFF411516150D5013641D1E411516150DD01364793C4115925155D045
310
6494557CFFFFFFFF4115915112103484944CFFFFFFFF4115915115903564953CFFFFFFFF41159413125023241CFFFFFFFF411692569050134CFFFFFFFFAA9FD404FE4290E479074790643D054790443D0343D024790143D1E4F1FD80
340
14
340
14
340
14
340
957
340
14
340
14
340
14
340
21
340
14
340
14
340
21
340
958
340
14
340
14
340
14
340
14
340
957
340
14
340
14
340
14
340
21
340
14
340
14
340
21
340
958
340
14
340
951
340
14
340
14
340
14
340
14
340
14
340
957
340
14
340
14
340
14
340
13
340
13
340
13
340
13
340
13
340
13
340
13
340
13
340
13
340
959
340
13
340
13
340
13
340
13
340
13
340
13
340
13
340
13
340
13
340
13
340
13
340
13
340
13
340
14
340
13
340
13
340
13
340
13
340
95A
340
13
340
13
340
959
340
13
340
13
340
13
340
13
340
13
340
13
340
13
340
13
340
959
340
13
340
13
340
13
340
95A
340
13
340
13
340
13
340
13
340
13
340
95A
340
13
340
958
340
13
340
13
340
13
340
13
340
13
340
13
340
959
340
13
340
13
340
13
340
13
340
13
340
13
340
95A
340
13
340
13
340
13
340
13
340
13
340
13
340
13
340
13
340
13
340
13
340
13
340
13
340
13
340
13
340
958
340
95B
 94
        0
1001
ACAD
1000
AcRTDxfName
1000
AMGOBJPROPCFG
  0
ACAD_PROXY_OBJECT
  5
97F
102
{ACAD_REACTORS
330
97A
102
}
330
97A
100
AcDbProxyObject
 90
      499
 91
      540
 95
   917527
 70
     0
 93
      253
310
43D1444494D454E53494F4E2C414D44545F2A5F44494D404A9012A404A9012A8
 94
        0
1001
ACAD
1000
AcRTDxfName
1000
ACAMGFILTERDAT
  0
ACAD_PROXY_OBJECT
  5
97E
102
{ACAD_REACTORS
330
97A
102
}
330
97A
100
AcDbProxyObject
 90
      499
 91
      540
 95
   917527
 70
     0
 93
      181
310
43D012A42D05357D191504B505357CA9012A404A9012AD
 94
        0
1001
ACAD
1000
AcRTDxfName
1000
ACAMGFILTERDAT
  0
ACAD_PROXY_OBJECT
  5
97B
102
{ACAD_REACTORS
330
97A
102
}
330
97A
100
AcDbProxyObject
 90
      499
 91
      540
 95
   917527
 70
     0
 93
      133
310
43D054841544348404A9012A404A9012A8
 94
        0
1001
ACAD
1000
AcRTDxfName
1000
ACAMGFILTERDAT
  0
ACAD_PROXY_OBJECT
  5
97C
102
{ACAD_REACTORS
330
97A
102
}
330
97A
100
AcDbProxyObject
 90
      499
 91
      540
 95
   917527
 70
     0
 93
      549
310
43D044C494E4549CE0B0E138B0A8B4E0B0A8B4E138B105357CE0B105357CE138B0A8B505357CE0B0A8B505357CE139012A404A910494E534552542C5354445041525432449
 94
        0
1001
ACAD
1000
AcRTDxfName
1000
ACAMGFILTERDAT
  0
ACAD_PROXY_OBJECT
  5
980
102
{ACAD_REACTORS
330
97A
102
}
330
97A
100
AcDbProxyObject
 90
      499
 91
      540
 95
   917527
 70
     0
 93
      181
310
43D0341524341105357CD5012A404C906494E534552544
 94
        0
1001
ACAD
1000
AcRTDxfName
1000
ACAMGFILTERDAT
  0
ACAD_PROXY_OBJECT
  5
97D
102
{ACAD_REACTORS
330
97A
102
}
330
97A
100
AcDbProxyObject
 90
      499
 91
      540
 95
   917527
 70
     0
 93
     1053
310
43D7841434D46434652414D452C41434D444154554D5441524745542C41434D444154554D49442C41434D57454C4453594D2C41434D5355524653594D2C41434D4645415449442C41434D504152545245462C41434D42414C4C4F4F4E2C414D44544544474553594D2C414D47534352455743414C435441424C45404A9012A
310
404A9012A8
 94
        0
1001
ACAD
1000
AcRTDxfName
1000
ACAMGFILTERDAT
  0
LAYER_INDEX
  5
983
102
{ACAD_REACTORS
330
982
102
}
330
982
100
AcDbIndex
 40
2453352.753104017
100
AcDbLayerIndex
  8
0
360
984
 90
        0
  8
1
360
985
 90
      199
  8
2
360
986
 90
        0
  8
4
360
987
 90
        0
  8
15
360
988
 90
        0
  8
10
360
19C1
 90
      424
  0
DICTIONARY
  5
19DE
330
928
100
AcDbDictionary
280
     1
281
     1
  3
ACAD_XREC_ROUNDTRIP
360
19DF
  0
DICTIONARY
  5
19DC
330
927
100
AcDbDictionary
280
     1
281
     1
  3
ACAD_XREC_ROUNDTRIP
360
19DD
  0
ACAD_PROXY_OBJECT
  5
947
102
{ACAD_REACTORS
330
946
102
}
330
946
100
AcDbProxyObject
 90
      499
 91
      522
 95
   917527
 70
     0
 93
      139
310
057356C1D5C406406AA8FFFFFFFF0AE24048
330
18
330
0
330
0
 94
        0
1001
ACAD
1000
AcRTDxfName
1000
ACMDATAENTRYBLOCK
  0
ACAD_PROXY_OBJECT
  5
94C
102
{ACAD_REACTORS
330
94B
102
}
330
94B
100
AcDbProxyObject
 90
      499
 91
      524
 95
   917527
 70
     0
 93
     2109
310
570B81E85EB51B8BE3FD04414E5349405901409022E07A17AD46E2F8FD2208721C82C6DAA6EAE4CCA8CAF0E8A6E8C88120284A0B1B6A321A329BA3220480A1A82C6DAAECAD8C8D2DCCEA6E8C8812028420B1B6A4B229BA3220480A1682C6DA88C2E8EADAA6E8C88120284A0B1B6A127A6A9BA3220480A2082DAC8E888CAE8C
310
2D2D8A6F2DAA6E8C88120288A0B6B23A29B2B1BA34B7B729BCB6A9BA3220480A2282DAC8E886CADCE8CAE498D2DCCAA6E8C88120285A0B6B23A2737BA32A9BA3220480A1682C682DACE98C2F2A6E8C88120285A0B1A0B6B3A234B6A9BA3220480A2282C682DACE90DED8CA86D0C2E4E8A6E8C88120286A0B1A0B6B3AA34BA3
310
632A9BA3220480A02811
340
95C
360
95D
360
95E
360
95F
360
960
360
961
360
962
360
963
360
964
360
965
360
966
360
96B
360
96C
360
977
360
978
 94
        0
1001
ACAD
1000
AcRTDxfName
1000
ACMSTANDARDANSI
  0
ACAD_PROXY_OBJECT
  5
943
102
{ACAD_REACTORS
330
942
102
}
330
942
100
AcDbProxyObject
 90
      499
 91
      520
 95
   917527
 70
     0
 93
     2468
310
4050B44574753455454494E4753A1286829C8E82A4A482B282A106660F8686AF86C608321A2A720A723A0A849A1ABE1C983E18999AA0C868A9C889282940000000000001C07E83A1A2A72224A0A9A0A8598171ABE1897183E18971AA0E868A9C8892A6A8940000000000001807E8321A2A72622A7250000000000000701FA0
310
C868A9C9E8C8C940000000000001C07E84A1A624A720A92920ACA0A87181718991ABE1817191ABE18171AA108698929C8AA8B2A082A0AB098929C8A84A22BA3AAA9A1A0A622A50A0E9882A6A89E849482A02608426A0A5A2AB24A2ABA7E8120CA0A68682988A0C00800010652455649534941501304154D0D0531150540CC4
310
E8C50954494D455354414D504A09E326FB22A1A734141D5915494D253D3905414C4D4B8C0C1107B44574753455454494E4753454E447D0
 94
        0
1001
ACAD
1000
AcRTDxfName
1000
AMGSETTINGSOBJ
  0
ACAD_PROXY_OBJECT
  5
944
102
{ACAD_REACTORS
330
942
102
}
330
942
100
AcDbProxyObject
 90
      499
 91
      520
 95
   917527
 70
     0
 93
      852
310
4050D5452414E5353455454494E4753A2488A482AE929C8EA8A4829CA69882A8929E9C0C00800050D4F524947494E414C4C595F4F4E0600400008529A7AAA921A2A620A723A0A81A4AA20A12AAA0A48AA68AA4AC8A0C0080001107B44574753455454494E4753454E447D5
 94
        0
1001
ACAD
1000
AcRTDxfName
1000
AMGSETTINGSOBJ
  0
IDBUFFER
  5
984
330
0
100
AcDbIdBuffer
  0
IDBUFFER
  5
985
330
0
100
AcDbIdBuffer
330
15BD
330
15BF
330
15C0
330
15C4
330
15C8
330
15CA
330
1642
330
1643
330
164E
330
1650
330
1656
330
1657
330
165C
330
165D
330
165F
330
1660
330
1661
330
1662
330
1663
330
1664
330
1675
330
1693
330
16A0
330
16A1
330
16A3
330
16A5
330
16A6
330
16A7
330
16AE
330
16AF
330
16B2
330
16B7
330
16B8
330
16B9
330
16BA
330
16C6
330
16C7
330
16C8
330
16C9
330
16CA
330
16CB
330
16CD
330
16CE
330
16CF
330
16D1
330
16D2
330
16D3
330
16D4
330
16D5
330
16D6
330
16EE
330
16F3
330
16F4
330
16FB
330
1700
330
1701
330
1702
330
1706
330
171B
330
1731
330
1732
330
1734
330
1736
330
1737
330
1738
330
174A
330
1753
330
1754
330
1755
330
1756
330
1757
330
1759
330
175A
330
175C
330
175D
330
175E
330
175F
330
1762
330
1764
330
1765
330
1766
330
1767
330
1768
330
176A
330
1776
330
1777
330
1778
330
177B
330
177D
330
1781
330
1785
330
1787
330
1789
330
178A
330
178B
330
17A9
330
17AA
330
17AB
330
17AC
330
17AD
330
17AE
330
17B4
330
17B5
330
17B7
330
17B8
330
17B9
330
17BB
330
17BC
330
17C5
330
17C6
330
17CA
330
17D4
330
17D8
330
17D9
330
17DB
330
17E4
330
17E5
330
17E6
330
17E7
330
17E8
330
17E9
330
17EA
330
17EB
330
17EC
330
17EE
330
182C
330
1847
330
1848
330
184B
330
184C
330
184D
330
1863
330
1866
330
1867
330
1868
330
1869
330
1872
330
1873
330
187D
330
1892
330
1893
330
1894
330
1896
330
18A6
330
18A8
330
18A9
330
18AE
330
18AF
330
18B0
330
18B1
330
18B2
330
18B4
330
18B5
330
18BE
330
18C0
330
18C1
330
18C2
330
18C4
330
18D5
330
18D6
330
18D7
330
18D8
330
18D9
330
18E2
330
18E3
330
18E4
330
18E5
330
18F1
330
18F9
330
18FA
330
1903
330
1906
330
1908
330
190C
330
1911
330
1912
330
1913
330
1915
330
1916
330
1918
330
1919
330
1920
330
1926
330
1927
330
193D
330
193E
330
1942
330
1943
330
1944
330
1945
330
1946
330
1947
330
1948
330
1951
330
1953
330
1957
330
195A
330
1968
330
19C3
  0
IDBUFFER
  5
986
330
0
100
AcDbIdBuffer
  0
IDBUFFER
  5
987
330
0
100
AcDbIdBuffer
  0
IDBUFFER
  5
988
330
0
100
AcDbIdBuffer
  0
IDBUFFER
  5
19C1
330
0
100
AcDbIdBuffer
330
15BE
330
15C1
330
15C2
330
15C3
330
15C5
330
15C6
330
15C7
330
15C9
330
15CB
330
1644
330
1645
330
1646
330
1647
330
1648
330
1649
330
164A
330
164B
330
164F
330
1651
330
1652
330
1653
330
1654
330
1655
330
1658
330
1659
330
165A
330
165B
330
165E
330
1665
330
1666
330
1667
330
1668
330
1669
330
166A
330
166B
330
166C
330
166D
330
166E
330
166F
330
1670
330
1671
330
1672
330
1673
330
1674
330
1676
330
1677
330
1678
330
1679
330
167A
330
1683
330
1685
330
1686
330
1687
330
1688
330
1689
330
168A
330
168B
330
168C
330
168D
330
168E
330
168F
330
1690
330
1691
330
1692
330
1694
330
1695
330
1696
330
1697
330
1698
330
1699
330
169A
330
169B
330
169C
330
169D
330
169E
330
169F
330
16A2
330
16A4
330
16A8
330
16A9
330
16AA
330
16AB
330
16AC
330
16AD
330
16B0
330
16B1
330
16B3
330
16B4
330
16B5
330
16B6
330
16BB
330
16BC
330
16BD
330
16BE
330
16BF
330
16C0
330
16C1
330
16C2
330
16C3
330
16C4
330
16C5
330
16CC
330
16D7
330
16D8
330
16D9
330
16DA
330
16DB
330
16DC
330
16DD
330
16DE
330
16DF
330
16E0
330
16E1
330
16E2
330
16E3
330
16E4
330
16E5
330
16E6
330
16E7
330
16E8
330
16E9
330
16EA
330
16EB
330
16EC
330
16ED
330
16EF
330
16F0
330
16F1
330
16F2
330
16F5
330
16F6
330
16F7
330
16F8
330
16F9
330
16FA
330
16FC
330
16FD
330
16FE
330
16FF
330
1703
330
1704
330
1705
330
1708
330
1709
330
170A
330
170B
330
170C
330
1716
330
1717
330
1718
330
1719
330
171A
330
171C
330
171D
330
171E
330
1720
330
1733
330
1735
330
1741
330
1742
330
1744
330
1745
330
1746
330
1747
330
1748
330
1749
330
1758
330
175B
330
1760
330
1761
330
1769
330
176B
330
176C
330
176D
330
176E
330
176F
330
1770
330
1771
330
1772
330
1773
330
1779
330
177A
330
177C
330
177E
330
177F
330
1780
330
1782
330
1783
330
1784
330
1786
330
178C
330
17AF
330
17B0
330
17B1
330
17B2
330
17B3
330
17B6
330
17CB
330
17D5
330
17D6
330
17D7
330
17DA
330
17ED
330
17EF
330
17F0
330
17F3
330
1804
330
1805
330
1806
330
1809
330
180A
330
180B
330
180C
330
180D
330
180E
330
180F
330
1810
330
1811
330
1812
330
1813
330
1814
330
1815
330
1816
330
1829
330
182D
330
182E
330
182F
330
1830
330
1831
330
1832
330
1833
330
1834
330
1835
330
1840
330
1841
330
1842
330
1843
330
1844
330
1849
330
184E
330
184F
330
1850
330
1851
330
1852
330
1853
330
1854
330
1855
330
1856
330
1857
330
1858
330
1859
330
185A
330
185B
330
185C
330
185D
330
185E
330
185F
330
1860
330
1861
330
1862
330
1864
330
1874
330
1875
330
1876
330
1877
330
1878
330
1879
330
187A
330
187B
330
187C
330
187E
330
187F
330
1880
330
1881
330
188B
330
188C
330
188D
330
188E
330
188F
330
1890
330
1891
330
1895
330
1897
330
1898
330
1899
330
189A
330
189B
330
189C
330
189D
330
189E
330
189F
330
18A0
330
18A1
330
18A2
330
18A3
330
18A4
330
18A5
330
18A7
330
18AA
330
18AB
330
18AC
330
18AD
330
18BF
330
18C3
330
18C5
330
18C6
330
18C7
330
18C8
330
18C9
330
18CA
330
18CB
330
18CC
330
18CD
330
18CE
330
18CF
330
18D0
330
18D1
330
18D2
330
18D3
330
18D4
330
18E6
330
18E7
330
18E8
330
18E9
330
18EA
330
18EB
330
18EC
330
18ED
330
18EE
330
18EF
330
18F0
330
18F2
330
18F3
330
18F4
330
18F5
330
18F6
330
18F7
330
18F8
330
18FB
330
18FC
330
18FD
330
18FE
330
18FF
330
1900
330
1901
330
1902
330
1904
330
1905
330
1907
330
1909
330
190A
330
190B
330
190D
330
190E
330
190F
330
1910
330
1914
330
1917
330
191A
330
191B
330
191C
330
191D
330
191E
330
191F
330
1921
330
1922
330
1923
330
1924
330
1925
330
1928
330
1929
330
192A
330
192B
330
192C
330
192D
330
192E
330
192F
330
1930
330
1931
330
1932
330
193F
330
1940
330
1941
330
1952
330
1954
330
1955
330
1956
330
1958
330
1959
330
195B
330
195C
330
195D
330
195E
330
195F
330
1960
330
1961
330
1962
330
1963
330
1964
330
1965
330
1966
330
1967
330
1969
330
196A
330
196B
330
1980
330
1981
330
1982
330
198C
330
1997
330
1998
330
1999
330
199A
330
199B
330
199C
330
199E
330
199F
330
19A0
330
19A1
330
19A2
330
19B3
330
19B4
330
19B5
330
19B6
  0
XRECORD
  5
19DF
102
{ACAD_REACTORS
330
19DE
102
}
330
19DE
100
AcDbXrecord
280
     1
102
SHADEPLOT
 70
     0
102
SHADEPLOTRESLEVEL
 70
     2
102
SHADEPLOTCUSTOMDPI
 70
   300
  0
XRECORD
  5
19DD
102
{ACAD_REACTORS
330
19DC
102
}
330
19DC
100
AcDbXrecord
280
     1
102
SHADEPLOT
 70
     0
102
SHADEPLOTRESLEVEL
 70
     2
102
SHADEPLOTCUSTOMDPI
 70
   300
  0
ACAD_PROXY_OBJECT
  5
95D
330
94C
100
AcDbProxyObject
 90
      499
 91
      526
 95
   917527
 70
     0
 93
       96
310
57020E80A0280A0280A02808F0
 94
        0
1001
ACAD
1000
AcRTDxfName
1000
ACMSURFSTANDARDANSI
  0
ACAD_PROXY_OBJECT
  5
95E
330
94C
100
AcDbProxyObject
 90
      499
 91
      527
 95
   917527
 70
     0
 93
      332
310
5710E4050140501405014050140501405014050142501405014050140501405012000000000000000403
340
967
 94
        0
1001
ACAD
1000
AcRTDxfName
1000
ACMFCFSTANDARDANSI
  0
ACAD_PROXY_OBJECT
  5
95F
330
94C
100
AcDbProxyObject
 90
      499
 91
      528
 95
   917527
 70
     0
 93
      402
310
570C199999999999E99F91F4050140501405014050140501405014050140501405014050140501405014050140501405014050
340
0
 94
        0
1001
ACAD
1000
AcRTDxfName
1000
ACMWELDSTANDARDANSI
  0
ACAD_PROXY_OBJECT
  5
960
330
94C
100
AcDbProxyObject
 90
      499
 91
      529
 95
   917527
 70
     0
 93
       10
310
5700
 94
        0
1001
ACAD
1000
AcRTDxfName
1000
ACMIDSTANDARDANSI
  0
ACAD_PROXY_OBJECT
  5
961
330
94C
100
AcDbProxyObject
 90
      499
 91
      530
 95
   917527
 70
     0
 93
      223
310
572290EA22A7D90F49F9353333333333727F44D4CCCCCCCCCDC9FA05
340
968
340
969
 94
        0
1001
ACAD
1000
AcRTDxfName
1000
ACMDATUMSTANDARDANSI
  0
ACAD_PROXY_OBJECT
  5
962
330
94C
100
AcDbProxyObject
 90
      499
 91
      531
 95
   917527
 70
     0
 93
    12889
310
5710E4112551153501411413D4CB901405014069011349A4F2590CB64FD3347454E545241434F2C4954412C302C504F532E2C47454E54524154582C25732C2847454E4D53472067656E647767203232322940690120281A8AA2CA0281A8AA602028120280A03202269349E4B2196C9FA648E8A9CA8A482869E5892A8825860
310
58A2A980588E8A9CA8A482A8B0584AE658508E8A9C9AA68E40CECADCC8EECE406464665280D202405044E414D45405044E4F4D454051C40640A8BA5C2E97CBE502404CD1D15395149050D3CB1255104B0C0B1393D3514B11D15395149055160B095CCB0A11D1539354D1C819D95B991DD9C80C8C8D8A50190B3D424C4F434B
310
3A4E414D4540480A0A888AA686A480A16888AA686A492B4929E9C8A80A3A80C81D10782C06030180C809D23A2A72A2920A1A79624AA209618162222A9A1A924AD24A7A7229623A2A72A2920AA2C1612B9961423A2A726A9A39033B2B7323BB39019189B94A024809014214D51053911054911014214D510539110549110147
310
501904A383BFDFEFF5FBFCFD3747454E545241434F2C4954412C302C5354414E444152442C47454E54524154582C25732C2847454E4D53472067656E64776720323138294049012028426A0AA22A924A0A620284A6A0AA22A924A0A622A028EA0320B41416D838E9017D9FA708E8A9CA8A482869E5892A8825860589A82A88
310
AA49282988A588E8A9CA8A482A8B0584AE658508E8A9C9AA68E40CECADCC8EECE406464625280D202405044E4F5445405044E4F54414051D40641A8BA5C2E97CBE5F23F4CD1D15395149050D3CB1255104B0C0B1393D5104B11D15395149055160B095CCB0A11D1539354D1C819D95B991DD9C80C8C8D4A501A40480A0CAC8
310
A9C889EA480A128C9EA49C92A89EA48A80A3A80C83D174B85D2F97CBE47E9C23A2A72A2920A1A79624AA209618162327A92724AA27A9229623A2A72A2920AA2C1612B9961423A2A726A9A39033B2B7323BB39019191A14A0348090141911154D0D48C90143511154D0D492569253D391480C90147501908A20F0580C060301
310
9013B47454E545241434F2C4954412C302C4445534352495A494F4E4520322C47454E54524154582C25732C2847454E4D53472067656E6477672033362940490120284A9AA20A72220A922192028529AA20A72220A92210192028EA0321347077FBFDFEBF7F9FA728E8A9CA8A482869E5892A882586058A6A8829C8882A488
310
4064588E8A9CA8A482A8B0584AE658508E8A9C9AA68E40CECADCC8EECE4064646052809202405094D4154455249414C324050B4D4154455249414C4520324051D40642A8282DB071D202FB3F4E51D15395149050D3CB1255104B0C0B135055115492505311480C8B11D15395149055160B095CCB0A11D1539354D1C819D95B
310
991DD9C80D0C0A501240480A089A82A6A680A0A9A82A6A68280A3A80A0485A0681174B85D2F97CBE47E99A3A2A72A2920A1A79624AA2096181626A0A9A9A09623A2A72A2920AA2C1612B9961423A2A726A9A39033B2B7323BB3901A1914A024809014154149250D150141941491569693D01475014090C409022E970BA5F2F
310
97C8FD3447454E545241434F2C4954412C302C5052455A5A4F2C47454E54524154582C25732C2847454E4D53472067656E6477672034332940490120281A224A6A028326A4A9AAA920A028EA028121A81A045D2E174BE5F2F91FA688E8A9CA8A482869E5892A8825860589A92A6AAA482588E8A9CA8A482A8B0584AE658508
310
E8A9C9AA68E40CECADCC8EECE406868528092024050E441022E07A17AD46E338FD1E004062B355AAD56AB7D8FCACD56AB55AADF63F41CF4F125511534F9014062B355AAD56AB7D8FCACD56AB55AADF63F41CF4F125511534F9014062431F8FC5E0F3B8FC90C7E3F1783CEE3F41CF4F125511534F9014062431F8FC5E0F3B8F
310
C90C7E3F1783CEE3F41CF4F125511534F90140A404ACD56AB55AADF63F2B355AAD56AB7D8FD073D3C4954454D3E405063D3C5154593E405018ACD56AB55AADF63F2B355AAD56AB7D8FD073D3C4954454D3E40640400ACD56AB55AADF63F2B355AAD56AB7D8FE880000000000000208081A0881A068120480A0322085211220
310
80D21480D211480A1485214852050000000000003C2FC000000000000F0BF4050241C3BDF4F8D976EA23F0EF7D3E365DBA88FCB81E85EB51B8BE3FC80D069014090541D06901A5C0F42F5A8DC5F1FA04812028098A0280D1
340
0
340
0
 94
        0
1001
ACAD
1000
AcRTDxfName
1000
ACMBOMSTANDARDANSI
  0
ACAD_PROXY_OBJECT
  5
963
330
94C
100
AcDbProxyObject
 90
      499
 91
      532
 95
   917527
 70
     0
 93
      960
310
5700B81E85EB51B8CE3F4BCF511155105253080F11115510525317D3105091530F971414D0D05311480F11115510525317D05094D4D0D053114F92341C9A9999999999B93F26A666666666724FC000000000000E03F40000000000000040000000000000051000000000000002440478B81E85EB51B8CE3F00
340
958
340
95C
 94
        0
1001
ACAD
1000
AcRTDxfName
1000
ACMDETAILSTANDARDANSI
  0
ACAD_PROXY_OBJECT
  5
964
330
94C
100
AcDbProxyObject
 90
      499
 91
      533
 95
   917527
 70
     0
 93
      745
310
570031703D0BD6A3719C7E999EA9A2A1AA24A7A7101E29A2A1AA24A7A72FA620A122A62FA324A929AA1F169E29A2A1AA24A7A72FA620A122A62FA620A9AA1F1353333333333B27EFF41C8823C4D4CCCCCCCCCEC9FC5C0F42F5A8DC671F8A
340
958
340
95C
 94
        0
1001
ACAD
1000
AcRTDxfName
1000
ACMSECTIONSTANDARDANSI
  0
ACAD_PROXY_OBJECT
  5
965
330
94C
100
AcDbProxyObject
 90
      499
 91
      534
 95
   917527
 70
     0
 93
      279
310
5702B8716D9CEF7C33F0A5723F0BD4A2F0FC295C8FC2F528BC3FA199999999999F99FC
 94
        0
1001
ACAD
1000
AcRTDxfName
1000
ACMCENTERLINESTANDARDANSI
  0
ACAD_PROXY_OBJECT
  5
966
330
94C
100
AcDbProxyObject
 90
      499
 91
      535
 95
   917527
 70
     0
 93
     6546
310
571084050B90142A40502405094D6F64656C6C6F203140405013D3C696628657175616C28486F6C653A7461707065642C223022292C22252563222C486F6C653A6E6F6D696E616C2022202220696628657175616C28486F6C653A756E6974732C223122292C2278222C222D222920222022293E3C696628657175616C28486
310
F6C653A7461707065642C223022292C486F6C653A6469612C486F6C653A706974636864657363293E207B5C46414D4744543B787D203C696628657175616C28486F6C653A7465726D696E6174696F6E2C223022292C486F6C653A64657074682C225448525522293E5C507B5C46414D4744543B767D2525633C486F6C653A6
310
3746469613E207B5C46414D4744543B787D203C486F6C653A637464657074683E40640503405094D6F64656C6C6F2031405FE3D3C696628657175616C28486F6C653A7461707065642C223022292C22252563222C486F6C653A6E6F6D696E616C2022202220696628657175616C28486F6C653A756E6974732C223122292C2
310
278222C222D222920222022293E3C696628657175616C28486F6C653A7461707065642C223022292C486F6C653A6469612C486F6C653A706974636864657363293E207B5C46414D4744543B787D203C696628657175616C28486F6C653A7465726D696E6174696F6E2C223022292C486F6C653A64657074682C22544852552
310
2293E5C507B5C46414D4744543B777D2525633C486F6C653A63746469613E2058203C486F6C653A6374616E676C653E25256440640501405094D6F64656C6C6F2031405CF3D3C696628657175616C28486F6C653A7461707065642C223022292C22252563222C486F6C653A6E6F6D696E616C2022202220696628657175616
310
C28486F6C653A756E6974732C223122292C2278222C222D222920222022293E3C696628657175616C28486F6C653A7461707065642C223022292C486F6C653A6469612C486F6C653A706974636864657363293E5C507B5C46414D4744543B787D203C696628657175616C28486F6C653A7465726D696E6174696F6E2C22302
310
2292C486F6C653A64657074682C225448525522293E4064051E405094D6F64656C6C6F20314050C3D3C535444503A444553433E40640515AB6
 94
        0
1001
ACAD
1000
AcRTDxfName
1000
ACMNOTESTANDARDANSI
  0
ACAD_PROXY_OBJECT
  5
96B
330
94C
100
AcDbProxyObject
 90
      499
 91
      536
 95
   917527
 70
     0
 93
       20
310
571018
340
94D
 94
        0
1001
ACAD
1000
AcRTDxfName
1000
ACAMGLAYSTD
  0
ACAD_PROXY_OBJECT
  5
96C
330
94C
100
AcDbProxyObject
 90
      499
 91
      537
 95
   917527
 70
     0
 93
      258
310
57102000000000000380FC000000000000E03F408F0F9023C3E40DB18CCCFFFF97
340
96D
340
0
340
0
340
96E
340
96F
340
0
340
970
340
971
340
976
340
0
 94
        0
1001
ACAD
1000
AcRTDxfName
1000
ACAMGDIMSTD
  0
ACAD_PROXY_OBJECT
  5
977
330
94C
100
AcDbProxyObject
 90
      499
 91
      538
 95
   917527
 70
     0
 93
    13377
310
5711A029010300002E07A17AD46E2F8FC09010300002E07A17AD46E2F8FC080511454C454E434F20434F4F5244494E415445015011D15395149050D3CB1255104B0C0B1153115390D3C810D3D3D49112539055114B11D15395149055160B095CCB0A11D1539354D1C819D95B991A5B5E880CCC0A78000C0000000000000000
310
00000000000000007B14AE47E17AA43F2E07A17AD46E2F8FD021EC52B91F85EA90FCB81E85EB51B8BE3F40A014315105091531310481193D4924053B47454E545241434F2C4954412C302C544142454C4C4120464F52492C47454E54524154582C25732C2847454E4D53472067656E64696D7A20333129E000300000000000
310
0000000000000000000001EC52B91F85EA90FCB81E85EB51B8BE3F4087B14AE47E17AA43F2E07A17AD46E2F8FD0290B4410F4450240D04415014391244D05449074510C4350F000141D3D49251D253914053547454E545241434F2C4954412C302C4F524947494E452C47454E54524154582C25732C2847454E4D534720676
310
56E64696D7A20312900010105002214000283A7A924A3A4A72280A6A8E8A9CA8A482869E5892A8825860589EA4928E929C8A588E8A9CA8A482A8B0584AE658508E8A9C9AA68E40CECADCC8D2DAF4406252000202080043E8000504464F524F014C91D15395149050D3CB1255104B0C0B1193D493CB11D15395149055160B09
310
5CCB0A11D1539354D1C819D95B991A5B5E880C8A405163D3C486F6C654974656D3E3C486F6C65496E6465783E010104002234000280AC00A5E8E8A9CA8A482869E5892A882586058B0588E8A9CA8A482A8B0584AE658508E8A9C9AA68E40CECADCC8D2DAF4406652000202000040A800050159014BD1D15395149050D3CB12
310
55104B0C0B164B11D15395149055160B095CCB0A11D1539354D1C819D95B991A5B5E880D0A4000404000081D0000A02A40297A3A2A72A2920A1A79624AA20961816291623A2A72A2920AA2C1612B9961423A2A726A9A39033B2B73234B6BD101B148000808000104A000141954ACC0D0D0D0053447454E545241434F2C4954
310
412C302C552B303434342C47454E54524154582C25732C2847454E4D53472067656E64696D7A203729000101030020B40002822827A99700A668E8A9CA8A482869E5892A882586058A09EA65C588E8A9CA8A482A8B0584AE658508E8A9C9AA68E40CECADCC8D2DAF4406268520002020A004068000506494E44494345014D5
310
1D15395149050D3CB1255104B0C0B1253911250D14B11D15395149055160B095CCB0A11D1539354D1C819D95B991A5B5E880C4D4A400040414008750000A088C9EA49E0299A3A2A72A2920A1A79624AA209618162327A9279623A2A72A2920AA2C1612B9961423A2A726A9A39033B2B73234B6BD10189B148000808200112A
310
000142D253911250D1481193D493C053A47454E545241434F2C4954412C302C494E4449434520464F524F2C47454E54524154582C25732C2847454E4D53472067656E64696D7A20313729000101050022740002819292A180A628E8A9CA8A482869E5892A8825860584A4A86588E8A9CA8A482A8B0584AE658508E8A9C9AA6
310
8E40CECADCC8D2DAF4407052000202020041E80005035154C0014C91D15395149050D3CB1255104B0C0B1455300B11D15395149055160B095CCB0A11D1539354D1C819D95B991A5B5E880C4E4A400040418008A50000A16888AA686A492B4929E9C8A029D23A2A72A2920A1A79624AA209618162222A9A1A924AD24A7A7229
310
623A2A72A2920AA2C1612B9961423A2A726A9A39033B2B73234B6BD10191814800080020010CA00014214D51053911054910053747454E545241434F2C4954412C302C5354414E444152442C47454E54524154582C25732C2847454E4D53472067656E64696D7A20323129000100040021B4878030026A6666666667A4FE06
310
4D4CCCCCCCCCF49FC049A9999999999E93F809353333333333D27F0226A6666666667A4FE044D4CCCCCCCCCF49FC009A9999999999D93F801353333333333D27F0026A6666666667A4FE004D4CCCCCCCCCF49FC0D819703D0BD6A371BC7F03000000000000001020633B333333333032050F006004D4CCCCCCCCCF49FC0C9A
310
9999999999E93F819353333333333D27F0326A6666666667A4FE064D4CCCCCCCCCF49FC0C9A9999999999E93F801353333333333B27F0026A6666666667A4FE064D4CCCCCCCCCF49FC009A9999999999E93F81B032E07A17AD46E378FE06000000000000002040C6766666666660640A088800000021E00000089000000226
310
0000008220E000200890000002060002008100008000
340
0
340
0
340
0
340
0
 94
        0
1001
ACAD
1000
AcRTDxfName
1000
ACAMGHOLECHARTSTDANSI
  0
ACAD_PROXY_OBJECT
  5
978
330
94C
100
AcDbProxyObject
 90
      499
 91
      539
 95
   917527
 70
     0
 93
     5766
310
5719741105394D2506414E53495F4342905394D257D512551554D15414E53495F54525F5265766973696F6E6C697374614191243202831372E307832322E30706F6C6C2E2941905394D257D0D1246202832382E307834302E30706F6C6C2E2941905394D257D1911412028382E357831312E30706F6C6C2E2941905394D257
310
D051242202831312E307831372E30706F6C6C2E2941905394D257D091244202832322E307833342E30706F6C6C2E2941905394D257D111245202833342E307834342E30706F6C6C2E2941905394D257D150544505394D24810D85C9D1A59DB1A5BC81050D0C414E53495F5449544C4541434310D85C9D1A59DB1A5BC81554D
310
0A414E53495F544954555344105394D24810D85C9D1A59DB1A5BC81050B414E53495F5449544C454144105394D24810D85C9D1A59DB1A5BC81110B414E53495F5449544C454444505394D24810D85C9D1A59DB1A5BC81110D0C414E53495F5449544C45444342116456C656E636F207265766973696F6E6920445F54525F45
310
505394D257D51497D4995D9A5CDA5BDB9B1A5CDD19116456C656E636F207265766973696F6E6920415F424C5F45505394D257D09317D4995D9A5CDA5BDB9B1A5CDD18516456C656E636F207265766973696F6E6920415F544C5F45505394D257D51317D4995D9A5CDA5BDB9B1A5CDD18516456C656E636F207265766973696
310
F6E6920445F424C5F45505394D257D09317D4995D9A5CDA5BDB9B1A5CDD19116456C656E636F207265766973696F6E6920445F544C5F45505394D257D51317D4995D9A5CDA5BDB9B1A5CDD19116456C656E636F207265766973696F6E6920415F42525F45505394D257D09497D4995D9A5CDA5BDB9B1A5CDD18516456C656E
310
636F207265766973696F6E6920415F54525F45505394D257D51497D4995D9A5CDA5BDB9B1A5CDD18516456C656E636F207265766973696F6E6920445F42525F45505394D257D09497D4995D9A5CDA5BDB9B1A5CDD190
 94
        0
1001
ACAD
1000
AcRTDxfName
1000
ACAMGTITLESTD
  0
ENDSEC
  0
EOF
