  0
SECTION
  2
HEADER
  9
$ACADVER
  1
AC1015
  9
$ACADMAINTVER
 70
    20
  9
$DWGCODEPAGE
  3
ANSI_1252
  9
$INSBASE
 10
0.0
 20
0.0
 30
0.0
  9
$EXTMIN
 10
1071.059880192694
 20
651.9722016900455
 30
-0.0015258207003583
  9
$EXTMAX
 10
1202.143939285474
 20
895.8229087593762
 30
0.0000000349246037
  9
$LIMMIN
 10
1053.774086625836
 20
643.8072178571551
  9
$LIMMAX
 10
1236.847380944713
 20
907.7646966746678
  9
$ORTHOMODE
 70
     1
  9
$REGENMODE
 70
     1
  9
$FILLMODE
 70
     1
  9
$QTEXTMODE
 70
     0
  9
$MIRRTEXT
 70
     1
  9
$LTSCALE
 40
15.0
  9
$ATTMODE
 70
     1
  9
$TEXTSIZE
 40
2.5
  9
$TRACEWID
 40
1.0
  9
$TEXTSTYLE
  7
STANDARD
  9
$CLAYER
  8
QUOTE
  9
$CELTYPE
  6
BYLAYER
  9
$CECOLOR
 62
   256
  9
$CELTSCALE
 40
1.0
  9
$DISPSILH
 70
     0
  9
$DIMSCALE
 40
2.5
  9
$DIMASZ
 40
3.0
  9
$DIMEXO
 40
1.0
  9
$DIMDLI
 40
1.0
  9
$DIMRND
 40
0.0
  9
$DIMDLE
 40
0.0
  9
$DIMEXE
 40
1.0
  9
$DIMTP
 40
0.0
  9
$DIMTM
 40
0.0
  9
$DIMTXT
 40
3.0
  9
$DIMCEN
 40
0.09
  9
$DIMTSZ
 40
0.0
  9
$DIMTOL
 70
     0
  9
$DIMLIM
 70
     0
  9
$DIMTIH
 70
     0
  9
$DIMTOH
 70
     0
  9
$DIMSE1
 70
     0
  9
$DIMSE2
 70
     0
  9
$DIMTAD
 70
     1
  9
$DIMZIN
 70
    12
  9
$DIMBLK
  1

  9
$DIMASO
 70
     1
  9
$DIMSHO
 70
     1
  9
$DIMPOST
  1

  9
$DIMAPOST
  1

  9
$DIMALT
 70
     0
  9
$DIMALTD
 70
     2
  9
$DIMALTF
 40
25.4
  9
$DIMLFAC
 40
1.0
  9
$DIMTOFL
 70
     1
  9
$DIMTVP
 40
0.0
  9
$DIMTIX
 70
     0
  9
$DIMSOXD
 70
     0
  9
$DIMSAH
 70
     0
  9
$DIMBLK1
  1

  9
$DIMBLK2
  1

  9
$DIMSTYLE
  2
SCALA2_5
  9
$DIMCLRD
 70
     1
  9
$DIMCLRE
 70
     1
  9
$DIMCLRT
 70
     7
  9
$DIMTFAC
 40
0.2
  9
$DIMGAP
 40
1.0
  9
$DIMJUST
 70
     0
  9
$DIMSD1
 70
     0
  9
$DIMSD2
 70
     0
  9
$DIMTOLJ
 70
     1
  9
$DIMTZIN
 70
     0
  9
$DIMALTZ
 70
     0
  9
$DIMALTTZ
 70
     0
  9
$DIMUPT
 70
     0
  9
$DIMDEC
 70
     2
  9
$DIMTDEC
 70
     4
  9
$DIMALTU
 70
     2
  9
$DIMALTTD
 70
     2
  9
$DIMTXSTY
  7
SIMPLEX
  9
$DIMAUNIT
 70
     0
  9
$DIMADEC
 70
     0
  9
$DIMALTRND
 40
0.0
  9
$DIMAZIN
 70
     0
  9
$DIMDSEP
 70
    46
  9
$DIMATFIT
 70
     3
  9
$DIMFRAC
 70
     0
  9
$DIMLDRBLK
  1

  9
$DIMLUNIT
 70
     2
  9
$DIMLWD
 70
    -2
  9
$DIMLWE
 70
    -2
  9
$DIMTMOVE
 70
     0
  9
$LUNITS
 70
     2
  9
$LUPREC
 70
     4
  9
$SKETCHINC
 40
1.0
  9
$FILLETRAD
 40
10.0
  9
$AUNITS
 70
     0
  9
$AUPREC
 70
     0
  9
$MENU
  1
.
  9
$ELEVATION
 40
0.0
  9
$PELEVATION
 40
0.0
  9
$THICKNESS
 40
0.0
  9
$LIMCHECK
 70
     0
  9
$CHAMFERA
 40
10.0
  9
$CHAMFERB
 40
10.0
  9
$CHAMFERC
 40
20.0
  9
$CHAMFERD
 40
0.0
  9
$SKPOLY
 70
     0
  9
$TDCREATE
 40
2451351.388900973
  9
$TDUCREATE
 40
2451351.305567639
  9
$TDUPDATE
 40
2454372.406465984
  9
$TDUUPDATE
 40
2454372.323132651
  9
$TDINDWG
 40
0.4157111111
  9
$TDUSRTIMER
 40
0.4157111111
  9
$USRTIMER
 70
     1
  9
$ANGBASE
 50
0.0
  9
$ANGDIR
 70
     0
  9
$PDMODE
 70
     0
  9
$PDSIZE
 40
0.0
  9
$PLINEWID
 40
0.0
  9
$SPLFRAME
 70
     0
  9
$SPLINETYPE
 70
     6
  9
$SPLINESEGS
 70
     8
  9
$HANDSEED
  5
38CD
  9
$SURFTAB1
 70
     6
  9
$SURFTAB2
 70
     6
  9
$SURFTYPE
 70
     6
  9
$SURFU
 70
     6
  9
$SURFV
 70
     6
  9
$UCSBASE
  2

  9
$UCSNAME
  2

  9
$UCSORG
 10
0.0
 20
0.0
 30
0.0
  9
$UCSXDIR
 10
1.0
 20
0.0
 30
0.0
  9
$UCSYDIR
 10
0.0
 20
1.0
 30
0.0
  9
$UCSORTHOREF
  2

  9
$UCSORTHOVIEW
 70
     0
  9
$UCSORGTOP
 10
0.0
 20
0.0
 30
0.0
  9
$UCSORGBOTTOM
 10
0.0
 20
0.0
 30
0.0
  9
$UCSORGLEFT
 10
0.0
 20
0.0
 30
0.0
  9
$UCSORGRIGHT
 10
0.0
 20
0.0
 30
0.0
  9
$UCSORGFRONT
 10
0.0
 20
0.0
 30
0.0
  9
$UCSORGBACK
 10
0.0
 20
0.0
 30
0.0
  9
$PUCSBASE
  2

  9
$PUCSNAME
  2

  9
$PUCSORG
 10
0.0
 20
0.0
 30
0.0
  9
$PUCSXDIR
 10
1.0
 20
0.0
 30
0.0
  9
$PUCSYDIR
 10
0.0
 20
1.0
 30
0.0
  9
$PUCSORTHOREF
  2

  9
$PUCSORTHOVIEW
 70
     0
  9
$PUCSORGTOP
 10
0.0
 20
0.0
 30
0.0
  9
$PUCSORGBOTTOM
 10
0.0
 20
0.0
 30
0.0
  9
$PUCSORGLEFT
 10
0.0
 20
0.0
 30
0.0
  9
$PUCSORGRIGHT
 10
0.0
 20
0.0
 30
0.0
  9
$PUCSORGFRONT
 10
0.0
 20
0.0
 30
0.0
  9
$PUCSORGBACK
 10
0.0
 20
0.0
 30
0.0
  9
$USERI1
 70
     0
  9
$USERI2
 70
     0
  9
$USERI3
 70
     0
  9
$USERI4
 70
     0
  9
$USERI5
 70
     0
  9
$USERR1
 40
1.0
  9
$USERR2
 40
0.0
  9
$USERR3
 40
0.0
  9
$USERR4
 40
0.0
  9
$USERR5
 40
0.0
  9
$WORLDVIEW
 70
     1
  9
$SHADEDGE
 70
     3
  9
$SHADEDIF
 70
    70
  9
$TILEMODE
 70
     1
  9
$MAXACTVP
 70
    48
  9
$PINSBASE
 10
0.0
 20
0.0
 30
0.0
  9
$PLIMCHECK
 70
     0
  9
$PEXTMIN
 10
1.000000000000000E+20
 20
1.000000000000000E+20
 30
1.000000000000000E+20
  9
$PEXTMAX
 10
-1.000000000000000E+20
 20
-1.000000000000000E+20
 30
-1.000000000000000E+20
  9
$PLIMMIN
 10
0.0
 20
0.0
  9
$PLIMMAX
 10
420.0
 20
297.0
  9
$UNITMODE
 70
     0
  9
$VISRETAIN
 70
     1
  9
$PLINEGEN
 70
     0
  9
$PSLTSCALE
 70
     1
  9
$TREEDEPTH
 70
  3020
  9
$CMLSTYLE
  2
STANDARD
  9
$CMLJUST
 70
     0
  9
$CMLSCALE
 40
20.0
  9
$PROXYGRAPHICS
 70
     1
  9
$MEASUREMENT
 70
     1
  9
$CELWEIGHT
370
    -1
  9
$ENDCAPS
280
     0
  9
$JOINSTYLE
280
     0
  9
$LWDISPLAY
290
     0
  9
$INSUNITS
 70
     0
  9
$HYPERLINKBASE
  1

  9
$STYLESHEET
  1

  9
$XEDIT
290
     1
  9
$CEPSNTYPE
380
     0
  9
$PSTYLEMODE
290
     1
  9
$FINGERPRINTGUID
  2
{01F9FB6E-9E14-11D6-9A44-000102212E7C}
  9
$VERSIONGUID
  2
{B303A9ED-3DF7-4044-BBDE-3D159A5664E8}
  9
$EXTNAMES
290
     1
  9
$PSVPSCALE
 40
0.0
  9
$OLESTARTUP
290
     0
  0
ENDSEC
  0
SECTION
  2
CLASSES
  0
CLASS
  1
ACDBDICTIONARYWDFLT
  2
AcDbDictionaryWithDefault
  3
ObjectDBX Classes
 90
        0
280
     0
281
     0
  0
CLASS
  1
ACDBPLACEHOLDER
  2
AcDbPlaceHolder
  3
ObjectDBX Classes
 90
        0
280
     0
281
     0
  0
CLASS
  1
LAYOUT
  2
AcDbLayout
  3
ObjectDBX Classes
 90
        0
280
     0
281
     0
  0
CLASS
  1
ACME_DOCUMENT
  2
AcMeDbDoc
  3
AcMeServices
 90
        0
280
     0
281
     0
  0
CLASS
  1
AMGSETTINGSOBJ
  2
AmgSettingsObj
  3
"AcadM|Product Description: AutoCAD Mechanical|Company: Autodesk"
 90
        0
280
     0
281
     0
  0
CLASS
  1
ACMESCOPE
  2
AcMeScope
  3
AcMeServices
 90
        0
280
     0
281
     0
  0
CLASS
  1
ACMECOMMANDHISTORY
  2
AcMeCommandHistory
  3
AcMeServices
 90
        0
280
     0
281
     0
  0
CLASS
  1
ACIMSYSVARMAN
  2
AcImSysVarManager
  3
AcMeServices
 90
        0
280
     0
281
     0
  0
CLASS
  1
ACIMREALSYSVAR
  2
AcImRealSysVar
  3
AcMeServices
 90
        0
280
     0
281
     0
  0
CLASS
  1
ACIMINTSYSVAR
  2
AcImIntSysVar
  3
AcMeServices
 90
        0
280
     0
281
     0
  0
CLASS
  1
ACMEDRAWINGMAN
  2
AcMeDrawingMan
  3
AcMeServices
 90
        0
280
     0
281
     0
  0
CLASS
  1
ACMEVIEW
  2
AcMeView
  3
AcMeServices
 90
        0
280
     0
281
     0
  0
CLASS
  1
ACDBENTITYCACHE
  2
AcMeEntityCache
  3
AcMeServices
 90
        0
280
     0
281
     0
  0
CLASS
  1
GSMANAGER
  2
AcMeGSManager
  3
AcMeServices
 90
        0
280
     0
281
     0
  0
CLASS
  1
AMDTINTERNALREACTOR
  2
AmdtInternalReactor
  3
AcMeServices
 90
        0
280
     0
281
     0
  0
CLASS
  1
ACMESTATEMGR
  2
AcMeStateMgr
  3
AcMeServices
 90
        0
280
     0
281
     0
  0
CLASS
  1
ACGREFMASTER
  2
AcGrefMaster
  3
AcAttribServices
 90
        0
280
     0
281
     0
  0
CLASS
  1
ACME_DATABASE
  2
AcMeDbDatabase
  3
AcMeServices
 90
        0
280
     0
281
     0
  0
CLASS
  1
ACRFINSADJUSTERMGR
  2
AcRfInsAdjusterMgr
  3
AcMeServices
 90
        0
280
     0
281
     0
  0
CLASS
  1
ACGREFACADMASTER
  2
AcGrefacadMaster
  3
AcGrefServices
 90
        0
280
     0
281
     0
  0
CLASS
  1
AMIMASTER
  2
AmiMaster
  3
AmiServices
 90
        0
280
     0
281
     0
  0
CLASS
  1
ACMDATADICTIONARY
  2
AcmDataDictionary
  3
"AcmSymBB|Product Description: AutoCAD Mechanical|Company: Autodesk"
 90
        0
280
     0
281
     0
  0
CLASS
  1
ACMDATAENTRYBLOCK
  2
AcmDataEntryBlock
  3
"AcmSymBB|Product Description: AutoCAD Mechanical|Company: Autodesk"
 90
        0
280
     0
281
     0
  0
CLASS
  1
ACIMSTRSYSVAR
  2
AcImStrSysVar
  3
AcMeServices
 90
        0
280
     0
281
     0
  0
CLASS
  1
ACMSTANDARDISO
  2
AcmStandardISO
  3
"Amdt_StdImp|Product Description: AutoCAD Mechanical|Company: Autodesk"
 90
        0
280
     0
281
     0
  0
CLASS
  1
AMGOBJPROPCFG
  2
AmgObjPropCfg
  3
"AmgLay|Product Description: AutoCAD Mechanical|Company: Autodesk"
 90
        1
280
     0
281
     0
  0
CLASS
  1
AMDTEDGESTANDARDISO
  2
AmdtEdgeStdISO
  3
"Amdt_StdImp|Product Description: AutoCAD Mechanical|Company: Autodesk"
 90
        0
280
     0
281
     0
  0
CLASS
  1
ACMSURFSTANDARDISO
  2
AcmSurfTextStdISO
  3
"Amdt_StdImp|Product Description: AutoCAD Mechanical|Company: Autodesk"
 90
        0
280
     0
281
     0
  0
CLASS
  1
ACMFCFSTANDARDISO
  2
AcmFCFStdISO
  3
"Amdt_StdImp|Product Description: AutoCAD Mechanical|Company: Autodesk"
 90
        0
280
     0
281
     0
  0
CLASS
  1
ACMWELDSTANDARDISO
  2
AcmWeldingStdISO
  3
"Amdt_StdImp|Product Description: AutoCAD Mechanical|Company: Autodesk"
 90
        0
280
     0
281
     0
  0
CLASS
  1
ACMIDSTANDARDISO
  2
AcmIdStdISO
  3
"Amdt_StdImp|Product Description: AutoCAD Mechanical|Company: Autodesk"
 90
        0
280
     0
281
     0
  0
CLASS
  1
ACMDATUMSTANDARDISO
  2
AcmDatumStdISO
  3
"Amdt_StdImp|Product Description: AutoCAD Mechanical|Company: Autodesk"
 90
        0
280
     0
281
     0
  0
CLASS
  1
ACMBOMSTANDARDISO
  2
AcmBOMStdISO
  3
"Amdt_StdImp|Product Description: AutoCAD Mechanical|Company: Autodesk"
 90
        0
280
     0
281
     0
  0
CLASS
  1
ACMDETAILSTANDARDISO
  2
AmdtDetailSymStdISO
  3
"Amdt_StdImp|Product Description: AutoCAD Mechanical|Company: Autodesk"
 90
        0
280
     0
281
     0
  0
CLASS
  1
ACMSECTIONSTANDARDISO
  2
AmdtSectionSymStdISO
  3
"Amdt_StdImp|Product Description: AutoCAD Mechanical|Company: Autodesk"
 90
        0
280
     0
281
     0
  0
CLASS
  1
ACMCENTERLINESTANDARDISO
  2
AmdtCenterLineStdISO
  3
"Amdt_StdImp|Product Description: AutoCAD Mechanical|Company: Autodesk"
 90
        0
280
     0
281
     0
  0
CLASS
  1
ACMNOTESTANDARDISO
  2
AmdtNoteStdISO
  3
"Amdt_StdImp|Product Description: AutoCAD Mechanical|Company: Autodesk"
 90
        0
280
     0
281
     0
  0
CLASS
  1
ACAMGLAYSTD
  2
AcAmgLayStd
  3
"AmgLay|Product Description: AutoCAD Mechanical|Company: Autodesk"
 90
        0
280
     0
281
     0
  0
CLASS
  1
ACAMGDIMSTD
  2
AcAmgDimStd
  3
"AmgDim|Product Description: AutoCAD Mechanical|Company: Autodesk"
 90
        0
280
     0
281
     0
  0
CLASS
  1
ACAMGHOLECHARTSTDISO
  2
AcAmgHoleChartStdISO
  3
ACMSYMBB_MODULE_NAME
 90
        0
280
     0
281
     0
  0
CLASS
  1
ACAMGTITLESTD
  2
AcAmgTitleStd
  3
"AmgTitle|Product Description: AutoCAD Mechanical|Company: Autodesk"
 90
        0
280
     0
281
     0
  0
CLASS
  1
ACAMGFILTERDAT
  2
AcAmgFilterDat
  3
"AcadM|Product Description: AutoCAD Mechanical|Company: Autodesk"
 90
        0
280
     0
281
     0
  0
CLASS
  1
LAYER_INDEX
  2
AcDbLayerIndex
  3
ObjectDBX Classes
 90
        0
280
     0
281
     0
  0
CLASS
  1
IDBUFFER
  2
AcDbIdBuffer
  3
ObjectDBX Classes
 90
        0
280
     0
281
     0
  0
CLASS
  1
DICTIONARYVAR
  2
AcDbDictionaryVar
  3
ObjectDBX Classes
 90
        0
280
     0
281
     0
  0
CLASS
  1
MATERIAL
  2
AcDbMaterial
  3
ObjectDBX Classes
 90
     1024
280
     0
281
     0
  0
CLASS
  1
VISUALSTYLE
  2
AcDbVisualStyle
  3
ObjectDBX Classes
 90
     4095
280
     0
281
     0
  0
CLASS
  1
TABLESTYLE
  2
AcDbTableStyle
  3
ObjectDBX Classes
 90
     4095
280
     0
281
     0
  0
CLASS
  1
AM_DRAWING_MGR
  2
AcDmDwgMgr
  3
AcMechDwgViewMgmt
 90
        0
280
     0
281
     0
  0
CLASS
  1
AM_DWG_DOCUMENT
  2
AcDmDwgDocument
  3
AcMechDwgViewMgmt
 90
        0
280
     0
281
     0
  0
CLASS
  1
AM_DWG_SHEET
  2
AcDmSheet
  3
AcMechDwgViewMgmt
 90
        0
280
     0
281
     0
  0
CLASS
  1
AM_VIEWDIMPARMAP
  2
AcDmViewDimParMap
  3
AcMechDwgViewMgmt
 90
        0
280
     0
281
     0
  0
CLASS
  1
AM_DWGMGR_NAME
  2
AcDmDwgMgrName
  3
AcMechDwgViewMgmt
 90
        0
280
     0
281
     0
  0
CLASS
  1
AMDTMENUSTATEMGR
  2
AmdtMenuStateMgr
  3
McadcomServices
 90
        0
280
     0
281
     0
  0
CLASS
  1
AMDTMCOMMENUSTATE
  2
AmdtMcomMenuState
  3
McadcomServices
 90
        0
280
     0
281
     0
  0
CLASS
  1
MAPIAMMOUDLE
  2
MApiAmModule
  3
MApiAmServices
 90
        0
280
     0
281
     0
  0
CLASS
  1
AMDTADMENUSTATE
  2
AmdtAdMenuState
  3
DesignerServices
 90
        0
280
     0
281
     0
  0
CLASS
  1
ADAPPL
  2
AcAdAppl
  3
DesignerServices
 90
        0
280
     0
281
     0
  0
CLASS
  1
DEPMGR
  2
AcAdDepMgr
  3
DesignerServices
 90
        0
280
     0
281
     0
  0
CLASS
  1
PARAMMGR
  2
AcAdParamMgr
  3
DesignerServices
 90
        0
280
     0
281
     0
  0
CLASS
  1
PARAMSCOPE
  2
AcAdParamScope
  3
DesignerServices
 90
        0
280
     0
281
     0
  0
CLASS
  1
NAMEDAPPL
  2
AcAdNamedAppl
  3
DesignerServices
 90
        0
280
     0
281
     0
  0
CLASS
  1
AMDTDMMENUSTATE
  2
AmdtDmMenuState
  3
AcMechDwgViewMgmt
 90
        0
280
     0
281
     0
  0
CLASS
  1
AMDTAMMENUSTATE
  2
AmdtAmMenuState
  3
DesignerAssemblies
 90
        0
280
     0
281
     0
  0
CLASS
  1
ACAMPROJECT
  2
AcAmProject
  3
DesignerAssemblies
 90
        0
280
     0
281
     0
  0
CLASS
  1
ACAMGRCOMPDEF
  2
AcAmGrCompDef
  3
DesignerAssemblies
 90
        0
280
     0
281
     0
  0
CLASS
  1
ACCMCONTEXT
  2
AcCmContext
  3
DesignerAssemblies
 90
        0
280
     0
281
     0
  0
CLASS
  1
ACAMCOMPDEF
  2
AcAmCompDef
  3
DesignerAssemblies
 90
        0
280
     0
281
     0
  0
CLASS
  1
ACAMCOMPDEFMGR
  2
AcAmCompDefMgr
  3
DesignerAssemblies
 90
        0
280
     0
281
     0
  0
CLASS
  1
AMCONTEXTMGR
  2
AcAmContextMgr
  3
DesignerAssemblies
 90
        0
280
     0
281
     0
  0
CLASS
  1
ACAMCONTEXTMODELER
  2
AcAmContextModeler
  3
DesignerAssemblies
 90
        0
280
     0
281
     0
  0
CLASS
  1
ACRFATTGENMGR
  2
AcRfAttGeneralMgr
  3
AcAttribServices
 90
        0
280
     0
281
     0
  0
CLASS
  1
ACRFOBJATTMGR
  2
AcRfObjAttGroupMgr
  3
AcAttribServices
 90
        0
280
     0
281
     0
  0
CLASS
  1
ACRFMCADAPIATTHOLDER
  2
AcRfMCADAPIAttHolder
  3
AcAttribServices
 90
        0
280
     0
281
     0
  0
CLASS
  1
AMDTSYSATTR
  2
AmdtSystemAttribute
  3
AcAttribServices
 90
        0
280
     0
281
     0
  0
CLASS
  1
ACMTHREADLINESTANDARDISO
  2
AmdtThreadLineStdISO
  3
"Amdt_StdImp|Product Description: AutoCAD Mechanical|Company: Autodesk"
 90
        0
280
     0
281
     0
  0
CLASS
  1
ACMTAPERSTANDARDISO
  2
AcmTaperStdISO
  3
"Amdt_StdImp|Product Description: AutoCAD Mechanical|Company: Autodesk"
 90
        0
280
     0
281
     0
  0
CLASS
  1
CATALOGSTATE
  2
AcAmCatalogState
  3
DesignerAssemblies
 90
        0
280
     0
281
     0
  0
CLASS
  1
ACAMGRCOMPDEFSET
  2
AcAmGrCompDefSet
  3
DesignerAssemblies
 90
        0
280
     0
281
     0
  0
CLASS
  1
AMDTBROWSERDBTAB
  2
AmdtBrowserDbTab
  3
McadcomServices
 90
        0
280
     0
281
     0
  0
CLASS
  1
CBROWSERAPPOBJECT
  2
CBrowserAppObject
  3
McadcomServices
 90
        0
280
     0
281
     0
  0
CLASS
  1
DM_PLACEHOLDER
  2
AcDmSelsetPlaceholder
  3
AcMechDwgViewMgmt
 90
        0
280
     0
281
     0
  0
ENDSEC
  0
SECTION
  2
TABLES
  0
TABLE
  2
VPORT
  5
8
330
0
100
AcDbSymbolTable
 70
     1
  0
VPORT
  5
3800
330
8
100
AcDbSymbolTableRecord
100
AcDbViewportTableRecord
  2
*Active
 70
     0
 10
0.0
 20
0.0
 11
1.0
 21
1.0
 12
1145.310733785275
 22
775.7859572659115
 13
0.0
 23
0.0
 14
10.0
 24
10.0
 15
10.0
 25
10.0
 16
0.0
 26
0.0
 36
1.0
 17
0.0
 27
0.0
 37
0.0
 40
265.6531371396809
 41
1.978563772775991
 42
50.0
 43
0.0
 44
0.0
 50
0.0
 51
0.0
 71
     0
 72
   100
 73
     1
 74
     1
 75
     0
 76
     0
 77
     0
 78
     0
281
     0
 65
     1
110
0.0
120
0.0
130
0.0
111
1.0
121
0.0
131
0.0
112
0.0
122
1.0
132
0.0
 79
     0
146
0.0
  0
ENDTAB
  0
TABLE
  2
LTYPE
  5
5
330
0
100
AcDbSymbolTable
 70
    15
  0
LTYPE
  5
12
330
5
100
AcDbSymbolTableRecord
100
AcDbLinetypeTableRecord
  2
BYBLOCK
 70
     0
  3

 72
    65
 73
     0
 40
0.0
  0
LTYPE
  5
13
330
5
100
AcDbSymbolTableRecord
100
AcDbLinetypeTableRecord
  2
BYLAYER
 70
     0
  3

 72
    65
 73
     0
 40
0.0
  0
LTYPE
  5
14
330
5
100
AcDbSymbolTableRecord
100
AcDbLinetypeTableRecord
  2
CONTINUOUS
 70
     0
  3
Solid line
 72
    65
 73
     0
 40
0.0
  0
LTYPE
  5
193
330
5
100
AcDbSymbolTableRecord
100
AcDbLinetypeTableRecord
  2
CENTER
 70
     0
  3

 72
    65
 73
     4
 40
2.0
 49
1.25
 74
     0
 49
-0.25
 74
     0
 49
0.25
 74
     0
 49
-0.25
 74
     0
  0
LTYPE
  5
196
330
5
100
AcDbSymbolTableRecord
100
AcDbLinetypeTableRecord
  2
HIDDEN
 70
     0
  3
Hidden __ __ __ __ __ __ __ __ __ __ __ __ __ _
 72
    65
 73
     2
 40
0.375
 49
0.25
 74
     0
 49
-0.125
 74
     0
  0
LTYPE
  5
3746
330
5
100
AcDbSymbolTableRecord
100
AcDbLinetypeTableRecord
  2
AM_ISO02W050
 70
     0
  3
__ __ __ __ __ __ __ __ __ __ __ __ __ __ __
 72
    65
 73
     2
 40
7.5
 49
6.0
 74
     0
 49
-1.5
 74
     0
  0
LTYPE
  5
3747
330
5
100
AcDbSymbolTableRecord
100
AcDbLinetypeTableRecord
  2
AM_ISO08W050
 70
     0
  3
____ . ____ . ____ . ____ . ____ . ____ . ____
 72
    65
 73
     4
 40
18.0
 49
12.0
 74
     0
 49
-1.5
 74
     0
 49
3.0
 74
     0
 49
-1.5
 74
     0
  0
LTYPE
  5
3748
330
5
100
AcDbSymbolTableRecord
100
AcDbLinetypeTableRecord
  2
AM_ISO09W050
 70
     0
  3
_____ . . _____ . . _____ . . ____ .. ____
 72
    65
 73
     6
 40
22.5
 49
12.0
 74
     0
 49
-1.5
 74
     0
 49
3.0
 74
     0
 49
-1.5
 74
     0
 49
3.0
 74
     0
 49
-1.5
 74
     0
  0
LTYPE
  5
3749
330
5
100
AcDbSymbolTableRecord
100
AcDbLinetypeTableRecord
  2
Amconstr
 70
     0
  3
_______________________
 72
    65
 73
     2
 40
9999.0
 49
9999.0
 74
     0
 49
0.0
 74
     0
  0
LTYPE
  5
374A
330
5
100
AcDbSymbolTableRecord
100
AcDbLinetypeTableRecord
  2
AM_ISO08W050x2
 70
     0
  3
__ . __ . __ . __ . __ . __
 72
    65
 73
     4
 40
9.0
 49
6.0
 74
     0
 49
-0.75
 74
     0
 49
1.5
 74
     0
 49
-0.75
 74
     0
  0
LTYPE
  5
374B
330
5
100
AcDbSymbolTableRecord
100
AcDbLinetypeTableRecord
  2
AM_ISO02W050x2
 70
     0
  3
 _ _ _ _ _ _ _ _ _ _ _ _
 72
    65
 73
     2
 40
3.75
 49
3.0
 74
     0
 49
-0.75
 74
     0
  0
LTYPE
  5
374E
330
5
100
AcDbSymbolTableRecord
100
AcDbLinetypeTableRecord
  2
Amzigzag
 70
     0
  3
/\/-/\/-/\/-/\/-/\/-/\/
 72
    65
 73
     2
 40
11.0001
 49
0.0001
 74
     4
 75
   135
340
374D
 46
0.04
 50
0.0
 44
0.0
 45
0.0
 49
-11.0
 74
     0
  0
LTYPE
  5
375C
330
5
100
AcDbSymbolTableRecord
100
AcDbLinetypeTableRecord
  2
ACISOWELD
 70
     0
  3
_ _ _ _ _
 72
    65
 73
     2
 40
2.0
 49
2.0
 74
     0
 49
-1.0
 74
     0
  0
LTYPE
  5
375D
330
5
100
AcDbSymbolTableRecord
100
AcDbLinetypeTableRecord
  2
ACISOTGB
 70
     0
  3
__ . . __ . .
 72
    65
 73
     6
 40
9.0
 49
4.0
 74
     0
 49
-1.0
 74
     0
 49
1.0
 74
     0
 49
-1.0
 74
     0
 49
1.0
 74
     0
 49
-1.0
 74
     0
  0
LTYPE
  5
375E
330
5
100
AcDbSymbolTableRecord
100
AcDbLinetypeTableRecord
  2
ACISOTGL
 70
     0
  3
_ _ _ _ _
 72
    65
 73
     2
 40
3.0
 49
2.0
 74
     0
 49
-1.0
 74
     0
  0
LTYPE
  5
3845
330
5
100
AcDbSymbolTableRecord
100
AcDbLinetypeTableRecord
  2
PHANTOM2
 70
     0
  3
Linea-Lineette (.5x) ___ _ _ ___ _ _ ___ _ _ ___ _ _
 72
    65
 73
     6
 40
31.75
 49
15.875
 74
     0
 49
-3.174999999999999
 74
     0
 49
3.174999999999999
 74
     0
 49
-3.174999999999999
 74
     0
 49
3.174999999999999
 74
     0
 49
-3.174999999999999
 74
     0
  0
ENDTAB
  0
TABLE
  2
LAYER
  5
2
330
0
100
AcDbSymbolTable
 70
    11
  0
LAYER
  5
E
330
2
100
AcDbSymbolTableRecord
100
AcDbLayerTableRecord
  2
0
 70
     0
 62
     7
  6
CONTINUOUS
370
    -3
390
371A
  0
LAYER
  5
199
330
2
100
AcDbSymbolTableRecord
100
AcDbLayerTableRecord
  2
DISEGNO
 70
     0
 62
     7
  6
CONTINUOUS
370
    -3
390
371A
  0
LAYER
  5
19C
330
2
100
AcDbSymbolTableRecord
100
AcDbLayerTableRecord
  2
QUOTE
 70
     0
 62
     1
  6
CONTINUOUS
370
    -3
390
371A
  0
LAYER
  5
1A0
330
2
100
AcDbSymbolTableRecord
100
AcDbLayerTableRecord
  2
ASSI
 70
     0
 62
     2
  6
CENTER
370
    -3
390
371A
  0
ENDTAB
  0
TABLE
  2
STYLE
  5
3
330
0
100
AcDbSymbolTable
 70
     6
  0
STYLE
  5
F
330
3
100
AcDbSymbolTableRecord
100
AcDbTextStyleTableRecord
  2
STANDARD
 70
     0
 40
0.0
 41
1.0
 50
0.0
 71
     0
 42
2.5
  3
txt
  4

  0
STYLE
  5
1A8
330
3
100
AcDbSymbolTableRecord
100
AcDbTextStyleTableRecord
  2
SIMPLEX
 70
     0
 40
0.0
 41
1.0
 50
0.0
 71
     0
 42
7.5
  3
simplex.shx
  4

  0
STYLE
  5
374D
330
3
100
AcDbSymbolTableRecord
100
AcDbTextStyleTableRecord
  2

 70
     1
 40
0.0
 41
1.0
 50
0.0
 71
     0
 42
2.5
  3
ltypeshp.shx
  4

  0
STYLE
  5
374F
330
3
100
AcDbSymbolTableRecord
100
AcDbTextStyleTableRecord
  2
ACISOTS
 70
     0
 40
1.0
 41
1.0
 50
0.0
 71
     0
 42
2.5
  3
isocp.shx
  4

  0
STYLE
  5
375B
330
3
100
AcDbSymbolTableRecord
100
AcDbTextStyleTableRecord
  2
ACISOGDT
 70
     0
 40
0.0
 41
1.0
 50
0.0
 71
     0
 42
2.5
  3
amgdt.shx
  4

  0
ENDTAB
  0
TABLE
  2
VIEW
  5
6
330
0
100
AcDbSymbolTable
 70
     0
  0
ENDTAB
  0
TABLE
  2
UCS
  5
7
330
0
100
AcDbSymbolTable
 70
     0
  0
ENDTAB
  0
TABLE
  2
APPID
  5
9
330
0
100
AcDbSymbolTable
 70
    26
  0
APPID
  5
10
330
9
100
AcDbSymbolTableRecord
100
AcDbRegAppTableRecord
  2
ACAD
 70
     0
  0
APPID
  5
1AB
330
9
100
AcDbSymbolTableRecord
100
AcDbRegAppTableRecord
  2
ASM_CADM_VER_12_00
 70
     0
  0
APPID
  5
1AC
330
9
100
AcDbSymbolTableRecord
100
AcDbRegAppTableRecord
  2
ASM_BASE
 70
     0
  0
APPID
  5
1AD
330
9
100
AcDbSymbolTableRecord
100
AcDbRegAppTableRecord
  2
ASM_EXPLO_VER_2_00
 70
     0
  0
APPID
  5
1AE
330
9
100
AcDbSymbolTableRecord
100
AcDbRegAppTableRecord
  2
ASM_BASEFORO
 70
     0
  0
APPID
  5
1AF
330
9
100
AcDbSymbolTableRecord
100
AcDbRegAppTableRecord
  2
ASM_BASETRAVI
 70
     0
  0
APPID
  5
1B0
330
9
100
AcDbSymbolTableRecord
100
AcDbRegAppTableRecord
  2
ASM_BASETRAVI1
 70
     0
  0
APPID
  5
1B1
330
9
100
AcDbSymbolTableRecord
100
AcDbRegAppTableRecord
  2
ASM_GRUPPI
 70
     0
  0
APPID
  5
1B2
330
9
100
AcDbSymbolTableRecord
100
AcDbRegAppTableRecord
  2
ASM_CADM_ALBERO
 70
     0
  0
APPID
  5
1B3
330
9
100
AcDbSymbolTableRecord
100
AcDbRegAppTableRecord
  2
ASM_GOLE
 70
     0
  0
APPID
  5
1B4
330
9
100
AcDbSymbolTableRecord
100
AcDbRegAppTableRecord
  2
AVE_RENDER
 70
     0
  0
APPID
  5
1B5
330
9
100
AcDbSymbolTableRecord
100
AcDbRegAppTableRecord
  2
AVE_ENTITY_MATERIAL
 70
     0
  0
APPID
  5
1B6
330
9
100
AcDbSymbolTableRecord
100
AcDbRegAppTableRecord
  2
AVE_FINISH
 70
     0
  0
APPID
  5
1B7
330
9
100
AcDbSymbolTableRecord
100
AcDbRegAppTableRecord
  2
AVE_MATERIAL
 70
     0
  0
APPID
  5
1B8
330
9
100
AcDbSymbolTableRecord
100
AcDbRegAppTableRecord
  2
AVE_GLOBAL
 70
     0
  0
APPID
  5
1B9
330
9
100
AcDbSymbolTableRecord
100
AcDbRegAppTableRecord
  2
AD_SKETCHDIM
 70
     0
  0
APPID
  5
50B
330
9
100
AcDbSymbolTableRecord
100
AcDbRegAppTableRecord
  2
COMAU_ACADLIB
 70
     0
  0
APPID
  5
3728
330
9
100
AcDbSymbolTableRecord
100
AcDbRegAppTableRecord
  2
MCAD_NO_VIS
 70
     0
  0
APPID
  5
3729
330
9
100
AcDbSymbolTableRecord
100
AcDbRegAppTableRecord
  2
ACAD_TEMP_GRAPHIC
 70
     0
  0
APPID
  5
373A
330
9
100
AcDbSymbolTableRecord
100
AcDbRegAppTableRecord
  2
ACATTRIBSERVICES
 70
     0
  0
APPID
  5
37AD
330
9
100
AcDbSymbolTableRecord
100
AcDbRegAppTableRecord
  2
DCO15
 70
     0
  0
APPID
  5
3847
330
9
100
AcDbSymbolTableRecord
100
AcDbRegAppTableRecord
  2
AD_DRAW
 70
     0
  0
APPID
  5
3866
330
9
100
AcDbSymbolTableRecord
100
AcDbRegAppTableRecord
  2
DESIGNERASSEMBLIES
 70
     0
  0
APPID
  5
3871
330
9
100
AcDbSymbolTableRecord
100
AcDbRegAppTableRecord
  2
ACADM_DIM_EDIT
 70
     0
  0
APPID
  5
3872
330
9
100
AcDbSymbolTableRecord
100
AcDbRegAppTableRecord
  2
AMDT_DM_ADJ
 70
     0
  0
APPID
  5
389F
330
9
100
AcDbSymbolTableRecord
100
AcDbRegAppTableRecord
  2
ACAD_EXEMPT_FROM_CAD_STANDARDS
 70
     0
  0
ENDTAB
  0
TABLE
  2
DIMSTYLE
  5
A
330
0
100
AcDbSymbolTable
 70
    10
100
AcDbDimStyleTable
 71
     1
340
33A9
  0
DIMSTYLE
105
33A9
330
A
100
AcDbSymbolTableRecord
100
AcDbDimStyleTableRecord
  2
SCALA2_5
 70
     0
 40
2.5
 41
3.0
 42
1.0
 43
1.0
 44
1.0
 73
     0
 74
     0
 77
     1
 78
    12
140
3.0
146
0.2
147
1.0
172
     1
176
     1
177
     1
178
     7
271
     2
340
1A8
  0
DIMSTYLE
105
3762
330
A
100
AcDbSymbolTableRecord
100
AcDbDimStyleTableRecord
  2
AM_ISO
 70
     0
  4
"
 41
2.5
 42
1.0
 43
10.0
 44
1.0
 47
0.1
 48
0.1
 73
     0
 74
     0
 77
     1
 78
     8
 79
     2
140
3.5
141
0.0
143
0.0393701
146
0.71
147
1.5
172
     1
176
   256
177
   256
178
     2
271
     2
272
     3
274
     4
283
     0
284
     8
340
F
371
    -1
372
    -1
  0
DIMSTYLE
105
3763
330
A
100
AcDbSymbolTableRecord
100
AcDbDimStyleTableRecord
  2
AM_ISO$3
 70
     0
  4
"
 41
2.5
 42
1.0
 43
10.0
 44
1.0
 47
0.1
 48
0.1
 73
     0
 77
     1
 78
     8
 79
     2
140
3.5
141
0.0
143
0.0393701
146
0.71
147
1.5
176
   256
177
   256
178
     2
271
     2
272
     3
274
     4
283
     0
284
     8
288
     1
289
     0
340
F
371
    -1
372
    -1
  0
DIMSTYLE
105
3764
330
A
100
AcDbSymbolTableRecord
100
AcDbDimStyleTableRecord
  2
AM_ISO$4
 70
     0
  4
"
 41
2.5
 42
1.0
 43
10.0
 44
1.0
 47
0.1
 48
0.1
 73
     0
 77
     1
 78
     8
 79
     2
140
3.5
141
0.0
143
0.0393701
146
0.71
147
1.5
176
   256
177
   256
178
     2
271
     2
272
     3
274
     4
283
     0
284
     8
288
     1
289
     0
340
F
371
    -1
372
    -1
  0
DIMSTYLE
105
3765
330
A
100
AcDbSymbolTableRecord
100
AcDbDimStyleTableRecord
  2
AM_ISO$6
 70
     0
  4
"
 41
2.5
 42
1.0
 43
10.0
 44
1.0
 47
0.1
 48
0.1
 73
     0
 74
     0
 78
     8
 79
     2
140
3.5
141
0.0
143
0.0393701
146
0.71
147
1.5
172
     1
176
   256
177
   256
178
     2
271
     2
272
     3
274
     4
283
     0
284
     8
340
F
371
    -1
372
    -1
  0
DIMSTYLE
105
3766
330
A
100
AcDbSymbolTableRecord
100
AcDbDimStyleTableRecord
  2
AM_ISO$7
 70
     0
  4
"
 41
2.5
 42
1.0
 43
10.0
 44
1.0
 47
0.1
 48
0.1
 73
     0
 74
     0
 77
     1
 78
     8
 79
     2
140
5.0
141
0.0
143
0.0393701
146
0.71
147
1.5
172
     1
176
   256
177
   256
178
     2
271
     2
272
     3
274
     4
283
     0
284
     8
340
F
371
    -1
372
    -1
  0
DIMSTYLE
105
3767
330
A
100
AcDbSymbolTableRecord
100
AcDbDimStyleTableRecord
  2
AM_ISO$SF
 70
     0
  4
"
 41
2.5
 42
1.0
 43
10.0
 44
1.0
 47
0.1
 48
0.1
 73
     0
 74
     0
 75
     1
 76
     1
 77
     1
 78
     8
 79
     2
140
3.5
141
0.0
143
0.0393701
146
0.71
147
1.5
172
     1
176
   256
177
   256
178
     2
271
     2
272
     3
274
     4
283
     0
284
     8
340
F
371
    -1
372
    -1
  0
DIMSTYLE
105
376C
330
A
100
AcDbSymbolTableRecord
100
AcDbDimStyleTableRecord
  2
AM_ISO$SH
 70
     0
  4
"
 41
2.5
 42
1.0
 43
10.0
 44
1.0
 47
0.1
 48
0.1
 73
     0
 74
     0
 75
     1
 76
     1
 77
     1
 78
     8
 79
     2
140
3.5
141
0.0
143
0.0393701
144
2.0
146
0.71
147
1.5
172
     1
173
     1
176
   256
177
   256
178
     2
271
     2
272
     3
274
     4
283
     0
284
     8
340
F
343
3768
371
    -1
372
    -1
  0
ENDTAB
  0
TABLE
  2
BLOCK_RECORD
  5
1
330
0
100
AcDbSymbolTable
 70
    24
  0
BLOCK_RECORD
  5
18
102
{ACAD_XDICTIONARY
360
3777
102
}
330
1
100
AcDbSymbolTableRecord
100
AcDbBlockTableRecord
  2
*MODEL_SPACE
340
371D
  0
BLOCK_RECORD
  5
15
330
1
100
AcDbSymbolTableRecord
100
AcDbBlockTableRecord
  2
*PAPER_SPACE
340
371E
  0
BLOCK_RECORD
  5
3768
330
1
100
AcDbSymbolTableRecord
100
AcDbBlockTableRecord
  2
GENAXEH
340
0
  0
ENDTAB
  0
ENDSEC
  0
SECTION
  2
BLOCKS
  0
BLOCK
  5
19
330
18
100
AcDbEntity
  8
0
100
AcDbBlockBegin
  2
*MODEL_SPACE
 70
     0
 10
0.0
 20
0.0
 30
0.0
  3
*MODEL_SPACE
  1

  0
ENDBLK
  5
1A
330
18
100
AcDbEntity
  8
0
100
AcDbBlockEnd
  0
BLOCK
  5
16
330
15
100
AcDbEntity
 67
     1
  8
0
100
AcDbBlockBegin
  2
*PAPER_SPACE
 70
     0
 10
0.0
 20
0.0
 30
0.0
  3
*PAPER_SPACE
  1

  0
ENDBLK
  5
17
330
15
100
AcDbEntity
 67
     1
  8
0
100
AcDbBlockEnd
  0
BLOCK
  5
376A
330
3768
100
AcDbEntity
  8
0
100
AcDbBlockBegin
  2
GENAXEH
 70
     0
 10
0.0
 20
0.0
 30
0.0
  3
GENAXEH
  1

  0
LINE
  5
3769
330
3768
100
AcDbEntity
  8
0
100
AcDbLine
 10
-1.0
 20
0.0
 30
0.0
 11
1.0
 21
0.0
 31
0.0
  0
ENDBLK
  5
376B
330
3768
100
AcDbEntity
  8
0
100
AcDbBlockEnd
  0
ENDSEC
  0
SECTION
  2
ENTITIES
  0
TEXT
  5
1B98
330
18
100
AcDbEntity
  8
QUOTE
 62
     7
100
AcDbText
 10
349.8948249793442
 20
133.440572056882
 30
0.0
 40
3.5
  1

  7
SIMPLEX
100
AcDbText
  0
ARC
  5
2C0B
330
18
100
AcDbEntity
  8
DISEGNO
100
AcDbCircle
 10
1112.866168312788
 20
850.0316970672132
 30
0.0
 40
8.75
100
AcDbArc
 50
75.54100000000001
 51
101.4594
  0
ARC
  5
2C0C
330
18
100
AcDbEntity
  8
DISEGNO
100
AcDbCircle
 10
1112.866168312788
 20
878.8116970672135
 30
0.0
 40
15.0
100
AcDbArc
 50
227.2679999999999
 51
312.732
  0
LINE
  5
2C13
330
18
100
AcDbEntity
  8
DISEGNO
100
AcDbLine
 10
1095.068440933351
 20
860.5316970672133
 30
0.0
 11
1084.866168312788
 21
860.5316970672133
 31
0.0
  0
ARC
  5
2C29
330
18
100
AcDbEntity
  8
DISEGNO
100
AcDbCircle
 10
1085.116168312788
 20
867.7816970672132
 30
0.0
 40
2.0
100
AcDbArc
 50
141.7678
 51
308.232
  0
ARC
  5
2C2A
330
18
100
AcDbEntity
  8
DISEGNO
100
AcDbCircle
 10
1085.116168312788
 20
877.7816970672132
 30
0.0
 40
2.0
100
AcDbArc
 50
51.76799999999997
 51
218.232
  0
LINE
  5
2C2C
330
18
100
AcDbEntity
  8
DISEGNO
100
AcDbLine
 10
1077.866168312788
 20
883.53169706734
 30
0.0
 11
1077.866168312788
 21
856.2816970673399
 31
0.0
  0
LINE
  5
2C2D
330
18
100
AcDbEntity
  8
DISEGNO
100
AcDbLine
 10
1084.866168312791
 20
856.2816970672132
 30
0.0
 11
1084.866168312788
 21
860.5316970672133
 31
0.0
  0
LINE
  5
2C2E
330
18
100
AcDbEntity
  8
DISEGNO
100
AcDbLine
 10
1084.866168312788
 20
856.2816970672132
 30
0.0
 11
1077.866168312788
 21
856.2816970672132
 31
0.0
  0
ARC
  5
2C31
330
18
100
AcDbEntity
  8
DISEGNO
100
AcDbCircle
 10
1090.116168312788
 20
872.7816970672133
 30
0.0
 40
7.0
100
AcDbArc
 50
156.8629
 51
203.1369999999999
  0
ARC
  5
2C32
330
18
100
AcDbEntity
  8
DISEGNO
100
AcDbCircle
 10
1082.766168312788
 20
869.6316970672135
 30
0.0
 40
1.0
100
AcDbArc
 50
321.768
 51
23.13700000000002
  0
ARC
  5
2C33
330
18
100
AcDbEntity
  8
DISEGNO
100
AcDbCircle
 10
1079.366168312788
 20
883.5316970672133
 30
0.0
 40
1.5
100
AcDbArc
 50
90.00000000000003
 51
179.9999999951624
  0
ARC
  5
2C34
330
18
100
AcDbEntity
  8
DISEGNO
100
AcDbCircle
 10
1082.766168312788
 20
875.9216970672136
 30
0.0
 40
1.0
100
AcDbArc
 50
336.863
 51
38.23199999999994
  0
ARC
  5
2C3A
330
18
100
AcDbEntity
  8
DISEGNO
100
AcDbCircle
 10
1100.723556468214
 20
863.590095349415
 30
0.0
 40
1.0
100
AcDbArc
 50
315.0000000000005
 51
44.99999999999992
  0
LINE
  5
2C3B
330
18
100
AcDbEntity
  8
DISEGNO
100
AcDbLine
 10
1094.178038469536
 20
865.8898269104664
 30
0.0
 11
1098.600663249401
 21
861.4672021306018
 31
0.0
  0
ARC
  5
2C3C
330
18
100
AcDbEntity
  8
DISEGNO
100
AcDbCircle
 10
1112.866168312788
 20
850.0316970672132
 30
0.0
 40
8.75
100
AcDbArc
 50
120.5406
 51
147.4594
  0
LINE
  5
2C3D
330
18
100
AcDbEntity
  8
DISEGNO
100
AcDbLine
 10
1104.446168312788
 20
854.9116970672134
 30
0.0
 11
1105.126168312788
 21
854.6216970672134
 31
0.0
  0
ARC
  5
2C3E
330
18
100
AcDbEntity
  8
DISEGNO
100
AcDbCircle
 10
1105.236168312789
 20
854.9016970672136
 30
0.0
 40
0.3
100
AcDbArc
 50
247.0
 51
327.459
  0
ARC
  5
2C3F
330
18
100
AcDbEntity
  8
DISEGNO
100
AcDbCircle
 10
1104.326168312788
 20
854.6316970672135
 30
0.0
 40
0.3
100
AcDbArc
 50
67.0
 51
151.6762
  0
ARC
  5
2C40
330
18
100
AcDbEntity
  8
DISEGNO
100
AcDbCircle
 10
1099.307770030586
 20
862.1743089117885
 30
0.0
 40
1.0
100
AcDbArc
 50
225.0000000000001
 51
315.0000000000002
  0
ARC
  5
2C41
330
18
100
AcDbEntity
  8
DISEGNO
100
AcDbCircle
 10
1095.068440933351
 20
859.5316970672133
 30
0.0
 40
1.0
100
AcDbArc
 50
21.43125450382716
 51
90.00000000000003
  0
LINE
  5
2C43
330
18
100
AcDbEntity
  8
DISEGNO
100
AcDbLine
 10
1100.014876811773
 20
861.4672021306018
 30
0.0
 11
1101.430663249401
 21
862.8829885682284
 31
0.0
  0
ARC
  5
2C44
330
18
100
AcDbEntity
  8
DISEGNO
100
AcDbCircle
 10
1108.266168312788
 20
857.8216970672132
 30
0.0
 40
0.3
100
AcDbArc
 50
300.5409999999999
 51
21.0
  0
LINE
  5
2C45
330
18
100
AcDbEntity
  8
DISEGNO
100
AcDbLine
 10
1108.286168312788
 20
858.6116970672131
 30
0.0
 11
1108.546168312789
 21
857.9316970672133
 31
0.0
  0
ARC
  5
2C46
330
18
100
AcDbEntity
  8
DISEGNO
100
AcDbCircle
 10
1108.566168312789
 20
858.7216970672132
 30
0.0
 40
0.3
100
AcDbArc
 50
116.3238
 51
201.0
  0
ARC
  5
2C47
330
18
100
AcDbEntity
  8
DISEGNO
100
AcDbCircle
 10
1110.246168312788
 20
859.3716970672133
 30
0.0
 40
0.3
100
AcDbArc
 50
21.0
 51
105.6761999999999
  0
LINE
  5
2C48
330
18
100
AcDbEntity
  8
DISEGNO
100
AcDbLine
 10
1110.526168312788
 20
859.4716970672132
 30
0.0
 11
1110.786168312788
 21
858.7916970672134
 31
0.0
  0
ARC
  5
2C49
330
18
100
AcDbEntity
  8
DISEGNO
100
AcDbCircle
 10
1111.066168312789
 20
858.9016970672135
 30
0.0
 40
0.3
100
AcDbArc
 50
201.0
 51
281.459
  0
ARC
  5
2C4A
330
18
100
AcDbEntity
  8
DISEGNO
100
AcDbCircle
 10
1112.866168312788
 20
850.0316970672132
 30
0.0
 40
10.0
100
AcDbArc
 50
105.6761999999999
 51
116.3238
  0
ARC
  5
2C4B
330
18
100
AcDbEntity
  8
DISEGNO
100
AcDbCircle
 10
1086.976168312789
 20
865.4216970672136
 30
0.0
 40
1.0
100
AcDbArc
 50
66.86299999999999
 51
128.2319999999999
  0
ARC
  5
2C4C
330
18
100
AcDbEntity
  8
DISEGNO
100
AcDbCircle
 10
1086.976168312789
 20
880.1316970672136
 30
0.0
 40
1.0
100
AcDbArc
 50
231.768
 51
293.137
  0
LINE
  5
2C4D
330
18
100
AcDbEntity
  8
DISEGNO
100
AcDbLine
 10
1102.366168312788
 20
868.5316970672133
 30
0.0
 11
1102.366168312788
 21
878.0316970672132
 31
0.0
  0
ARC
  5
2C4E
330
18
100
AcDbEntity
  8
DISEGNO
100
AcDbCircle
 10
1103.366168312788
 20
868.5316970672133
 30
0.0
 40
1.0
100
AcDbArc
 50
180.0
 51
227.2679999999999
  0
LINE
  5
2C4F
330
18
100
AcDbEntity
  8
DISEGNO
100
AcDbLine
 10
1102.366168312788
 20
878.0316970672132
 30
0.0
 11
1106.616168312788
 21
878.0316970672132
 31
0.0
  0
LINE
  5
2C50
330
18
100
AcDbEntity
  8
DISEGNO
100
AcDbLine
 10
1106.616168312788
 20
885.0316970672132
 30
0.0
 11
1106.616168312788
 21
878.0316970672132
 31
0.0
  0
ARC
  5
2C51
330
18
100
AcDbEntity
  8
DISEGNO
100
AcDbCircle
 10
1090.116168312788
 20
872.7816970672133
 30
0.0
 40
7.0
100
AcDbArc
 50
339.3239661499973
 51
23.13700000000002
  0
ARC
  5
2C52
330
18
100
AcDbEntity
  8
DISEGNO
100
AcDbCircle
 10
1090.116168312788
 20
872.7816970672133
 30
0.0
 40
7.0
100
AcDbArc
 50
246.863
 51
290.6760338500019
  0
ARC
  5
2C53
330
18
100
AcDbEntity
  8
DISEGNO
100
AcDbCircle
 10
1098.068698641315
 20
869.7804870822464
 30
0.0
 40
1.5
100
AcDbArc
 50
159.3239661499974
 51
225.0000000000004
  0
LINE
  5
2C54
330
18
100
AcDbEntity
  8
DISEGNO
100
AcDbLine
 10
1097.008038469535
 20
868.7198269104667
 30
0.0
 11
1101.430663249401
 21
864.2972021306016
 31
0.0
  0
ARC
  5
2C55
330
18
100
AcDbEntity
  8
DISEGNO
100
AcDbCircle
 10
1093.117378297755
 20
864.8291667386869
 30
0.0
 40
1.5
100
AcDbArc
 50
45.0000000000008
 51
110.6760338500015
  0
ARC
  5
2C56
330
18
100
AcDbEntity
  8
DISEGNO
100
AcDbCircle
 10
1090.116168312788
 20
872.7816970672133
 30
0.0
 40
7.0
100
AcDbArc
 50
66.86299999999999
 51
113.137
  0
ARC
  5
2C57
330
18
100
AcDbEntity
  8
DISEGNO
100
AcDbCircle
 10
1097.476168312789
 20
875.9216970672136
 30
0.0
 40
1.0
100
AcDbArc
 50
141.7678
 51
203.1369999999999
  0
ARC
  5
2C58
330
18
100
AcDbEntity
  8
DISEGNO
100
AcDbCircle
 10
1095.116168312788
 20
877.7816970672132
 30
0.0
 40
2.0
100
AcDbArc
 50
321.768
 51
128.2319999999999
  0
ARC
  5
2C59
330
18
100
AcDbEntity
  8
DISEGNO
100
AcDbCircle
 10
1093.266168312788
 20
880.1316970672136
 30
0.0
 40
1.0
100
AcDbArc
 50
246.863
 51
308.232
  0
LINE
  5
2C60
330
18
100
AcDbEntity
  8
DISEGNO
100
AcDbLine
 10
1173.369168312788
 20
878.0316970672132
 30
0.0
 11
1169.116168312788
 21
878.0316970672132
 31
0.0
  0
ARC
  5
2C62
330
18
100
AcDbEntity
  8
DISEGNO
100
AcDbCircle
 10
1162.866168312788
 20
878.8116970672135
 30
0.0
 40
15.0
100
AcDbArc
 50
227.2679999999999
 51
312.732
  0
LINE
  5
2C64
330
18
100
AcDbEntity
  8
DISEGNO
100
AcDbLine
 10
1119.116168312788
 20
885.0316970672141
 30
0.0
 11
1156.616168312788
 21
885.0316970672137
 31
0.0
  0
ARC
  5
2C65
330
18
100
AcDbEntity
  8
DISEGNO
100
AcDbCircle
 10
1140.866168312788
 20
873.5316970672132
 30
0.0
 40
4.0
100
AcDbArc
 50
0.0
 51
90.00000000000003
  0
ARC
  5
2C67
330
18
100
AcDbEntity
  8
DISEGNO
100
AcDbCircle
 10
1122.366168312788
 20
868.5316970672133
 30
0.0
 40
8.5
100
AcDbArc
 50
304.8499045790471
 51
0.0
  0
ARC
  5
2C68
330
18
100
AcDbEntity
  8
DISEGNO
100
AcDbCircle
 10
1112.866168312788
 20
850.0316970672132
 30
0.0
 40
8.75
100
AcDbArc
 50
30.541
 51
56.45899999999993
  0
ARC
  5
2C69
330
18
100
AcDbEntity
  8
DISEGNO
100
AcDbCircle
 10
1115.126168312788
 20
858.7916970672134
 30
0.0
 40
0.3
100
AcDbArc
 50
255.541
 51
336.0
  0
LINE
  5
2C6A
330
18
100
AcDbEntity
  8
DISEGNO
100
AcDbLine
 10
1115.406168312789
 20
858.6716970672135
 30
0.0
 11
1115.706168312788
 21
859.3416970672132
 31
0.0
  0
ARC
  5
2C6B
330
18
100
AcDbEntity
  8
DISEGNO
100
AcDbCircle
 10
1115.976168312789
 20
859.2216970672133
 30
0.0
 40
0.3
100
AcDbArc
 50
71.32399999999996
 51
156.0
  0
ARC
  5
2C6C
330
18
100
AcDbEntity
  8
DISEGNO
100
AcDbCircle
 10
1112.866168312788
 20
850.0316970672132
 30
0.0
 40
10.0
100
AcDbArc
 50
60.67600000000005
 51
71.32399999999996
  0
ARC
  5
2C6D
330
18
100
AcDbEntity
  8
DISEGNO
100
AcDbCircle
 10
1117.616168312788
 20
858.4916970672132
 30
0.0
 40
0.3
100
AcDbArc
 50
336.0
 51
60.67600000000005
  0
LINE
  5
2C6E
330
18
100
AcDbEntity
  8
DISEGNO
100
AcDbLine
 10
1117.596168312788
 20
857.6916970672135
 30
0.0
 11
1117.896168312789
 21
858.3616970672132
 31
0.0
  0
ARC
  5
2C6F
330
18
100
AcDbEntity
  8
DISEGNO
100
AcDbCircle
 10
1117.866168312788
 20
857.5716970672132
 30
0.0
 40
0.3
100
AcDbArc
 50
156.0
 51
236.459
  0
ARC
  5
2C70
330
18
100
AcDbEntity
  8
DISEGNO
100
AcDbCircle
 10
1128.366168312788
 20
859.9148530974066
 30
0.0
 40
2.0
100
AcDbArc
 50
124.8499045790472
 51
180.0
  0
LINE
  5
2C71
330
18
100
AcDbEntity
  8
DISEGNO
100
AcDbLine
 10
1123.366168312788
 20
868.5316970672133
 30
0.0
 11
1123.366168312788
 21
878.0316970672132
 31
0.0
  0
ARC
  5
2C72
330
18
100
AcDbEntity
  8
DISEGNO
100
AcDbCircle
 10
1122.366168312788
 20
868.5316970672133
 30
0.0
 40
1.0
100
AcDbArc
 50
312.732
 51
0.0
  0
LINE
  5
2C73
330
18
100
AcDbEntity
  8
DISEGNO
100
AcDbLine
 10
1119.116168312788
 20
878.0316970672132
 30
0.0
 11
1123.366168312788
 21
878.0316970672132
 31
0.0
  0
LINE
  5
2C74
330
18
100
AcDbEntity
  8
DISEGNO
100
AcDbLine
 10
1119.116168312788
 20
878.0316970672132
 30
0.0
 11
1119.116168312788
 21
885.0316970672132
 31
0.0
  0
LINE
  5
2C75
330
18
100
AcDbEntity
  8
DISEGNO
100
AcDbLine
 10
1140.866168312788
 20
877.5316970672133
 30
0.0
 11
1134.866168312788
 21
877.5316970672133
 31
0.0
  0
LINE
  5
2C76
330
18
100
AcDbEntity
  8
DISEGNO
100
AcDbLine
 10
1130.866168312788
 20
868.5316970672133
 30
0.0
 11
1130.866168312788
 21
873.5316970672132
 31
0.0
  0
ARC
  5
2C77
330
18
100
AcDbEntity
  8
DISEGNO
100
AcDbCircle
 10
1134.866168312788
 20
873.5316970672132
 30
0.0
 40
4.0
100
AcDbArc
 50
90.00000000000003
 51
180.0
  0
LINE
  5
2C7D
330
18
100
AcDbEntity
  8
DISEGNO
100
AcDbLine
 10
1144.866168312788
 20
868.5316970672133
 30
0.0
 11
1144.866168312788
 21
873.5316970672132
 31
0.0
  0
ARC
  5
2C7E
330
18
100
AcDbEntity
  8
DISEGNO
100
AcDbCircle
 10
1162.866168312788
 20
850.0316970672132
 30
0.0
 40
8.75
100
AcDbArc
 50
32.541
 51
59.45899999999999
  0
ARC
  5
2C7F
330
18
100
AcDbEntity
  8
DISEGNO
100
AcDbCircle
 10
1162.866168312788
 20
850.0316970672132
 30
0.0
 40
10.0
100
AcDbArc
 50
63.67600000000004
 51
74.32400000000003
  0
ARC
  5
2C80
330
18
100
AcDbEntity
  8
DISEGNO
100
AcDbCircle
 10
1167.466168312788
 20
857.8216970672132
 30
0.0
 40
0.3
100
AcDbArc
 50
159.0
 51
239.459
  0
LINE
  5
2C81
330
18
100
AcDbEntity
  8
DISEGNO
100
AcDbLine
 10
1167.446168312788
 20
858.6116970672131
 30
0.0
 11
1167.186168312788
 21
857.9316970672133
 31
0.0
  0
ARC
  5
2C82
330
18
100
AcDbEntity
  8
DISEGNO
100
AcDbCircle
 10
1167.166168312788
 20
858.7216970672132
 30
0.0
 40
0.3
100
AcDbArc
 50
339.0
 51
63.67600000000004
  0
ARC
  5
2C83
330
18
100
AcDbEntity
  8
DISEGNO
100
AcDbCircle
 10
1165.486168312788
 20
859.3716970672133
 30
0.0
 40
0.3
100
AcDbArc
 50
74.32400000000003
 51
159.0
  0
LINE
  5
2C84
330
18
100
AcDbEntity
  8
DISEGNO
100
AcDbLine
 10
1165.206168312789
 20
859.4716970672132
 30
0.0
 11
1164.946168312788
 21
858.7916970672134
 31
0.0
  0
ARC
  5
2C85
330
18
100
AcDbEntity
  8
DISEGNO
100
AcDbCircle
 10
1164.666168312789
 20
858.9016970672135
 30
0.0
 40
0.3
100
AcDbArc
 50
258.541
 51
339.0
  0
ARC
  5
2C86
330
18
100
AcDbEntity
  8
DISEGNO
100
AcDbCircle
 10
1162.866168312788
 20
850.0316970672132
 30
0.0
 40
8.75
100
AcDbArc
 50
78.54099999999998
 51
104.4594
  0
ARC
  5
2C87
330
18
100
AcDbEntity
  8
DISEGNO
100
AcDbCircle
 10
1160.606168312788
 20
858.7916970672134
 30
0.0
 40
0.3
100
AcDbArc
 50
204.0
 51
284.459
  0
ARC
  5
2C88
330
18
100
AcDbEntity
  8
DISEGNO
100
AcDbCircle
 10
1162.866168312788
 20
850.0316970672132
 30
0.0
 40
8.75
100
AcDbArc
 50
123.5406
 51
149.4594
  0
ARC
  5
2C89
330
18
100
AcDbEntity
  8
DISEGNO
100
AcDbCircle
 10
1159.766168312788
 20
859.2216970672133
 30
0.0
 40
0.3
100
AcDbArc
 50
24.0
 51
108.6762
  0
ARC
  5
2C8A
330
18
100
AcDbEntity
  8
DISEGNO
100
AcDbCircle
 10
1162.866168312788
 20
850.0316970672132
 30
0.0
 40
10.0
100
AcDbArc
 50
108.6762
 51
119.3237
  0
ARC
  5
2C8B
330
18
100
AcDbEntity
  8
DISEGNO
100
AcDbCircle
 10
1158.116168312788
 20
858.4916970672132
 30
0.0
 40
0.3
100
AcDbArc
 50
119.3237
 51
204.0
  0
LINE
  5
2C8C
330
18
100
AcDbEntity
  8
DISEGNO
100
AcDbLine
 10
1158.146168312788
 20
857.6916970672135
 30
0.0
 11
1157.846168312788
 21
858.3616970672132
 31
0.0
  0
ARC
  5
2C8D
330
18
100
AcDbEntity
  8
DISEGNO
100
AcDbCircle
 10
1157.866168312788
 20
857.5716970672132
 30
0.0
 40
0.3
100
AcDbArc
 50
303.541
 51
24.0
  0
LINE
  5
2C8E
330
18
100
AcDbEntity
  8
DISEGNO
100
AcDbLine
 10
1160.336168312788
 20
858.6716970672135
 30
0.0
 11
1160.036168312788
 21
859.3416970672132
 31
0.0
  0
LINE
  5
2C8F
330
18
100
AcDbEntity
  8
DISEGNO
100
AcDbLine
 10
1171.286168312788
 20
854.9116970672134
 30
0.0
 11
1170.616168312788
 21
854.6216970672134
 31
0.0
  0
ARC
  5
2C90
330
18
100
AcDbEntity
  8
DISEGNO
100
AcDbCircle
 10
1170.496168312788
 20
854.9016970672136
 30
0.0
 40
0.3
100
AcDbArc
 50
212.541
 51
293.0000000000001
  0
ARC
  5
2C91
330
18
100
AcDbEntity
  8
DISEGNO
100
AcDbCircle
 10
1171.406168312788
 20
854.6316970672135
 30
0.0
 40
0.3
100
AcDbArc
 50
28.32400000000003
 51
113.0
  0
LINE
  5
2C92
330
18
100
AcDbEntity
  8
DISEGNO
100
AcDbLine
 10
1169.116168312788
 20
885.0316970672132
 30
0.0
 11
1169.116168312788
 21
878.0316970672132
 31
0.0
  0
LINE
  5
2C93
330
18
100
AcDbEntity
  8
DISEGNO
100
AcDbLine
 10
1152.366168312788
 20
868.5316970672133
 30
0.0
 11
1152.366168312788
 21
878.0316970672132
 31
0.0
  0
ARC
  5
2C94
330
18
100
AcDbEntity
  8
DISEGNO
100
AcDbCircle
 10
1153.366168312788
 20
868.5316970672133
 30
0.0
 40
1.0
100
AcDbArc
 50
180.0
 51
227.2679999999999
  0
LINE
  5
2C95
330
18
100
AcDbEntity
  8
DISEGNO
100
AcDbLine
 10
1156.616168312788
 20
878.0316970672132
 30
0.0
 11
1152.366168312788
 21
878.0316970672132
 31
0.0
  0
LINE
  5
2C96
330
18
100
AcDbEntity
  8
DISEGNO
100
AcDbLine
 10
1156.616168312788
 20
878.0316970672132
 30
0.0
 11
1156.616168312788
 21
885.0316970672132
 31
0.0
  0
LINE
  5
2C98
330
18
100
AcDbEntity
  8
DISEGNO
100
AcDbLine
 10
1176.116168312788
 20
884.8316969975488
 30
0.0
 11
1178.616168312788
 21
884.8316969975488
 31
0.0
  0
LINE
  5
2C99
330
18
100
AcDbEntity
  8
DISEGNO
100
AcDbLine
 10
1176.116168312788
 20
884.8316969975488
 30
0.0
 11
1176.116168312788
 21
885.0316969975487
 31
0.0
  0
LINE
  5
2C9A
330
18
100
AcDbEntity
  8
DISEGNO
100
AcDbLine
 10
1178.616168312788
 20
884.8316969975488
 30
0.0
 11
1178.616168312788
 21
885.0316969975487
 31
0.0
  0
LINE
  5
2C9B
330
18
100
AcDbEntity
  8
DISEGNO
100
AcDbLine
 10
1196.369168300498
 20
885.0316970672132
 30
0.0
 11
1178.616168312788
 21
885.0316969975487
 31
0.0
  0
ARC
  5
2CA2
330
18
100
AcDbEntity
  8
DISEGNO
100
AcDbCircle
 10
1175.008780157363
 20
863.590095349415
 30
0.0
 40
1.0
100
AcDbArc
 50
135.0
 51
224.9999999999996
  0
LINE
  5
2CA3
330
18
100
AcDbEntity
  8
DISEGNO
100
AcDbLine
 10
1197.869168312788
 20
883.5316970672133
 30
0.0
 11
1197.869168312788
 21
856.2816970672132
 31
0.0
  0
LINE
  5
2CA4
330
18
100
AcDbEntity
  8
DISEGNO
100
AcDbLine
 10
1181.554298156042
 20
865.8898269104664
 30
0.0
 11
1177.131673376177
 21
861.4672021306018
 31
0.0
  0
LINE
  5
2CA5
330
18
100
AcDbEntity
  8
DISEGNO
100
AcDbLine
 10
1180.663895692226
 20
860.5316970672133
 30
0.0
 11
1190.869168312788
 21
860.5316970672133
 31
0.0
  0
ARC
  5
2CA7
330
18
100
AcDbEntity
  8
DISEGNO
100
AcDbCircle
 10
1180.663895692226
 20
859.5316970672133
 30
0.0
 40
1.0
100
AcDbArc
 50
90.00000000000003
 51
158.5687454961728
  0
ARC
  5
2CA8
330
18
100
AcDbEntity
  8
DISEGNO
100
AcDbCircle
 10
1176.42456659499
 20
862.1743089117885
 30
0.0
 40
1.0
100
AcDbArc
 50
224.9999999999998
 51
314.9999999999999
  0
LINE
  5
2CAA
330
18
100
AcDbEntity
  8
DISEGNO
100
AcDbLine
 10
1175.717459813803
 20
861.4672021306018
 30
0.0
 11
1174.301673376177
 21
862.8829885682284
 31
0.0
  0
LINE
  5
2CAB
330
18
100
AcDbEntity
  8
DISEGNO
100
AcDbLine
 10
1190.869168312788
 20
856.2816970672132
 30
0.0
 11
1197.869168312788
 21
856.2816970672132
 31
0.0
  0
LINE
  5
2CAC
330
18
100
AcDbEntity
  8
DISEGNO
100
AcDbLine
 10
1190.869168312788
 20
856.2816970672132
 30
0.0
 11
1190.869168312788
 21
860.5316970672133
 31
0.0
  0
ARC
  5
2CAF
330
18
100
AcDbEntity
  8
DISEGNO
100
AcDbCircle
 10
1190.616168312788
 20
867.7816970672132
 30
0.0
 40
2.0
100
AcDbArc
 50
231.768
 51
38.23220000000003
  0
ARC
  5
2CB0
330
18
100
AcDbEntity
  8
DISEGNO
100
AcDbCircle
 10
1190.616168312788
 20
877.7816970672132
 30
0.0
 40
2.0
100
AcDbArc
 50
321.768
 51
128.232
  0
ARC
  5
2CC4
330
18
100
AcDbEntity
  8
DISEGNO
100
AcDbCircle
 10
1185.616168312788
 20
872.7816970672133
 30
0.0
 40
7.0
100
AcDbArc
 50
156.8629999999999
 51
200.6760338500027
  0
LINE
  5
2CC5
330
18
100
AcDbEntity
  8
DISEGNO
100
AcDbLine
 10
1173.369168312788
 20
868.5316970672133
 30
0.0
 11
1173.369168312788
 21
878.0316970672132
 31
0.0
  0
LINE
  5
2CC6
330
18
100
AcDbEntity
  8
DISEGNO
100
AcDbLine
 10
1178.724298156042
 20
868.7198269104667
 30
0.0
 11
1174.301673376177
 21
864.2972021306016
 31
0.0
  0
ARC
  5
2CC7
330
18
100
AcDbEntity
  8
DISEGNO
100
AcDbCircle
 10
1177.663637984262
 20
869.7804870822464
 30
0.0
 40
1.5
100
AcDbArc
 50
314.9999999999997
 51
20.67603385000252
  0
ARC
  5
2CC8
330
18
100
AcDbEntity
  8
DISEGNO
100
AcDbCircle
 10
1185.616168312788
 20
872.7816970672133
 30
0.0
 40
7.0
100
AcDbArc
 50
249.323966149998
 51
293.1370000000001
  0
ARC
  5
2CC9
330
18
100
AcDbEntity
  8
DISEGNO
100
AcDbCircle
 10
1182.614958327822
 20
864.8291667386869
 30
0.0
 40
1.5
100
AcDbArc
 50
69.32396614999851
 51
134.9999999999992
  0
ARC
  5
2CCA
330
18
100
AcDbEntity
  8
DISEGNO
100
AcDbCircle
 10
1172.369168312788
 20
868.5316970672133
 30
0.0
 40
1.0
100
AcDbArc
 50
312.732
 51
0.0
  0
ARC
  5
2CCB
330
18
100
AcDbEntity
  8
DISEGNO
100
AcDbCircle
 10
1178.256168312789
 20
875.9216970672136
 30
0.0
 40
1.0
100
AcDbArc
 50
336.863
 51
38.23220000000003
  0
ARC
  5
2CCC
330
18
100
AcDbEntity
  8
DISEGNO
100
AcDbCircle
 10
1185.616168312788
 20
872.7816970672133
 30
0.0
 40
7.0
100
AcDbArc
 50
66.86299999999999
 51
113.137
  0
ARC
  5
2CCD
330
18
100
AcDbEntity
  8
DISEGNO
100
AcDbCircle
 10
1180.616168312788
 20
877.7816970672132
 30
0.0
 40
2.0
100
AcDbArc
 50
51.76800000000006
 51
218.232
  0
ARC
  5
2CCE
330
18
100
AcDbEntity
  8
DISEGNO
100
AcDbCircle
 10
1182.466168312789
 20
880.1316970672136
 30
0.0
 40
1.0
100
AcDbArc
 50
231.768
 51
293.1370000000001
  0
ARC
  5
2CD3
330
18
100
AcDbEntity
  8
DISEGNO
100
AcDbCircle
 10
1188.756168312789
 20
865.4216970672136
 30
0.0
 40
1.0
100
AcDbArc
 50
51.76800000000006
 51
113.137
  0
ARC
  5
2CD4
330
18
100
AcDbEntity
  8
DISEGNO
100
AcDbCircle
 10
1188.756168312789
 20
880.1316970672136
 30
0.0
 40
1.0
100
AcDbArc
 50
246.863
 51
308.232
  0
ARC
  5
2CD5
330
18
100
AcDbEntity
  8
DISEGNO
100
AcDbCircle
 10
1185.616168312788
 20
872.7816970672133
 30
0.0
 40
7.0
100
AcDbArc
 50
336.863
 51
23.13710000000006
  0
ARC
  5
2CD6
330
18
100
AcDbEntity
  8
DISEGNO
100
AcDbCircle
 10
1192.966168312789
 20
869.6316970672135
 30
0.0
 40
1.0
100
AcDbArc
 50
156.8629999999999
 51
218.232
  0
ARC
  5
2CD7
330
18
100
AcDbEntity
  8
DISEGNO
100
AcDbCircle
 10
1192.966168312789
 20
875.9216970672136
 30
0.0
 40
1.0
100
AcDbArc
 50
141.768
 51
203.137
  0
ARC
  5
2CD8
330
18
100
AcDbEntity
  8
DISEGNO
100
AcDbCircle
 10
1196.369168312788
 20
883.5316970672133
 30
0.0
 40
1.5
100
AcDbArc
 50
0.0
 51
90.00000000000003
  0
ARC
  5
2CDC
330
18
100
AcDbEntity
  8
DISEGNO
100
AcDbCircle
 10
1112.866168312788
 20
850.0316970672132
 30
0.0
 40
8.75
100
AcDbArc
 50
256.541
 51
282.459
  0
ARC
  5
2CDD
330
18
100
AcDbEntity
  8
DISEGNO
100
AcDbCircle
 10
1104.066168312789
 20
852.1316970672137
 30
0.0
 40
0.3
100
AcDbArc
 50
346.541
 51
67.0
  0
ARC
  5
2CDE
330
18
100
AcDbEntity
  8
DISEGNO
100
AcDbCircle
 10
1112.866168312788
 20
850.0316970672132
 30
0.0
 40
8.75
100
AcDbArc
 50
211.541
 51
237.459
  0
LINE
  5
2CDF
330
18
100
AcDbEntity
  8
DISEGNO
100
AcDbLine
 10
1112.866168312788
 20
836.5316970672132
 30
0.0
 11
1102.983012282595
 21
836.5316970672132
 31
0.0
  0
ARC
  5
2CE0
330
18
100
AcDbEntity
  8
DISEGNO
100
AcDbCircle
 10
1112.866168312788
 20
850.0316970672132
 30
0.0
 40
10.0
100
AcDbArc
 50
196.6759999999999
 51
207.324
  0
ARC
  5
2CE1
330
18
100
AcDbEntity
  8
DISEGNO
100
AcDbCircle
 10
1103.576168312788
 20
847.2416970672133
 30
0.0
 40
0.3
100
AcDbArc
 50
112.0
 51
196.6759999999999
  0
LINE
  5
2CE2
330
18
100
AcDbEntity
  8
DISEGNO
100
AcDbLine
 10
1104.146168312789
 20
847.8016970672133
 30
0.0
 11
1103.466168312789
 21
847.5216970672134
 31
0.0
  0
ARC
  5
2CE3
330
18
100
AcDbEntity
  8
DISEGNO
100
AcDbCircle
 10
1104.036168312788
 20
848.0816970672133
 30
0.0
 40
0.3
100
AcDbArc
 50
292.0
 51
12.459
  0
ARC
  5
2CE4
330
18
100
AcDbEntity
  8
DISEGNO
100
AcDbCircle
 10
1112.866168312788
 20
850.0316970672132
 30
0.0
 40
8.75
100
AcDbArc
 50
166.5406
 51
192.459
  0
ARC
  5
2CE5
330
18
100
AcDbEntity
  8
DISEGNO
100
AcDbCircle
 10
1105.156168312789
 20
845.2916970672134
 30
0.0
 40
0.3
100
AcDbArc
 50
31.54099999999992
 51
112.0
  0
LINE
  5
2CE6
330
18
100
AcDbEntity
  8
DISEGNO
100
AcDbLine
 10
1105.046168312789
 20
845.5716970672131
 30
0.0
 11
1104.366168312788
 21
845.3016970672132
 31
0.0
  0
ARC
  5
2CE7
330
18
100
AcDbEntity
  8
DISEGNO
100
AcDbCircle
 10
1104.256168312788
 20
845.5816970672135
 30
0.0
 40
0.3
100
AcDbArc
 50
207.324
 51
292.0
  0
ARC
  5
2CE8
330
18
100
AcDbEntity
  8
DISEGNO
100
AcDbCircle
 10
1102.983012282595
 20
834.5316970672133
 30
0.0
 40
2.0
100
AcDbArc
 50
90.00000000000003
 51
145.1500954209534
  0
ARC
  5
2CE9
330
18
100
AcDbEntity
  8
DISEGNO
100
AcDbCircle
 10
1112.866168312788
 20
850.0316970672132
 30
0.0
 40
10.0
100
AcDbArc
 50
241.676
 51
252.324
  0
ARC
  5
2CEA
330
18
100
AcDbEntity
  8
DISEGNO
100
AcDbCircle
 10
1108.266168312788
 20
841.4916970672132
 30
0.0
 40
0.3
100
AcDbArc
 50
157.0
 51
241.676
  0
LINE
  5
2CEB
330
18
100
AcDbEntity
  8
DISEGNO
100
AcDbLine
 10
1108.276168312788
 20
842.2816970672132
 30
0.0
 11
1107.986168312789
 21
841.6116970672131
 31
0.0
  0
ARC
  5
2CEC
330
18
100
AcDbEntity
  8
DISEGNO
100
AcDbCircle
 10
1107.996168312788
 20
842.4016970672136
 30
0.0
 40
0.3
100
AcDbArc
 50
337.0
 51
57.459
  0
ARC
  5
2CED
330
18
100
AcDbEntity
  8
DISEGNO
100
AcDbCircle
 10
1110.766168312788
 20
841.2316970672135
 30
0.0
 40
0.3
100
AcDbArc
 50
76.54099999999999
 51
157.0
  0
LINE
  5
2CEE
330
18
100
AcDbEntity
  8
DISEGNO
100
AcDbLine
 10
1110.486168312789
 20
841.3416970672132
 30
0.0
 11
1110.196168312788
 21
840.6716970672135
 31
0.0
  0
ARC
  5
2CEF
330
18
100
AcDbEntity
  8
DISEGNO
100
AcDbCircle
 10
1109.926168312788
 20
840.7916970672134
 30
0.0
 40
0.3
100
AcDbArc
 50
252.324
 51
337.0
  0
ARC
  5
2CF0
330
18
100
AcDbEntity
  8
DISEGNO
100
AcDbCircle
 10
1112.866168312788
 20
850.0316970672132
 30
0.0
 40
10.0
100
AcDbArc
 50
151.6762
 51
162.3238
  0
LINE
  5
2CF1
330
18
100
AcDbEntity
  8
DISEGNO
100
AcDbLine
 10
1103.506168312788
 20
852.7016970672132
 30
0.0
 11
1104.186168312788
 21
852.4116970672134
 31
0.0
  0
ARC
  5
2CF2
330
18
100
AcDbEntity
  8
DISEGNO
100
AcDbCircle
 10
1103.626168312788
 20
852.9716970672133
 30
0.0
 40
0.3
100
AcDbArc
 50
162.3238
 51
247.0
  0
LINE
  5
2CF3
330
18
100
AcDbEntity
  8
DISEGNO
100
AcDbLine
 10
1121.636168312789
 20
852.1116970672132
 30
0.0
 11
1122.316168312789
 21
852.3716970672134
 31
0.0
  0
ARC
  5
2CF4
330
18
100
AcDbEntity
  8
DISEGNO
100
AcDbCircle
 10
1112.866168312788
 20
850.0316970672132
 30
0.0
 40
10.0
100
AcDbArc
 50
330.6759999999999
 51
341.324
  0
ARC
  5
2CF5
330
18
100
AcDbEntity
  8
DISEGNO
100
AcDbCircle
 10
1121.736168312789
 20
851.8316970672135
 30
0.0
 40
0.3
100
AcDbArc
 50
111.0
 51
191.459
  0
ARC
  5
2CF6
330
18
100
AcDbEntity
  8
DISEGNO
100
AcDbCircle
 10
1112.866168312788
 20
850.0316970672132
 30
0.0
 40
8.75
100
AcDbArc
 50
345.541
 51
11.45900000000001
  0
ARC
  5
2CF7
330
18
100
AcDbEntity
  8
DISEGNO
100
AcDbCircle
 10
1121.636168312789
 20
847.7716970672135
 30
0.0
 40
0.3
100
AcDbArc
 50
165.5406
 51
246.0
  0
LINE
  5
2CF8
330
18
100
AcDbEntity
  8
DISEGNO
100
AcDbLine
 10
1121.506168312788
 20
847.4916970672133
 30
0.0
 11
1122.176168312788
 21
847.2016970672132
 31
0.0
  0
ARC
  5
2CF9
330
18
100
AcDbEntity
  8
DISEGNO
100
AcDbCircle
 10
1122.056168312789
 20
846.9216970672135
 30
0.0
 40
0.3
100
AcDbArc
 50
341.324
 51
66.0
  0
LINE
  5
2CFA
330
18
100
AcDbEntity
  8
DISEGNO
100
AcDbLine
 10
1120.536168312788
 20
845.3016970672132
 30
0.0
 11
1121.206168312788
 21
845.0016970672134
 31
0.0
  0
ARC
  5
2CFB
330
18
100
AcDbEntity
  8
DISEGNO
100
AcDbCircle
 10
1121.326168312788
 20
845.2816970672133
 30
0.0
 40
0.3
100
AcDbArc
 50
246.0
 51
330.6759999999999
  0
ARC
  5
2CFC
330
18
100
AcDbEntity
  8
DISEGNO
100
AcDbCircle
 10
1120.416168312788
 20
845.0316970672131
 30
0.0
 40
0.3
100
AcDbArc
 50
66.0
 51
146.4594
  0
ARC
  5
2CFD
330
18
100
AcDbEntity
  8
DISEGNO
100
AcDbCircle
 10
1112.866168312788
 20
850.0316970672132
 30
0.0
 40
8.75
100
AcDbArc
 50
301.541
 51
326.459
  0
ARC
  5
2CFE
330
18
100
AcDbEntity
  8
DISEGNO
100
AcDbCircle
 10
1117.606168312788
 20
842.3216970672132
 30
0.0
 40
0.3
100
AcDbArc
 50
121.5406
 51
202.0
  0
LINE
  5
2CFF
330
18
100
AcDbEntity
  8
DISEGNO
100
AcDbLine
 10
1117.326168312788
 20
842.2016970672133
 30
0.0
 11
1117.596168312788
 21
841.5216970672135
 31
0.0
  0
ARC
  5
2D00
330
18
100
AcDbEntity
  8
DISEGNO
100
AcDbCircle
 10
1117.326168312788
 20
841.4116970672134
 30
0.0
 40
0.3
100
AcDbArc
 50
297.324
 51
22.00000000000001
  0
ARC
  5
2D01
330
18
100
AcDbEntity
  8
DISEGNO
100
AcDbCircle
 10
1112.866168312788
 20
850.0316970672132
 30
0.0
 40
10.0
100
AcDbArc
 50
286.6759999999999
 51
297.324
  0
ARC
  5
2D02
330
18
100
AcDbEntity
  8
DISEGNO
100
AcDbCircle
 10
1115.656168312789
 20
840.7416970672132
 30
0.0
 40
0.3
100
AcDbArc
 50
202.0
 51
286.6759999999999
  0
LINE
  5
2D03
330
18
100
AcDbEntity
  8
DISEGNO
100
AcDbLine
 10
1115.096168312788
 20
841.3016970672131
 30
0.0
 11
1115.376168312788
 21
840.6216970672133
 31
0.0
  0
ARC
  5
2D04
330
18
100
AcDbEntity
  8
DISEGNO
100
AcDbCircle
 10
1114.826168312788
 20
841.1916970672136
 30
0.0
 40
0.3
100
AcDbArc
 50
22.00000000000001
 51
102.4594
  0
ARC
  5
2D05
330
18
100
AcDbEntity
  8
DISEGNO
100
AcDbCircle
 10
1121.566168312789
 20
854.3316970672135
 30
0.0
 40
0.3
100
AcDbArc
 50
26.32399999999995
 51
111.0
  0
LINE
  5
2D06
330
18
100
AcDbEntity
  8
DISEGNO
100
AcDbLine
 10
1120.766168312788
 20
854.3516970672135
 30
0.0
 11
1121.456168312788
 21
854.6116970672132
 31
0.0
  0
ARC
  5
2D07
330
18
100
AcDbEntity
  8
DISEGNO
100
AcDbCircle
 10
1112.866168312788
 20
850.0316970672132
 30
0.0
 40
10.0
100
AcDbArc
 50
15.67599999999998
 51
26.32399999999995
  0
ARC
  5
2D08
330
18
100
AcDbEntity
  8
DISEGNO
100
AcDbCircle
 10
1122.206168312788
 20
852.6516970672135
 30
0.0
 40
0.3
100
AcDbArc
 50
291.0
 51
15.67599999999998
  0
ARC
  5
2D09
330
18
100
AcDbEntity
  8
DISEGNO
100
AcDbCircle
 10
1120.666168312788
 20
854.6316970672135
 30
0.0
 40
0.3
100
AcDbArc
 50
210.541
 51
291.0
  0
LINE
  5
2D0A
330
18
100
AcDbEntity
  8
DISEGNO
100
AcDbLine
 10
1126.366168312788
 20
850.0316970672132
 30
0.0
 11
1126.366168312788
 21
859.9148530974066
 31
0.0
  0
ARC
  5
2D0B
330
18
100
AcDbEntity
  8
DISEGNO
100
AcDbCircle
 10
1112.866168312788
 20
850.0316970672132
 30
0.0
 40
13.5
100
AcDbArc
 50
270.0
 51
0.0
  0
ARC
  5
2D0C
330
18
100
AcDbEntity
  8
DISEGNO
100
AcDbCircle
 10
1089.366168312788
 20
828.0316970672132
 30
0.0
 40
4.0
100
AcDbArc
 50
90.00000000000003
 51
180.0
  0
LINE
  5
2D0D
330
18
100
AcDbEntity
  8
DISEGNO
100
AcDbLine
 10
1085.366168312788
 20
821.7816970672132
 30
0.0
 11
1085.366168312788
 21
828.0316970672132
 31
0.0
  0
ARC
  5
2D0E
330
18
100
AcDbEntity
  8
DISEGNO
100
AcDbCircle
 10
1094.366168312788
 20
840.5316970672132
 30
0.0
 40
8.5
100
AcDbArc
 50
270.0
 51
325.1500954209536
  0
LINE
  5
2D0F
330
18
100
AcDbEntity
  8
DISEGNO
100
AcDbLine
 10
1094.366168312788
 20
832.0316970672132
 30
0.0
 11
1089.366168312788
 21
832.0316970672132
 31
0.0
  0
ARC
  5
2D10
330
18
100
AcDbEntity
  8
DISEGNO
100
AcDbCircle
 10
1070.866168312788
 20
850.0316970672132
 30
0.0
 40
27.0
100
AcDbArc
 50
338.5687454961729
 51
21.43125450382708
  0
LINE
  5
2D11
330
18
100
AcDbEntity
  8
DISEGNO
100
AcDbLine
 10
1095.068440933351
 20
839.5316970672132
 30
0.0
 11
1084.866168312788
 21
839.5316970672132
 31
0.0
  0
LINE
  5
2D12
330
18
100
AcDbEntity
  8
DISEGNO
100
AcDbLine
 10
1084.866168312788
 20
839.5316970672132
 30
0.0
 11
1084.866168312791
 21
843.7816970672132
 31
0.0
  0
ARC
  5
2D13
330
18
100
AcDbEntity
  8
DISEGNO
100
AcDbCircle
 10
1095.068440933351
 20
840.5316970672132
 30
0.0
 40
1.0
100
AcDbArc
 50
270.0
 51
338.5687454961728
  0
LINE
  5
2D14
330
18
100
AcDbEntity
  8
DISEGNO
100
AcDbLine
 10
1077.866168312788
 20
843.7816970672132
 30
0.0
 11
1084.866168312788
 21
843.7816970672132
 31
0.0
  0
ARC
  5
2D15
330
18
100
AcDbEntity
  8
DISEGNO
100
AcDbCircle
 10
1204.866168312788
 20
850.0316970672132
 30
0.0
 40
27.0
100
AcDbArc
 50
158.5687454961729
 51
201.4312545038271
  0
LINE
  5
2D16
330
18
100
AcDbEntity
  8
DISEGNO
100
AcDbLine
 10
1180.663895692226
 20
839.5316970672132
 30
0.0
 11
1190.869168312788
 21
839.5316970672132
 31
0.0
  0
ARC
  5
2D17
330
18
100
AcDbEntity
  8
DISEGNO
100
AcDbCircle
 10
1180.663895692226
 20
840.5316970672132
 30
0.0
 40
1.0
100
AcDbArc
 50
201.4312545038272
 51
270.0
  0
LINE
  5
2D18
330
18
100
AcDbEntity
  8
DISEGNO
100
AcDbLine
 10
1190.869168312788
 20
839.5316970672132
 30
0.0
 11
1190.869168312788
 21
843.7816970672132
 31
0.0
  0
LINE
  5
2D19
330
18
100
AcDbEntity
  8
DISEGNO
100
AcDbLine
 10
1197.869168312788
 20
843.7816970672132
 30
0.0
 11
1190.869168312788
 21
843.7816970672132
 31
0.0
  0
LINE
  5
2D1A
330
18
100
AcDbEntity
  8
DISEGNO
100
AcDbLine
 10
1197.869168312788
 20
843.7816970672132
 30
0.0
 11
1197.869168312788
 21
806.2816970672132
 31
0.0
  0
ARC
  5
2D1B
330
18
100
AcDbEntity
  8
DISEGNO
100
AcDbCircle
 10
1186.369168312788
 20
828.0316970672132
 30
0.0
 40
4.0
100
AcDbArc
 50
0.0
 51
90.00000000000003
  0
ARC
  5
2D1C
330
18
100
AcDbEntity
  8
DISEGNO
100
AcDbCircle
 10
1181.369168312788
 20
840.5316970672132
 30
0.0
 40
8.5
100
AcDbArc
 50
216.869
 51
270.0
  0
LINE
  5
2D1D
330
18
100
AcDbEntity
  8
DISEGNO
100
AcDbLine
 10
1181.369168312788
 20
832.0316970672132
 30
0.0
 11
1186.369168312788
 21
832.0316970672132
 31
0.0
  0
LINE
  5
2D1E
330
18
100
AcDbEntity
  8
DISEGNO
100
AcDbLine
 10
1190.369168312788
 20
821.7816970672132
 30
0.0
 11
1190.369168312788
 21
828.0316970672132
 31
0.0
  0
LINE
  5
2D1F
330
18
100
AcDbEntity
  8
DISEGNO
100
AcDbLine
 10
1162.866168312788
 20
836.5316970672132
 30
0.0
 11
1172.749324342982
 21
836.5316970672132
 31
0.0
  0
ARC
  5
2D20
330
18
100
AcDbEntity
  8
DISEGNO
100
AcDbCircle
 10
1165.816168312788
 20
840.7916970672134
 30
0.0
 40
0.3
100
AcDbArc
 50
203.0
 51
287.676
  0
ARC
  5
2D21
330
18
100
AcDbEntity
  8
DISEGNO
100
AcDbCircle
 10
1172.749324342982
 20
834.5316970672133
 30
0.0
 40
2.0
100
AcDbArc
 50
34.84990457904655
 51
90.00000000000003
  0
LINE
  5
2D22
330
18
100
AcDbEntity
  8
DISEGNO
100
AcDbLine
 10
1154.106168312788
 20
852.1116970672132
 30
0.0
 11
1153.426168312788
 21
852.3716970672134
 31
0.0
  0
ARC
  5
2D23
330
18
100
AcDbEntity
  8
DISEGNO
100
AcDbCircle
 10
1171.666168312788
 20
852.1316970672137
 30
0.0
 40
0.3
100
AcDbArc
 50
113.0
 51
193.459
  0
ARC
  5
2D24
330
18
100
AcDbEntity
  8
DISEGNO
100
AcDbCircle
 10
1162.866168312788
 20
850.0316970672132
 30
0.0
 40
8.75
100
AcDbArc
 50
302.541
 51
328.459
  0
ARC
  5
2D25
330
18
100
AcDbEntity
  8
DISEGNO
100
AcDbCircle
 10
1162.866168312788
 20
850.0316970672132
 30
0.0
 40
10.0
100
AcDbArc
 50
287.676
 51
298.324
  0
ARC
  5
2D26
330
18
100
AcDbEntity
  8
DISEGNO
100
AcDbCircle
 10
1167.476168312788
 20
841.4916970672132
 30
0.0
 40
0.3
100
AcDbArc
 50
298.324
 51
23.0
  0
LINE
  5
2D27
330
18
100
AcDbEntity
  8
DISEGNO
100
AcDbLine
 10
1167.456168312788
 20
842.2816970672132
 30
0.0
 11
1167.746168312788
 21
841.6116970672131
 31
0.0
  0
ARC
  5
2D28
330
18
100
AcDbEntity
  8
DISEGNO
100
AcDbCircle
 10
1167.736168312788
 20
842.4016970672136
 30
0.0
 40
0.3
100
AcDbArc
 50
122.5406
 51
203.0
  0
LINE
  5
2D29
330
18
100
AcDbEntity
  8
DISEGNO
100
AcDbLine
 10
1160.636168312788
 20
841.3016970672131
 30
0.0
 11
1160.366168312788
 21
840.6216970672133
 31
0.0
  0
ARC
  5
2D2A
330
18
100
AcDbEntity
  8
DISEGNO
100
AcDbCircle
 10
1160.916168312788
 20
841.1916970672136
 30
0.0
 40
0.3
100
AcDbArc
 50
77.541
 51
158.0
  0
ARC
  5
2D2B
330
18
100
AcDbEntity
  8
DISEGNO
100
AcDbCircle
 10
1162.866168312788
 20
850.0316970672132
 30
0.0
 40
8.75
100
AcDbArc
 50
257.541
 51
283.459
  0
ARC
  5
2D2C
330
18
100
AcDbEntity
  8
DISEGNO
100
AcDbCircle
 10
1164.976168312788
 20
841.2316970672135
 30
0.0
 40
0.3
100
AcDbArc
 50
23.0
 51
103.4594
  0
LINE
  5
2D2D
330
18
100
AcDbEntity
  8
DISEGNO
100
AcDbLine
 10
1165.256168312787
 20
841.3416970672132
 30
0.0
 11
1165.536168312788
 21
840.6716970672135
 31
0.0
  0
ARC
  5
2D2E
330
18
100
AcDbEntity
  8
DISEGNO
100
AcDbCircle
 10
1162.866168312788
 20
850.0316970672132
 30
0.0
 40
10.0
100
AcDbArc
 50
198.6759999999999
 51
209.324
  0
ARC
  5
2D2F
330
18
100
AcDbEntity
  8
DISEGNO
100
AcDbCircle
 10
1153.996168312788
 20
851.8316970672135
 30
0.0
 40
0.3
100
AcDbArc
 50
348.541
 51
69.0
  0
ARC
  5
2D30
330
18
100
AcDbEntity
  8
DISEGNO
100
AcDbCircle
 10
1162.866168312788
 20
850.0316970672132
 30
0.0
 40
8.75
100
AcDbArc
 50
168.5406
 51
194.459
  0
ARC
  5
2D31
330
18
100
AcDbEntity
  8
DISEGNO
100
AcDbCircle
 10
1154.106168312788
 20
847.7716970672135
 30
0.0
 40
0.3
100
AcDbArc
 50
294.0
 51
14.459
  0
LINE
  5
2D32
330
18
100
AcDbEntity
  8
DISEGNO
100
AcDbLine
 10
1154.226168312788
 20
847.4916970672133
 30
0.0
 11
1153.556168312788
 21
847.2016970672132
 31
0.0
  0
ARC
  5
2D33
330
18
100
AcDbEntity
  8
DISEGNO
100
AcDbCircle
 10
1153.676168312788
 20
846.9216970672135
 30
0.0
 40
0.3
100
AcDbArc
 50
113.9999999999999
 51
198.6759999999999
  0
LINE
  5
2D34
330
18
100
AcDbEntity
  8
DISEGNO
100
AcDbLine
 10
1155.206168312788
 20
845.3016970672132
 30
0.0
 11
1154.536168312788
 21
845.0016970672134
 31
0.0
  0
ARC
  5
2D35
330
18
100
AcDbEntity
  8
DISEGNO
100
AcDbCircle
 10
1155.326168312788
 20
845.0316970672131
 30
0.0
 40
0.3
100
AcDbArc
 50
33.54099999999999
 51
113.9999999999999
  0
ARC
  5
2D36
330
18
100
AcDbEntity
  8
DISEGNO
100
AcDbCircle
 10
1162.866168312788
 20
850.0316970672132
 30
0.0
 40
8.75
100
AcDbArc
 50
213.541
 51
238.459
  0
ARC
  5
2D37
330
18
100
AcDbEntity
  8
DISEGNO
100
AcDbCircle
 10
1158.136168312788
 20
842.3216970672132
 30
0.0
 40
0.3
100
AcDbArc
 50
338.0
 51
58.459
  0
LINE
  5
2D38
330
18
100
AcDbEntity
  8
DISEGNO
100
AcDbLine
 10
1158.416168312788
 20
842.2016970672133
 30
0.0
 11
1158.136168312788
 21
841.5216970672135
 31
0.0
  0
ARC
  5
2D39
330
18
100
AcDbEntity
  8
DISEGNO
100
AcDbCircle
 10
1158.416168312788
 20
841.4116970672134
 30
0.0
 40
0.3
100
AcDbArc
 50
158.0
 51
242.676
  0
ARC
  5
2D3A
330
18
100
AcDbEntity
  8
DISEGNO
100
AcDbCircle
 10
1162.866168312788
 20
850.0316970672132
 30
0.0
 40
10.0
100
AcDbArc
 50
242.676
 51
253.3240000000001
  0
ARC
  5
2D3B
330
18
100
AcDbEntity
  8
DISEGNO
100
AcDbCircle
 10
1154.416168312788
 20
845.2816970672133
 30
0.0
 40
0.3
100
AcDbArc
 50
209.324
 51
294.0
  0
ARC
  5
2D3C
330
18
100
AcDbEntity
  8
DISEGNO
100
AcDbCircle
 10
1160.086168312788
 20
840.7416970672132
 30
0.0
 40
0.3
100
AcDbArc
 50
253.3240000000001
 51
338.0
  0
ARC
  5
2D3D
330
18
100
AcDbEntity
  8
DISEGNO
100
AcDbCircle
 10
1162.866168312788
 20
850.0316970672132
 30
0.0
 40
10.0
100
AcDbArc
 50
332.676
 51
343.3240000000001
  0
ARC
  5
2D3E
330
18
100
AcDbEntity
  8
DISEGNO
100
AcDbCircle
 10
1172.161168312788
 20
847.2416970672133
 30
0.0
 40
0.3
100
AcDbArc
 50
343.3240000000001
 51
68.0
  0
LINE
  5
2D3F
330
18
100
AcDbEntity
  8
DISEGNO
100
AcDbLine
 10
1171.596168312788
 20
847.8016970672133
 30
0.0
 11
1172.273168312788
 21
847.5216970672134
 31
0.0
  0
ARC
  5
2D40
330
18
100
AcDbEntity
  8
DISEGNO
100
AcDbCircle
 10
1171.706168312788
 20
848.0816970672133
 30
0.0
 40
0.3
100
AcDbArc
 50
167.5406
 51
248.0
  0
ARC
  5
2D41
330
18
100
AcDbEntity
  8
DISEGNO
100
AcDbCircle
 10
1162.866168312788
 20
850.0316970672132
 30
0.0
 40
8.75
100
AcDbArc
 50
347.541
 51
13.459
  0
ARC
  5
2D42
330
18
100
AcDbEntity
  8
DISEGNO
100
AcDbCircle
 10
1170.586168312788
 20
845.2916970672134
 30
0.0
 40
0.3
100
AcDbArc
 50
68.0
 51
148.4594
  0
LINE
  5
2D43
330
18
100
AcDbEntity
  8
DISEGNO
100
AcDbLine
 10
1170.696168312788
 20
845.5716970672131
 30
0.0
 11
1171.376168312789
 21
845.3016970672132
 31
0.0
  0
ARC
  5
2D44
330
18
100
AcDbEntity
  8
DISEGNO
100
AcDbCircle
 10
1171.486168312788
 20
845.5816970672135
 30
0.0
 40
0.3
100
AcDbArc
 50
248.0
 51
332.676
  0
ARC
  5
2D45
330
18
100
AcDbEntity
  8
DISEGNO
100
AcDbCircle
 10
1154.176168312788
 20
854.3316970672135
 30
0.0
 40
0.3
100
AcDbArc
 50
69.0
 51
153.6762
  0
LINE
  5
2D46
330
18
100
AcDbEntity
  8
DISEGNO
100
AcDbLine
 10
1154.966168312788
 20
854.3516970672135
 30
0.0
 11
1154.286168312788
 21
854.6116970672132
 31
0.0
  0
ARC
  5
2D47
330
18
100
AcDbEntity
  8
DISEGNO
100
AcDbCircle
 10
1155.076168312788
 20
854.6316970672135
 30
0.0
 40
0.3
100
AcDbArc
 50
249.0
 51
329.459
  0
ARC
  5
2D48
330
18
100
AcDbEntity
  8
DISEGNO
100
AcDbCircle
 10
1162.866168312788
 20
850.0316970672132
 30
0.0
 40
10.0
100
AcDbArc
 50
153.6762
 51
164.3238
  0
ARC
  5
2D49
330
18
100
AcDbEntity
  8
DISEGNO
100
AcDbCircle
 10
1153.526168312788
 20
852.6516970672135
 30
0.0
 40
0.3
100
AcDbArc
 50
164.3238
 51
249.0
  0
ARC
  5
2D4A
330
18
100
AcDbEntity
  8
DISEGNO
100
AcDbCircle
 10
1162.866168312788
 20
850.0316970672132
 30
0.0
 40
10.0
100
AcDbArc
 50
17.67599999999997
 51
28.32400000000003
  0
LINE
  5
2D4B
330
18
100
AcDbEntity
  8
DISEGNO
100
AcDbLine
 10
1172.228168312788
 20
852.7016970672132
 30
0.0
 11
1171.556168312788
 21
852.4116970672134
 31
0.0
  0
ARC
  5
2D4C
330
18
100
AcDbEntity
  8
DISEGNO
100
AcDbCircle
 10
1172.111168312788
 20
852.9716970672133
 30
0.0
 40
0.3
100
AcDbArc
 50
293.0000000000001
 51
17.67599999999997
  0
LINE
  5
2D4D
330
18
100
AcDbEntity
  8
ASSI
100
AcDbLine
 10
1162.866168312788
 20
652.0078389807677
 30
0.0
 11
1162.866168312788
 21
895.7439820745738
 31
0.0
  0
LINE
  5
2D4E
330
18
100
AcDbEntity
  8
ASSI
100
AcDbLine
 10
1201.999033224942
 20
850.0316970672132
 30
0.0
 11
1071.970868458511
 21
850.0316970672132
 31
0.0
  0
LINE
  5
2D4F
330
18
100
AcDbEntity
  8
ASSI
100
AcDbLine
 10
1112.866168312788
 20
653.545454066289
 30
0.0
 11
1112.866168312788
 21
895.7439820745738
 31
0.0
  0
LINE
  5
2D51
330
18
100
AcDbEntity
  8
DISEGNO
100
AcDbLine
 10
1089.366168312788
 20
817.7816970672132
 30
0.0
 11
1186.369168312788
 21
817.7816970672132
 31
0.0
  0
ARC
  5
2D52
330
18
100
AcDbEntity
  8
DISEGNO
100
AcDbCircle
 10
1089.366168312788
 20
821.7816970672132
 30
0.0
 40
4.0
100
AcDbArc
 50
180.0
 51
270.0
  0
LINE
  5
2D53
330
18
100
AcDbEntity
  8
DISEGNO
100
AcDbLine
 10
1077.866168312788
 20
806.2816970672132
 30
0.0
 11
1083.866168312788
 21
806.2816970672132
 31
0.0
  0
LINE
  5
2D54
330
18
100
AcDbEntity
  8
DISEGNO
100
AcDbLine
 10
1077.866168312788
 20
843.7816970672132
 30
0.0
 11
1077.866168312788
 21
806.2816970672134
 31
0.0
  0
LINE
  5
2D55
330
18
100
AcDbEntity
  8
DISEGNO
100
AcDbLine
 10
1083.866168312788
 20
810.2816970672133
 30
0.0
 11
1093.866168312788
 21
810.2816970672133
 31
0.0
  0
LINE
  5
2D56
330
18
100
AcDbEntity
  8
DISEGNO
100
AcDbLine
 10
1083.866168312788
 20
810.2816970672133
 30
0.0
 11
1083.866168312788
 21
806.2816970672132
 31
0.0
  0
LINE
  5
2D57
330
18
100
AcDbEntity
  8
DISEGNO
100
AcDbLine
 10
1093.866168312788
 20
789.7816970672132
 30
0.0
 11
1083.866168312788
 21
789.7816970672132
 31
0.0
  0
LINE
  5
2D58
330
18
100
AcDbEntity
  8
DISEGNO
100
AcDbLine
 10
1094.866168312788
 20
809.2816970672132
 30
0.0
 11
1094.866168312788
 21
790.7816970672132
 31
0.0
  0
ARC
  5
2D59
330
18
100
AcDbEntity
  8
DISEGNO
100
AcDbCircle
 10
1093.866168312788
 20
790.7816970672132
 30
0.0
 40
1.0
100
AcDbArc
 50
270.0
 51
0.0
  0
ARC
  5
2D5A
330
18
100
AcDbEntity
  8
DISEGNO
100
AcDbCircle
 10
1093.866168312788
 20
809.2816970672132
 30
0.0
 40
1.0
100
AcDbArc
 50
0.0
 51
90.00000000000003
  0
LINE
  5
2D5B
330
18
100
AcDbEntity
  8
DISEGNO
100
AcDbLine
 10
1083.866168312788
 20
793.7816970672132
 30
0.0
 11
1083.866168312788
 21
789.7816970672132
 31
0.0
  0
LINE
  5
2D5C
330
18
100
AcDbEntity
  8
DISEGNO
100
AcDbLine
 10
1083.866168312788
 20
793.7816970672132
 30
0.0
 11
1077.866168312788
 21
793.7816970672132
 31
0.0
  0
LINE
  5
2D5D
330
18
100
AcDbEntity
  8
DISEGNO
100
AcDbLine
 10
1077.866168312788
 20
756.2816970672132
 30
0.0
 11
1077.866168312788
 21
793.781697067213
 31
0.0
  0
LINE
  5
2D5E
330
18
100
AcDbEntity
  8
DISEGNO
100
AcDbLine
 10
1197.869168312788
 20
756.2816970672132
 30
0.0
 11
1197.869168312788
 21
793.7816970672132
 31
0.0
  0
LINE
  5
2D5F
330
18
100
AcDbEntity
  8
DISEGNO
100
AcDbLine
 10
1180.869168312788
 20
809.2816970672132
 30
0.0
 11
1180.869168312788
 21
790.7816970672132
 31
0.0
  0
LINE
  5
2D60
330
18
100
AcDbEntity
  8
DISEGNO
100
AcDbLine
 10
1181.869168312788
 20
789.7816970672132
 30
0.0
 11
1191.869168312788
 21
789.7816970672132
 31
0.0
  0
ARC
  5
2D61
330
18
100
AcDbEntity
  8
DISEGNO
100
AcDbCircle
 10
1181.869168312788
 20
790.7816970672132
 30
0.0
 40
1.0
100
AcDbArc
 50
179.99999465223
 51
270.0
  0
LINE
  5
2D62
330
18
100
AcDbEntity
  8
DISEGNO
100
AcDbLine
 10
1191.869168312788
 20
793.7816970672132
 30
0.0
 11
1197.869168312788
 21
793.7816970672132
 31
0.0
  0
LINE
  5
2D63
330
18
100
AcDbEntity
  8
DISEGNO
100
AcDbLine
 10
1191.869168312788
 20
793.7816970672132
 30
0.0
 11
1191.869168312788
 21
789.7816970672132
 31
0.0
  0
LINE
  5
2D64
330
18
100
AcDbEntity
  8
DISEGNO
100
AcDbLine
 10
1191.869168312788
 20
810.2816970672133
 30
0.0
 11
1181.869168312788
 21
810.2816970672133
 31
0.0
  0
ARC
  5
2D65
330
18
100
AcDbEntity
  8
DISEGNO
100
AcDbCircle
 10
1181.869168312788
 20
809.2816970672132
 30
0.0
 40
1.0
100
AcDbArc
 50
90.00000000000003
 51
179.99999465223
  0
LINE
  5
2D66
330
18
100
AcDbEntity
  8
DISEGNO
100
AcDbLine
 10
1191.869168312788
 20
810.2816970672133
 30
0.0
 11
1191.869168312788
 21
806.2816970672132
 31
0.0
  0
LINE
  5
2D67
330
18
100
AcDbEntity
  8
DISEGNO
100
AcDbLine
 10
1197.869168312788
 20
806.2816970672132
 30
0.0
 11
1191.869168312788
 21
806.2816970672132
 31
0.0
  0
ARC
  5
2D68
330
18
100
AcDbEntity
  8
DISEGNO
100
AcDbCircle
 10
1182.866168312788
 20
775.0316970672132
 30
0.0
 40
7.0
100
AcDbArc
 50
217.1800658582063
 51
142.8199341417936
  0
LINE
  5
2D69
330
18
100
AcDbEntity
  8
DISEGNO
100
AcDbLine
 10
1106.366168312788
 20
814.2816970672132
 30
0.0
 11
1169.366168312788
 21
814.2816970672132
 31
0.0
  0
ARC
  5
2D6A
330
18
100
AcDbEntity
  8
DISEGNO
100
AcDbCircle
 10
1169.366168312788
 20
810.2816970672133
 30
0.0
 40
4.0
100
AcDbArc
 50
0.0
 51
90.00000000000003
  0
LINE
  5
2D6B
330
18
100
AcDbEntity
  8
DISEGNO
100
AcDbLine
 10
1173.369168312788
 20
810.2816970672133
 30
0.0
 11
1173.369168312788
 21
782.2516970672134
 31
0.0
  0
ARC
  5
2D6C
330
18
100
AcDbEntity
  8
DISEGNO
100
AcDbCircle
 10
1176.492246554677
 20
779.8662726867977
 30
0.0
 40
1.0
100
AcDbArc
 50
239.9500863790119
 51
322.8199341417937
  0
LINE
  5
2D6D
330
18
100
AcDbEntity
  8
DISEGNO
100
AcDbLine
 10
1174.866168312788
 20
779.6516970672136
 30
0.0
 11
1175.991492300384
 21
779.0006831900917
 31
0.0
  0
ARC
  5
2D6E
330
18
100
AcDbEntity
  8
DISEGNO
100
AcDbCircle
 10
1176.366168312788
 20
782.2516970672134
 30
0.0
 40
3.0
100
AcDbArc
 50
180.0
 51
240.02
  0
ARC
  5
2D6F
330
18
100
AcDbEntity
  8
DISEGNO
100
AcDbCircle
 10
1186.369168312788
 20
821.7816970672132
 30
0.0
 40
4.0
100
AcDbArc
 50
270.0
 51
0.0
  0
ARC
  5
2D71
330
18
100
AcDbEntity
  8
DISEGNO
100
AcDbCircle
 10
1106.366168312788
 20
810.2816970672133
 30
0.0
 40
4.0
100
AcDbArc
 50
90.00000000000003
 51
179.999999995157
  0
LINE
  5
2D72
330
18
100
AcDbEntity
  8
DISEGNO
100
AcDbLine
 10
1102.366168312788
 20
810.2816970672133
 30
0.0
 11
1102.366168312788
 21
782.2516970672134
 31
0.0
  0
ARC
  5
2D73
330
18
100
AcDbEntity
  8
DISEGNO
100
AcDbCircle
 10
1092.866168312788
 20
775.0316970672132
 30
0.0
 40
7.0
100
AcDbArc
 50
37.18006585820642
 51
322.8199341417937
  0
ARC
  5
2D74
330
18
100
AcDbEntity
  8
DISEGNO
100
AcDbCircle
 10
1099.366168312788
 20
767.811697067213
 30
0.0
 40
3.0
100
AcDbArc
 50
0.0
 51
60.01999999999999
  0
LINE
  5
2D75
330
18
100
AcDbEntity
  8
DISEGNO
100
AcDbLine
 10
1093.866168312788
 20
760.2816970672132
 30
0.0
 11
1083.866168312788
 21
760.2816970672132
 31
0.0
  0
ARC
  5
2D76
330
18
100
AcDbEntity
  8
DISEGNO
100
AcDbCircle
 10
1099.2400900709
 20
770.1971214476287
 30
0.0
 40
1.0
100
AcDbArc
 50
59.95008637901189
 51
142.8199341417937
  0
LINE
  5
2D77
330
18
100
AcDbEntity
  8
DISEGNO
100
AcDbLine
 10
1100.866168312788
 20
770.4116970672129
 30
0.0
 11
1099.740844325192
 21
771.0627109443347
 31
0.0
  0
LINE
  5
2D78
330
18
100
AcDbEntity
  8
DISEGNO
100
AcDbLine
 10
1100.866168312788
 20
779.6516970672136
 30
0.0
 11
1099.740844325192
 21
779.0006831900917
 31
0.0
  0
ARC
  5
2D79
330
18
100
AcDbEntity
  8
DISEGNO
100
AcDbCircle
 10
1099.2400900709
 20
779.8662726867977
 30
0.0
 40
1.0
100
AcDbArc
 50
217.1800658582063
 51
300.0499136209882
  0
ARC
  5
2D7A
330
18
100
AcDbEntity
  8
DISEGNO
100
AcDbCircle
 10
1099.366168312788
 20
782.2516970672134
 30
0.0
 40
3.0
100
AcDbArc
 50
299.98
 51
0.0
  0
ARC
  5
2D7C
330
18
100
AcDbEntity
  8
DISEGNO
100
AcDbCircle
 10
1176.366168312788
 20
767.811697067213
 30
0.0
 40
3.0
100
AcDbArc
 50
119.9799999999999
 51
180.0
  0
LINE
  5
2D7D
330
18
100
AcDbEntity
  8
DISEGNO
100
AcDbLine
 10
1180.869168312788
 20
740.7816970672132
 30
0.0
 11
1180.869168312788
 21
759.2816970672132
 31
0.0
  0
LINE
  5
2D7E
330
18
100
AcDbEntity
  8
DISEGNO
100
AcDbLine
 10
1173.369168312788
 20
739.7816970672132
 30
0.0
 11
1173.369168312788
 21
767.811697067213
 31
0.0
  0
LINE
  5
2D7F
330
18
100
AcDbEntity
  8
DISEGNO
100
AcDbLine
 10
1181.869168312788
 20
760.2816970672132
 30
0.0
 11
1191.869168312788
 21
760.2816970672132
 31
0.0
  0
ARC
  5
2D80
330
18
100
AcDbEntity
  8
DISEGNO
100
AcDbCircle
 10
1181.869168312788
 20
759.2816970672132
 30
0.0
 40
1.0
100
AcDbArc
 50
90.0
 51
180.00000534777
  0
LINE
  5
2D81
330
18
100
AcDbEntity
  8
DISEGNO
100
AcDbLine
 10
1191.869168312788
 20
756.2816970672132
 30
0.0
 11
1191.869168312788
 21
760.2816970672132
 31
0.0
  0
LINE
  5
2D82
330
18
100
AcDbEntity
  8
DISEGNO
100
AcDbLine
 10
1191.869168312788
 20
756.2816970672132
 30
0.0
 11
1197.869168312788
 21
756.2816970672132
 31
0.0
  0
ARC
  5
2D83
330
18
100
AcDbEntity
  8
DISEGNO
100
AcDbCircle
 10
1176.492246554677
 20
770.1971214476287
 30
0.0
 40
1.0
100
AcDbArc
 50
37.18006585820634
 51
120.0499136209881
  0
LINE
  5
2D84
330
18
100
AcDbEntity
  8
DISEGNO
100
AcDbLine
 10
1174.866168312788
 20
770.4116970672129
 30
0.0
 11
1175.991492300384
 21
771.0627109443347
 31
0.0
  0
LINE
  5
2D85
330
18
100
AcDbEntity
  8
DISEGNO
100
AcDbLine
 10
1089.366168312788
 20
732.2816970672132
 30
0.0
 11
1186.369168312788
 21
732.2816970672132
 31
0.0
  0
LINE
  5
2D86
330
18
100
AcDbEntity
  8
DISEGNO
100
AcDbLine
 10
1106.366168312788
 20
735.7816970672132
 30
0.0
 11
1169.366168312788
 21
735.7816970672132
 31
0.0
  0
ARC
  5
2D87
330
18
100
AcDbEntity
  8
DISEGNO
100
AcDbCircle
 10
1089.366168312788
 20
728.2816970672132
 30
0.0
 40
4.0
100
AcDbArc
 50
90.0
 51
180.0
  0
LINE
  5
2D88
330
18
100
AcDbEntity
  8
DISEGNO
100
AcDbLine
 10
1083.866168312788
 20
739.7816970672132
 30
0.0
 11
1093.866168312788
 21
739.7816970672132
 31
0.0
  0
LINE
  5
2D89
330
18
100
AcDbEntity
  8
DISEGNO
100
AcDbLine
 10
1083.866168312788
 20
739.7816970672132
 30
0.0
 11
1083.866168312788
 21
743.7816970672132
 31
0.0
  0
LINE
  5
2D8A
330
18
100
AcDbEntity
  8
DISEGNO
100
AcDbLine
 10
1077.866168312788
 20
743.7816970672132
 30
0.0
 11
1083.866168312788
 21
743.7816970672132
 31
0.0
  0
LINE
  5
2D8B
330
18
100
AcDbEntity
  8
DISEGNO
100
AcDbLine
 10
1083.866168312788
 20
756.2816970672132
 30
0.0
 11
1083.866168312788
 21
760.2816970672132
 31
0.0
  0
LINE
  5
2D8C
330
18
100
AcDbEntity
  8
DISEGNO
100
AcDbLine
 10
1083.866168312788
 20
756.2816970672132
 30
0.0
 11
1077.866168312788
 21
756.2816970672132
 31
0.0
  0
LINE
  5
2D8D
330
18
100
AcDbEntity
  8
DISEGNO
100
AcDbLine
 10
1094.866168312788
 20
740.7816970672132
 30
0.0
 11
1094.866168312788
 21
759.2816970672132
 31
0.0
  0
ARC
  5
2D8E
330
18
100
AcDbEntity
  8
DISEGNO
100
AcDbCircle
 10
1093.866168312788
 20
740.7816970672132
 30
0.0
 40
1.0
100
AcDbArc
 50
270.0
 51
0.0
  0
ARC
  5
2D8F
330
18
100
AcDbEntity
  8
DISEGNO
100
AcDbCircle
 10
1106.366168312788
 20
739.7816970672132
 30
0.0
 40
4.0
100
AcDbArc
 50
180.000000004843
 51
270.0
  0
ARC
  5
2D90
330
18
100
AcDbEntity
  8
DISEGNO
100
AcDbCircle
 10
1093.866168312788
 20
759.2816970672132
 30
0.0
 40
1.0
100
AcDbArc
 50
0.0
 51
90.0
  0
ARC
  5
2D91
330
18
100
AcDbEntity
  8
DISEGNO
100
AcDbCircle
 10
1169.366168312788
 20
739.7816970672132
 30
0.0
 40
4.0
100
AcDbArc
 50
270.0
 51
0.0
  0
ARC
  5
2D92
330
18
100
AcDbEntity
  8
DISEGNO
100
AcDbCircle
 10
1186.369168312788
 20
728.2816970672132
 30
0.0
 40
4.0
100
AcDbArc
 50
0.0
 51
90.0
  0
LINE
  5
2D93
330
18
100
AcDbEntity
  8
DISEGNO
100
AcDbLine
 10
1191.869168312788
 20
739.7816970672132
 30
0.0
 11
1181.869168312788
 21
739.7816970672132
 31
0.0
  0
ARC
  5
2D94
330
18
100
AcDbEntity
  8
DISEGNO
100
AcDbCircle
 10
1181.869168312788
 20
740.7816970672132
 30
0.0
 40
1.0
100
AcDbArc
 50
180.00000534777
 51
270.0
  0
LINE
  5
2D95
330
18
100
AcDbEntity
  8
DISEGNO
100
AcDbLine
 10
1197.869168312788
 20
743.7816970672132
 30
0.0
 11
1191.869168312788
 21
743.7816970672132
 31
0.0
  0
LINE
  5
2D96
330
18
100
AcDbEntity
  8
DISEGNO
100
AcDbLine
 10
1191.869168312788
 20
739.7816970672132
 30
0.0
 11
1191.869168312788
 21
743.7816970672132
 31
0.0
  0
LINE
  5
2D97
330
18
100
AcDbEntity
  8
DISEGNO
100
AcDbLine
 10
1102.366168312788
 20
739.7816970672132
 30
0.0
 11
1102.366168312788
 21
767.811697067213
 31
0.0
  0
ARC
  5
2D98
330
18
100
AcDbEntity
  8
DISEGNO
100
AcDbCircle
 10
1112.866168312788
 20
671.2516970672131
 30
0.0
 40
15.0
100
AcDbArc
 50
47.26800000000006
 51
132.7320000000001
  0
ARC
  5
2D99
330
18
100
AcDbEntity
  8
DISEGNO
100
AcDbCircle
 10
1112.866168312788
 20
700.0316970672132
 30
0.0
 40
13.5
100
AcDbArc
 50
0.0
 51
90.0
  0
ARC
  5
2D9A
330
18
100
AcDbEntity
  8
DISEGNO
100
AcDbCircle
 10
1112.866168312788
 20
700.0316970672132
 30
0.0
 40
8.75
100
AcDbArc
 50
77.541
 51
103.459
  0
ARC
  5
2D9B
330
18
100
AcDbEntity
  8
DISEGNO
100
AcDbCircle
 10
1112.866168312788
 20
700.0316970672132
 30
0.0
 40
8.75
100
AcDbArc
 50
258.5406
 51
284.459
  0
LINE
  5
2D9C
330
18
100
AcDbEntity
  8
DISEGNO
100
AcDbLine
 10
1077.866168312788
 20
666.5316970672132
 30
0.0
 11
1077.866168312788
 21
693.7816970672132
 31
0.0
  0
LINE
  5
2D9D
330
18
100
AcDbEntity
  8
DISEGNO
100
AcDbLine
 10
1094.178038469536
 20
684.17356722396
 30
0.0
 11
1098.600663249401
 21
688.5961920038247
 31
0.0
  0
LINE
  5
2D9E
330
18
100
AcDbEntity
  8
DISEGNO
100
AcDbLine
 10
1100.014876811773
 20
688.5961920038247
 30
0.0
 11
1101.430663249401
 21
687.1804055661981
 31
0.0
  0
LINE
  5
2D9F
330
18
100
AcDbEntity
  8
DISEGNO
100
AcDbLine
 10
1079.366168312788
 20
665.0316970672133
 30
0.0
 11
1106.616168312788
 21
665.0316970672133
 31
0.0
  0
ARC
  5
2DA0
330
18
100
AcDbEntity
  8
DISEGNO
100
AcDbCircle
 10
1085.116168312788
 20
682.2816970672132
 30
0.0
 40
2.0
100
AcDbArc
 50
51.76800000000006
 51
218.2322
  0
ARC
  5
2DA1
330
18
100
AcDbEntity
  8
DISEGNO
100
AcDbCircle
 10
1085.116168312788
 20
672.2816970672132
 30
0.0
 40
2.0
100
AcDbArc
 50
141.768
 51
308.232
  0
ARC
  5
2DA2
330
18
100
AcDbEntity
  8
DISEGNO
100
AcDbCircle
 10
1079.366168312788
 20
666.5316970672132
 30
0.0
 40
1.5
100
AcDbArc
 50
180.0000000048375
 51
270.0
  0
ARC
  5
2DA3
330
18
100
AcDbEntity
  8
DISEGNO
100
AcDbCircle
 10
1082.766168312788
 20
680.4316970672129
 30
0.0
 40
1.0
100
AcDbArc
 50
336.863
 51
38.23200000000003
  0
ARC
  5
2DA4
330
18
100
AcDbEntity
  8
DISEGNO
100
AcDbCircle
 10
1082.766168312788
 20
674.1416970672129
 30
0.0
 40
1.0
100
AcDbArc
 50
321.768
 51
23.13700000000002
  0
ARC
  5
2DA5
330
18
100
AcDbEntity
  8
DISEGNO
100
AcDbCircle
 10
1090.116168312788
 20
677.2816970672132
 30
0.0
 40
7.0
100
AcDbArc
 50
156.863
 51
203.1371
  0
ARC
  5
2DA6
330
18
100
AcDbEntity
  8
DISEGNO
100
AcDbCircle
 10
1086.976168312789
 20
684.6416970672129
 30
0.0
 40
1.0
100
AcDbArc
 50
231.768
 51
293.137
  0
ARC
  5
2DA7
330
18
100
AcDbEntity
  8
DISEGNO
100
AcDbCircle
 10
1086.976168312789
 20
669.9316970672128
 30
0.0
 40
1.0
100
AcDbArc
 50
66.86299999999999
 51
128.232
  0
ARC
  5
2DA8
330
18
100
AcDbEntity
  8
DISEGNO
100
AcDbCircle
 10
1103.366168312788
 20
681.5316970672133
 30
0.0
 40
1.0
100
AcDbArc
 50
132.7320000000001
 51
180.0
  0
LINE
  5
2DA9
330
18
100
AcDbEntity
  8
DISEGNO
100
AcDbLine
 10
1102.366168312788
 20
672.0316970672132
 30
0.0
 11
1106.616168312788
 21
672.0316970672132
 31
0.0
  0
LINE
  5
2DAA
330
18
100
AcDbEntity
  8
DISEGNO
100
AcDbLine
 10
1106.616168312788
 20
665.0316970672133
 30
0.0
 11
1106.616168312788
 21
672.0316970672132
 31
0.0
  0
LINE
  5
2DAB
330
18
100
AcDbEntity
  8
DISEGNO
100
AcDbLine
 10
1102.366168312788
 20
681.5316970672133
 30
0.0
 11
1102.366168312788
 21
672.0316970672132
 31
0.0
  0
ARC
  5
2DAC
330
18
100
AcDbEntity
  8
DISEGNO
100
AcDbCircle
 10
1090.116168312788
 20
677.2816970672132
 30
0.0
 40
7.0
100
AcDbArc
 50
69.32396614999802
 51
113.137
  0
ARC
  5
2DAD
330
18
100
AcDbEntity
  8
DISEGNO
100
AcDbCircle
 10
1100.723556468214
 20
686.4732987850114
 30
0.0
 40
1.0
100
AcDbArc
 50
315.0000000000001
 51
44.99999999999952
  0
ARC
  5
2DAE
330
18
100
AcDbEntity
  8
DISEGNO
100
AcDbCircle
 10
1093.117378297755
 20
685.2342273957396
 30
0.0
 40
1.5
100
AcDbArc
 50
249.3239661499985
 51
314.9999999999993
  0
LINE
  5
2DAF
330
18
100
AcDbEntity
  8
DISEGNO
100
AcDbLine
 10
1097.008038469535
 20
681.3435672239596
 30
0.0
 11
1101.430663249401
 21
685.7661920038248
 31
0.0
  0
ARC
  5
2DB0
330
18
100
AcDbEntity
  8
DISEGNO
100
AcDbCircle
 10
1098.068698641315
 20
680.2829070521801
 30
0.0
 40
1.5
100
AcDbArc
 50
134.9999999999996
 51
200.6760338500025
  0
ARC
  5
2DB1
330
18
100
AcDbEntity
  8
DISEGNO
100
AcDbCircle
 10
1090.116168312788
 20
677.2816970672132
 30
0.0
 40
7.0
100
AcDbArc
 50
246.863
 51
293.137
  0
ARC
  5
2DB2
330
18
100
AcDbEntity
  8
DISEGNO
100
AcDbCircle
 10
1095.116168312788
 20
672.2816970672132
 30
0.0
 40
2.0
100
AcDbArc
 50
231.768
 51
38.23200000000003
  0
ARC
  5
2DB3
330
18
100
AcDbEntity
  8
DISEGNO
100
AcDbCircle
 10
1093.266168312788
 20
669.9316970672128
 30
0.0
 40
1.0
100
AcDbArc
 50
51.76800000000006
 51
113.137
  0
ARC
  5
2DB4
330
18
100
AcDbEntity
  8
DISEGNO
100
AcDbCircle
 10
1097.476168312789
 20
674.1416970672129
 30
0.0
 40
1.0
100
AcDbArc
 50
156.863
 51
218.2322
  0
ARC
  5
2DB5
330
18
100
AcDbEntity
  8
DISEGNO
100
AcDbCircle
 10
1090.116168312788
 20
677.2816970672132
 30
0.0
 40
7.0
100
AcDbArc
 50
336.863
 51
20.67603385000268
  0
LINE
  5
2DB6
330
18
100
AcDbEntity
  8
DISEGNO
100
AcDbLine
 10
1077.866168312788
 20
706.2816970672132
 30
0.0
 11
1077.866168312788
 21
743.7816970672132
 31
0.0
  0
LINE
  5
2DB7
330
18
100
AcDbEntity
  8
DISEGNO
100
AcDbLine
 10
1095.068440933351
 20
689.5316970672133
 30
0.0
 11
1084.866168312788
 21
689.5316970672133
 31
0.0
  0
ARC
  5
2DB8
330
18
100
AcDbEntity
  8
DISEGNO
100
AcDbCircle
 10
1089.366168312788
 20
722.0316970672132
 30
0.0
 40
4.0
100
AcDbArc
 50
180.0
 51
270.0
  0
LINE
  5
2DB9
330
18
100
AcDbEntity
  8
DISEGNO
100
AcDbLine
 10
1095.068440933351
 20
710.5316970672133
 30
0.0
 11
1084.866168312788
 21
710.5316970672133
 31
0.0
  0
LINE
  5
2DBA
330
18
100
AcDbEntity
  8
DISEGNO
100
AcDbLine
 10
1084.866168312791
 20
693.7816970672132
 30
0.0
 11
1084.866168312788
 21
689.5316970672133
 31
0.0
  0
LINE
  5
2DBB
330
18
100
AcDbEntity
  8
DISEGNO
100
AcDbLine
 10
1084.866168312788
 20
710.5316970672133
 30
0.0
 11
1084.866168312791
 21
706.2816970672132
 31
0.0
  0
LINE
  5
2DBC
330
18
100
AcDbEntity
  8
DISEGNO
100
AcDbLine
 10
1077.866168312788
 20
706.2816970672132
 30
0.0
 11
1084.866168312788
 21
706.2816970672132
 31
0.0
  0
LINE
  5
2DBD
330
18
100
AcDbEntity
  8
DISEGNO
100
AcDbLine
 10
1084.866168312788
 20
693.7816970672132
 30
0.0
 11
1077.866168312788
 21
693.7816970672132
 31
0.0
  0
LINE
  5
2DBE
330
18
100
AcDbEntity
  8
DISEGNO
100
AcDbLine
 10
1085.366168312788
 20
728.2816970672132
 30
0.0
 11
1085.366168312788
 21
722.0316970672132
 31
0.0
  0
ARC
  5
2DBF
330
18
100
AcDbEntity
  8
DISEGNO
100
AcDbCircle
 10
1095.068440933351
 20
690.5316970672132
 30
0.0
 40
1.0
100
AcDbArc
 50
270.0
 51
338.5687454961728
  0
ARC
  5
2DC0
330
18
100
AcDbEntity
  8
DISEGNO
100
AcDbCircle
 10
1099.307770030586
 20
687.8890852226381
 30
0.0
 40
1.0
100
AcDbArc
 50
44.99999999999976
 51
134.9999999999999
  0
LINE
  5
2DC1
330
18
100
AcDbEntity
  8
DISEGNO
100
AcDbLine
 10
1112.866168312788
 20
713.5316970672132
 30
0.0
 11
1102.983012282595
 21
713.5316970672132
 31
0.0
  0
ARC
  5
2DC2
330
18
100
AcDbEntity
  8
DISEGNO
100
AcDbCircle
 10
1112.866168312788
 20
700.0316970672132
 30
0.0
 40
8.75
100
AcDbArc
 50
122.541
 51
148.459
  0
ARC
  5
2DC3
330
18
100
AcDbEntity
  8
DISEGNO
100
AcDbCircle
 10
1112.866168312788
 20
700.0316970672132
 30
0.0
 40
8.75
100
AcDbArc
 50
212.5406
 51
239.4594
  0
ARC
  5
2DC4
330
18
100
AcDbEntity
  8
DISEGNO
100
AcDbCircle
 10
1094.366168312788
 20
709.5316970672132
 30
0.0
 40
8.5
100
AcDbArc
 50
34.84990457904647
 51
90.0
  0
ARC
  5
2DC5
330
18
100
AcDbEntity
  8
DISEGNO
100
AcDbCircle
 10
1104.256168312788
 20
704.4816970672131
 30
0.0
 40
0.3
100
AcDbArc
 50
68.0
 51
152.676
  0
LINE
  5
2DC6
330
18
100
AcDbEntity
  8
DISEGNO
100
AcDbLine
 10
1105.046168312789
 20
704.4916970672133
 30
0.0
 11
1104.366168312788
 21
704.7616970672132
 31
0.0
  0
ARC
  5
2DC7
330
18
100
AcDbEntity
  8
DISEGNO
100
AcDbCircle
 10
1105.156168312789
 20
704.771697067213
 30
0.0
 40
0.3
100
AcDbArc
 50
248.0
 51
328.4590000000001
  0
ARC
  5
2DC8
330
18
100
AcDbEntity
  8
DISEGNO
100
AcDbCircle
 10
1104.036168312788
 20
701.981697067213
 30
0.0
 40
0.3
100
AcDbArc
 50
347.541
 51
68.0
  0
LINE
  5
2DC9
330
18
100
AcDbEntity
  8
DISEGNO
100
AcDbLine
 10
1104.146168312789
 20
702.2616970672133
 30
0.0
 11
1103.466168312789
 21
702.541697067213
 31
0.0
  0
ARC
  5
2DCA
330
18
100
AcDbEntity
  8
DISEGNO
100
AcDbCircle
 10
1103.576168312788
 20
702.8216970672132
 30
0.0
 40
0.3
100
AcDbArc
 50
163.324
 51
248.0
  0
ARC
  5
2DCB
330
18
100
AcDbEntity
  8
DISEGNO
100
AcDbCircle
 10
1112.866168312788
 20
700.0316970672132
 30
0.0
 40
10.0
100
AcDbArc
 50
152.676
 51
163.324
  0
LINE
  5
2DCC
330
18
100
AcDbEntity
  8
DISEGNO
100
AcDbLine
 10
1094.366168312788
 20
718.0316970672132
 30
0.0
 11
1089.366168312788
 21
718.0316970672132
 31
0.0
  0
ARC
  5
2DCD
330
18
100
AcDbEntity
  8
DISEGNO
100
AcDbCircle
 10
1095.068440933351
 20
709.5316970672132
 30
0.0
 40
1.0
100
AcDbArc
 50
21.43125450382716
 51
90.0
  0
ARC
  5
2DCE
330
18
100
AcDbEntity
  8
DISEGNO
100
AcDbCircle
 10
1102.983012282595
 20
715.5316970672132
 30
0.0
 40
2.0
100
AcDbArc
 50
214.8499045790465
 51
270.0
  0
ARC
  5
2DCF
330
18
100
AcDbEntity
  8
DISEGNO
100
AcDbCircle
 10
1104.326168312788
 20
695.4316970672128
 30
0.0
 40
0.3
100
AcDbArc
 50
208.3238000000001
 51
293.0
  0
ARC
  5
2DD0
330
18
100
AcDbEntity
  8
DISEGNO
100
AcDbCircle
 10
1103.626168312788
 20
697.0916970672131
 30
0.0
 40
0.3
100
AcDbArc
 50
113.0
 51
197.6762
  0
LINE
  5
2DD1
330
18
100
AcDbEntity
  8
DISEGNO
100
AcDbLine
 10
1103.506168312788
 20
697.3616970672131
 30
0.0
 11
1104.186168312788
 21
697.6516970672131
 31
0.0
  0
ARC
  5
2DD2
330
18
100
AcDbEntity
  8
DISEGNO
100
AcDbCircle
 10
1104.066168312789
 20
697.9316970672129
 30
0.0
 40
0.3
100
AcDbArc
 50
293.0
 51
13.459
  0
ARC
  5
2DD3
330
18
100
AcDbEntity
  8
DISEGNO
100
AcDbCircle
 10
1105.236168312789
 20
695.1616970672128
 30
0.0
 40
0.3
100
AcDbArc
 50
32.541
 51
113.0
  0
LINE
  5
2DD4
330
18
100
AcDbEntity
  8
DISEGNO
100
AcDbLine
 10
1104.446168312788
 20
695.1516970672131
 30
0.0
 11
1105.126168312788
 21
695.4416970672131
 31
0.0
  0
ARC
  5
2DD5
330
18
100
AcDbEntity
  8
DISEGNO
100
AcDbCircle
 10
1112.866168312788
 20
700.0316970672132
 30
0.0
 40
10.0
100
AcDbArc
 50
197.6762
 51
208.3238000000001
  0
ARC
  5
2DD6
330
18
100
AcDbEntity
  8
DISEGNO
100
AcDbCircle
 10
1112.866168312788
 20
700.0316970672132
 30
0.0
 40
8.75
100
AcDbArc
 50
167.541
 51
193.4594
  0
ARC
  5
2DD7
330
18
100
AcDbEntity
  8
DISEGNO
100
AcDbCircle
 10
1070.866168312788
 20
700.0316970672132
 30
0.0
 40
27.0
100
AcDbArc
 50
338.5687454961729
 51
21.43125450382708
  0
ARC
  5
2DD8
330
18
100
AcDbEntity
  8
DISEGNO
100
AcDbCircle
 10
1109.926168312788
 20
709.271697067213
 30
0.0
 40
0.3
100
AcDbArc
 50
23.0
 51
107.6759999999999
  0
LINE
  5
2DD9
330
18
100
AcDbEntity
  8
DISEGNO
100
AcDbLine
 10
1110.486168312789
 20
708.7216970672133
 30
0.0
 11
1110.196168312788
 21
709.3916970672129
 31
0.0
  0
ARC
  5
2DDA
330
18
100
AcDbEntity
  8
DISEGNO
100
AcDbCircle
 10
1110.766168312788
 20
708.831697067213
 30
0.0
 40
0.3
100
AcDbArc
 50
203.0
 51
283.459
  0
ARC
  5
2DDB
330
18
100
AcDbEntity
  8
DISEGNO
100
AcDbCircle
 10
1107.996168312788
 20
707.6616970672128
 30
0.0
 40
0.3
100
AcDbArc
 50
302.541
 51
23.0
  0
LINE
  5
2DDC
330
18
100
AcDbEntity
  8
DISEGNO
100
AcDbLine
 10
1108.276168312788
 20
707.7816970672132
 30
0.0
 11
1107.986168312789
 21
708.4516970672133
 31
0.0
  0
ARC
  5
2DDD
330
18
100
AcDbEntity
  8
DISEGNO
100
AcDbCircle
 10
1108.266168312788
 20
708.5716970672132
 30
0.0
 40
0.3
100
AcDbArc
 50
118.324
 51
203.0
  0
ARC
  5
2DDE
330
18
100
AcDbEntity
  8
DISEGNO
100
AcDbCircle
 10
1112.866168312788
 20
700.0316970672132
 30
0.0
 40
10.0
100
AcDbArc
 50
107.6759999999999
 51
118.324
  0
ARC
  5
2DDF
330
18
100
AcDbEntity
  8
DISEGNO
100
AcDbCircle
 10
1112.866168312788
 20
700.0316970672132
 30
0.0
 40
10.0
100
AcDbArc
 50
243.6762
 51
254.3238
  0
ARC
  5
2DE0
330
18
100
AcDbEntity
  8
DISEGNO
100
AcDbCircle
 10
1111.066168312789
 20
691.1616970672128
 30
0.0
 40
0.3
100
AcDbArc
 50
78.54099999999998
 51
159.0
  0
LINE
  5
2DE1
330
18
100
AcDbEntity
  8
DISEGNO
100
AcDbLine
 10
1110.526168312788
 20
690.5916970672132
 30
0.0
 11
1110.786168312788
 21
691.271697067213
 31
0.0
  0
ARC
  5
2DE2
330
18
100
AcDbEntity
  8
DISEGNO
100
AcDbCircle
 10
1110.246168312788
 20
690.691697067213
 30
0.0
 40
0.3
100
AcDbArc
 50
254.3238
 51
339.0
  0
ARC
  5
2DE3
330
18
100
AcDbEntity
  8
DISEGNO
100
AcDbCircle
 10
1108.566168312789
 20
691.3416970672131
 30
0.0
 40
0.3
100
AcDbArc
 50
159.0
 51
243.6762
  0
LINE
  5
2DE4
330
18
100
AcDbEntity
  8
DISEGNO
100
AcDbLine
 10
1108.286168312788
 20
691.4516970672133
 30
0.0
 11
1108.546168312789
 21
692.1316970672132
 31
0.0
  0
ARC
  5
2DE5
330
18
100
AcDbEntity
  8
DISEGNO
100
AcDbCircle
 10
1108.266168312788
 20
692.2416970672133
 30
0.0
 40
0.3
100
AcDbArc
 50
339.0
 51
59.45899999999999
  0
LINE
  5
2DE6
330
18
100
AcDbEntity
  8
DISEGNO
100
AcDbLine
 10
1197.869168312788
 20
666.5316970672132
 30
0.0
 11
1197.869168312788
 21
693.7816970672132
 31
0.0
  0
ARC
  5
2DE7
330
18
100
AcDbEntity
  8
DISEGNO
100
AcDbCircle
 10
1122.366168312788
 20
681.5316970672133
 30
0.0
 40
8.5
100
AcDbArc
 50
0.0
 51
55.15009542095297
  0
ARC
  5
2DE8
330
18
100
AcDbEntity
  8
DISEGNO
100
AcDbCircle
 10
1153.366168312788
 20
681.5316970672133
 30
0.0
 40
8.5
100
AcDbArc
 50
126.8699999999999
 51
180.0
  0
LINE
  5
2DE9
330
18
100
AcDbEntity
  8
DISEGNO
100
AcDbLine
 10
1181.554298156042
 20
684.17356722396
 30
0.0
 11
1177.131673376177
 21
688.5961920038247
 31
0.0
  0
LINE
  5
2DEA
330
18
100
AcDbEntity
  8
DISEGNO
100
AcDbLine
 10
1175.717459813803
 20
688.5961920038247
 30
0.0
 11
1174.301673376177
 21
687.1804055661981
 31
0.0
  0
LINE
  5
2DEB
330
18
100
AcDbEntity
  8
DISEGNO
100
AcDbLine
 10
1169.116168312788
 20
665.0316970672133
 30
0.0
 11
1196.369168312788
 21
665.0316970672133
 31
0.0
  0
LINE
  5
2DEC
330
18
100
AcDbEntity
  8
DISEGNO
100
AcDbLine
 10
1173.369168312788
 20
672.0316970672132
 30
0.0
 11
1169.116168312788
 21
672.0316970672132
 31
0.0
  0
ARC
  5
2DED
330
18
100
AcDbEntity
  8
DISEGNO
100
AcDbCircle
 10
1162.866168312788
 20
671.2516970672131
 30
0.0
 40
15.0
100
AcDbArc
 50
47.26800000000006
 51
132.7320000000001
  0
LINE
  5
2DEE
330
18
100
AcDbEntity
  8
DISEGNO
100
AcDbLine
 10
1119.116168312788
 20
665.0316970672123
 30
0.0
 11
1156.616168312788
 21
665.0316970672128
 31
0.0
  0
ARC
  5
2DEF
330
18
100
AcDbEntity
  8
DISEGNO
100
AcDbCircle
 10
1140.866168312788
 20
676.5316970672132
 30
0.0
 40
4.0
100
AcDbArc
 50
270.0
 51
0.0
  0
ARC
  5
2DF0
330
18
100
AcDbEntity
  8
DISEGNO
100
AcDbCircle
 10
1122.366168312788
 20
681.5316970672133
 30
0.0
 40
1.0
100
AcDbArc
 50
0.0
 51
47.26800000000006
  0
LINE
  5
2DF1
330
18
100
AcDbEntity
  8
DISEGNO
100
AcDbLine
 10
1119.116168312788
 20
672.0316970672132
 30
0.0
 11
1123.366168312788
 21
672.0316970672132
 31
0.0
  0
LINE
  5
2DF2
330
18
100
AcDbEntity
  8
DISEGNO
100
AcDbLine
 10
1119.116168312788
 20
672.0316970672132
 30
0.0
 11
1119.116168312788
 21
665.0316970672133
 31
0.0
  0
LINE
  5
2DF3
330
18
100
AcDbEntity
  8
DISEGNO
100
AcDbLine
 10
1123.366168312788
 20
681.5316970672133
 30
0.0
 11
1123.366168312788
 21
672.0316970672132
 31
0.0
  0
LINE
  5
2DF4
330
18
100
AcDbEntity
  8
DISEGNO
100
AcDbLine
 10
1140.866168312788
 20
672.5316970672132
 30
0.0
 11
1134.866168312788
 21
672.5316970672132
 31
0.0
  0
LINE
  5
2DF5
330
18
100
AcDbEntity
  8
DISEGNO
100
AcDbLine
 10
1130.866168312788
 20
681.5316970672133
 30
0.0
 11
1130.866168312788
 21
676.5316970672132
 31
0.0
  0
ARC
  5
2DF6
330
18
100
AcDbEntity
  8
DISEGNO
100
AcDbCircle
 10
1134.866168312788
 20
676.5316970672132
 30
0.0
 40
4.0
100
AcDbArc
 50
180.0
 51
270.0
  0
LINE
  5
2DF7
330
18
100
AcDbEntity
  8
DISEGNO
100
AcDbLine
 10
1144.866168312788
 20
681.5316970672133
 30
0.0
 11
1144.866168312788
 21
676.5316970672132
 31
0.0
  0
LINE
  5
2DF8
330
18
100
AcDbEntity
  8
DISEGNO
100
AcDbLine
 10
1169.116168312788
 20
665.0316970672133
 30
0.0
 11
1169.116168312788
 21
672.0316970672132
 31
0.0
  0
ARC
  5
2DF9
330
18
100
AcDbEntity
  8
DISEGNO
100
AcDbCircle
 10
1153.366168312788
 20
681.5316970672133
 30
0.0
 40
1.0
100
AcDbArc
 50
132.7320000000001
 51
180.0
  0
LINE
  5
2DFA
330
18
100
AcDbEntity
  8
DISEGNO
100
AcDbLine
 10
1156.616168312788
 20
672.0316970672132
 30
0.0
 11
1156.616168312788
 21
665.0316970672133
 31
0.0
  0
LINE
  5
2DFB
330
18
100
AcDbEntity
  8
DISEGNO
100
AcDbLine
 10
1156.616168312788
 20
672.0316970672132
 30
0.0
 11
1152.366168312788
 21
672.0316970672132
 31
0.0
  0
LINE
  5
2DFC
330
18
100
AcDbEntity
  8
DISEGNO
100
AcDbLine
 10
1152.366168312788
 20
681.5316970672133
 30
0.0
 11
1152.366168312788
 21
672.0316970672132
 31
0.0
  0
ARC
  5
2DFD
330
18
100
AcDbEntity
  8
DISEGNO
100
AcDbCircle
 10
1190.616168312788
 20
682.2816970672132
 30
0.0
 40
2.0
100
AcDbArc
 50
321.7678
 51
128.2319999999999
  0
ARC
  5
2DFE
330
18
100
AcDbEntity
  8
DISEGNO
100
AcDbCircle
 10
1190.616168312788
 20
672.2816970672132
 30
0.0
 40
2.0
100
AcDbArc
 50
231.768
 51
38.23200000000003
  0
LINE
  5
2DFF
330
18
100
AcDbEntity
  8
DISEGNO
100
AcDbLine
 10
1178.724298156042
 20
681.3435672239596
 30
0.0
 11
1174.301673376177
 21
685.7661920038248
 31
0.0
  0
ARC
  5
2E00
330
18
100
AcDbEntity
  8
DISEGNO
100
AcDbCircle
 10
1182.614958327822
 20
685.2342273957396
 30
0.0
 40
1.5
100
AcDbArc
 50
225.0000000000007
 51
290.6760338500015
  0
ARC
  5
2E01
330
18
100
AcDbEntity
  8
DISEGNO
100
AcDbCircle
 10
1185.616168312788
 20
677.2816970672132
 30
0.0
 40
7.0
100
AcDbArc
 50
66.86299999999999
 51
110.6760338500019
  0
ARC
  5
2E02
330
18
100
AcDbEntity
  8
DISEGNO
100
AcDbCircle
 10
1177.663637984262
 20
680.2829070521801
 30
0.0
 40
1.5
100
AcDbArc
 50
339.3239661499975
 51
45.00000000000031
  0
ARC
  5
2E03
330
18
100
AcDbEntity
  8
DISEGNO
100
AcDbCircle
 10
1172.369168312788
 20
681.5316970672133
 30
0.0
 40
1.0
100
AcDbArc
 50
0.0
 51
47.26800000000006
  0
ARC
  5
2E04
330
18
100
AcDbEntity
  8
DISEGNO
100
AcDbCircle
 10
1175.008780157363
 20
686.4732987850114
 30
0.0
 40
1.0
100
AcDbArc
 50
135.0000000000004
 51
225.0
  0
ARC
  5
2E05
330
18
100
AcDbEntity
  8
DISEGNO
100
AcDbCircle
 10
1180.616168312788
 20
672.2816970672132
 30
0.0
 40
2.0
100
AcDbArc
 50
141.768
 51
308.232
  0
ARC
  5
2E06
330
18
100
AcDbEntity
  8
DISEGNO
100
AcDbCircle
 10
1182.466168312789
 20
669.9316970672128
 30
0.0
 40
1.0
100
AcDbArc
 50
66.86299999999999
 51
128.2319999999999
  0
ARC
  5
2E07
330
18
100
AcDbEntity
  8
DISEGNO
100
AcDbCircle
 10
1185.616168312788
 20
677.2816970672132
 30
0.0
 40
7.0
100
AcDbArc
 50
246.863
 51
293.137
  0
ARC
  5
2E08
330
18
100
AcDbEntity
  8
DISEGNO
100
AcDbCircle
 10
1178.256168312789
 20
674.1416970672129
 30
0.0
 40
1.0
100
AcDbArc
 50
321.7678
 51
23.13699999999994
  0
ARC
  5
2E09
330
18
100
AcDbEntity
  8
DISEGNO
100
AcDbCircle
 10
1185.616168312788
 20
677.2816970672132
 30
0.0
 40
7.0
100
AcDbArc
 50
159.3239661499973
 51
203.137
  0
LINE
  5
2E0A
330
18
100
AcDbEntity
  8
DISEGNO
100
AcDbLine
 10
1173.369168312788
 20
681.5316970672133
 30
0.0
 11
1173.369168312788
 21
672.0316970672132
 31
0.0
  0
ARC
  5
2E0B
330
18
100
AcDbEntity
  8
DISEGNO
100
AcDbCircle
 10
1188.756168312789
 20
684.6416970672129
 30
0.0
 40
1.0
100
AcDbArc
 50
246.863
 51
308.232
  0
ARC
  5
2E0C
330
18
100
AcDbEntity
  8
DISEGNO
100
AcDbCircle
 10
1188.756168312789
 20
669.9316970672128
 30
0.0
 40
1.0
100
AcDbArc
 50
51.76799999999997
 51
113.137
  0
ARC
  5
2E0D
330
18
100
AcDbEntity
  8
DISEGNO
100
AcDbCircle
 10
1192.966168312789
 20
680.4316970672129
 30
0.0
 40
1.0
100
AcDbArc
 50
141.768
 51
203.137
  0
ARC
  5
2E0E
330
18
100
AcDbEntity
  8
DISEGNO
100
AcDbCircle
 10
1196.369168312788
 20
666.5316970672132
 30
0.0
 40
1.5
100
AcDbArc
 50
270.0
 51
0.0
  0
ARC
  5
2E0F
330
18
100
AcDbEntity
  8
DISEGNO
100
AcDbCircle
 10
1192.966168312789
 20
674.1416970672129
 30
0.0
 40
1.0
100
AcDbArc
 50
156.8629999999999
 51
218.232
  0
ARC
  5
2E10
330
18
100
AcDbEntity
  8
DISEGNO
100
AcDbCircle
 10
1185.616168312788
 20
677.2816970672132
 30
0.0
 40
7.0
100
AcDbArc
 50
336.8629
 51
23.13699999999994
  0
LINE
  5
2E11
330
18
100
AcDbEntity
  8
DISEGNO
100
AcDbLine
 10
1162.866168312788
 20
713.5316970672132
 30
0.0
 11
1172.749324342982
 21
713.5316970672132
 31
0.0
  0
ARC
  5
2E12
330
18
100
AcDbEntity
  8
DISEGNO
100
AcDbCircle
 10
1128.366168312788
 20
690.14854103702
 30
0.0
 40
2.0
100
AcDbArc
 50
180.0
 51
235.1500954209528
  0
ARC
  5
2E13
330
18
100
AcDbEntity
  8
DISEGNO
100
AcDbCircle
 10
1114.826168312788
 20
708.871697067213
 30
0.0
 40
0.3
100
AcDbArc
 50
257.5406
 51
338.0
  0
LINE
  5
2E14
330
18
100
AcDbEntity
  8
DISEGNO
100
AcDbLine
 10
1115.096168312788
 20
708.7616970672132
 30
0.0
 11
1115.376168312788
 21
709.441697067213
 31
0.0
  0
ARC
  5
2E15
330
18
100
AcDbEntity
  8
DISEGNO
100
AcDbCircle
 10
1115.656168312789
 20
709.3216970672131
 30
0.0
 40
0.3
100
AcDbArc
 50
73.32400000000003
 51
158.0
  0
ARC
  5
2E16
330
18
100
AcDbEntity
  8
DISEGNO
100
AcDbCircle
 10
1112.866168312788
 20
700.0316970672132
 30
0.0
 40
10.0
100
AcDbArc
 50
62.67599999999997
 51
73.32400000000003
  0
ARC
  5
2E17
330
18
100
AcDbEntity
  8
DISEGNO
100
AcDbCircle
 10
1117.326168312788
 20
708.6516970672131
 30
0.0
 40
0.3
100
AcDbArc
 50
338.0
 51
62.67599999999997
  0
LINE
  5
2E18
330
18
100
AcDbEntity
  8
DISEGNO
100
AcDbLine
 10
1117.326168312788
 20
707.8616970672132
 30
0.0
 11
1117.596168312788
 21
708.541697067213
 31
0.0
  0
ARC
  5
2E19
330
18
100
AcDbEntity
  8
DISEGNO
100
AcDbCircle
 10
1117.606168312788
 20
707.7416970672133
 30
0.0
 40
0.3
100
AcDbArc
 50
158.0
 51
238.4594
  0
ARC
  5
2E1A
330
18
100
AcDbEntity
  8
DISEGNO
100
AcDbCircle
 10
1112.866168312788
 20
700.0316970672132
 30
0.0
 40
8.75
100
AcDbArc
 50
33.54100000000007
 51
58.459
  0
ARC
  5
2E1B
330
18
100
AcDbEntity
  8
DISEGNO
100
AcDbCircle
 10
1120.416168312788
 20
705.0316970672132
 30
0.0
 40
0.3
100
AcDbArc
 50
213.5406
 51
294.0
  0
ARC
  5
2E1C
330
18
100
AcDbEntity
  8
DISEGNO
100
AcDbCircle
 10
1121.326168312788
 20
704.7816970672132
 30
0.0
 40
0.3
100
AcDbArc
 50
29.32400000000003
 51
114.0
  0
LINE
  5
2E1D
330
18
100
AcDbEntity
  8
DISEGNO
100
AcDbLine
 10
1120.536168312788
 20
704.7616970672132
 30
0.0
 11
1121.206168312788
 21
705.061697067213
 31
0.0
  0
ARC
  5
2E1E
330
18
100
AcDbEntity
  8
DISEGNO
100
AcDbCircle
 10
1122.056168312789
 20
703.1416970672129
 30
0.0
 40
0.3
100
AcDbArc
 50
294.0
 51
18.67600000000004
  0
LINE
  5
2E1F
330
18
100
AcDbEntity
  8
DISEGNO
100
AcDbLine
 10
1121.506168312788
 20
702.5716970672132
 30
0.0
 11
1122.176168312788
 21
702.8616970672132
 31
0.0
  0
ARC
  5
2E20
330
18
100
AcDbEntity
  8
DISEGNO
100
AcDbCircle
 10
1121.636168312789
 20
702.291697067213
 30
0.0
 40
0.3
100
AcDbArc
 50
114.0
 51
194.4594
  0
ARC
  5
2E21
330
18
100
AcDbEntity
  8
DISEGNO
100
AcDbCircle
 10
1112.866168312788
 20
700.0316970672132
 30
0.0
 40
8.75
100
AcDbArc
 50
348.541
 51
14.459
  0
ARC
  5
2E22
330
18
100
AcDbEntity
  8
DISEGNO
100
AcDbCircle
 10
1112.866168312788
 20
700.0316970672132
 30
0.0
 40
10.0
100
AcDbArc
 50
18.67600000000004
 51
29.32400000000003
  0
ARC
  5
2E23
330
18
100
AcDbEntity
  8
DISEGNO
100
AcDbCircle
 10
1117.866168312788
 20
692.4916970672133
 30
0.0
 40
0.3
100
AcDbArc
 50
123.541
 51
204.0
  0
LINE
  5
2E24
330
18
100
AcDbEntity
  8
DISEGNO
100
AcDbLine
 10
1117.596168312788
 20
692.3716970672129
 30
0.0
 11
1117.896168312789
 21
691.7016970672133
 31
0.0
  0
ARC
  5
2E25
330
18
100
AcDbEntity
  8
DISEGNO
100
AcDbCircle
 10
1117.616168312788
 20
691.5716970672132
 30
0.0
 40
0.3
100
AcDbArc
 50
299.324
 51
24.0
  0
ARC
  5
2E26
330
18
100
AcDbEntity
  8
DISEGNO
100
AcDbCircle
 10
1112.866168312788
 20
700.0316970672132
 30
0.0
 40
10.0
100
AcDbArc
 50
288.6760000000001
 51
299.324
  0
ARC
  5
2E27
330
18
100
AcDbEntity
  8
DISEGNO
100
AcDbCircle
 10
1115.976168312789
 20
690.8416970672131
 30
0.0
 40
0.3
100
AcDbArc
 50
204.0
 51
288.6760000000001
  0
LINE
  5
2E28
330
18
100
AcDbEntity
  8
DISEGNO
100
AcDbLine
 10
1115.406168312789
 20
691.3916970672129
 30
0.0
 11
1115.706168312788
 21
690.7216970672132
 31
0.0
  0
ARC
  5
2E29
330
18
100
AcDbEntity
  8
DISEGNO
100
AcDbCircle
 10
1115.126168312788
 20
691.271697067213
 30
0.0
 40
0.3
100
AcDbArc
 50
24.0
 51
104.459
  0
ARC
  5
2E2A
330
18
100
AcDbEntity
  8
DISEGNO
100
AcDbCircle
 10
1120.666168312788
 20
695.4316970672128
 30
0.0
 40
0.3
100
AcDbArc
 50
69.0
 51
149.459
  0
ARC
  5
2E2B
330
18
100
AcDbEntity
  8
DISEGNO
100
AcDbCircle
 10
1122.206168312788
 20
697.4116970672128
 30
0.0
 40
0.3
100
AcDbArc
 50
344.324
 51
69.0
  0
ARC
  5
2E2C
330
18
100
AcDbEntity
  8
DISEGNO
100
AcDbCircle
 10
1112.866168312788
 20
700.0316970672132
 30
0.0
 40
10.0
100
AcDbArc
 50
333.676
 51
344.324
  0
LINE
  5
2E2D
330
18
100
AcDbEntity
  8
DISEGNO
100
AcDbLine
 10
1121.636168312789
 20
697.9516970672133
 30
0.0
 11
1122.316168312789
 21
697.6916970672131
 31
0.0
  0
LINE
  5
2E2E
330
18
100
AcDbEntity
  8
DISEGNO
100
AcDbLine
 10
1120.766168312788
 20
695.7116970672131
 30
0.0
 11
1121.456168312788
 21
695.4516970672133
 31
0.0
  0
ARC
  5
2E2F
330
18
100
AcDbEntity
  8
DISEGNO
100
AcDbCircle
 10
1121.566168312789
 20
695.731697067213
 30
0.0
 40
0.3
100
AcDbArc
 50
249.0
 51
333.676
  0
ARC
  5
2E30
330
18
100
AcDbEntity
  8
DISEGNO
100
AcDbCircle
 10
1112.866168312788
 20
700.0316970672132
 30
0.0
 40
8.75
100
AcDbArc
 50
303.5410000000001
 51
329.459
  0
LINE
  5
2E31
330
18
100
AcDbEntity
  8
DISEGNO
100
AcDbLine
 10
1126.366168312788
 20
700.0316970672132
 30
0.0
 11
1126.366168312788
 21
690.14854103702
 31
0.0
  0
ARC
  5
2E32
330
18
100
AcDbEntity
  8
DISEGNO
100
AcDbCircle
 10
1121.736168312789
 20
698.2316970672131
 30
0.0
 40
0.3
100
AcDbArc
 50
168.541
 51
249.0
  0
ARC
  5
2E33
330
18
100
AcDbEntity
  8
DISEGNO
100
AcDbCircle
 10
1147.366168312788
 20
690.14854103702
 30
0.0
 40
2.0
100
AcDbArc
 50
304.8499045790472
 51
0.0
  0
ARC
  5
2E34
330
18
100
AcDbEntity
  8
DISEGNO
100
AcDbCircle
 10
1162.866168312788
 20
700.0316970672132
 30
0.0
 40
13.5
100
AcDbArc
 50
90.0
 51
180.0
  0
ARC
  5
2E35
330
18
100
AcDbEntity
  8
DISEGNO
100
AcDbCircle
 10
1162.866168312788
 20
700.0316970672132
 30
0.0
 40
8.75
100
AcDbArc
 50
31.541
 51
57.459
  0
ARC
  5
2E36
330
18
100
AcDbEntity
  8
DISEGNO
100
AcDbCircle
 10
1162.866168312788
 20
700.0316970672132
 30
0.0
 40
8.75
100
AcDbArc
 50
300.541
 51
327.459
  0
ARC
  5
2E37
330
18
100
AcDbEntity
  8
DISEGNO
100
AcDbCircle
 10
1165.816168312788
 20
709.271697067213
 30
0.0
 40
0.3
100
AcDbArc
 50
72.32400000000002
 51
157.0
  0
LINE
  5
2E38
330
18
100
AcDbEntity
  8
DISEGNO
100
AcDbLine
 10
1165.256168312787
 20
708.7216970672133
 30
0.0
 11
1165.536168312788
 21
709.3916970672129
 31
0.0
  0
ARC
  5
2E39
330
18
100
AcDbEntity
  8
DISEGNO
100
AcDbCircle
 10
1164.976168312788
 20
708.831697067213
 30
0.0
 40
0.3
100
AcDbArc
 50
256.5406
 51
337.0
  0
ARC
  5
2E3A
330
18
100
AcDbEntity
  8
DISEGNO
100
AcDbCircle
 10
1162.866168312788
 20
700.0316970672132
 30
0.0
 40
8.75
100
AcDbArc
 50
76.54099999999999
 51
102.459
  0
ARC
  5
2E3B
330
18
100
AcDbEntity
  8
DISEGNO
100
AcDbCircle
 10
1160.916168312788
 20
708.871697067213
 30
0.0
 40
0.3
100
AcDbArc
 50
202.0
 51
282.459
  0
LINE
  5
2E3C
330
18
100
AcDbEntity
  8
DISEGNO
100
AcDbLine
 10
1160.636168312788
 20
708.7616970672132
 30
0.0
 11
1160.366168312788
 21
709.441697067213
 31
0.0
  0
ARC
  5
2E3D
330
18
100
AcDbEntity
  8
DISEGNO
100
AcDbCircle
 10
1167.736168312788
 20
707.6616970672128
 30
0.0
 40
0.3
100
AcDbArc
 50
157.0
 51
237.4594
  0
LINE
  5
2E3E
330
18
100
AcDbEntity
  8
DISEGNO
100
AcDbLine
 10
1167.456168312788
 20
707.7816970672132
 30
0.0
 11
1167.746168312788
 21
708.4516970672133
 31
0.0
  0
ARC
  5
2E3F
330
18
100
AcDbEntity
  8
DISEGNO
100
AcDbCircle
 10
1167.476168312788
 20
708.5716970672132
 30
0.0
 40
0.3
100
AcDbArc
 50
337.0
 51
61.67599999999998
  0
ARC
  5
2E40
330
18
100
AcDbEntity
  8
DISEGNO
100
AcDbCircle
 10
1162.866168312788
 20
700.0316970672132
 30
0.0
 40
10.0
100
AcDbArc
 50
61.67599999999998
 51
72.32400000000002
  0
ARC
  5
2E41
330
18
100
AcDbEntity
  8
DISEGNO
100
AcDbCircle
 10
1160.606168312788
 20
691.271697067213
 30
0.0
 40
0.3
100
AcDbArc
 50
75.54100000000001
 51
156.0
  0
ARC
  5
2E42
330
18
100
AcDbEntity
  8
DISEGNO
100
AcDbCircle
 10
1162.866168312788
 20
700.0316970672132
 30
0.0
 40
8.75
100
AcDbArc
 50
255.5406
 51
281.459
  0
ARC
  5
2E43
330
18
100
AcDbEntity
  8
DISEGNO
100
AcDbCircle
 10
1164.666168312789
 20
691.1616970672128
 30
0.0
 40
0.3
100
AcDbArc
 50
21.0
 51
101.459
  0
LINE
  5
2E44
330
18
100
AcDbEntity
  8
DISEGNO
100
AcDbLine
 10
1165.206168312789
 20
690.5916970672132
 30
0.0
 11
1164.946168312788
 21
691.271697067213
 31
0.0
  0
ARC
  5
2E45
330
18
100
AcDbEntity
  8
DISEGNO
100
AcDbCircle
 10
1165.486168312788
 20
690.691697067213
 30
0.0
 40
0.3
100
AcDbArc
 50
201.0
 51
285.676
  0
ARC
  5
2E46
330
18
100
AcDbEntity
  8
DISEGNO
100
AcDbCircle
 10
1167.166168312788
 20
691.3416970672131
 30
0.0
 40
0.3
100
AcDbArc
 50
296.3239999999999
 51
21.0
  0
LINE
  5
2E47
330
18
100
AcDbEntity
  8
DISEGNO
100
AcDbLine
 10
1167.446168312788
 20
691.4516970672133
 30
0.0
 11
1167.186168312788
 21
692.1316970672132
 31
0.0
  0
ARC
  5
2E48
330
18
100
AcDbEntity
  8
DISEGNO
100
AcDbCircle
 10
1167.466168312788
 20
692.2416970672133
 30
0.0
 40
0.3
100
AcDbArc
 50
120.541
 51
201.0
  0
ARC
  5
2E49
330
18
100
AcDbEntity
  8
DISEGNO
100
AcDbCircle
 10
1162.866168312788
 20
700.0316970672132
 30
0.0
 40
10.0
100
AcDbArc
 50
285.676
 51
296.3239999999999
  0
ARC
  5
2E4A
330
18
100
AcDbEntity
  8
DISEGNO
100
AcDbCircle
 10
1154.416168312788
 20
704.7816970672132
 30
0.0
 40
0.3
100
AcDbArc
 50
66.0
 51
150.676
  0
ARC
  5
2E4B
330
18
100
AcDbEntity
  8
DISEGNO
100
AcDbCircle
 10
1162.866168312788
 20
700.0316970672132
 30
0.0
 40
10.0
100
AcDbArc
 50
106.6759999999999
 51
117.324
  0
ARC
  5
2E4C
330
18
100
AcDbEntity
  8
DISEGNO
100
AcDbCircle
 10
1158.416168312788
 20
708.6516970672131
 30
0.0
 40
0.3
100
AcDbArc
 50
117.324
 51
202.0
  0
LINE
  5
2E4D
330
18
100
AcDbEntity
  8
DISEGNO
100
AcDbLine
 10
1158.416168312788
 20
707.8616970672132
 30
0.0
 11
1158.136168312788
 21
708.541697067213
 31
0.0
  0
ARC
  5
2E4E
330
18
100
AcDbEntity
  8
DISEGNO
100
AcDbCircle
 10
1158.136168312788
 20
707.7416970672133
 30
0.0
 40
0.3
100
AcDbArc
 50
301.541
 51
22.00000000000001
  0
ARC
  5
2E4F
330
18
100
AcDbEntity
  8
DISEGNO
100
AcDbCircle
 10
1162.866168312788
 20
700.0316970672132
 30
0.0
 40
8.75
100
AcDbArc
 50
121.541
 51
146.459
  0
ARC
  5
2E50
330
18
100
AcDbEntity
  8
DISEGNO
100
AcDbCircle
 10
1155.326168312788
 20
705.0316970672132
 30
0.0
 40
0.3
100
AcDbArc
 50
246.0
 51
326.459
  0
LINE
  5
2E51
330
18
100
AcDbEntity
  8
DISEGNO
100
AcDbLine
 10
1155.206168312788
 20
704.7616970672132
 30
0.0
 11
1154.536168312788
 21
705.061697067213
 31
0.0
  0
ARC
  5
2E52
330
18
100
AcDbEntity
  8
DISEGNO
100
AcDbCircle
 10
1153.676168312788
 20
703.1416970672129
 30
0.0
 40
0.3
100
AcDbArc
 50
161.324
 51
246.0
  0
LINE
  5
2E53
330
18
100
AcDbEntity
  8
DISEGNO
100
AcDbLine
 10
1154.226168312788
 20
702.5716970672132
 30
0.0
 11
1153.556168312788
 21
702.8616970672132
 31
0.0
  0
ARC
  5
2E54
330
18
100
AcDbEntity
  8
DISEGNO
100
AcDbCircle
 10
1154.106168312788
 20
702.291697067213
 30
0.0
 40
0.3
100
AcDbArc
 50
345.541
 51
66.0
  0
ARC
  5
2E55
330
18
100
AcDbEntity
  8
DISEGNO
100
AcDbCircle
 10
1162.866168312788
 20
700.0316970672132
 30
0.0
 40
8.75
100
AcDbArc
 50
165.541
 51
191.4594
  0
ARC
  5
2E56
330
18
100
AcDbEntity
  8
DISEGNO
100
AcDbCircle
 10
1162.866168312788
 20
700.0316970672132
 30
0.0
 40
10.0
100
AcDbArc
 50
150.676
 51
161.324
  0
ARC
  5
2E57
330
18
100
AcDbEntity
  8
DISEGNO
100
AcDbCircle
 10
1157.866168312788
 20
692.4916970672133
 30
0.0
 40
0.3
100
AcDbArc
 50
335.9999999999999
 51
56.45900000000001
  0
LINE
  5
2E58
330
18
100
AcDbEntity
  8
DISEGNO
100
AcDbLine
 10
1158.146168312788
 20
692.3716970672129
 30
0.0
 11
1157.846168312788
 21
691.7016970672133
 31
0.0
  0
ARC
  5
2E59
330
18
100
AcDbEntity
  8
DISEGNO
100
AcDbCircle
 10
1158.116168312788
 20
691.5716970672132
 30
0.0
 40
0.3
100
AcDbArc
 50
156.0
 51
240.6763
  0
ARC
  5
2E5A
330
18
100
AcDbEntity
  8
DISEGNO
100
AcDbCircle
 10
1162.866168312788
 20
700.0316970672132
 30
0.0
 40
10.0
100
AcDbArc
 50
240.6763
 51
251.3238
  0
ARC
  5
2E5B
330
18
100
AcDbEntity
  8
DISEGNO
100
AcDbCircle
 10
1159.766168312788
 20
690.8416970672131
 30
0.0
 40
0.3
100
AcDbArc
 50
251.3238
 51
335.9999999999999
  0
ARC
  5
2E5C
330
18
100
AcDbEntity
  8
DISEGNO
100
AcDbCircle
 10
1153.526168312788
 20
697.4116970672128
 30
0.0
 40
0.3
100
AcDbArc
 50
111.0
 51
195.6762
  0
ARC
  5
2E5D
330
18
100
AcDbEntity
  8
DISEGNO
100
AcDbCircle
 10
1162.866168312788
 20
700.0316970672132
 30
0.0
 40
10.0
100
AcDbArc
 50
195.6762
 51
206.3238
  0
LINE
  5
2E5E
330
18
100
AcDbEntity
  8
DISEGNO
100
AcDbLine
 10
1154.106168312788
 20
697.9516970672133
 30
0.0
 11
1153.426168312788
 21
697.6916970672131
 31
0.0
  0
ARC
  5
2E5F
330
18
100
AcDbEntity
  8
DISEGNO
100
AcDbCircle
 10
1155.076168312788
 20
695.4316970672128
 30
0.0
 40
0.3
100
AcDbArc
 50
30.541
 51
111.0
  0
LINE
  5
2E60
330
18
100
AcDbEntity
  8
DISEGNO
100
AcDbLine
 10
1154.966168312788
 20
695.7116970672131
 30
0.0
 11
1154.286168312788
 21
695.4516970672133
 31
0.0
  0
ARC
  5
2E61
330
18
100
AcDbEntity
  8
DISEGNO
100
AcDbCircle
 10
1154.176168312788
 20
695.731697067213
 30
0.0
 40
0.3
100
AcDbArc
 50
206.3238
 51
291.0
  0
ARC
  5
2E62
330
18
100
AcDbEntity
  8
DISEGNO
100
AcDbCircle
 10
1162.866168312788
 20
700.0316970672132
 30
0.0
 40
8.75
100
AcDbArc
 50
210.5406
 51
236.4594
  0
LINE
  5
2E63
330
18
100
AcDbEntity
  8
DISEGNO
100
AcDbLine
 10
1149.366168312788
 20
700.0316970672132
 30
0.0
 11
1149.366168312788
 21
690.14854103702
 31
0.0
  0
ARC
  5
2E64
330
18
100
AcDbEntity
  8
DISEGNO
100
AcDbCircle
 10
1153.996168312788
 20
698.2316970672131
 30
0.0
 40
0.3
100
AcDbArc
 50
291.0
 51
11.45900000000001
  0
ARC
  5
2E65
330
18
100
AcDbEntity
  8
DISEGNO
100
AcDbCircle
 10
1160.086168312788
 20
709.3216970672131
 30
0.0
 40
0.3
100
AcDbArc
 50
22.00000000000001
 51
106.6759999999999
  0
LINE
  5
2E66
330
18
100
AcDbEntity
  8
DISEGNO
100
AcDbLine
 10
1160.336168312788
 20
691.3916970672129
 30
0.0
 11
1160.036168312788
 21
690.7216970672132
 31
0.0
  0
ARC
  5
2E67
330
18
100
AcDbEntity
  8
DISEGNO
100
AcDbCircle
 10
1171.486168312788
 20
704.4816970672131
 30
0.0
 40
0.3
100
AcDbArc
 50
27.32400000000003
 51
112.0
  0
LINE
  5
2E68
330
18
100
AcDbEntity
  8
DISEGNO
100
AcDbLine
 10
1170.696168312788
 20
704.4916970672133
 30
0.0
 11
1171.376168312789
 21
704.7616970672132
 31
0.0
  0
ARC
  5
2E69
330
18
100
AcDbEntity
  8
DISEGNO
100
AcDbCircle
 10
1170.586168312788
 20
704.771697067213
 30
0.0
 40
0.3
100
AcDbArc
 50
211.5406
 51
292.0
  0
ARC
  5
2E6A
330
18
100
AcDbEntity
  8
DISEGNO
100
AcDbCircle
 10
1171.706168312788
 20
701.981697067213
 30
0.0
 40
0.3
100
AcDbArc
 50
112.0
 51
192.4594
  0
LINE
  5
2E6B
330
18
100
AcDbEntity
  8
DISEGNO
100
AcDbLine
 10
1171.596168312788
 20
702.2616970672133
 30
0.0
 11
1172.273168312788
 21
702.541697067213
 31
0.0
  0
ARC
  5
2E6C
330
18
100
AcDbEntity
  8
DISEGNO
100
AcDbCircle
 10
1172.161168312788
 20
702.8216970672132
 30
0.0
 40
0.3
100
AcDbArc
 50
292.0
 51
16.67599999999997
  0
ARC
  5
2E6D
330
18
100
AcDbEntity
  8
DISEGNO
100
AcDbCircle
 10
1162.866168312788
 20
700.0316970672132
 30
0.0
 40
10.0
100
AcDbArc
 50
16.67599999999997
 51
27.32400000000003
  0
ARC
  5
2E6E
330
18
100
AcDbEntity
  8
DISEGNO
100
AcDbCircle
 10
1171.406168312788
 20
695.4316970672128
 30
0.0
 40
0.3
100
AcDbArc
 50
247.0
 51
331.676
  0
ARC
  5
2E6F
330
18
100
AcDbEntity
  8
DISEGNO
100
AcDbCircle
 10
1172.111168312788
 20
697.0916970672131
 30
0.0
 40
0.3
100
AcDbArc
 50
342.324
 51
67.0
  0
LINE
  5
2E70
330
18
100
AcDbEntity
  8
DISEGNO
100
AcDbLine
 10
1172.228168312788
 20
697.3616970672131
 30
0.0
 11
1171.556168312788
 21
697.6516970672131
 31
0.0
  0
ARC
  5
2E71
330
18
100
AcDbEntity
  8
DISEGNO
100
AcDbCircle
 10
1171.666168312788
 20
697.9316970672129
 30
0.0
 40
0.3
100
AcDbArc
 50
166.541
 51
247.0
  0
ARC
  5
2E72
330
18
100
AcDbEntity
  8
DISEGNO
100
AcDbCircle
 10
1170.496168312788
 20
695.1616970672128
 30
0.0
 40
0.3
100
AcDbArc
 50
67.0
 51
147.459
  0
LINE
  5
2E73
330
18
100
AcDbEntity
  8
DISEGNO
100
AcDbLine
 10
1171.286168312788
 20
695.1516970672131
 30
0.0
 11
1170.616168312788
 21
695.4416970672131
 31
0.0
  0
ARC
  5
2E74
330
18
100
AcDbEntity
  8
DISEGNO
100
AcDbCircle
 10
1162.866168312788
 20
700.0316970672132
 30
0.0
 40
10.0
100
AcDbArc
 50
331.676
 51
342.324
  0
ARC
  5
2E75
330
18
100
AcDbEntity
  8
DISEGNO
100
AcDbCircle
 10
1162.866168312788
 20
700.0316970672132
 30
0.0
 40
8.75
100
AcDbArc
 50
346.541
 51
12.459
  0
LINE
  5
2E76
330
18
100
AcDbEntity
  8
DISEGNO
100
AcDbLine
 10
1197.869168312788
 20
706.2816970672132
 30
0.0
 11
1197.869168312788
 21
743.7816970672132
 31
0.0
  0
LINE
  5
2E77
330
18
100
AcDbEntity
  8
DISEGNO
100
AcDbLine
 10
1190.869168312788
 20
693.7816970672132
 30
0.0
 11
1190.869168312788
 21
689.5316970672133
 31
0.0
  0
ARC
  5
2E78
330
18
100
AcDbEntity
  8
DISEGNO
100
AcDbCircle
 10
1180.663895692226
 20
690.5316970672132
 30
0.0
 40
1.0
100
AcDbArc
 50
201.4312545038272
 51
270.0
  0
LINE
  5
2E79
330
18
100
AcDbEntity
  8
DISEGNO
100
AcDbLine
 10
1180.663895692226
 20
689.5316970672133
 30
0.0
 11
1190.869168312788
 21
689.5316970672133
 31
0.0
  0
ARC
  5
2E7A
330
18
100
AcDbEntity
  8
DISEGNO
100
AcDbCircle
 10
1176.42456659499
 20
687.8890852226381
 30
0.0
 40
1.0
100
AcDbArc
 50
45.00000000000015
 51
135.0000000000002
  0
LINE
  5
2E7B
330
18
100
AcDbEntity
  8
DISEGNO
100
AcDbLine
 10
1180.663895692226
 20
710.5316970672133
 30
0.0
 11
1190.869168312788
 21
710.5316970672133
 31
0.0
  0
ARC
  5
2E7C
330
18
100
AcDbEntity
  8
DISEGNO
100
AcDbCircle
 10
1186.369168312788
 20
722.0316970672132
 30
0.0
 40
4.0
100
AcDbArc
 50
270.0
 51
0.0
  0
ARC
  5
2E7D
330
18
100
AcDbEntity
  8
DISEGNO
100
AcDbCircle
 10
1181.369168312788
 20
709.5316970672132
 30
0.0
 40
8.5
100
AcDbArc
 50
90.0
 51
143.1309999999999
  0
ARC
  5
2E7E
330
18
100
AcDbEntity
  8
DISEGNO
100
AcDbCircle
 10
1180.663895692226
 20
709.5316970672132
 30
0.0
 40
1.0
100
AcDbArc
 50
90.0
 51
158.5687454961728
  0
LINE
  5
2E7F
330
18
100
AcDbEntity
  8
DISEGNO
100
AcDbLine
 10
1181.369168312788
 20
718.0316970672132
 30
0.0
 11
1186.369168312788
 21
718.0316970672132
 31
0.0
  0
ARC
  5
2E80
330
18
100
AcDbEntity
  8
DISEGNO
100
AcDbCircle
 10
1172.749324342982
 20
715.5316970672132
 30
0.0
 40
2.0
100
AcDbArc
 50
270.0
 51
325.1500954209534
  0
ARC
  5
2E81
330
18
100
AcDbEntity
  8
DISEGNO
100
AcDbCircle
 10
1204.866168312788
 20
700.0316970672132
 30
0.0
 40
27.0
100
AcDbArc
 50
158.5687454961729
 51
201.4312545038271
  0
LINE
  5
2E82
330
18
100
AcDbEntity
  8
DISEGNO
100
AcDbLine
 10
1190.869168312788
 20
710.5316970672133
 30
0.0
 11
1190.869168312788
 21
706.2816970672132
 31
0.0
  0
LINE
  5
2E83
330
18
100
AcDbEntity
  8
DISEGNO
100
AcDbLine
 10
1197.869168312788
 20
706.2816970672132
 30
0.0
 11
1190.869168312788
 21
706.2816970672132
 31
0.0
  0
LINE
  5
2E84
330
18
100
AcDbEntity
  8
DISEGNO
100
AcDbLine
 10
1190.869168312788
 20
693.7816970672132
 30
0.0
 11
1197.869168312788
 21
693.7816970672132
 31
0.0
  0
LINE
  5
2E85
330
18
100
AcDbEntity
  8
DISEGNO
100
AcDbLine
 10
1190.369168312788
 20
728.2816970672132
 30
0.0
 11
1190.369168312788
 21
722.0316970672132
 31
0.0
  0
LINE
  5
2E86
330
18
100
AcDbEntity
  8
ASSI
100
AcDbLine
 10
1202.078854024535
 20
700.0316970672132
 30
0.0
 11
1071.06114096349
 21
700.0316970672132
 31
0.0
  0
LINE
  5
2EA0
330
18
100
AcDbEntity
  8
DISEGNO
100
AcDbLine
 10
1176.116168312788
 20
885.0316969975487
 30
0.0
 11
1169.116168312788
 21
885.0316969975487
 31
0.0
  0
LINE
  5
2EA2
330
18
100
AcDbEntity
  8
DISEGNO
100
AcDbLine
 10
1149.366168312788
 20
850.0316970672132
 30
0.0
 11
1149.366168312788
 21
859.9148530974066
 31
0.0
  0
ARC
  5
2EA3
330
18
100
AcDbEntity
  8
DISEGNO
100
AcDbCircle
 10
1162.866168312788
 20
850.0316970672132
 30
0.0
 40
13.5
100
AcDbArc
 50
180.0
 51
270.0
  0
ARC
  5
2EA4
330
18
100
AcDbEntity
  8
DISEGNO
100
AcDbCircle
 10
1153.366168312788
 20
868.5316970672133
 30
0.0
 40
8.5
100
AcDbArc
 50
180.0
 51
233.1300000000001
  0
ARC
  5
2EA5
330
18
100
AcDbEntity
  8
DISEGNO
100
AcDbCircle
 10
1147.366168312788
 20
859.9148530974066
 30
0.0
 40
2.0
100
AcDbArc
 50
0.0
 51
55.15009542095281
  0
LINE
  5
2EA6
330
18
100
AcDbEntity
  8
DISEGNO
100
AcDbLine
 10
1149.366168312788
 20
850.0316970672132
 30
0.0
 11
1149.366168312788
 21
859.9148530974066
 31
0.0
  0
LINE
  5
2EA7
330
18
100
AcDbEntity
  8
DISEGNO
100
AcDbLine
 10
1106.616168312788
 20
885.0316970672132
 30
0.0
 11
1079.366168312788
 21
885.0316970672132
 31
0.0
  0
LINE
  5
2EE6
330
18
100
AcDbEntity
  8
ASSI
100
AcDbLine
 10
1176.724551546986
 20
677.2816970672132
 30
0.0
 11
1194.50778507859
 21
677.2816970672132
 31
0.0
  0
LINE
  5
2EE7
330
18
100
AcDbEntity
  8
ASSI
100
AcDbLine
 10
1185.616168312788
 20
668.3900803014111
 30
0.0
 11
1185.616168312788
 21
686.1733138330154
 31
0.0
  0
LINE
  5
2EEA
330
18
100
AcDbEntity
  8
ASSI
100
AcDbLine
 10
1099.00778507859
 20
677.2816970672132
 30
0.0
 11
1081.224551546986
 21
677.2816970672132
 31
0.0
  0
LINE
  5
2EEB
330
18
100
AcDbEntity
  8
ASSI
100
AcDbLine
 10
1090.116168312788
 20
668.3900803014111
 30
0.0
 11
1090.116168312788
 21
686.1733138330154
 31
0.0
  0
ENDSEC
  0
SECTION
  2
OBJECTS
  0
DICTIONARY
  5
C
330
0
100
AcDbDictionary
281
     1
  3
ACAD_COLOR
350
3817
  3
ACAD_GROUP
350
D
  3
ACAD_LAYOUT
350
371B
  3
ACAD_MATERIAL
350
3802
  3
ACAD_MLINESTYLE
350
1B
  3
ACAD_PLOTSETTINGS
350
371C
  3
ACAD_PLOTSTYLENAME
350
3719
  3
ACAD_TABLESTYLE
350
3818
  3
ACAD_VISUALSTYLE
350
3806
  3
AcDbVariableDictionary
350
3786
  3
AcmDictionary
350
373D
  3
AMG
350
3723
  3
AMGSNAPSETTINGS
350
3770
  3
ASE_INDEX_DICTIONARY
350
37AC
  3
DWGPROPS
350
38C0
  0
DICTIONARY
  5
3777
330
18
100
AcDbDictionary
280
     1
281
     1
  0
DICTIONARY
  5
3817
102
{ACAD_REACTORS
330
C
102
}
330
C
100
AcDbDictionary
281
     1
  0
DICTIONARY
  5
D
102
{ACAD_REACTORS
330
C
102
}
330
C
100
AcDbDictionary
281
     1
  3
*A1
350
1BA
  3
*A10
350
20D
  3
*A100
350
21B
  3
*A101
350
1F3
  3
*A102
350
208
  3
*A103
350
21C
  3
*A104
350
266
  3
*A105
350
1BE
  3
*A106
350
2CB
  3
*A107
350
267
  3
*A108
350
280
  3
*A109
350
19D3
  3
*A11
350
228
  3
*A110
350
268
  3
*A111
350
1985
  3
*A112
350
1A30
  3
*A113
350
3D8
  3
*A114
350
358
  3
*A115
350
2A2
  3
*A116
350
1992
  3
*A117
350
378
  3
*A118
350
1D7
  3
*A119
350
269
  3
*A12
350
19B2
  3
*A120
350
353
  3
*A121
350
26A
  3
*A122
350
1CD
  3
*A123
350
36E
  3
*A124
350
2F9
  3
*A125
350
2B5
  3
*A126
350
26B
  3
*A127
350
203
  3
*A128
350
1963
  3
*A129
350
1981
  3
*A13
350
1C8
  3
*A130
350
19EE
  3
*A131
350
287
  3
*A132
350
26C
  3
*A133
350
3DC
  3
*A134
350
329
  3
*A135
350
245
  3
*A136
350
19B4
  3
*A137
350
1EB
  3
*A138
350
25C
  3
*A139
350
1A2D
  3
*A14
350
20E
  3
*A140
350
1A34
  3
*A141
350
223
  3
*A142
350
206
  3
*A143
350
1CB
  3
*A144
350
1F4
  3
*A145
350
26D
  3
*A146
350
1A46
  3
*A147
350
195E
  3
*A148
350
23C
  3
*A149
350
379
  3
*A15
350
195C
  3
*A150
350
26E
  3
*A151
350
26F
  3
*A152
350
1A35
  3
*A153
350
270
  3
*A154
350
1962
  3
*A155
350
1A20
  3
*A156
350
271
  3
*A157
350
1966
  3
*A158
350
19B5
  3
*A159
350
362
  3
*A16
350
1A19
  3
*A160
350
2C9
  3
*A161
350
3BD
  3
*A162
350
1984
  3
*A163
350
19EF
  3
*A164
350
19A6
  3
*A165
350
3DD
  3
*A166
350
32E
  3
*A167
350
2FD
  3
*A168
350
2CD
  3
*A169
350
2F5
  3
*A17
350
3A7
  3
*A170
350
199F
  3
*A171
350
196C
  3
*A172
350
1D6
  3
*A173
350
1E0
  3
*A174
350
272
  3
*A175
350
2B6
  3
*A176
350
367
  3
*A177
350
19A0
  3
*A178
350
3CA
  3
*A179
350
1A47
  3
*A18
350
319
  3
*A180
350
2A9
  3
*A181
350
273
  3
*A182
350
327
  3
*A183
350
1E5
  3
*A184
350
1993
  3
*A185
350
19E5
  3
*A186
350
19D4
  3
*A187
350
37A
  3
*A188
350
392
  3
*A189
350
274
  3
*A19
350
24F
  3
*A190
350
1CA
  3
*A191
350
275
  3
*A192
350
2B7
  3
*A193
350
21F
  3
*A194
350
312
  3
*A195
350
2B8
  3
*A196
350
2CF
  3
*A197
350
19F0
  3
*A198
350
2B9
  3
*A199
350
19AA
  3
*A2
350
1A44
  3
*A20
350
196A
  3
*A200
350
391
  3
*A201
350
2ED
  3
*A202
350
19B6
  3
*A203
350
3AD
  3
*A204
350
236
  3
*A205
350
2BA
  3
*A206
350
38D
  3
*A207
350
2BB
  3
*A208
350
22D
  3
*A209
350
3A5
  3
*A21
350
33C
  3
*A210
350
2FE
  3
*A211
350
2BC
  3
*A212
350
25E
  3
*A213
350
198B
  3
*A214
350
19A7
  3
*A215
350
1A09
  3
*A216
350
2D5
  3
*A217
350
1D3
  3
*A218
350
196D
  3
*A219
350
1E4
  3
*A22
350
299
  3
*A220
350
19D5
  3
*A221
350
248
  3
*A222
350
2AE
  3
*A223
350
1A41
  3
*A224
350
20A
  3
*A225
350
27B
  3
*A226
350
261
  3
*A227
350
22B
  3
*A228
350
250
  3
*A229
350
2BD
  3
*A23
350
20F
  3
*A230
350
1987
  3
*A231
350
291
  3
*A232
350
3AE
  3
*A233
350
2BE
  3
*A234
350
2BF
  3
*A235
350
1A48
  3
*A236
350
2C0
  3
*A237
350
198A
  3
*A238
350
1A36
  3
*A239
350
2C1
  3
*A24
350
198E
  3
*A240
350
19D6
  3
*A241
350
39A
  3
*A242
350
310
  3
*A243
350
1951
  3
*A244
350
19A9
  3
*A245
350
1A0A
  3
*A246
350
19C8
  3
*A247
350
196E
  3
*A248
350
36B
  3
*A249
350
33F
  3
*A25
350
314
  3
*A250
350
338
  3
*A251
350
19C2
  3
*A252
350
1F8
  3
*A253
350
235
  3
*A254
350
23E
  3
*A255
350
2C2
  3
*A256
350
2FF
  3
*A257
350
39F
  3
*A258
350
19C3
  3
*A259
350
195D
  3
*A26
350
210
  3
*A260
350
2F3
  3
*A261
350
2C3
  3
*A262
350
365
  3
*A263
350
243
  3
*A264
350
19B7
  3
*A265
350
1A01
  3
*A266
350
19F1
  3
*A267
350
3AF
  3
*A268
350
3C5
  3
*A269
350
2C4
  3
*A27
350
22A
  3
*A270
350
2C5
  3
*A271
350
300
  3
*A272
350
277
  3
*A273
350
352
  3
*A274
350
301
  3
*A275
350
316
  3
*A276
350
1A0B
  3
*A277
350
302
  3
*A278
350
19CC
  3
*A279
350
3C4
  3
*A28
350
331
  3
*A280
350
19D7
  3
*A281
350
1943
  3
*A282
350
28B
  3
*A283
350
1DA
  3
*A284
350
1ED
  3
*A285
350
303
  3
*A286
350
283
  3
*A287
350
3D6
  3
*A288
350
340
  3
*A289
350
304
  3
*A29
350
2B0
  3
*A290
350
19B0
  3
*A291
350
19C9
  3
*A292
350
1A21
  3
*A293
350
31B
  3
*A294
350
232
  3
*A295
350
1994
  3
*A296
350
242
  3
*A297
350
19F2
  3
*A298
350
29C
  3
*A299
350
2F8
  3
*A3
350
1A53
  3
*A30
350
264
  3
*A300
350
2CA
  3
*A301
350
1D2
  3
*A302
350
281
  3
*A303
350
2A3
  3
*A304
350
305
  3
*A305
350
19AC
  3
*A306
350
2DE
  3
*A307
350
1F0
  3
*A308
350
306
  3
*A309
350
307
  3
*A31
350
211
  3
*A310
350
308
  3
*A311
350
19AF
  3
*A312
350
1A49
  3
*A313
350
309
  3
*A314
350
19F3
  3
*A315
350
3CC
  3
*A316
350
350
  3
*A317
350
197B
  3
*A318
350
19CB
  3
*A319
350
1A22
  3
*A32
350
19E6
  3
*A320
350
1995
  3
*A321
350
1EA
  3
*A322
350
1E6
  3
*A323
350
374
  3
*A324
350
19E1
  3
*A325
350
254
  3
*A326
350
1CE
  3
*A327
350
293
  3
*A328
350
30A
  3
*A329
350
341
  3
*A33
350
3D1
  3
*A330
350
19E2
  3
*A331
350
1986
  3
*A332
350
336
  3
*A333
350
30B
  3
*A334
350
39D
  3
*A335
350
297
  3
*A336
350
19D8
  3
*A337
350
1A1A
  3
*A338
350
204
  3
*A339
350
1944
  3
*A34
350
1958
  3
*A340
350
30C
  3
*A341
350
1DB
  3
*A342
350
342
  3
*A343
350
1D4
  3
*A344
350
38C
  3
*A345
350
343
  3
*A346
350
355
  3
*A347
350
1A23
  3
*A348
350
344
  3
*A349
350
19EA
  3
*A35
350
1F2
  3
*A350
350
19F4
  3
*A351
350
196F
  3
*A352
350
2D9
  3
*A353
350
239
  3
*A354
350
24A
  3
*A355
350
345
  3
*A356
350
2D1
  3
*A357
350
1968
  3
*A358
350
37B
  3
*A359
350
346
  3
*A36
350
19D1
  3
*A360
350
19E7
  3
*A361
350
1A37
  3
*A362
350
35A
  3
*A363
350
288
  3
*A364
350
19B8
  3
*A365
350
296
  3
*A366
350
1A0C
  3
*A367
350
2E7
  3
*A368
350
33B
  3
*A369
350
311
  3
*A37
350
231
  3
*A370
350
2D0
  3
*A371
350
2EE
  3
*A372
350
347
  3
*A373
350
19CE
  3
*A374
350
323
  3
*A375
350
24D
  3
*A376
350
348
  3
*A377
350
1BD
  3
*A378
350
1E1
  3
*A379
350
19D0
  3
*A38
350
212
  3
*A380
350
349
  3
*A381
350
1A0D
  3
*A382
350
195F
  3
*A383
350
38A
  3
*A384
350
19A1
  3
*A385
350
19E9
  3
*A386
350
1A38
  3
*A387
350
19B9
  3
*A388
350
247
  3
*A389
350
244
  3
*A39
350
3AB
  3
*A390
350
19FD
  3
*A391
350
2A7
  3
*A392
350
22E
  3
*A393
350
2E0
  3
*A394
350
34A
  3
*A395
350
37C
  3
*A396
350
19FE
  3
*A397
350
19AB
  3
*A398
350
372
  3
*A399
350
34B
  3
*A4
350
3CF
  3
*A40
350
2E4
  3
*A400
350
19F5
  3
*A401
350
1A31
  3
*A402
350
25F
  3
*A403
350
1970
  3
*A404
350
34C
  3
*A405
350
23A
  3
*A406
350
37D
  3
*A407
350
233
  3
*A408
350
3C0
  3
*A409
350
37E
  3
*A41
350
1E8
  3
*A410
350
1A39
  3
*A411
350
37F
  3
*A412
350
1A05
  3
*A413
350
1A0E
  3
*A414
350
1996
  3
*A415
350
31F
  3
*A416
350
28E
  3
*A417
350
29E
  3
*A418
350
380
  3
*A419
350
317
  3
*A42
350
1990
  3
*A420
350
3B0
  3
*A421
350
381
  3
*A422
350
1A02
  3
*A423
350
1A4A
  3
*A424
350
393
  3
*A425
350
2D6
  3
*A426
350
19D9
  3
*A427
350
2E3
  3
*A428
350
1A24
  3
*A429
350
32B
  3
*A43
350
377
  3
*A430
350
351
  3
*A431
350
1DC
  3
*A432
350
332
  3
*A433
350
382
  3
*A434
350
19EC
  3
*A435
350
361
  3
*A436
350
2A0
  3
*A437
350
383
  3
*A438
350
21E
  3
*A439
350
23F
  3
*A44
350
201
  3
*A440
350
384
  3
*A441
350
1A25
  3
*A442
350
1988
  3
*A443
350
3BE
  3
*A444
350
19C4
  3
*A445
350
1A04
  3
*A446
350
1A4B
  3
*A447
350
1C0
  3
*A448
350
29B
  3
*A449
350
298
  3
*A45
350
1A16
  3
*A450
350
2F1
  3
*A451
350
284
  3
*A452
350
325
  3
*A453
350
1E7
  3
*A454
350
3B1
  3
*A455
350
1A17
  3
*A456
350
19CD
  3
*A457
350
3A9
  3
*A458
350
385
  3
*A459
350
1A0F
  3
*A46
350
1A45
  3
*A460
350
2B1
  3
*A461
350
1997
  3
*A462
350
386
  3
*A463
350
28F
  3
*A464
350
3B2
  3
*A465
350
289
  3
*A466
350
1954
  3
*A467
350
3B3
  3
*A468
350
1A4C
  3
*A469
350
3B4
  3
*A47
350
1A1E
  3
*A470
350
1A26
  3
*A471
350
19BA
  3
*A472
350
35D
  3
*A473
350
2DB
  3
*A474
350
2E9
  3
*A475
350
3B5
  3
*A476
350
356
  3
*A477
350
1945
  3
*A478
350
3B6
  3
*A479
350
1A1B
  3
*A48
350
1C2
  3
*A480
350
3C6
  3
*A481
350
31C
  3
*A482
350
19F6
  3
*A483
350
328
  3
*A484
350
1A3A
  3
*A485
350
368
  3
*A486
350
38B
  3
*A487
350
1C6
  3
*A488
350
36F
  3
*A489
350
1EC
  3
*A49
350
1A07
  3
*A490
350
399
  3
*A491
350
2EB
  3
*A492
350
3B7
  3
*A493
350
1CC
  3
*A494
350
294
  3
*A495
350
3B8
  3
*A496
350
1A3B
  3
*A497
350
19AD
  3
*A498
350
1952
  3
*A499
350
19E3
  3
*A5
350
1A1D
  3
*A50
350
213
  3
*A500
350
221
  3
*A501
350
2E6
  3
*A502
350
1BC
  3
*A503
350
1DF
  3
*A504
350
2D2
  3
*A505
350
363
  3
*A506
350
1C7
  3
*A507
350
1946
  3
*A508
350
1A2E
  3
*A509
350
19EB
  3
*A51
350
3DA
  3
*A510
350
3B9
  3
*A511
350
1A27
  3
*A512
350
2FA
  3
*A513
350
19BB
  3
*A514
350
3BA
  3
*A515
350
2DC
  3
*A516
350
1947
  3
*A517
350
2D7
  3
*A518
350
197E
  3
*A519
350
1948
  3
*A52
350
214
  3
*A520
350
1949
  3
*A521
350
1A3C
  3
*A522
350
1FF
  3
*A523
350
396
  3
*A524
350
1DD
  3
*A525
350
32D
  3
*A526
350
194A
  3
*A527
350
38F
  3
*A528
350
1971
  3
*A529
350
194B
  3
*A53
350
1A32
  3
*A530
350
1959
  3
*A531
350
35B
  3
*A532
350
1A10
  3
*A533
350
366
  3
*A534
350
1A4D
  3
*A535
350
3A0
  3
*A536
350
3BF
  3
*A537
350
1C4
  3
*A538
350
3A6
  3
*A539
350
249
  3
*A54
350
3CB
  3
*A540
350
32F
  3
*A541
350
194C
  3
*A542
350
22C
  3
*A543
350
2E1
  3
*A544
350
194D
  3
*A545
350
1A4E
  3
*A546
350
19CF
  3
*A547
350
197C
  3
*A548
350
19FF
  3
*A549
350
279
  3
*A55
350
1DE
  3
*A550
350
21D
  3
*A551
350
23D
  3
*A552
350
318
  3
*A553
350
39B
  3
*A554
350
227
  3
*A555
350
1972
  3
*A556
350
1A42
  3
*A557
350
1A06
  3
*A558
350
1F1
  3
*A559
350
1A3D
  3
*A56
350
33D
  3
*A560
350
19DA
  3
*A561
350
194E
  3
*A562
350
321
  3
*A563
350
1973
  3
*A564
350
31D
  3
*A565
350
19A4
  3
*A566
350
1974
  3
*A567
350
1975
  3
*A568
350
1A4F
  3
*A569
350
25A
  3
*A57
350
3C9
  3
*A570
350
23B
  3
*A571
350
36A
  3
*A572
350
1BF
  3
*A573
350
3C2
  3
*A574
350
1998
  3
*A575
350
1F5
  3
*A576
350
1982
  3
*A577
350
394
  3
*A578
350
1A28
  3
*A579
350
39E
  3
*A58
350
215
  3
*A580
350
3D2
  3
*A581
350
1953
  3
*A582
350
225
  3
*A583
350
3D7
  3
*A584
350
29D
  3
*A585
350
36C
  3
*A586
350
1976
  3
*A587
350
282
  3
*A588
350
326
  3
*A589
350
1977
  3
*A59
350
216
  3
*A590
350
19ED
  3
*A591
350
19A2
  3
*A592
350
1A18
  3
*A593
350
2C8
  3
*A594
350
276
  3
*A595
350
292
  3
*A596
350
357
  3
*A597
350
3CD
  3
*A598
350
27F
  3
*A599
350
1999
  3
*A6
350
1A54
  3
*A60
350
1A1F
  3
*A600
350
24E
  3
*A601
350
1A50
  3
*A602
350
19F7
  3
*A603
350
1978
  3
*A604
350
35F
  3
*A605
350
199A
  3
*A606
350
35C
  3
*A607
350
19C6
  3
*A608
350
199B
  3
*A609
350
199C
  3
*A61
350
217
  3
*A610
350
2AC
  3
*A611
350
290
  3
*A612
350
3A2
  3
*A613
350
220
  3
*A614
350
1956
  3
*A615
350
1FC
  3
*A616
350
251
  3
*A617
350
1FA
  3
*A618
350
3C7
  3
*A619
350
1C1
  3
*A62
350
3D0
  3
*A620
350
1964
  3
*A621
350
197D
  3
*A622
350
27D
  3
*A623
350
1969
  3
*A624
350
2E8
  3
*A625
350
3A3
  3
*A626
350
199D
  3
*A627
350
1D5
  3
*A628
350
364
  3
*A629
350
1F9
  3
*A63
350
1A08
  3
*A630
350
19C5
  3
*A631
350
1A2F
  3
*A632
350
30F
  3
*A633
350
2C6
  3
*A634
350
2DF
  3
*A635
350
390
  3
*A636
350
1960
  3
*A637
350
2CE
  3
*A638
350
19BC
  3
*A639
350
2A1
  3
*A64
350
218
  3
*A640
350
1A11
  3
*A641
350
199E
  3
*A642
350
398
  3
*A643
350
19BD
  3
*A644
350
395
  3
*A645
350
19E4
  3
*A646
350
19BE
  3
*A647
350
19BF
  3
*A648
350
2F6
  3
*A649
350
2DD
  3
*A65
350
3D4
  3
*A650
350
278
  3
*A651
350
1F6
  3
*A652
350
258
  3
*A653
350
2A4
  3
*A654
350
256
  3
*A655
350
195A
  3
*A656
350
222
  3
*A657
350
198C
  3
*A658
350
19A3
  3
*A659
350
2CC
  3
*A66
350
1991
  3
*A660
350
32C
  3
*A661
350
1EF
  3
*A662
350
19C0
  3
*A663
350
234
  3
*A664
350
39C
  3
*A665
350
255
  3
*A666
350
200
  3
*A667
350
1A43
  3
*A668
350
34F
  3
*A669
350
30D
  3
*A67
350
324
  3
*A670
350
3C3
  3
*A671
350
1989
  3
*A672
350
315
  3
*A673
350
19DB
  3
*A674
350
2EC
  3
*A675
350
1A29
  3
*A676
350
19C1
  3
*A677
350
1EE
  3
*A678
350
19DC
  3
*A679
350
3C8
  3
*A68
350
1A00
  3
*A680
350
19DD
  3
*A681
350
19DE
  3
*A682
350
339
  3
*A683
350
322
  3
*A684
350
2C7
  3
*A685
350
252
  3
*A686
350
2AA
  3
*A687
350
1D8
  3
*A688
350
1D1
  3
*A689
350
1983
  3
*A69
350
27A
  3
*A690
350
19B1
  3
*A691
350
1FD
  3
*A692
350
313
  3
*A693
350
369
  3
*A694
350
24C
  3
*A695
350
19DF
  3
*A696
350
28A
  3
*A697
350
3CE
  3
*A698
350
2A8
  3
*A699
350
25B
  3
*A7
350
20C
  3
*A70
350
389
  3
*A700
350
34D
  3
*A701
350
1957
  3
*A702
350
19AE
  3
*A703
350
354
  3
*A704
350
202
  3
*A705
350
330
  3
*A706
350
209
  3
*A707
350
19E0
  3
*A708
350
24B
  3
*A709
350
19F8
  3
*A71
350
195B
  3
*A710
350
19F9
  3
*A711
350
19FA
  3
*A712
350
375
  3
*A713
350
360
  3
*A714
350
30E
  3
*A715
350
2A5
  3
*A716
350
2F4
  3
*A717
350
237
  3
*A718
350
1C5
  3
*A719
350
19A8
  3
*A72
350
19D2
  3
*A720
350
1C9
  3
*A721
350
1E2
  3
*A722
350
3A1
  3
*A723
350
29F
  3
*A724
350
19FB
  3
*A725
350
2D8
  3
*A726
350
1961
  3
*A727
350
2F2
  3
*A728
350
2AD
  3
*A729
350
387
  3
*A73
350
1980
  3
*A730
350
1FE
  3
*A731
350
38E
  3
*A732
350
25D
  3
*A733
350
36D
  3
*A734
350
263
  3
*A735
350
19FC
  3
*A736
350
1D0
  3
*A737
350
1A12
  3
*A738
350
1A13
  3
*A739
350
1A14
  3
*A74
350
3AC
  3
*A740
350
1E9
  3
*A741
350
34E
  3
*A742
350
2EF
  3
*A743
350
337
  3
*A744
350
28C
  3
*A745
350
226
  3
*A746
350
19CA
  3
*A747
350
229
  3
*A748
350
240
  3
*A749
350
3D3
  3
*A75
350
2EA
  3
*A750
350
1A15
  3
*A751
350
31E
  3
*A752
350
1F7
  3
*A753
350
335
  3
*A754
350
2F7
  3
*A755
350
3BB
  3
*A756
350
259
  3
*A757
350
3C1
  3
*A758
350
2AF
  3
*A759
350
3A4
  3
*A76
350
2B4
  3
*A760
350
205
  3
*A761
350
230
  3
*A762
350
207
  3
*A763
350
1A2A
  3
*A764
350
1A2B
  3
*A765
350
246
  3
*A766
350
388
  3
*A767
350
333
  3
*A768
350
373
  3
*A769
350
2DA
  3
*A77
350
27E
  3
*A770
350
19E8
  3
*A771
350
1BB
  3
*A772
350
1CF
  3
*A773
350
1965
  3
*A774
350
1A2C
  3
*A775
350
1E3
  3
*A776
350
253
  3
*A777
350
371
  3
*A778
350
33A
  3
*A779
350
194F
  3
*A78
350
2AB
  3
*A780
350
1955
  3
*A781
350
1D9
  3
*A782
350
3D5
  3
*A783
350
260
  3
*A784
350
286
  3
*A785
350
262
  3
*A786
350
1A3E
  3
*A787
350
1A3F
  3
*A788
350
29A
  3
*A789
350
3BC
  3
*A79
350
370
  3
*A790
350
3AA
  3
*A791
350
320
  3
*A792
350
1A03
  3
*A793
350
1C3
  3
*A794
350
22F
  3
*A795
350
198D
  3
*A796
350
1A40
  3
*A797
350
241
  3
*A798
350
2A6
  3
*A799
350
3A8
  3
*A8
350
376
  3
*A80
350
1979
  3
*A800
350
197F
  3
*A801
350
238
  3
*A802
350
1967
  3
*A803
350
2B2
  3
*A804
350
2D4
  3
*A805
350
2B3
  3
*A806
350
1A51
  3
*A807
350
20B
  3
*A808
350
2E5
  3
*A809
350
1950
  3
*A81
350
3DB
  3
*A810
350
35E
  3
*A811
350
1A1C
  3
*A812
350
224
  3
*A813
350
285
  3
*A814
350
1FB
  3
*A815
350
1A52
  3
*A816
350
295
  3
*A817
350
2F0
  3
*A818
350
3D9
  3
*A819
350
19A5
  3
*A82
350
28D
  3
*A820
350
198F
  3
*A821
350
2FB
  3
*A822
350
31A
  3
*A83
350
2FC
  3
*A84
350
219
  3
*A85
350
265
  3
*A86
350
32A
  3
*A87
350
197A
  3
*A88
350
397
  3
*A89
350
1A33
  3
*A9
350
27C
  3
*A90
350
2D3
  3
*A91
350
257
  3
*A92
350
21A
  3
*A93
350
2E2
  3
*A94
350
334
  3
*A95
350
196B
  3
*A96
350
19C7
  3
*A97
350
19B3
  3
*A98
350
33E
  3
*A99
350
359
  0
DICTIONARY
  5
371B
102
{ACAD_REACTORS
330
C
102
}
330
C
100
AcDbDictionary
281
     1
  3
Layout1
350
371E
  3
Model
350
371D
  0
DICTIONARY
  5
3802
102
{ACAD_REACTORS
330
C
102
}
330
C
100
AcDbDictionary
281
     1
  3
ByBlock
350
3804
  3
ByLayer
350
3803
  3
Global
350
3805
  0
DICTIONARY
  5
1B
102
{ACAD_REACTORS
330
C
102
}
330
C
100
AcDbDictionary
281
     1
  3
STANDARD
350
1C
  0
DICTIONARY
  5
371C
102
{ACAD_REACTORS
330
C
102
}
330
C
100
AcDbDictionary
281
     1
  0
ACDBDICTIONARYWDFLT
  5
3719
102
{ACAD_REACTORS
330
C
102
}
330
C
100
AcDbDictionary
281
     1
  3
Normal
350
371A
100
AcDbDictionaryWithDefault
340
371A
  0
DICTIONARY
  5
3818
102
{ACAD_REACTORS
330
C
102
}
330
C
100
AcDbDictionary
281
     1
  3
Standard
350
3819
  0
DICTIONARY
  5
3806
102
{ACAD_REACTORS
330
C
102
}
330
C
100
AcDbDictionary
281
     1
  3
2dWireframe
350
380C
  3
Basic
350
380B
  3
Brighten
350
3812
  3
ColorChange
350
3816
  3
Dim
350
3811
  3
Facepattern
350
3815
  3
Flat
350
3807
  3
FlatWithEdges
350
3808
  3
Gouraud
350
3809
  3
GouraudWithEdges
350
380A
  3
Linepattern
350
3814
  3
Thicken
350
3813
  0
DICTIONARY
  5
3786
102
{ACAD_REACTORS
330
C
102
}
330
C
100
AcDbDictionary
281
     1
  3
CTABLESTYLE
350
38BE
  3
DIMASSOC
350
3788
  3
INDEXCTL
350
3787
  3
SORTENTS
350
38BF
  0
DICTIONARY
  5
373D
102
{ACAD_REACTORS
330
C
102
}
330
C
100
AcDbDictionary
281
     1
  3
AcmStdDictionary
350
3743
  3
AMDTSECTSYM_ARROWCOLOR
350
386D
  0
DICTIONARY
  5
3723
102
{ACAD_REACTORS
330
C
102
}
330
C
100
AcDbDictionary
281
     1
  0
DICTIONARY
  5
3770
102
{ACAD_REACTORS
330
C
102
}
330
C
100
AcDbDictionary
281
     1
  0
DICTIONARY
  5
37AC
102
{ACAD_REACTORS
330
C
102
}
330
C
100
AcDbDictionary
281
     1
  3
ASEBlockHierarchyIndexRecord
350
37AE
1001
DCO15
1040
1483783286.569
  0
XRECORD
  5
38C0
102
{ACAD_REACTORS
330
C
102
}
330
C
100
AcDbXrecord
280
     1
  1
DWGPROPS COOKIE
  2

  3

  4

  6

  7

  8
fcerrato
  9

300
AmdtFileType=84
301
=
302
=
303
=
304
=
305
=
306
=
307
=
308
=
309
=
 40
0.4157109375
 41
2451351.388900973
 42
2454372.406465984
  1

 90
        1
  0
GROUP
  5
1BA
102
{ACAD_REACTORS
330
D
102
}
330
D
100
AcDbGroup
300
Vite UNI 5931 M8X25
 70
     1
 71
     1
  0
GROUP
  5
20D
102
{ACAD_REACTORS
330
D
102
}
330
D
100
AcDbGroup
300
Vite UNI 5933 M6X16
 70
     3
 71
     1
  0
GROUP
  5
21B
102
{ACAD_REACTORS
330
D
102
}
330
D
100
AcDbGroup
300
Vite UNI 5933 M6X16
 70
     3
 71
     1
  0
GROUP
  5
1F3
102
{ACAD_REACTORS
330
D
102
}
330
D
100
AcDbGroup
300
Vite UNI 5931 M8X25
 70
     3
 71
     1
  0
GROUP
  5
208
102
{ACAD_REACTORS
330
D
102
}
330
D
100
AcDbGroup
300
Vite UNI 5933 M6X16
 70
     1
 71
     1
  0
GROUP
  5
21C
102
{ACAD_REACTORS
330
D
102
}
330
D
100
AcDbGroup
300

 70
     1
 71
     1
  0
GROUP
  5
266
102
{ACAD_REACTORS
330
D
102
}
330
D
100
AcDbGroup
300

 70
     3
 71
     1
  0
GROUP
  5
1BE
102
{ACAD_REACTORS
330
D
102
}
330
D
100
AcDbGroup
300

 70
     3
 71
     1
  0
GROUP
  5
2CB
102
{ACAD_REACTORS
330
D
102
}
330
D
100
AcDbGroup
300
Vite UNI 5933 M6X16
 70
     3
 71
     1
  0
GROUP
  5
267
102
{ACAD_REACTORS
330
D
102
}
330
D
100
AcDbGroup
300

 70
     3
 71
     1
  0
GROUP
  5
280
102
{ACAD_REACTORS
330
D
102
}
330
D
100
AcDbGroup
300

 70
     3
 71
     1
  0
GROUP
  5
19D3
102
{ACAD_REACTORS
330
D
102
}
330
D
100
AcDbGroup
300
Ghiera KM4
 70
     3
 71
     1
  0
GROUP
  5
228
102
{ACAD_REACTORS
330
D
102
}
330
D
100
AcDbGroup
300

 70
     3
 71
     1
  0
GROUP
  5
268
102
{ACAD_REACTORS
330
D
102
}
330
D
100
AcDbGroup
300

 70
     3
 71
     1
  0
GROUP
  5
1985
102
{ACAD_REACTORS
330
D
102
}
330
D
100
AcDbGroup
300

 70
     3
 71
     1
  0
GROUP
  5
1A30
102
{ACAD_REACTORS
330
D
102
}
330
D
100
AcDbGroup
300

 70
     3
 71
     1
  0
GROUP
  5
3D8
102
{ACAD_REACTORS
330
D
102
}
330
D
100
AcDbGroup
300

 70
     3
 71
     1
  0
GROUP
  5
358
102
{ACAD_REACTORS
330
D
102
}
330
D
100
AcDbGroup
300

 70
     3
 71
     1
  0
GROUP
  5
2A2
102
{ACAD_REACTORS
330
D
102
}
330
D
100
AcDbGroup
300

 70
     1
 71
     1
  0
GROUP
  5
1992
102
{ACAD_REACTORS
330
D
102
}
330
D
100
AcDbGroup
300

 70
     3
 71
     1
  0
GROUP
  5
378
102
{ACAD_REACTORS
330
D
102
}
330
D
100
AcDbGroup
300
Vite UNI 5933 M6X16
 70
     3
 71
     1
  0
GROUP
  5
1D7
102
{ACAD_REACTORS
330
D
102
}
330
D
100
AcDbGroup
300

 70
     1
 71
     1
  0
GROUP
  5
269
102
{ACAD_REACTORS
330
D
102
}
330
D
100
AcDbGroup
300

 70
     1
 71
     1
  0
GROUP
  5
19B2
102
{ACAD_REACTORS
330
D
102
}
330
D
100
AcDbGroup
300

 70
     3
 71
     1
  0
GROUP
  5
353
102
{ACAD_REACTORS
330
D
102
}
330
D
100
AcDbGroup
300

 70
     1
 71
     1
  0
GROUP
  5
26A
102
{ACAD_REACTORS
330
D
102
}
330
D
100
AcDbGroup
300
Vite UNI 5931 M8X25
 70
     3
 71
     1
  0
GROUP
  5
1CD
102
{ACAD_REACTORS
330
D
102
}
330
D
100
AcDbGroup
300
Ghiera autofrenante M20x1
 70
     1
 71
     1
  0
GROUP
  5
36E
102
{ACAD_REACTORS
330
D
102
}
330
D
100
AcDbGroup
300

 70
     3
 71
     1
  0
GROUP
  5
2F9
102
{ACAD_REACTORS
330
D
102
}
330
D
100
AcDbGroup
300
Ghiera autofrenante M20x1
 70
     3
 71
     1
  0
GROUP
  5
2B5
102
{ACAD_REACTORS
330
D
102
}
330
D
100
AcDbGroup
300

 70
     3
 71
     1
  0
GROUP
  5
26B
102
{ACAD_REACTORS
330
D
102
}
330
D
100
AcDbGroup
300

 70
     1
 71
     1
  0
GROUP
  5
203
102
{ACAD_REACTORS
330
D
102
}
330
D
100
AcDbGroup
300

 70
     3
 71
     1
  0
GROUP
  5
1963
102
{ACAD_REACTORS
330
D
102
}
330
D
100
AcDbGroup
300

 70
     3
 71
     1
  0
GROUP
  5
1981
102
{ACAD_REACTORS
330
D
102
}
330
D
100
AcDbGroup
300

 70
     3
 71
     1
  0
GROUP
  5
1C8
102
{ACAD_REACTORS
330
D
102
}
330
D
100
AcDbGroup
300

 70
     1
 71
     1
  0
GROUP
  5
19EE
102
{ACAD_REACTORS
330
D
102
}
330
D
100
AcDbGroup
300
Vite UNI 5933 M6X16
 70
     3
 71
     1
  0
GROUP
  5
287
102
{ACAD_REACTORS
330
D
102
}
330
D
100
AcDbGroup
300

 70
     1
 71
     1
  0
GROUP
  5
26C
102
{ACAD_REACTORS
330
D
102
}
330
D
100
AcDbGroup
300

 70
     1
 71
     1
  0
GROUP
  5
3DC
102
{ACAD_REACTORS
330
D
102
}
330
D
100
AcDbGroup
300

 70
     3
 71
     1
  0
GROUP
  5
329
102
{ACAD_REACTORS
330
D
102
}
330
D
100
AcDbGroup
300

 70
     1
 71
     1
  0
GROUP
  5
245
102
{ACAD_REACTORS
330
D
102
}
330
D
100
AcDbGroup
300

 70
     1
 71
     1
  0
GROUP
  5
19B4
102
{ACAD_REACTORS
330
D
102
}
330
D
100
AcDbGroup
300

 70
     1
 71
     1
  0
GROUP
  5
1EB
102
{ACAD_REACTORS
330
D
102
}
330
D
100
AcDbGroup
300

 70
     3
 71
     1
  0
GROUP
  5
25C
102
{ACAD_REACTORS
330
D
102
}
330
D
100
AcDbGroup
300

 70
     1
 71
     1
  0
GROUP
  5
1A2D
102
{ACAD_REACTORS
330
D
102
}
330
D
100
AcDbGroup
300

 70
     3
 71
     1
  0
GROUP
  5
20E
102
{ACAD_REACTORS
330
D
102
}
330
D
100
AcDbGroup
300
Rosetta UNI 1751 A 3.1
 70
     1
 71
     1
  0
GROUP
  5
1A34
102
{ACAD_REACTORS
330
D
102
}
330
D
100
AcDbGroup
300
Vite UNI 5933 M6X16
 70
     3
 71
     1
  0
GROUP
  5
223
102
{ACAD_REACTORS
330
D
102
}
330
D
100
AcDbGroup
300
Vite UNI 5933 M6X16
 70
     3
 71
     1
  0
GROUP
  5
206
102
{ACAD_REACTORS
330
D
102
}
330
D
100
AcDbGroup
300

 70
     1
 71
     1
  0
GROUP
  5
1CB
102
{ACAD_REACTORS
330
D
102
}
330
D
100
AcDbGroup
300

 70
     3
 71
     1
  0
GROUP
  5
1F4
102
{ACAD_REACTORS
330
D
102
}
330
D
100
AcDbGroup
300

 70
     1
 71
     1
  0
GROUP
  5
26D
102
{ACAD_REACTORS
330
D
102
}
330
D
100
AcDbGroup
300

 70
     3
 71
     1
  0
GROUP
  5
1A46
102
{ACAD_REACTORS
330
D
102
}
330
D
100
AcDbGroup
300

 70
     3
 71
     1
  0
GROUP
  5
195E
102
{ACAD_REACTORS
330
D
102
}
330
D
100
AcDbGroup
300
Rosetta UNI 1751 A 3.1
 70
     1
 71
     1
  0
GROUP
  5
23C
102
{ACAD_REACTORS
330
D
102
}
330
D
100
AcDbGroup
300

 70
     3
 71
     1
  0
GROUP
  5
379
102
{ACAD_REACTORS
330
D
102
}
330
D
100
AcDbGroup
300
Vite UNI 5933 M6X16
 70
     3
 71
     1
  0
GROUP
  5
195C
102
{ACAD_REACTORS
330
D
102
}
330
D
100
AcDbGroup
300

 70
     1
 71
     1
  0
GROUP
  5
26E
102
{ACAD_REACTORS
330
D
102
}
330
D
100
AcDbGroup
300

 70
     3
 71
     1
  0
GROUP
  5
26F
102
{ACAD_REACTORS
330
D
102
}
330
D
100
AcDbGroup
300

 70
     3
 71
     1
  0
GROUP
  5
1A35
102
{ACAD_REACTORS
330
D
102
}
330
D
100
AcDbGroup
300

 70
     1
 71
     1
  0
GROUP
  5
270
102
{ACAD_REACTORS
330
D
102
}
330
D
100
AcDbGroup
300
Vite UNI 5931 M8X25
 70
     3
 71
     1
  0
GROUP
  5
1962
102
{ACAD_REACTORS
330
D
102
}
330
D
100
AcDbGroup
300

 70
     3
 71
     1
  0
GROUP
  5
1A20
102
{ACAD_REACTORS
330
D
102
}
330
D
100
AcDbGroup
300

 70
     3
 71
     1
  0
GROUP
  5
271
102
{ACAD_REACTORS
330
D
102
}
330
D
100
AcDbGroup
300
Vite UNI 5933 M6X16
 70
     3
 71
     1
  0
GROUP
  5
1966
102
{ACAD_REACTORS
330
D
102
}
330
D
100
AcDbGroup
300

 70
     3
 71
     1
  0
GROUP
  5
19B5
102
{ACAD_REACTORS
330
D
102
}
330
D
100
AcDbGroup
300

 70
     1
 71
     1
  0
GROUP
  5
362
102
{ACAD_REACTORS
330
D
102
}
330
D
100
AcDbGroup
300
Vite UNI 5931 M8X25
 70
     1
 71
     1
  0
GROUP
  5
1A19
102
{ACAD_REACTORS
330
D
102
}
330
D
100
AcDbGroup
300

 70
     3
 71
     1
  0
GROUP
  5
2C9
102
{ACAD_REACTORS
330
D
102
}
330
D
100
AcDbGroup
300

 70
     3
 71
     1
  0
GROUP
  5
3BD
102
{ACAD_REACTORS
330
D
102
}
330
D
100
AcDbGroup
300
Vite UNI 5933 M6X16
 70
     3
 71
     1
  0
GROUP
  5
1984
102
{ACAD_REACTORS
330
D
102
}
330
D
100
AcDbGroup
300

 70
     3
 71
     1
  0
GROUP
  5
19EF
102
{ACAD_REACTORS
330
D
102
}
330
D
100
AcDbGroup
300

 70
     3
 71
     1
  0
GROUP
  5
19A6
102
{ACAD_REACTORS
330
D
102
}
330
D
100
AcDbGroup
300
Vite UNI 5931 M8X25
 70
     3
 71
     1
  0
GROUP
  5
3DD
102
{ACAD_REACTORS
330
D
102
}
330
D
100
AcDbGroup
300

 70
     3
 71
     1
  0
GROUP
  5
32E
102
{ACAD_REACTORS
330
D
102
}
330
D
100
AcDbGroup
300

 70
     1
 71
     1
  0
GROUP
  5
2FD
102
{ACAD_REACTORS
330
D
102
}
330
D
100
AcDbGroup
300

 70
     3
 71
     1
  0
GROUP
  5
2CD
102
{ACAD_REACTORS
330
D
102
}
330
D
100
AcDbGroup
300

 70
     1
 71
     1
  0
GROUP
  5
2F5
102
{ACAD_REACTORS
330
D
102
}
330
D
100
AcDbGroup
300
Rosetta UNI 1751 A 6.1
 70
     1
 71
     1
  0
GROUP
  5
3A7
102
{ACAD_REACTORS
330
D
102
}
330
D
100
AcDbGroup
300

 70
     1
 71
     1
  0
GROUP
  5
199F
102
{ACAD_REACTORS
330
D
102
}
330
D
100
AcDbGroup
300

 70
     3
 71
     1
  0
GROUP
  5
196C
102
{ACAD_REACTORS
330
D
102
}
330
D
100
AcDbGroup
300

 70
     3
 71
     1
  0
GROUP
  5
1D6
102
{ACAD_REACTORS
330
D
102
}
330
D
100
AcDbGroup
300

 70
     1
 71
     1
  0
GROUP
  5
1E0
102
{ACAD_REACTORS
330
D
102
}
330
D
100
AcDbGroup
300
Vite UNI 5933 M6X16
 70
     3
 71
     1
  0
GROUP
  5
272
102
{ACAD_REACTORS
330
D
102
}
330
D
100
AcDbGroup
300

 70
     3
 71
     1
  0
GROUP
  5
2B6
102
{ACAD_REACTORS
330
D
102
}
330
D
100
AcDbGroup
300

 70
     3
 71
     1
  0
GROUP
  5
367
102
{ACAD_REACTORS
330
D
102
}
330
D
100
AcDbGroup
300
Vite UNI 5933 M6X16
 70
     1
 71
     1
  0
GROUP
  5
19A0
102
{ACAD_REACTORS
330
D
102
}
330
D
100
AcDbGroup
300

 70
     1
 71
     1
  0
GROUP
  5
3CA
102
{ACAD_REACTORS
330
D
102
}
330
D
100
AcDbGroup
300

 70
     3
 71
     1
  0
GROUP
  5
1A47
102
{ACAD_REACTORS
330
D
102
}
330
D
100
AcDbGroup
300

 70
     1
 71
     1
  0
GROUP
  5
319
102
{ACAD_REACTORS
330
D
102
}
330
D
100
AcDbGroup
300

 70
     3
 71
     1
  0
GROUP
  5
2A9
102
{ACAD_REACTORS
330
D
102
}
330
D
100
AcDbGroup
300

 70
     3
 71
     1
  0
GROUP
  5
273
102
{ACAD_REACTORS
330
D
102
}
330
D
100
AcDbGroup
300

 70
     3
 71
     1
  0
GROUP
  5
327
102
{ACAD_REACTORS
330
D
102
}
330
D
100
AcDbGroup
300

 70
     3
 71
     1
  0
GROUP
  5
1E5
102
{ACAD_REACTORS
330
D
102
}
330
D
100
AcDbGroup
300

 70
     1
 71
     1
  0
GROUP
  5
1993
102
{ACAD_REACTORS
330
D
102
}
330
D
100
AcDbGroup
300

 70
     3
 71
     1
  0
GROUP
  5
19E5
102
{ACAD_REACTORS
330
D
102
}
330
D
100
AcDbGroup
300

 70
     1
 71
     1
  0
GROUP
  5
19D4
102
{ACAD_REACTORS
330
D
102
}
330
D
100
AcDbGroup
300

 70
     3
 71
     1
  0
GROUP
  5
37A
102
{ACAD_REACTORS
330
D
102
}
330
D
100
AcDbGroup
300

 70
     3
 71
     1
  0
GROUP
  5
392
102
{ACAD_REACTORS
330
D
102
}
330
D
100
AcDbGroup
300

 70
     1
 71
     1
  0
GROUP
  5
274
102
{ACAD_REACTORS
330
D
102
}
330
D
100
AcDbGroup
300
Vite UNI 5931 M8X25
 70
     3
 71
     1
  0
GROUP
  5
24F
102
{ACAD_REACTORS
330
D
102
}
330
D
100
AcDbGroup
300

 70
     3
 71
     1
  0
GROUP
  5
1CA
102
{ACAD_REACTORS
330
D
102
}
330
D
100
AcDbGroup
300

 70
     3
 71
     1
  0
GROUP
  5
275
102
{ACAD_REACTORS
330
D
102
}
330
D
100
AcDbGroup
300

 70
     3
 71
     1
  0
GROUP
  5
2B7
102
{ACAD_REACTORS
330
D
102
}
330
D
100
AcDbGroup
300
Vite UNI 5931 M8X25
 70
     3
 71
     1
  0
GROUP
  5
21F
102
{ACAD_REACTORS
330
D
102
}
330
D
100
AcDbGroup
300

 70
     1
 71
     1
  0
GROUP
  5
312
102
{ACAD_REACTORS
330
D
102
}
330
D
100
AcDbGroup
300

 70
     1
 71
     1
  0
GROUP
  5
2B8
102
{ACAD_REACTORS
330
D
102
}
330
D
100
AcDbGroup
300

 70
     3
 71
     1
  0
GROUP
  5
2CF
102
{ACAD_REACTORS
330
D
102
}
330
D
100
AcDbGroup
300

 70
     3
 71
     1
  0
GROUP
  5
19F0
102
{ACAD_REACTORS
330
D
102
}
330
D
100
AcDbGroup
300
Vite UNI 5931 M8X25
 70
     1
 71
     1
  0
GROUP
  5
2B9
102
{ACAD_REACTORS
330
D
102
}
330
D
100
AcDbGroup
300
Vite UNI 5931 M8X25
 70
     3
 71
     1
  0
GROUP
  5
19AA
102
{ACAD_REACTORS
330
D
102
}
330
D
100
AcDbGroup
300
Vite UNI 5931 M8X25
 70
     3
 71
     1
  0
GROUP
  5
1A44
102
{ACAD_REACTORS
330
D
102
}
330
D
100
AcDbGroup
300

 70
     3
 71
     1
  0
GROUP
  5
196A
102
{ACAD_REACTORS
330
D
102
}
330
D
100
AcDbGroup
300

 70
     3
 71
     1
  0
GROUP
  5
391
102
{ACAD_REACTORS
330
D
102
}
330
D
100
AcDbGroup
300

 70
     3
 71
     1
  0
GROUP
  5
2ED
102
{ACAD_REACTORS
330
D
102
}
330
D
100
AcDbGroup
300
Rosetta UNI 1751 A 6.1
 70
     1
 71
     1
  0
GROUP
  5
19B6
102
{ACAD_REACTORS
330
D
102
}
330
D
100
AcDbGroup
300

 70
     3
 71
     1
  0
GROUP
  5
3AD
102
{ACAD_REACTORS
330
D
102
}
330
D
100
AcDbGroup
300

 70
     1
 71
     1
  0
GROUP
  5
236
102
{ACAD_REACTORS
330
D
102
}
330
D
100
AcDbGroup
300
Ghiera autofrenante M20x1
 70
     3
 71
     1
  0
GROUP
  5
2BA
102
{ACAD_REACTORS
330
D
102
}
330
D
100
AcDbGroup
300

 70
     3
 71
     1
  0
GROUP
  5
38D
102
{ACAD_REACTORS
330
D
102
}
330
D
100
AcDbGroup
300

 70
     3
 71
     1
  0
GROUP
  5
2BB
102
{ACAD_REACTORS
330
D
102
}
330
D
100
AcDbGroup
300

 70
     3
 71
     1
  0
GROUP
  5
22D
102
{ACAD_REACTORS
330
D
102
}
330
D
100
AcDbGroup
300

 70
     3
 71
     1
  0
GROUP
  5
3A5
102
{ACAD_REACTORS
330
D
102
}
330
D
100
AcDbGroup
300

 70
     3
 71
     1
  0
GROUP
  5
33C
102
{ACAD_REACTORS
330
D
102
}
330
D
100
AcDbGroup
300

 70
     3
 71
     1
  0
GROUP
  5
2FE
102
{ACAD_REACTORS
330
D
102
}
330
D
100
AcDbGroup
300

 70
     3
 71
     1
  0
GROUP
  5
2BC
102
{ACAD_REACTORS
330
D
102
}
330
D
100
AcDbGroup
300
Ghiera autofrenante M20x1
 70
     1
 71
     1
  0
GROUP
  5
25E
102
{ACAD_REACTORS
330
D
102
}
330
D
100
AcDbGroup
300

 70
     1
 71
     1
  0
GROUP
  5
198B
102
{ACAD_REACTORS
330
D
102
}
330
D
100
AcDbGroup
300

 70
     3
 71
     1
  0
GROUP
  5
19A7
102
{ACAD_REACTORS
330
D
102
}
330
D
100
AcDbGroup
300

 70
     3
 71
     1
  0
GROUP
  5
1A09
102
{ACAD_REACTORS
330
D
102
}
330
D
100
AcDbGroup
300

 70
     1
 71
     1
  0
GROUP
  5
2D5
102
{ACAD_REACTORS
330
D
102
}
330
D
100
AcDbGroup
300

 70
     1
 71
     1
  0
GROUP
  5
1D3
102
{ACAD_REACTORS
330
D
102
}
330
D
100
AcDbGroup
300
Vite UNI 5931 M8X25
 70
     1
 71
     1
  0
GROUP
  5
196D
102
{ACAD_REACTORS
330
D
102
}
330
D
100
AcDbGroup
300

 70
     3
 71
     1
  0
GROUP
  5
1E4
102
{ACAD_REACTORS
330
D
102
}
330
D
100
AcDbGroup
300

 70
     3
 71
     1
  0
GROUP
  5
299
102
{ACAD_REACTORS
330
D
102
}
330
D
100
AcDbGroup
300

 70
     3
 71
     1
  0
GROUP
  5
19D5
102
{ACAD_REACTORS
330
D
102
}
330
D
100
AcDbGroup
300

 70
     3
 71
     1
  0
GROUP
  5
248
102
{ACAD_REACTORS
330
D
102
}
330
D
100
AcDbGroup
300

 70
     3
 71
     1
  0
GROUP
  5
2AE
102
{ACAD_REACTORS
330
D
102
}
330
D
100
AcDbGroup
300

 70
     3
 71
     1
  0
GROUP
  5
1A41
102
{ACAD_REACTORS
330
D
102
}
330
D
100
AcDbGroup
300

 70
     3
 71
     1
  0
GROUP
  5
20A
102
{ACAD_REACTORS
330
D
102
}
330
D
100
AcDbGroup
300

 70
     3
 71
     1
  0
GROUP
  5
27B
102
{ACAD_REACTORS
330
D
102
}
330
D
100
AcDbGroup
300

 70
     1
 71
     1
  0
GROUP
  5
261
102
{ACAD_REACTORS
330
D
102
}
330
D
100
AcDbGroup
300

 70
     3
 71
     1
  0
GROUP
  5
22B
102
{ACAD_REACTORS
330
D
102
}
330
D
100
AcDbGroup
300

 70
     1
 71
     1
  0
GROUP
  5
250
102
{ACAD_REACTORS
330
D
102
}
330
D
100
AcDbGroup
300

 70
     3
 71
     1
  0
GROUP
  5
2BD
102
{ACAD_REACTORS
330
D
102
}
330
D
100
AcDbGroup
300

 70
     3
 71
     1
  0
GROUP
  5
20F
102
{ACAD_REACTORS
330
D
102
}
330
D
100
AcDbGroup
300

 70
     3
 71
     1
  0
GROUP
  5
1987
102
{ACAD_REACTORS
330
D
102
}
330
D
100
AcDbGroup
300

 70
     1
 71
     1
  0
GROUP
  5
291
102
{ACAD_REACTORS
330
D
102
}
330
D
100
AcDbGroup
300
Vite UNI 5933 M6X16
 70
     1
 71
     1
  0
GROUP
  5
3AE
102
{ACAD_REACTORS
330
D
102
}
330
D
100
AcDbGroup
300

 70
     3
 71
     1
  0
GROUP
  5
2BE
102
{ACAD_REACTORS
330
D
102
}
330
D
100
AcDbGroup
300

 70
     1
 71
     1
  0
GROUP
  5
2BF
102
{ACAD_REACTORS
330
D
102
}
330
D
100
AcDbGroup
300

 70
     3
 71
     1
  0
GROUP
  5
1A48
102
{ACAD_REACTORS
330
D
102
}
330
D
100
AcDbGroup
300

 70
     3
 71
     1
  0
GROUP
  5
2C0
102
{ACAD_REACTORS
330
D
102
}
330
D
100
AcDbGroup
300

 70
     1
 71
     1
  0
GROUP
  5
198A
102
{ACAD_REACTORS
330
D
102
}
330
D
100
AcDbGroup
300

 70
     3
 71
     1
  0
GROUP
  5
1A36
102
{ACAD_REACTORS
330
D
102
}
330
D
100
AcDbGroup
300

 70
     3
 71
     1
  0
GROUP
  5
2C1
102
{ACAD_REACTORS
330
D
102
}
330
D
100
AcDbGroup
300

 70
     3
 71
     1
  0
GROUP
  5
198E
102
{ACAD_REACTORS
330
D
102
}
330
D
100
AcDbGroup
300

 70
     1
 71
     1
  0
GROUP
  5
19D6
102
{ACAD_REACTORS
330
D
102
}
330
D
100
AcDbGroup
300

 70
     3
 71
     1
  0
GROUP
  5
39A
102
{ACAD_REACTORS
330
D
102
}
330
D
100
AcDbGroup
300

 70
     3
 71
     1
  0
GROUP
  5
310
102
{ACAD_REACTORS
330
D
102
}
330
D
100
AcDbGroup
300

 70
     3
 71
     1
  0
GROUP
  5
1951
102
{ACAD_REACTORS
330
D
102
}
330
D
100
AcDbGroup
300
Vite UNI 5931 M8X25
 70
     3
 71
     1
  0
GROUP
  5
19A9
102
{ACAD_REACTORS
330
D
102
}
330
D
100
AcDbGroup
300

 70
     3
 71
     1
  0
GROUP
  5
1A0A
102
{ACAD_REACTORS
330
D
102
}
330
D
100
AcDbGroup
300

 70
     3
 71
     1
  0
GROUP
  5
19C8
102
{ACAD_REACTORS
330
D
102
}
330
D
100
AcDbGroup
300
Vite UNI 5933 M6X16
 70
     1
 71
     1
  0
GROUP
  5
196E
102
{ACAD_REACTORS
330
D
102
}
330
D
100
AcDbGroup
300
Ghiera autofrenante M20x1
 70
     3
 71
     1
  0
GROUP
  5
36B
102
{ACAD_REACTORS
330
D
102
}
330
D
100
AcDbGroup
300

 70
     3
 71
     1
  0
GROUP
  5
33F
102
{ACAD_REACTORS
330
D
102
}
330
D
100
AcDbGroup
300

 70
     1
 71
     1
  0
GROUP
  5
314
102
{ACAD_REACTORS
330
D
102
}
330
D
100
AcDbGroup
300

 70
     1
 71
     1
  0
GROUP
  5
338
102
{ACAD_REACTORS
330
D
102
}
330
D
100
AcDbGroup
300

 70
     3
 71
     1
  0
GROUP
  5
19C2
102
{ACAD_REACTORS
330
D
102
}
330
D
100
AcDbGroup
300

 70
     3
 71
     1
  0
GROUP
  5
1F8
102
{ACAD_REACTORS
330
D
102
}
330
D
100
AcDbGroup
300

 70
     1
 71
     1
  0
GROUP
  5
235
102
{ACAD_REACTORS
330
D
102
}
330
D
100
AcDbGroup
300

 70
     3
 71
     1
  0
GROUP
  5
23E
102
{ACAD_REACTORS
330
D
102
}
330
D
100
AcDbGroup
300

 70
     3
 71
     1
  0
GROUP
  5
2C2
102
{ACAD_REACTORS
330
D
102
}
330
D
100
AcDbGroup
300

 70
     1
 71
     1
  0
GROUP
  5
2FF
102
{ACAD_REACTORS
330
D
102
}
330
D
100
AcDbGroup
300

 70
     3
 71
     1
  0
GROUP
  5
39F
102
{ACAD_REACTORS
330
D
102
}
330
D
100
AcDbGroup
300
Vite UNI 5931 M8X25
 70
     3
 71
     1
  0
GROUP
  5
19C3
102
{ACAD_REACTORS
330
D
102
}
330
D
100
AcDbGroup
300
Vite UNI 5931 M8X25
 70
     1
 71
     1
  0
GROUP
  5
195D
102
{ACAD_REACTORS
330
D
102
}
330
D
100
AcDbGroup
300
Vite UNI 5933 M6X16
 70
     3
 71
     1
  0
GROUP
  5
210
102
{ACAD_REACTORS
330
D
102
}
330
D
100
AcDbGroup
300

 70
     3
 71
     1
  0
GROUP
  5
2F3
102
{ACAD_REACTORS
330
D
102
}
330
D
100
AcDbGroup
300

 70
     3
 71
     1
  0
GROUP
  5
2C3
102
{ACAD_REACTORS
330
D
102
}
330
D
100
AcDbGroup
300

 70
     3
 71
     1
  0
GROUP
  5
365
102
{ACAD_REACTORS
330
D
102
}
330
D
100
AcDbGroup
300

 70
     3
 71
     1
  0
GROUP
  5
243
102
{ACAD_REACTORS
330
D
102
}
330
D
100
AcDbGroup
300

 70
     3
 71
     1
  0
GROUP
  5
19B7
102
{ACAD_REACTORS
330
D
102
}
330
D
100
AcDbGroup
300
Vite UNI 5931 M8X25
 70
     1
 71
     1
  0
GROUP
  5
1A01
102
{ACAD_REACTORS
330
D
102
}
330
D
100
AcDbGroup
300

 70
     1
 71
     1
  0
GROUP
  5
19F1
102
{ACAD_REACTORS
330
D
102
}
330
D
100
AcDbGroup
300

 70
     1
 71
     1
  0
GROUP
  5
3AF
102
{ACAD_REACTORS
330
D
102
}
330
D
100
AcDbGroup
300

 70
     3
 71
     1
  0
GROUP
  5
3C5
102
{ACAD_REACTORS
330
D
102
}
330
D
100
AcDbGroup
300

 70
     1
 71
     1
  0
GROUP
  5
2C4
102
{ACAD_REACTORS
330
D
102
}
330
D
100
AcDbGroup
300
Vite UNI 5933 M6X16
 70
     1
 71
     1
  0
GROUP
  5
22A
102
{ACAD_REACTORS
330
D
102
}
330
D
100
AcDbGroup
300
Rosetta UNI 1751 A 6.1
 70
     1
 71
     1
  0
GROUP
  5
2C5
102
{ACAD_REACTORS
330
D
102
}
330
D
100
AcDbGroup
300

 70
     1
 71
     1
  0
GROUP
  5
300
102
{ACAD_REACTORS
330
D
102
}
330
D
100
AcDbGroup
300

 70
     1
 71
     1
  0
GROUP
  5
277
102
{ACAD_REACTORS
330
D
102
}
330
D
100
AcDbGroup
300

 70
     3
 71
     1
  0
GROUP
  5
352
102
{ACAD_REACTORS
330
D
102
}
330
D
100
AcDbGroup
300

 70
     3
 71
     1
  0
GROUP
  5
301
102
{ACAD_REACTORS
330
D
102
}
330
D
100
AcDbGroup
300

 70
     3
 71
     1
  0
GROUP
  5
316
102
{ACAD_REACTORS
330
D
102
}
330
D
100
AcDbGroup
300

 70
     3
 71
     1
  0
GROUP
  5
1A0B
102
{ACAD_REACTORS
330
D
102
}
330
D
100
AcDbGroup
300

 70
     3
 71
     1
  0
GROUP
  5
302
102
{ACAD_REACTORS
330
D
102
}
330
D
100
AcDbGroup
300

 70
     1
 71
     1
  0
GROUP
  5
19CC
102
{ACAD_REACTORS
330
D
102
}
330
D
100
AcDbGroup
300

 70
     3
 71
     1
  0
GROUP
  5
3C4
102
{ACAD_REACTORS
330
D
102
}
330
D
100
AcDbGroup
300

 70
     3
 71
     1
  0
GROUP
  5
331
102
{ACAD_REACTORS
330
D
102
}
330
D
100
AcDbGroup
300

 70
     3
 71
     1
  0
GROUP
  5
19D7
102
{ACAD_REACTORS
330
D
102
}
330
D
100
AcDbGroup
300

 70
     3
 71
     1
  0
GROUP
  5
1943
102
{ACAD_REACTORS
330
D
102
}
330
D
100
AcDbGroup
300
Vite UNI 5931 M8X25
 70
     1
 71
     1
  0
GROUP
  5
28B
102
{ACAD_REACTORS
330
D
102
}
330
D
100
AcDbGroup
300

 70
     3
 71
     1
  0
GROUP
  5
1DA
102
{ACAD_REACTORS
330
D
102
}
330
D
100
AcDbGroup
300

 70
     3
 71
     1
  0
GROUP
  5
1ED
102
{ACAD_REACTORS
330
D
102
}
330
D
100
AcDbGroup
300

 70
     1
 71
     1
  0
GROUP
  5
303
102
{ACAD_REACTORS
330
D
102
}
330
D
100
AcDbGroup
300

 70
     1
 71
     1
  0
GROUP
  5
283
102
{ACAD_REACTORS
330
D
102
}
330
D
100
AcDbGroup
300

 70
     1
 71
     1
  0
GROUP
  5
3D6
102
{ACAD_REACTORS
330
D
102
}
330
D
100
AcDbGroup
300

 70
     3
 71
     1
  0
GROUP
  5
340
102
{ACAD_REACTORS
330
D
102
}
330
D
100
AcDbGroup
300

 70
     1
 71
     1
  0
GROUP
  5
304
102
{ACAD_REACTORS
330
D
102
}
330
D
100
AcDbGroup
300

 70
     3
 71
     1
  0
GROUP
  5
2B0
102
{ACAD_REACTORS
330
D
102
}
330
D
100
AcDbGroup
300

 70
     1
 71
     1
  0
GROUP
  5
19B0
102
{ACAD_REACTORS
330
D
102
}
330
D
100
AcDbGroup
300

 70
     3
 71
     1
  0
GROUP
  5
19C9
102
{ACAD_REACTORS
330
D
102
}
330
D
100
AcDbGroup
300

 70
     3
 71
     1
  0
GROUP
  5
1A21
102
{ACAD_REACTORS
330
D
102
}
330
D
100
AcDbGroup
300

 70
     1
 71
     1
  0
GROUP
  5
31B
102
{ACAD_REACTORS
330
D
102
}
330
D
100
AcDbGroup
300

 70
     3
 71
     1
  0
GROUP
  5
232
102
{ACAD_REACTORS
330
D
102
}
330
D
100
AcDbGroup
300
Vite UNI 5931 M8X25
 70
     3
 71
     1
  0
GROUP
  5
1994
102
{ACAD_REACTORS
330
D
102
}
330
D
100
AcDbGroup
300

 70
     3
 71
     1
  0
GROUP
  5
242
102
{ACAD_REACTORS
330
D
102
}
330
D
100
AcDbGroup
300

 70
     3
 71
     1
  0
GROUP
  5
19F2
102
{ACAD_REACTORS
330
D
102
}
330
D
100
AcDbGroup
300
Rosetta UNI 1751 A 6.1
 70
     1
 71
     1
  0
GROUP
  5
29C
102
{ACAD_REACTORS
330
D
102
}
330
D
100
AcDbGroup
300

 70
     3
 71
     1
  0
GROUP
  5
2F8
102
{ACAD_REACTORS
330
D
102
}
330
D
100
AcDbGroup
300

 70
     3
 71
     1
  0
GROUP
  5
1A53
102
{ACAD_REACTORS
330
D
102
}
330
D
100
AcDbGroup
300

 70
     3
 71
     1
  0
GROUP
  5
264
102
{ACAD_REACTORS
330
D
102
}
330
D
100
AcDbGroup
300

 70
     3
 71
     1
  0
GROUP
  5
2CA
102
{ACAD_REACTORS
330
D
102
}
330
D
100
AcDbGroup
300

 70
     3
 71
     1
  0
GROUP
  5
1D2
102
{ACAD_REACTORS
330
D
102
}
330
D
100
AcDbGroup
300

 70
     3
 71
     1
  0
GROUP
  5
281
102
{ACAD_REACTORS
330
D
102
}
330
D
100
AcDbGroup
300
Ghiera KM4
 70
     3
 71
     1
  0
GROUP
  5
2A3
102
{ACAD_REACTORS
330
D
102
}
330
D
100
AcDbGroup
300

 70
     1
 71
     1
  0
GROUP
  5
305
102
{ACAD_REACTORS
330
D
102
}
330
D
100
AcDbGroup
300

 70
     1
 71
     1
  0
GROUP
  5
19AC
102
{ACAD_REACTORS
330
D
102
}
330
D
100
AcDbGroup
300
Ghiera autofrenante M20x1
 70
     1
 71
     1
  0
GROUP
  5
2DE
102
{ACAD_REACTORS
330
D
102
}
330
D
100
AcDbGroup
300

 70
     1
 71
     1
  0
GROUP
  5
1F0
102
{ACAD_REACTORS
330
D
102
}
330
D
100
AcDbGroup
300

 70
     1
 71
     1
  0
GROUP
  5
306
102
{ACAD_REACTORS
330
D
102
}
330
D
100
AcDbGroup
300

 70
     3
 71
     1
  0
GROUP
  5
307
102
{ACAD_REACTORS
330
D
102
}
330
D
100
AcDbGroup
300

 70
     3
 71
     1
  0
GROUP
  5
211
102
{ACAD_REACTORS
330
D
102
}
330
D
100
AcDbGroup
300

 70
     1
 71
     1
  0
GROUP
  5
308
102
{ACAD_REACTORS
330
D
102
}
330
D
100
AcDbGroup
300

 70
     3
 71
     1
  0
GROUP
  5
19AF
102
{ACAD_REACTORS
330
D
102
}
330
D
100
AcDbGroup
300

 70
     1
 71
     1
  0
GROUP
  5
1A49
102
{ACAD_REACTORS
330
D
102
}
330
D
100
AcDbGroup
300

 70
     3
 71
     1
  0
GROUP
  5
309
102
{ACAD_REACTORS
330
D
102
}
330
D
100
AcDbGroup
300

 70
     1
 71
     1
  0
GROUP
  5
19F3
102
{ACAD_REACTORS
330
D
102
}
330
D
100
AcDbGroup
300

 70
     1
 71
     1
  0
GROUP
  5
3CC
102
{ACAD_REACTORS
330
D
102
}
330
D
100
AcDbGroup
300

 70
     1
 71
     1
  0
GROUP
  5
350
102
{ACAD_REACTORS
330
D
102
}
330
D
100
AcDbGroup
300

 70
     3
 71
     1
  0
GROUP
  5
197B
102
{ACAD_REACTORS
330
D
102
}
330
D
100
AcDbGroup
300
Vite UNI 5931 M8X25
 70
     3
 71
     1
  0
GROUP
  5
19CB
102
{ACAD_REACTORS
330
D
102
}
330
D
100
AcDbGroup
300

 70
     3
 71
     1
  0
GROUP
  5
1A22
102
{ACAD_REACTORS
330
D
102
}
330
D
100
AcDbGroup
300

 70
     3
 71
     1
  0
GROUP
  5
19E6
102
{ACAD_REACTORS
330
D
102
}
330
D
100
AcDbGroup
300

 70
     1
 71
     1
  0
GROUP
  5
1995
102
{ACAD_REACTORS
330
D
102
}
330
D
100
AcDbGroup
300

 70
     3
 71
     1
  0
GROUP
  5
1EA
102
{ACAD_REACTORS
330
D
102
}
330
D
100
AcDbGroup
300
Ghiera autofrenante M20x1
 70
     3
 71
     1
  0
GROUP
  5
1E6
102
{ACAD_REACTORS
330
D
102
}
330
D
100
AcDbGroup
300

 70
     1
 71
     1
  0
GROUP
  5
374
102
{ACAD_REACTORS
330
D
102
}
330
D
100
AcDbGroup
300

 70
     3
 71
     1
  0
GROUP
  5
19E1
102
{ACAD_REACTORS
330
D
102
}
330
D
100
AcDbGroup
300

 70
     1
 71
     1
  0
GROUP
  5
254
102
{ACAD_REACTORS
330
D
102
}
330
D
100
AcDbGroup
300

 70
     3
 71
     1
  0
GROUP
  5
1CE
102
{ACAD_REACTORS
330
D
102
}
330
D
100
AcDbGroup
300

 70
     1
 71
     1
  0
GROUP
  5
293
102
{ACAD_REACTORS
330
D
102
}
330
D
100
AcDbGroup
300

 70
     3
 71
     1
  0
GROUP
  5
30A
102
{ACAD_REACTORS
330
D
102
}
330
D
100
AcDbGroup
300

 70
     3
 71
     1
  0
GROUP
  5
341
102
{ACAD_REACTORS
330
D
102
}
330
D
100
AcDbGroup
300

 70
     1
 71
     1
  0
GROUP
  5
3D1
102
{ACAD_REACTORS
330
D
102
}
330
D
100
AcDbGroup
300

 70
     3
 71
     1
  0
GROUP
  5
19E2
102
{ACAD_REACTORS
330
D
102
}
330
D
100
AcDbGroup
300

 70
     3
 71
     1
  0
GROUP
  5
1986
102
{ACAD_REACTORS
330
D
102
}
330
D
100
AcDbGroup
300
Vite UNI 5933 M6X16
 70
     3
 71
     1
  0
GROUP
  5
336
102
{ACAD_REACTORS
330
D
102
}
330
D
100
AcDbGroup
300

 70
     3
 71
     1
  0
GROUP
  5
30B
102
{ACAD_REACTORS
330
D
102
}
330
D
100
AcDbGroup
300

 70
     3
 71
     1
  0
GROUP
  5
39D
102
{ACAD_REACTORS
330
D
102
}
330
D
100
AcDbGroup
300

 70
     3
 71
     1
  0
GROUP
  5
297
102
{ACAD_REACTORS
330
D
102
}
330
D
100
AcDbGroup
300

 70
     3
 71
     1
  0
GROUP
  5
19D8
102
{ACAD_REACTORS
330
D
102
}
330
D
100
AcDbGroup
300

 70
     3
 71
     1
  0
GROUP
  5
1A1A
102
{ACAD_REACTORS
330
D
102
}
330
D
100
AcDbGroup
300

 70
     3
 71
     1
  0
GROUP
  5
204
102
{ACAD_REACTORS
330
D
102
}
330
D
100
AcDbGroup
300

 70
     3
 71
     1
  0
GROUP
  5
1944
102
{ACAD_REACTORS
330
D
102
}
330
D
100
AcDbGroup
300

 70
     3
 71
     1
  0
GROUP
  5
1958
102
{ACAD_REACTORS
330
D
102
}
330
D
100
AcDbGroup
300

 70
     3
 71
     1
  0
GROUP
  5
30C
102
{ACAD_REACTORS
330
D
102
}
330
D
100
AcDbGroup
300

 70
     1
 71
     1
  0
GROUP
  5
1DB
102
{ACAD_REACTORS
330
D
102
}
330
D
100
AcDbGroup
300

 70
     3
 71
     1
  0
GROUP
  5
342
102
{ACAD_REACTORS
330
D
102
}
330
D
100
AcDbGroup
300

 70
     1
 71
     1
  0
GROUP
  5
1D4
102
{ACAD_REACTORS
330
D
102
}
330
D
100
AcDbGroup
300

 70
     3
 71
     1
  0
GROUP
  5
38C
102
{ACAD_REACTORS
330
D
102
}
330
D
100
AcDbGroup
300
Rosetta UNI 1751 A 3.1
 70
     1
 71
     1
  0
GROUP
  5
343
102
{ACAD_REACTORS
330
D
102
}
330
D
100
AcDbGroup
300

 70
     3
 71
     1
  0
GROUP
  5
355
102
{ACAD_REACTORS
330
D
102
}
330
D
100
AcDbGroup
300
Vite UNI 5931 M8X25
 70
     3
 71
     1
  0
GROUP
  5
1A23
102
{ACAD_REACTORS
330
D
102
}
330
D
100
AcDbGroup
300

 70
     3
 71
     1
  0
GROUP
  5
344
102
{ACAD_REACTORS
330
D
102
}
330
D
100
AcDbGroup
300

 70
     3
 71
     1
  0
GROUP
  5
19EA
102
{ACAD_REACTORS
330
D
102
}
330
D
100
AcDbGroup
300
Ghiera autofrenante M20x1
 70
     3
 71
     1
  0
GROUP
  5
1F2
102
{ACAD_REACTORS
330
D
102
}
330
D
100
AcDbGroup
300

 70
     3
 71
     1
  0
GROUP
  5
19F4
102
{ACAD_REACTORS
330
D
102
}
330
D
100
AcDbGroup
300

 70
     3
 71
     1
  0
GROUP
  5
196F
102
{ACAD_REACTORS
330
D
102
}
330
D
100
AcDbGroup
300

 70
     3
 71
     1
  0
GROUP
  5
2D9
102
{ACAD_REACTORS
330
D
102
}
330
D
100
AcDbGroup
300

 70
     1
 71
     1
  0
GROUP
  5
239
102
{ACAD_REACTORS
330
D
102
}
330
D
100
AcDbGroup
300

 70
     1
 71
     1
  0
GROUP
  5
24A
102
{ACAD_REACTORS
330
D
102
}
330
D
100
AcDbGroup
300

 70
     3
 71
     1
  0
GROUP
  5
345
102
{ACAD_REACTORS
330
D
102
}
330
D
100
AcDbGroup
300
Vite UNI 5931 M8X25
 70
     1
 71
     1
  0
GROUP
  5
2D1
102
{ACAD_REACTORS
330
D
102
}
330
D
100
AcDbGroup
300

 70
     3
 71
     1
  0
GROUP
  5
1968
102
{ACAD_REACTORS
330
D
102
}
330
D
100
AcDbGroup
300

 70
     3
 71
     1
  0
GROUP
  5
37B
102
{ACAD_REACTORS
330
D
102
}
330
D
100
AcDbGroup
300

 70
     3
 71
     1
  0
GROUP
  5
346
102
{ACAD_REACTORS
330
D
102
}
330
D
100
AcDbGroup
300

 70
     3
 71
     1
  0
GROUP
  5
19D1
102
{ACAD_REACTORS
330
D
102
}
330
D
100
AcDbGroup
300

 70
     3
 71
     1
  0
GROUP
  5
19E7
102
{ACAD_REACTORS
330
D
102
}
330
D
100
AcDbGroup
300

 70
     1
 71
     1
  0
GROUP
  5
1A37
102
{ACAD_REACTORS
330
D
102
}
330
D
100
AcDbGroup
300

 70
     3
 71
     1
  0
GROUP
  5
35A
102
{ACAD_REACTORS
330
D
102
}
330
D
100
AcDbGroup
300
Vite UNI 5933 M6X16
 70
     3
 71
     1
  0
GROUP
  5
288
102
{ACAD_REACTORS
330
D
102
}
330
D
100
AcDbGroup
300

 70
     1
 71
     1
  0
GROUP
  5
19B8
102
{ACAD_REACTORS
330
D
102
}
330
D
100
AcDbGroup
300

 70
     1
 71
     1
  0
GROUP
  5
296
102
{ACAD_REACTORS
330
D
102
}
330
D
100
AcDbGroup
300

 70
     1
 71
     1
  0
GROUP
  5
1A0C
102
{ACAD_REACTORS
330
D
102
}
330
D
100
AcDbGroup
300

 70
     3
 71
     1
  0
GROUP
  5
2E7
102
{ACAD_REACTORS
330
D
102
}
330
D
100
AcDbGroup
300

 70
     1
 71
     1
  0
GROUP
  5
33B
102
{ACAD_REACTORS
330
D
102
}
330
D
100
AcDbGroup
300

 70
     1
 71
     1
  0
GROUP
  5
311
102
{ACAD_REACTORS
330
D
102
}
330
D
100
AcDbGroup
300

 70
     3
 71
     1
  0
GROUP
  5
231
102
{ACAD_REACTORS
330
D
102
}
330
D
100
AcDbGroup
300

 70
     3
 71
     1
  0
GROUP
  5
2D0
102
{ACAD_REACTORS
330
D
102
}
330
D
100
AcDbGroup
300

 70
     3
 71
     1
  0
GROUP
  5
2EE
102
{ACAD_REACTORS
330
D
102
}
330
D
100
AcDbGroup
300

 70
     1
 71
     1
  0
GROUP
  5
347
102
{ACAD_REACTORS
330
D
102
}
330
D
100
AcDbGroup
300

 70
     1
 71
     1
  0
GROUP
  5
19CE
102
{ACAD_REACTORS
330
D
102
}
330
D
100
AcDbGroup
300

 70
     3
 71
     1
  0
GROUP
  5
323
102
{ACAD_REACTORS
330
D
102
}
330
D
100
AcDbGroup
300
Vite UNI 5933 M6X16
 70
     3
 71
     1
  0
GROUP
  5
24D
102
{ACAD_REACTORS
330
D
102
}
330
D
100
AcDbGroup
300

 70
     3
 71
     1
  0
GROUP
  5
348
102
{ACAD_REACTORS
330
D
102
}
330
D
100
AcDbGroup
300

 70
     1
 71
     1
  0
GROUP
  5
1BD
102
{ACAD_REACTORS
330
D
102
}
330
D
100
AcDbGroup
300

 70
     3
 71
     1
  0
GROUP
  5
1E1
102
{ACAD_REACTORS
330
D
102
}
330
D
100
AcDbGroup
300

 70
     3
 71
     1
  0
GROUP
  5
19D0
102
{ACAD_REACTORS
330
D
102
}
330
D
100
AcDbGroup
300
Vite UNI 5933 M6X16
 70
     3
 71
     1
  0
GROUP
  5
212
102
{ACAD_REACTORS
330
D
102
}
330
D
100
AcDbGroup
300

 70
     1
 71
     1
  0
GROUP
  5
349
102
{ACAD_REACTORS
330
D
102
}
330
D
100
AcDbGroup
300

 70
     3
 71
     1
  0
GROUP
  5
1A0D
102
{ACAD_REACTORS
330
D
102
}
330
D
100
AcDbGroup
300

 70
     3
 71
     1
  0
GROUP
  5
195F
102
{ACAD_REACTORS
330
D
102
}
330
D
100
AcDbGroup
300

 70
     1
 71
     1
  0
GROUP
  5
38A
102
{ACAD_REACTORS
330
D
102
}
330
D
100
AcDbGroup
300

 70
     3
 71
     1
  0
GROUP
  5
19A1
102
{ACAD_REACTORS
330
D
102
}
330
D
100
AcDbGroup
300

 70
     3
 71
     1
  0
GROUP
  5
19E9
102
{ACAD_REACTORS
330
D
102
}
330
D
100
AcDbGroup
300
Rosetta UNI 1751 A 6.1
 70
     1
 71
     1
  0
GROUP
  5
1A38
102
{ACAD_REACTORS
330
D
102
}
330
D
100
AcDbGroup
300

 70
     3
 71
     1
  0
GROUP
  5
19B9
102
{ACAD_REACTORS
330
D
102
}
330
D
100
AcDbGroup
300
Rosetta UNI 1751 A 6.1
 70
     1
 71
     1
  0
GROUP
  5
247
102
{ACAD_REACTORS
330
D
102
}
330
D
100
AcDbGroup
300

 70
     1
 71
     1
  0
GROUP
  5
244
102
{ACAD_REACTORS
330
D
102
}
330
D
100
AcDbGroup
300
Vite UNI 5933 M6X16
 70
     3
 71
     1
  0
GROUP
  5
3AB
102
{ACAD_REACTORS
330
D
102
}
330
D
100
AcDbGroup
300

 70
     3
 71
     1
  0
GROUP
  5
19FD
102
{ACAD_REACTORS
330
D
102
}
330
D
100
AcDbGroup
300

 70
     1
 71
     1
  0
GROUP
  5
2A7
102
{ACAD_REACTORS
330
D
102
}
330
D
100
AcDbGroup
300

 70
     3
 71
     1
  0
GROUP
  5
22E
102
{ACAD_REACTORS
330
D
102
}
330
D
100
AcDbGroup
300

 70
     3
 71
     1
  0
GROUP
  5
2E0
102
{ACAD_REACTORS
330
D
102
}
330
D
100
AcDbGroup
300

 70
     1
 71
     1
  0
GROUP
  5
34A
102
{ACAD_REACTORS
330
D
102
}
330
D
100
AcDbGroup
300
Rosetta UNI 1751 A 6.1
 70
     1
 71
     1
  0
GROUP
  5
37C
102
{ACAD_REACTORS
330
D
102
}
330
D
100
AcDbGroup
300
Vite UNI 5931 M8X25
 70
     1
 71
     1
  0
GROUP
  5
19FE
102
{ACAD_REACTORS
330
D
102
}
330
D
100
AcDbGroup
300

 70
     1
 71
     1
  0
GROUP
  5
19AB
102
{ACAD_REACTORS
330
D
102
}
330
D
100
AcDbGroup
300

 70
     3
 71
     1
  0
GROUP
  5
372
102
{ACAD_REACTORS
330
D
102
}
330
D
100
AcDbGroup
300

 70
     3
 71
     1
  0
GROUP
  5
34B
102
{ACAD_REACTORS
330
D
102
}
330
D
100
AcDbGroup
300

 70
     1
 71
     1
  0
GROUP
  5
3CF
102
{ACAD_REACTORS
330
D
102
}
330
D
100
AcDbGroup
300
Vite UNI 5933 M6X16
 70
     1
 71
     1
  0
GROUP
  5
2E4
102
{ACAD_REACTORS
330
D
102
}
330
D
100
AcDbGroup
300

 70
     1
 71
     1
  0
GROUP
  5
19F5
102
{ACAD_REACTORS
330
D
102
}
330
D
100
AcDbGroup
300

 70
     1
 71
     1
  0
GROUP
  5
1A31
102
{ACAD_REACTORS
330
D
102
}
330
D
100
AcDbGroup
300

 70
     3
 71
     1
  0
GROUP
  5
25F
102
{ACAD_REACTORS
330
D
102
}
330
D
100
AcDbGroup
300

 70
     3
 71
     1
  0
GROUP
  5
1970
102
{ACAD_REACTORS
330
D
102
}
330
D
100
AcDbGroup
300

 70
     1
 71
     1
  0
GROUP
  5
34C
102
{ACAD_REACTORS
330
D
102
}
330
D
100
AcDbGroup
300
Rosetta UNI 1751 A 6.1
 70
     1
 71
     1
  0
GROUP
  5
23A
102
{ACAD_REACTORS
330
D
102
}
330
D
100
AcDbGroup
300

 70
     3
 71
     1
  0
GROUP
  5
37D
102
{ACAD_REACTORS
330
D
102
}
330
D
100
AcDbGroup
300

 70
     3
 71
     1
  0
GROUP
  5
233
102
{ACAD_REACTORS
330
D
102
}
330
D
100
AcDbGroup
300

 70
     3
 71
     1
  0
GROUP
  5
3C0
102
{ACAD_REACTORS
330
D
102
}
330
D
100
AcDbGroup
300

 70
     3
 71
     1
  0
GROUP
  5
37E
102
{ACAD_REACTORS
330
D
102
}
330
D
100
AcDbGroup
300

 70
     3
 71
     1
  0
GROUP
  5
1E8
102
{ACAD_REACTORS
330
D
102
}
330
D
100
AcDbGroup
300

 70
     3
 71
     1
  0
GROUP
  5
1A39
102
{ACAD_REACTORS
330
D
102
}
330
D
100
AcDbGroup
300

 70
     3
 71
     1
  0
GROUP
  5
37F
102
{ACAD_REACTORS
330
D
102
}
330
D
100
AcDbGroup
300

 70
     1
 71
     1
  0
GROUP
  5
1A05
102
{ACAD_REACTORS
330
D
102
}
330
D
100
AcDbGroup
300

 70
     1
 71
     1
  0
GROUP
  5
1A0E
102
{ACAD_REACTORS
330
D
102
}
330
D
100
AcDbGroup
300
Ghiera KM4
 70
     3
 71
     1
  0
GROUP
  5
1996
102
{ACAD_REACTORS
330
D
102
}
330
D
100
AcDbGroup
300

 70
     3
 71
     1
  0
GROUP
  5
31F
102
{ACAD_REACTORS
330
D
102
}
330
D
100
AcDbGroup
300

 70
     1
 71
     1
  0
GROUP
  5
28E
102
{ACAD_REACTORS
330
D
102
}
330
D
100
AcDbGroup
300

 70
     1
 71
     1
  0
GROUP
  5
29E
102
{ACAD_REACTORS
330
D
102
}
330
D
100
AcDbGroup
300

 70
     1
 71
     1
  0
GROUP
  5
380
102
{ACAD_REACTORS
330
D
102
}
330
D
100
AcDbGroup
300
Rosetta UNI 1751 A 6.1
 70
     1
 71
     1
  0
GROUP
  5
317
102
{ACAD_REACTORS
330
D
102
}
330
D
100
AcDbGroup
300

 70
     3
 71
     1
  0
GROUP
  5
1990
102
{ACAD_REACTORS
330
D
102
}
330
D
100
AcDbGroup
300

 70
     3
 71
     1
  0
GROUP
  5
3B0
102
{ACAD_REACTORS
330
D
102
}
330
D
100
AcDbGroup
300

 70
     1
 71
     1
  0
GROUP
  5
381
102
{ACAD_REACTORS
330
D
102
}
330
D
100
AcDbGroup
300

 70
     1
 71
     1
  0
GROUP
  5
1A02
102
{ACAD_REACTORS
330
D
102
}
330
D
100
AcDbGroup
300
Vite UNI 5931 M8X25
 70
     3
 71
     1
  0
GROUP
  5
1A4A
102
{ACAD_REACTORS
330
D
102
}
330
D
100
AcDbGroup
300

 70
     3
 71
     1
  0
GROUP
  5
393
102
{ACAD_REACTORS
330
D
102
}
330
D
100
AcDbGroup
300
Vite UNI 5931 M8X25
 70
     3
 71
     1
  0
GROUP
  5
2D6
102
{ACAD_REACTORS
330
D
102
}
330
D
100
AcDbGroup
300

 70
     1
 71
     1
  0
GROUP
  5
19D9
102
{ACAD_REACTORS
330
D
102
}
330
D
100
AcDbGroup
300

 70
     1
 71
     1
  0
GROUP
  5
2E3
102
{ACAD_REACTORS
330
D
102
}
330
D
100
AcDbGroup
300

 70
     1
 71
     1
  0
GROUP
  5
1A24
102
{ACAD_REACTORS
330
D
102
}
330
D
100
AcDbGroup
300

 70
     1
 71
     1
  0
GROUP
  5
32B
102
{ACAD_REACTORS
330
D
102
}
330
D
100
AcDbGroup
300

 70
     1
 71
     1
  0
GROUP
  5
377
102
{ACAD_REACTORS
330
D
102
}
330
D
100
AcDbGroup
300

 70
     3
 71
     1
  0
GROUP
  5
351
102
{ACAD_REACTORS
330
D
102
}
330
D
100
AcDbGroup
300

 70
     1
 71
     1
  0
GROUP
  5
1DC
102
{ACAD_REACTORS
330
D
102
}
330
D
100
AcDbGroup
300

 70
     3
 71
     1
  0
GROUP
  5
332
102
{ACAD_REACTORS
330
D
102
}
330
D
100
AcDbGroup
300

 70
     1
 71
     1
  0
GROUP
  5
382
102
{ACAD_REACTORS
330
D
102
}
330
D
100
AcDbGroup
300

 70
     3
 71
     1
  0
GROUP
  5
19EC
102
{ACAD_REACTORS
330
D
102
}
330
D
100
AcDbGroup
300

 70
     1
 71
     1
  0
GROUP
  5
361
102
{ACAD_REACTORS
330
D
102
}
330
D
100
AcDbGroup
300

 70
     3
 71
     1
  0
GROUP
  5
2A0
102
{ACAD_REACTORS
330
D
102
}
330
D
100
AcDbGroup
300

 70
     3
 71
     1
  0
GROUP
  5
383
102
{ACAD_REACTORS
330
D
102
}
330
D
100
AcDbGroup
300

 70
     3
 71
     1
  0
GROUP
  5
21E
102
{ACAD_REACTORS
330
D
102
}
330
D
100
AcDbGroup
300

 70
     3
 71
     1
  0
GROUP
  5
23F
102
{ACAD_REACTORS
330
D
102
}
330
D
100
AcDbGroup
300

 70
     3
 71
     1
  0
GROUP
  5
201
102
{ACAD_REACTORS
330
D
102
}
330
D
100
AcDbGroup
300

 70
     1
 71
     1
  0
GROUP
  5
384
102
{ACAD_REACTORS
330
D
102
}
330
D
100
AcDbGroup
300
Vite UNI 5933 M6X16
 70
     3
 71
     1
  0
GROUP
  5
1A25
102
{ACAD_REACTORS
330
D
102
}
330
D
100
AcDbGroup
300

 70
     3
 71
     1
  0
GROUP
  5
1988
102
{ACAD_REACTORS
330
D
102
}
330
D
100
AcDbGroup
300

 70
     1
 71
     1
  0
GROUP
  5
3BE
102
{ACAD_REACTORS
330
D
102
}
330
D
100
AcDbGroup
300

 70
     3
 71
     1
  0
GROUP
  5
19C4
102
{ACAD_REACTORS
330
D
102
}
330
D
100
AcDbGroup
300

 70
     1
 71
     1
  0
GROUP
  5
1A04
102
{ACAD_REACTORS
330
D
102
}
330
D
100
AcDbGroup
300
Vite UNI 5933 M6X16
 70
     3
 71
     1
  0
GROUP
  5
1A4B
102
{ACAD_REACTORS
330
D
102
}
330
D
100
AcDbGroup
300

 70
     1
 71
     1
  0
GROUP
  5
1C0
102
{ACAD_REACTORS
330
D
102
}
330
D
100
AcDbGroup
300

 70
     3
 71
     1
  0
GROUP
  5
29B
102
{ACAD_REACTORS
330
D
102
}
330
D
100
AcDbGroup
300
Vite UNI 5933 M6X16
 70
     1
 71
     1
  0
GROUP
  5
298
102
{ACAD_REACTORS
330
D
102
}
330
D
100
AcDbGroup
300

 70
     3
 71
     1
  0
GROUP
  5
1A16
102
{ACAD_REACTORS
330
D
102
}
330
D
100
AcDbGroup
300

 70
     3
 71
     1
  0
GROUP
  5
2F1
102
{ACAD_REACTORS
330
D
102
}
330
D
100
AcDbGroup
300

 70
     1
 71
     1
  0
GROUP
  5
284
102
{ACAD_REACTORS
330
D
102
}
330
D
100
AcDbGroup
300
Vite UNI 5931 M8X25
 70
     3
 71
     1
  0
GROUP
  5
325
102
{ACAD_REACTORS
330
D
102
}
330
D
100
AcDbGroup
300

 70
     3
 71
     1
  0
GROUP
  5
1E7
102
{ACAD_REACTORS
330
D
102
}
330
D
100
AcDbGroup
300
Ghiera autofrenante M20x1
 70
     3
 71
     1
  0
GROUP
  5
3B1
102
{ACAD_REACTORS
330
D
102
}
330
D
100
AcDbGroup
300

 70
     3
 71
     1
  0
GROUP
  5
1A17
102
{ACAD_REACTORS
330
D
102
}
330
D
100
AcDbGroup
300

 70
     3
 71
     1
  0
GROUP
  5
19CD
102
{ACAD_REACTORS
330
D
102
}
330
D
100
AcDbGroup
300
Vite UNI 5933 M6X16
 70
     3
 71
     1
  0
GROUP
  5
3A9
102
{ACAD_REACTORS
330
D
102
}
330
D
100
AcDbGroup
300

 70
     1
 71
     1
  0
GROUP
  5
385
102
{ACAD_REACTORS
330
D
102
}
330
D
100
AcDbGroup
300

 70
     3
 71
     1
  0
GROUP
  5
1A0F
102
{ACAD_REACTORS
330
D
102
}
330
D
100
AcDbGroup
300

 70
     3
 71
     1
  0
GROUP
  5
1A45
102
{ACAD_REACTORS
330
D
102
}
330
D
100
AcDbGroup
300

 70
     3
 71
     1
  0
GROUP
  5
2B1
102
{ACAD_REACTORS
330
D
102
}
330
D
100
AcDbGroup
300

 70
     3
 71
     1
  0
GROUP
  5
1997
102
{ACAD_REACTORS
330
D
102
}
330
D
100
AcDbGroup
300

 70
     3
 71
     1
  0
GROUP
  5
386
102
{ACAD_REACTORS
330
D
102
}
330
D
100
AcDbGroup
300

 70
     1
 71
     1
  0
GROUP
  5
28F
102
{ACAD_REACTORS
330
D
102
}
330
D
100
AcDbGroup
300

 70
     3
 71
     1
  0
GROUP
  5
3B2
102
{ACAD_REACTORS
330
D
102
}
330
D
100
AcDbGroup
300

 70
     3
 71
     1
  0
GROUP
  5
289
102
{ACAD_REACTORS
330
D
102
}
330
D
100
AcDbGroup
300

 70
     3
 71
     1
  0
GROUP
  5
1954
102
{ACAD_REACTORS
330
D
102
}
330
D
100
AcDbGroup
300

 70
     3
 71
     1
  0
GROUP
  5
3B3
102
{ACAD_REACTORS
330
D
102
}
330
D
100
AcDbGroup
300

 70
     3
 71
     1
  0
GROUP
  5
1A4C
102
{ACAD_REACTORS
330
D
102
}
330
D
100
AcDbGroup
300

 70
     3
 71
     1
  0
GROUP
  5
3B4
102
{ACAD_REACTORS
330
D
102
}
330
D
100
AcDbGroup
300

 70
     3
 71
     1
  0
GROUP
  5
1A1E
102
{ACAD_REACTORS
330
D
102
}
330
D
100
AcDbGroup
300

 70
     3
 71
     1
  0
GROUP
  5
1A26
102
{ACAD_REACTORS
330
D
102
}
330
D
100
AcDbGroup
300

 70
     3
 71
     1
  0
GROUP
  5
19BA
102
{ACAD_REACTORS
330
D
102
}
330
D
100
AcDbGroup
300

 70
     1
 71
     1
  0
GROUP
  5
35D
102
{ACAD_REACTORS
330
D
102
}
330
D
100
AcDbGroup
300

 70
     3
 71
     1
  0
GROUP
  5
2DB
102
{ACAD_REACTORS
330
D
102
}
330
D
100
AcDbGroup
300

 70
     3
 71
     1
  0
GROUP
  5
2E9
102
{ACAD_REACTORS
330
D
102
}
330
D
100
AcDbGroup
300

 70
     3
 71
     1
  0
GROUP
  5
3B5
102
{ACAD_REACTORS
330
D
102
}
330
D
100
AcDbGroup
300

 70
     3
 71
     1
  0
GROUP
  5
356
102
{ACAD_REACTORS
330
D
102
}
330
D
100
AcDbGroup
300

 70
     1
 71
     1
  0
GROUP
  5
1945
102
{ACAD_REACTORS
330
D
102
}
330
D
100
AcDbGroup
300
Vite UNI 5931 M8X25
 70
     3
 71
     1
  0
GROUP
  5
3B6
102
{ACAD_REACTORS
330
D
102
}
330
D
100
AcDbGroup
300

 70
     1
 71
     1
  0
GROUP
  5
1A1B
102
{ACAD_REACTORS
330
D
102
}
330
D
100
AcDbGroup
300

 70
     3
 71
     1
  0
GROUP
  5
1C2
102
{ACAD_REACTORS
330
D
102
}
330
D
100
AcDbGroup
300
Vite UNI 5931 M8X25
 70
     3
 71
     1
  0
GROUP
  5
3C6
102
{ACAD_REACTORS
330
D
102
}
330
D
100
AcDbGroup
300

 70
     3
 71
     1
  0
GROUP
  5
31C
102
{ACAD_REACTORS
330
D
102
}
330
D
100
AcDbGroup
300

 70
     3
 71
     1
  0
GROUP
  5
19F6
102
{ACAD_REACTORS
330
D
102
}
330
D
100
AcDbGroup
300

 70
     1
 71
     1
  0
GROUP
  5
328
102
{ACAD_REACTORS
330
D
102
}
330
D
100
AcDbGroup
300

 70
     3
 71
     1
  0
GROUP
  5
1A3A
102
{ACAD_REACTORS
330
D
102
}
330
D
100
AcDbGroup
300

 70
     3
 71
     1
  0
GROUP
  5
368
102
{ACAD_REACTORS
330
D
102
}
330
D
100
AcDbGroup
300

 70
     3
 71
     1
  0
GROUP
  5
38B
102
{ACAD_REACTORS
330
D
102
}
330
D
100
AcDbGroup
300

 70
     1
 71
     1
  0
GROUP
  5
1C6
102
{ACAD_REACTORS
330
D
102
}
330
D
100
AcDbGroup
300

 70
     3
 71
     1
  0
GROUP
  5
36F
102
{ACAD_REACTORS
330
D
102
}
330
D
100
AcDbGroup
300

 70
     3
 71
     1
  0
GROUP
  5
1EC
102
{ACAD_REACTORS
330
D
102
}
330
D
100
AcDbGroup
300

 70
     3
 71
     1
  0
GROUP
  5
1A07
102
{ACAD_REACTORS
330
D
102
}
330
D
100
AcDbGroup
300

 70
     3
 71
     1
  0
GROUP
  5
399
102
{ACAD_REACTORS
330
D
102
}
330
D
100
AcDbGroup
300

 70
     1
 71
     1
  0
GROUP
  5
2EB
102
{ACAD_REACTORS
330
D
102
}
330
D
100
AcDbGroup
300

 70
     3
 71
     1
  0
GROUP
  5
3B7
102
{ACAD_REACTORS
330
D
102
}
330
D
100
AcDbGroup
300

 70
     3
 71
     1
  0
GROUP
  5
1CC
102
{ACAD_REACTORS
330
D
102
}
330
D
100
AcDbGroup
300

 70
     3
 71
     1
  0
GROUP
  5
294
102
{ACAD_REACTORS
330
D
102
}
330
D
100
AcDbGroup
300

 70
     3
 71
     1
  0
GROUP
  5
3B8
102
{ACAD_REACTORS
330
D
102
}
330
D
100
AcDbGroup
300
Vite UNI 5933 M6X16
 70
     1
 71
     1
  0
GROUP
  5
1A3B
102
{ACAD_REACTORS
330
D
102
}
330
D
100
AcDbGroup
300

 70
     1
 71
     1
  0
GROUP
  5
19AD
102
{ACAD_REACTORS
330
D
102
}
330
D
100
AcDbGroup
300

 70
     1
 71
     1
  0
GROUP
  5
1952
102
{ACAD_REACTORS
330
D
102
}
330
D
100
AcDbGroup
300

 70
     1
 71
     1
  0
GROUP
  5
19E3
102
{ACAD_REACTORS
330
D
102
}
330
D
100
AcDbGroup
300
Vite UNI 5933 M6X16
 70
     1
 71
     1
  0
GROUP
  5
1A1D
102
{ACAD_REACTORS
330
D
102
}
330
D
100
AcDbGroup
300

 70
     3
 71
     1
  0
GROUP
  5
213
102
{ACAD_REACTORS
330
D
102
}
330
D
100
AcDbGroup
300

 70
     3
 71
     1
  0
GROUP
  5
221
102
{ACAD_REACTORS
330
D
102
}
330
D
100
AcDbGroup
300
Ghiera KM4
 70
     3
 71
     1
  0
GROUP
  5
2E6
102
{ACAD_REACTORS
330
D
102
}
330
D
100
AcDbGroup
300

 70
     3
 71
     1
  0
GROUP
  5
1BC
102
{ACAD_REACTORS
330
D
102
}
330
D
100
AcDbGroup
300

 70
     1
 71
     1
  0
GROUP
  5
1DF
102
{ACAD_REACTORS
330
D
102
}
330
D
100
AcDbGroup
300

 70
     3
 71
     1
  0
GROUP
  5
2D2
102
{ACAD_REACTORS
330
D
102
}
330
D
100
AcDbGroup
300

 70
     3
 71
     1
  0
GROUP
  5
363
102
{ACAD_REACTORS
330
D
102
}
330
D
100
AcDbGroup
300

 70
     1
 71
     1
  0
GROUP
  5
1C7
102
{ACAD_REACTORS
330
D
102
}
330
D
100
AcDbGroup
300

 70
     3
 71
     1
  0
GROUP
  5
1946
102
{ACAD_REACTORS
330
D
102
}
330
D
100
AcDbGroup
300

 70
     1
 71
     1
  0
GROUP
  5
1A2E
102
{ACAD_REACTORS
330
D
102
}
330
D
100
AcDbGroup
300

 70
     3
 71
     1
  0
GROUP
  5
19EB
102
{ACAD_REACTORS
330
D
102
}
330
D
100
AcDbGroup
300

 70
     1
 71
     1
  0
GROUP
  5
3DA
102
{ACAD_REACTORS
330
D
102
}
330
D
100
AcDbGroup
300

 70
     1
 71
     1
  0
GROUP
  5
3B9
102
{ACAD_REACTORS
330
D
102
}
330
D
100
AcDbGroup
300

 70
     3
 71
     1
  0
GROUP
  5
1A27
102
{ACAD_REACTORS
330
D
102
}
330
D
100
AcDbGroup
300

 70
     3
 71
     1
  0
GROUP
  5
2FA
102
{ACAD_REACTORS
330
D
102
}
330
D
100
AcDbGroup
300

 70
     3
 71
     1
  0
GROUP
  5
19BB
102
{ACAD_REACTORS
330
D
102
}
330
D
100
AcDbGroup
300

 70
     3
 71
     1
  0
GROUP
  5
3BA
102
{ACAD_REACTORS
330
D
102
}
330
D
100
AcDbGroup
300

 70
     1
 71
     1
  0
GROUP
  5
2DC
102
{ACAD_REACTORS
330
D
102
}
330
D
100
AcDbGroup
300

 70
     3
 71
     1
  0
GROUP
  5
1947
102
{ACAD_REACTORS
330
D
102
}
330
D
100
AcDbGroup
300

 70
     3
 71
     1
  0
GROUP
  5
2D7
102
{ACAD_REACTORS
330
D
102
}
330
D
100
AcDbGroup
300

 70
     1
 71
     1
  0
GROUP
  5
197E
102
{ACAD_REACTORS
330
D
102
}
330
D
100
AcDbGroup
300

 70
     3
 71
     1
  0
GROUP
  5
1948
102
{ACAD_REACTORS
330
D
102
}
330
D
100
AcDbGroup
300

 70
     3
 71
     1
  0
GROUP
  5
214
102
{ACAD_REACTORS
330
D
102
}
330
D
100
AcDbGroup
300

 70
     3
 71
     1
  0
GROUP
  5
1949
102
{ACAD_REACTORS
330
D
102
}
330
D
100
AcDbGroup
300
Vite UNI 5931 M8X25
 70
     3
 71
     1
  0
GROUP
  5
1A3C
102
{ACAD_REACTORS
330
D
102
}
330
D
100
AcDbGroup
300

 70
     1
 71
     1
  0
GROUP
  5
1FF
102
{ACAD_REACTORS
330
D
102
}
330
D
100
AcDbGroup
300

 70
     3
 71
     1
  0
GROUP
  5
396
102
{ACAD_REACTORS
330
D
102
}
330
D
100
AcDbGroup
300

 70
     3
 71
     1
  0
GROUP
  5
1DD
102
{ACAD_REACTORS
330
D
102
}
330
D
100
AcDbGroup
300

 70
     3
 71
     1
  0
GROUP
  5
32D
102
{ACAD_REACTORS
330
D
102
}
330
D
100
AcDbGroup
300

 70
     3
 71
     1
  0
GROUP
  5
194A
102
{ACAD_REACTORS
330
D
102
}
330
D
100
AcDbGroup
300

 70
     3
 71
     1
  0
GROUP
  5
38F
102
{ACAD_REACTORS
330
D
102
}
330
D
100
AcDbGroup
300

 70
     1
 71
     1
  0
GROUP
  5
1971
102
{ACAD_REACTORS
330
D
102
}
330
D
100
AcDbGroup
300

 70
     3
 71
     1
  0
GROUP
  5
194B
102
{ACAD_REACTORS
330
D
102
}
330
D
100
AcDbGroup
300
Ghiera autofrenante M20x1
 70
     1
 71
     1
  0
GROUP
  5
1A32
102
{ACAD_REACTORS
330
D
102
}
330
D
100
AcDbGroup
300

 70
     3
 71
     1
  0
GROUP
  5
1959
102
{ACAD_REACTORS
330
D
102
}
330
D
100
AcDbGroup
300

 70
     3
 71
     1
  0
GROUP
  5
35B
102
{ACAD_REACTORS
330
D
102
}
330
D
100
AcDbGroup
300

 70
     1
 71
     1
  0
GROUP
  5
1A10
102
{ACAD_REACTORS
330
D
102
}
330
D
100
AcDbGroup
300
Vite UNI 5933 M6X16
 70
     3
 71
     1
  0
GROUP
  5
366
102
{ACAD_REACTORS
330
D
102
}
330
D
100
AcDbGroup
300

 70
     3
 71
     1
  0
GROUP
  5
1A4D
102
{ACAD_REACTORS
330
D
102
}
330
D
100
AcDbGroup
300

 70
     3
 71
     1
  0
GROUP
  5
3A0
102
{ACAD_REACTORS
330
D
102
}
330
D
100
AcDbGroup
300

 70
     3
 71
     1
  0
GROUP
  5
3BF
102
{ACAD_REACTORS
330
D
102
}
330
D
100
AcDbGroup
300

 70
     3
 71
     1
  0
GROUP
  5
1C4
102
{ACAD_REACTORS
330
D
102
}
330
D
100
AcDbGroup
300

 70
     3
 71
     1
  0
GROUP
  5
3A6
102
{ACAD_REACTORS
330
D
102
}
330
D
100
AcDbGroup
300
Vite UNI 5933 M6X16
 70
     3
 71
     1
  0
GROUP
  5
249
102
{ACAD_REACTORS
330
D
102
}
330
D
100
AcDbGroup
300

 70
     3
 71
     1
  0
GROUP
  5
3CB
102
{ACAD_REACTORS
330
D
102
}
330
D
100
AcDbGroup
300

 70
     3
 71
     1
  0
GROUP
  5
32F
102
{ACAD_REACTORS
330
D
102
}
330
D
100
AcDbGroup
300

 70
     1
 71
     1
  0
GROUP
  5
194C
102
{ACAD_REACTORS
330
D
102
}
330
D
100
AcDbGroup
300

 70
     1
 71
     1
  0
GROUP
  5
22C
102
{ACAD_REACTORS
330
D
102
}
330
D
100
AcDbGroup
300

 70
     1
 71
     1
  0
GROUP
  5
2E1
102
{ACAD_REACTORS
330
D
102
}
330
D
100
AcDbGroup
300

 70
     1
 71
     1
  0
GROUP
  5
194D
102
{ACAD_REACTORS
330
D
102
}
330
D
100
AcDbGroup
300

 70
     3
 71
     1
  0
GROUP
  5
1A4E
102
{ACAD_REACTORS
330
D
102
}
330
D
100
AcDbGroup
300

 70
     3
 71
     1
  0
GROUP
  5
19CF
102
{ACAD_REACTORS
330
D
102
}
330
D
100
AcDbGroup
300

 70
     3
 71
     1
  0
GROUP
  5
197C
102
{ACAD_REACTORS
330
D
102
}
330
D
100
AcDbGroup
300

 70
     3
 71
     1
  0
GROUP
  5
19FF
102
{ACAD_REACTORS
330
D
102
}
330
D
100
AcDbGroup
300

 70
     1
 71
     1
  0
GROUP
  5
279
102
{ACAD_REACTORS
330
D
102
}
330
D
100
AcDbGroup
300

 70
     1
 71
     1
  0
GROUP
  5
1DE
102
{ACAD_REACTORS
330
D
102
}
330
D
100
AcDbGroup
300
Vite UNI 5933 M6X16
 70
     1
 71
     1
  0
GROUP
  5
21D
102
{ACAD_REACTORS
330
D
102
}
330
D
100
AcDbGroup
300

 70
     3
 71
     1
  0
GROUP
  5
23D
102
{ACAD_REACTORS
330
D
102
}
330
D
100
AcDbGroup
300

 70
     3
 71
     1
  0
GROUP
  5
318
102
{ACAD_REACTORS
330
D
102
}
330
D
100
AcDbGroup
300

 70
     1
 71
     1
  0
GROUP
  5
39B
102
{ACAD_REACTORS
330
D
102
}
330
D
100
AcDbGroup
300

 70
     1
 71
     1
  0
GROUP
  5
227
102
{ACAD_REACTORS
330
D
102
}
330
D
100
AcDbGroup
300

 70
     3
 71
     1
  0
GROUP
  5
1972
102
{ACAD_REACTORS
330
D
102
}
330
D
100
AcDbGroup
300

 70
     3
 71
     1
  0
GROUP
  5
1A42
102
{ACAD_REACTORS
330
D
102
}
330
D
100
AcDbGroup
300

 70
     3
 71
     1
  0
GROUP
  5
1A06
102
{ACAD_REACTORS
330
D
102
}
330
D
100
AcDbGroup
300
Rosetta UNI 1751 A 3.1
 70
     1
 71
     1
  0
GROUP
  5
1F1
102
{ACAD_REACTORS
330
D
102
}
330
D
100
AcDbGroup
300

 70
     3
 71
     1
  0
GROUP
  5
1A3D
102
{ACAD_REACTORS
330
D
102
}
330
D
100
AcDbGroup
300

 70
     3
 71
     1
  0
GROUP
  5
33D
102
{ACAD_REACTORS
330
D
102
}
330
D
100
AcDbGroup
300
Rosetta UNI 1751 A 6.1
 70
     1
 71
     1
  0
GROUP
  5
19DA
102
{ACAD_REACTORS
330
D
102
}
330
D
100
AcDbGroup
300

 70
     1
 71
     1
  0
GROUP
  5
194E
102
{ACAD_REACTORS
330
D
102
}
330
D
100
AcDbGroup
300

 70
     3
 71
     1
  0
GROUP
  5
321
102
{ACAD_REACTORS
330
D
102
}
330
D
100
AcDbGroup
300

 70
     3
 71
     1
  0
GROUP
  5
1973
102
{ACAD_REACTORS
330
D
102
}
330
D
100
AcDbGroup
300

 70
     3
 71
     1
  0
GROUP
  5
31D
102
{ACAD_REACTORS
330
D
102
}
330
D
100
AcDbGroup
300

 70
     3
 71
     1
  0
GROUP
  5
19A4
102
{ACAD_REACTORS
330
D
102
}
330
D
100
AcDbGroup
300

 70
     3
 71
     1
  0
GROUP
  5
1974
102
{ACAD_REACTORS
330
D
102
}
330
D
100
AcDbGroup
300

 70
     1
 71
     1
  0
GROUP
  5
1975
102
{ACAD_REACTORS
330
D
102
}
330
D
100
AcDbGroup
300

 70
     3
 71
     1
  0
GROUP
  5
1A4F
102
{ACAD_REACTORS
330
D
102
}
330
D
100
AcDbGroup
300

 70
     1
 71
     1
  0
GROUP
  5
25A
102
{ACAD_REACTORS
330
D
102
}
330
D
100
AcDbGroup
300

 70
     3
 71
     1
  0
GROUP
  5
3C9
102
{ACAD_REACTORS
330
D
102
}
330
D
100
AcDbGroup
300

 70
     3
 71
     1
  0
GROUP
  5
23B
102
{ACAD_REACTORS
330
D
102
}
330
D
100
AcDbGroup
300

 70
     3
 71
     1
  0
GROUP
  5
36A
102
{ACAD_REACTORS
330
D
102
}
330
D
100
AcDbGroup
300
Vite UNI 5931 M8X25
 70
     3
 71
     1
  0
GROUP
  5
1BF
102
{ACAD_REACTORS
330
D
102
}
330
D
100
AcDbGroup
300

 70
     1
 71
     1
  0
GROUP
  5
3C2
102
{ACAD_REACTORS
330
D
102
}
330
D
100
AcDbGroup
300

 70
     1
 71
     1
  0
GROUP
  5
1998
102
{ACAD_REACTORS
330
D
102
}
330
D
100
AcDbGroup
300

 70
     3
 71
     1
  0
GROUP
  5
1F5
102
{ACAD_REACTORS
330
D
102
}
330
D
100
AcDbGroup
300

 70
     1
 71
     1
  0
GROUP
  5
1982
102
{ACAD_REACTORS
330
D
102
}
330
D
100
AcDbGroup
300

 70
     3
 71
     1
  0
GROUP
  5
394
102
{ACAD_REACTORS
330
D
102
}
330
D
100
AcDbGroup
300
Ghiera autofrenante M20x1
 70
     3
 71
     1
  0
GROUP
  5
1A28
102
{ACAD_REACTORS
330
D
102
}
330
D
100
AcDbGroup
300

 70
     3
 71
     1
  0
GROUP
  5
39E
102
{ACAD_REACTORS
330
D
102
}
330
D
100
AcDbGroup
300

 70
     1
 71
     1
  0
GROUP
  5
215
102
{ACAD_REACTORS
330
D
102
}
330
D
100
AcDbGroup
300

 70
     3
 71
     1
  0
GROUP
  5
3D2
102
{ACAD_REACTORS
330
D
102
}
330
D
100
AcDbGroup
300

 70
     3
 71
     1
  0
GROUP
  5
1953
102
{ACAD_REACTORS
330
D
102
}
330
D
100
AcDbGroup
300

 70
     1
 71
     1
  0
GROUP
  5
225
102
{ACAD_REACTORS
330
D
102
}
330
D
100
AcDbGroup
300

 70
     3
 71
     1
  0
GROUP
  5
3D7
102
{ACAD_REACTORS
330
D
102
}
330
D
100
AcDbGroup
300

 70
     3
 71
     1
  0
GROUP
  5
29D
102
{ACAD_REACTORS
330
D
102
}
330
D
100
AcDbGroup
300

 70
     3
 71
     1
  0
GROUP
  5
36C
102
{ACAD_REACTORS
330
D
102
}
330
D
100
AcDbGroup
300

 70
     1
 71
     1
  0
GROUP
  5
1976
102
{ACAD_REACTORS
330
D
102
}
330
D
100
AcDbGroup
300

 70
     1
 71
     1
  0
GROUP
  5
282
102
{ACAD_REACTORS
330
D
102
}
330
D
100
AcDbGroup
300

 70
     1
 71
     1
  0
GROUP
  5
326
102
{ACAD_REACTORS
330
D
102
}
330
D
100
AcDbGroup
300
Vite UNI 5933 M6X16
 70
     1
 71
     1
  0
GROUP
  5
1977
102
{ACAD_REACTORS
330
D
102
}
330
D
100
AcDbGroup
300

 70
     1
 71
     1
  0
GROUP
  5
216
102
{ACAD_REACTORS
330
D
102
}
330
D
100
AcDbGroup
300
Rosetta UNI 1751 A 3.1
 70
     1
 71
     1
  0
GROUP
  5
19ED
102
{ACAD_REACTORS
330
D
102
}
330
D
100
AcDbGroup
300

 70
     1
 71
     1
  0
GROUP
  5
19A2
102
{ACAD_REACTORS
330
D
102
}
330
D
100
AcDbGroup
300

 70
     3
 71
     1
  0
GROUP
  5
1A18
102
{ACAD_REACTORS
330
D
102
}
330
D
100
AcDbGroup
300
Ghiera autofrenante M20x1
 70
     3
 71
     1
  0
GROUP
  5
2C8
102
{ACAD_REACTORS
330
D
102
}
330
D
100
AcDbGroup
300
Vite UNI 5933 M6X16
 70
     3
 71
     1
  0
GROUP
  5
276
102
{ACAD_REACTORS
330
D
102
}
330
D
100
AcDbGroup
300

 70
     3
 71
     1
  0
GROUP
  5
292
102
{ACAD_REACTORS
330
D
102
}
330
D
100
AcDbGroup
300

 70
     3
 71
     1
  0
GROUP
  5
357
102
{ACAD_REACTORS
330
D
102
}
330
D
100
AcDbGroup
300
Rosetta UNI 1751 A 6.1
 70
     1
 71
     1
  0
GROUP
  5
3CD
102
{ACAD_REACTORS
330
D
102
}
330
D
100
AcDbGroup
300

 70
     1
 71
     1
  0
GROUP
  5
27F
102
{ACAD_REACTORS
330
D
102
}
330
D
100
AcDbGroup
300

 70
     3
 71
     1
  0
GROUP
  5
1999
102
{ACAD_REACTORS
330
D
102
}
330
D
100
AcDbGroup
300

 70
     1
 71
     1
  0
GROUP
  5
1A54
102
{ACAD_REACTORS
330
D
102
}
330
D
100
AcDbGroup
300

 70
     3
 71
     1
  0
GROUP
  5
1A1F
102
{ACAD_REACTORS
330
D
102
}
330
D
100
AcDbGroup
300

 70
     1
 71
     1
  0
GROUP
  5
24E
102
{ACAD_REACTORS
330
D
102
}
330
D
100
AcDbGroup
300

 70
     1
 71
     1
  0
GROUP
  5
1A50
102
{ACAD_REACTORS
330
D
102
}
330
D
100
AcDbGroup
300

 70
     3
 71
     1
  0
GROUP
  5
19F7
102
{ACAD_REACTORS
330
D
102
}
330
D
100
AcDbGroup
300

 70
     3
 71
     1
  0
GROUP
  5
1978
102
{ACAD_REACTORS
330
D
102
}
330
D
100
AcDbGroup
300

 70
     3
 71
     1
  0
GROUP
  5
35F
102
{ACAD_REACTORS
330
D
102
}
330
D
100
AcDbGroup
300

 70
     3
 71
     1
  0
GROUP
  5
199A
102
{ACAD_REACTORS
330
D
102
}
330
D
100
AcDbGroup
300

 70
     3
 71
     1
  0
GROUP
  5
35C
102
{ACAD_REACTORS
330
D
102
}
330
D
100
AcDbGroup
300

 70
     3
 71
     1
  0
GROUP
  5
19C6
102
{ACAD_REACTORS
330
D
102
}
330
D
100
AcDbGroup
300

 70
     3
 71
     1
  0
GROUP
  5
199B
102
{ACAD_REACTORS
330
D
102
}
330
D
100
AcDbGroup
300

 70
     1
 71
     1
  0
GROUP
  5
199C
102
{ACAD_REACTORS
330
D
102
}
330
D
100
AcDbGroup
300

 70
     3
 71
     1
  0
GROUP
  5
217
102
{ACAD_REACTORS
330
D
102
}
330
D
100
AcDbGroup
300

 70
     1
 71
     1
  0
GROUP
  5
2AC
102
{ACAD_REACTORS
330
D
102
}
330
D
100
AcDbGroup
300
Vite UNI 5933 M6X16
 70
     3
 71
     1
  0
GROUP
  5
290
102
{ACAD_REACTORS
330
D
102
}
330
D
100
AcDbGroup
300

 70
     1
 71
     1
  0
GROUP
  5
3A2
102
{ACAD_REACTORS
330
D
102
}
330
D
100
AcDbGroup
300

 70
     3
 71
     1
  0
GROUP
  5
220
102
{ACAD_REACTORS
330
D
102
}
330
D
100
AcDbGroup
300

 70
     3
 71
     1
  0
GROUP
  5
1956
102
{ACAD_REACTORS
330
D
102
}
330
D
100
AcDbGroup
300
Vite UNI 5933 M6X16
 70
     1
 71
     1
  0
GROUP
  5
1FC
102
{ACAD_REACTORS
330
D
102
}
330
D
100
AcDbGroup
300

 70
     3
 71
     1
  0
GROUP
  5
251
102
{ACAD_REACTORS
330
D
102
}
330
D
100
AcDbGroup
300

 70
     1
 71
     1
  0
GROUP
  5
1FA
102
{ACAD_REACTORS
330
D
102
}
330
D
100
AcDbGroup
300

 70
     3
 71
     1
  0
GROUP
  5
3C7
102
{ACAD_REACTORS
330
D
102
}
330
D
100
AcDbGroup
300

 70
     1
 71
     1
  0
GROUP
  5
1C1
102
{ACAD_REACTORS
330
D
102
}
330
D
100
AcDbGroup
300

 70
     3
 71
     1
  0
GROUP
  5
3D0
102
{ACAD_REACTORS
330
D
102
}
330
D
100
AcDbGroup
300

 70
     3
 71
     1
  0
GROUP
  5
1964
102
{ACAD_REACTORS
330
D
102
}
330
D
100
AcDbGroup
300

 70
     3
 71
     1
  0
GROUP
  5
197D
102
{ACAD_REACTORS
330
D
102
}
330
D
100
AcDbGroup
300

 70
     3
 71
     1
  0
GROUP
  5
27D
102
{ACAD_REACTORS
330
D
102
}
330
D
100
AcDbGroup
300

 70
     3
 71
     1
  0
GROUP
  5
1969
102
{ACAD_REACTORS
330
D
102
}
330
D
100
AcDbGroup
300

 70
     3
 71
     1
  0
GROUP
  5
2E8
102
{ACAD_REACTORS
330
D
102
}
330
D
100
AcDbGroup
300

 70
     1
 71
     1
  0
GROUP
  5
3A3
102
{ACAD_REACTORS
330
D
102
}
330
D
100
AcDbGroup
300

 70
     3
 71
     1
  0
GROUP
  5
199D
102
{ACAD_REACTORS
330
D
102
}
330
D
100
AcDbGroup
300

 70
     3
 71
     1
  0
GROUP
  5
1D5
102
{ACAD_REACTORS
330
D
102
}
330
D
100
AcDbGroup
300

 70
     3
 71
     1
  0
GROUP
  5
364
102
{ACAD_REACTORS
330
D
102
}
330
D
100
AcDbGroup
300

 70
     1
 71
     1
  0
GROUP
  5
1F9
102
{ACAD_REACTORS
330
D
102
}
330
D
100
AcDbGroup
300

 70
     1
 71
     1
  0
GROUP
  5
1A08
102
{ACAD_REACTORS
330
D
102
}
330
D
100
AcDbGroup
300

 70
     3
 71
     1
  0
GROUP
  5
19C5
102
{ACAD_REACTORS
330
D
102
}
330
D
100
AcDbGroup
300

 70
     1
 71
     1
  0
GROUP
  5
1A2F
102
{ACAD_REACTORS
330
D
102
}
330
D
100
AcDbGroup
300
Vite UNI 5933 M6X16
 70
     3
 71
     1
  0
GROUP
  5
30F
102
{ACAD_REACTORS
330
D
102
}
330
D
100
AcDbGroup
300

 70
     1
 71
     1
  0
GROUP
  5
2C6
102
{ACAD_REACTORS
330
D
102
}
330
D
100
AcDbGroup
300

 70
     3
 71
     1
  0
GROUP
  5
2DF
102
{ACAD_REACTORS
330
D
102
}
330
D
100
AcDbGroup
300

 70
     1
 71
     1
  0
GROUP
  5
390
102
{ACAD_REACTORS
330
D
102
}
330
D
100
AcDbGroup
300
Rosetta UNI 1751 A 6.1
 70
     1
 71
     1
  0
GROUP
  5
1960
102
{ACAD_REACTORS
330
D
102
}
330
D
100
AcDbGroup
300

 70
     1
 71
     1
  0
GROUP
  5
2CE
102
{ACAD_REACTORS
330
D
102
}
330
D
100
AcDbGroup
300

 70
     3
 71
     1
  0
GROUP
  5
19BC
102
{ACAD_REACTORS
330
D
102
}
330
D
100
AcDbGroup
300

 70
     1
 71
     1
  0
GROUP
  5
2A1
102
{ACAD_REACTORS
330
D
102
}
330
D
100
AcDbGroup
300
Rosetta UNI 1751 A 3.1
 70
     1
 71
     1
  0
GROUP
  5
218
102
{ACAD_REACTORS
330
D
102
}
330
D
100
AcDbGroup
300

 70
     1
 71
     1
  0
GROUP
  5
1A11
102
{ACAD_REACTORS
330
D
102
}
330
D
100
AcDbGroup
300

 70
     3
 71
     1
  0
GROUP
  5
199E
102
{ACAD_REACTORS
330
D
102
}
330
D
100
AcDbGroup
300

 70
     3
 71
     1
  0
GROUP
  5
398
102
{ACAD_REACTORS
330
D
102
}
330
D
100
AcDbGroup
300
Vite UNI 5933 M6X16
 70
     3
 71
     1
  0
GROUP
  5
19BD
102
{ACAD_REACTORS
330
D
102
}
330
D
100
AcDbGroup
300

 70
     3
 71
     1
  0
GROUP
  5
395
102
{ACAD_REACTORS
330
D
102
}
330
D
100
AcDbGroup
300

 70
     3
 71
     1
  0
GROUP
  5
19E4
102
{ACAD_REACTORS
330
D
102
}
330
D
100
AcDbGroup
300

 70
     1
 71
     1
  0
GROUP
  5
19BE
102
{ACAD_REACTORS
330
D
102
}
330
D
100
AcDbGroup
300

 70
     3
 71
     1
  0
GROUP
  5
19BF
102
{ACAD_REACTORS
330
D
102
}
330
D
100
AcDbGroup
300

 70
     3
 71
     1
  0
GROUP
  5
2F6
102
{ACAD_REACTORS
330
D
102
}
330
D
100
AcDbGroup
300

 70
     3
 71
     1
  0
GROUP
  5
2DD
102
{ACAD_REACTORS
330
D
102
}
330
D
100
AcDbGroup
300
Ghiera autofrenante M20x1
 70
     1
 71
     1
  0
GROUP
  5
3D4
102
{ACAD_REACTORS
330
D
102
}
330
D
100
AcDbGroup
300
Ghiera autofrenante M20x1
 70
     3
 71
     1
  0
GROUP
  5
278
102
{ACAD_REACTORS
330
D
102
}
330
D
100
AcDbGroup
300

 70
     3
 71
     1
  0
GROUP
  5
1F6
102
{ACAD_REACTORS
330
D
102
}
330
D
100
AcDbGroup
300
Vite UNI 5933 M6X16
 70
     3
 71
     1
  0
GROUP
  5
258
102
{ACAD_REACTORS
330
D
102
}
330
D
100
AcDbGroup
300

 70
     3
 71
     1
  0
GROUP
  5
2A4
102
{ACAD_REACTORS
330
D
102
}
330
D
100
AcDbGroup
300

 70
     1
 71
     1
  0
GROUP
  5
256
102
{ACAD_REACTORS
330
D
102
}
330
D
100
AcDbGroup
300

 70
     3
 71
     1
  0
GROUP
  5
195A
102
{ACAD_REACTORS
330
D
102
}
330
D
100
AcDbGroup
300

 70
     3
 71
     1
  0
GROUP
  5
222
102
{ACAD_REACTORS
330
D
102
}
330
D
100
AcDbGroup
300

 70
     3
 71
     1
  0
GROUP
  5
198C
102
{ACAD_REACTORS
330
D
102
}
330
D
100
AcDbGroup
300

 70
     3
 71
     1
  0
GROUP
  5
19A3
102
{ACAD_REACTORS
330
D
102
}
330
D
100
AcDbGroup
300

 70
     1
 71
     1
  0
GROUP
  5
2CC
102
{ACAD_REACTORS
330
D
102
}
330
D
100
AcDbGroup
300

 70
     3
 71
     1
  0
GROUP
  5
1991
102
{ACAD_REACTORS
330
D
102
}
330
D
100
AcDbGroup
300

 70
     1
 71
     1
  0
GROUP
  5
32C
102
{ACAD_REACTORS
330
D
102
}
330
D
100
AcDbGroup
300

 70
     3
 71
     1
  0
GROUP
  5
1EF
102
{ACAD_REACTORS
330
D
102
}
330
D
100
AcDbGroup
300
Vite UNI 5933 M6X16
 70
     3
 71
     1
  0
GROUP
  5
19C0
102
{ACAD_REACTORS
330
D
102
}
330
D
100
AcDbGroup
300

 70
     1
 71
     1
  0
GROUP
  5
234
102
{ACAD_REACTORS
330
D
102
}
330
D
100
AcDbGroup
300

 70
     3
 71
     1
  0
GROUP
  5
39C
102
{ACAD_REACTORS
330
D
102
}
330
D
100
AcDbGroup
300

 70
     1
 71
     1
  0
GROUP
  5
255
102
{ACAD_REACTORS
330
D
102
}
330
D
100
AcDbGroup
300

 70
     1
 71
     1
  0
GROUP
  5
200
102
{ACAD_REACTORS
330
D
102
}
330
D
100
AcDbGroup
300

 70
     3
 71
     1
  0
GROUP
  5
1A43
102
{ACAD_REACTORS
330
D
102
}
330
D
100
AcDbGroup
300

 70
     3
 71
     1
  0
GROUP
  5
34F
102
{ACAD_REACTORS
330
D
102
}
330
D
100
AcDbGroup
300

 70
     3
 71
     1
  0
GROUP
  5
30D
102
{ACAD_REACTORS
330
D
102
}
330
D
100
AcDbGroup
300
Vite UNI 5933 M6X16
 70
     3
 71
     1
  0
GROUP
  5
324
102
{ACAD_REACTORS
330
D
102
}
330
D
100
AcDbGroup
300

 70
     3
 71
     1
  0
GROUP
  5
3C3
102
{ACAD_REACTORS
330
D
102
}
330
D
100
AcDbGroup
300

 70
     3
 71
     1
  0
GROUP
  5
1989
102
{ACAD_REACTORS
330
D
102
}
330
D
100
AcDbGroup
300

 70
     3
 71
     1
  0
GROUP
  5
315
102
{ACAD_REACTORS
330
D
102
}
330
D
100
AcDbGroup
300

 70
     3
 71
     1
  0
GROUP
  5
19DB
102
{ACAD_REACTORS
330
D
102
}
330
D
100
AcDbGroup
300

 70
     1
 71
     1
  0
GROUP
  5
2EC
102
{ACAD_REACTORS
330
D
102
}
330
D
100
AcDbGroup
300
Vite UNI 5931 M8X25
 70
     1
 71
     1
  0
GROUP
  5
1A29
102
{ACAD_REACTORS
330
D
102
}
330
D
100
AcDbGroup
300

 70
     3
 71
     1
  0
GROUP
  5
19C1
102
{ACAD_REACTORS
330
D
102
}
330
D
100
AcDbGroup
300
Rosetta UNI 1751 A 6.1
 70
     1
 71
     1
  0
GROUP
  5
1EE
102
{ACAD_REACTORS
330
D
102
}
330
D
100
AcDbGroup
300

 70
     3
 71
     1
  0
GROUP
  5
19DC
102
{ACAD_REACTORS
330
D
102
}
330
D
100
AcDbGroup
300

 70
     1
 71
     1
  0
GROUP
  5
3C8
102
{ACAD_REACTORS
330
D
102
}
330
D
100
AcDbGroup
300

 70
     3
 71
     1
  0
GROUP
  5
1A00
102
{ACAD_REACTORS
330
D
102
}
330
D
100
AcDbGroup
300
Vite UNI 5933 M6X16
 70
     3
 71
     1
  0
GROUP
  5
19DD
102
{ACAD_REACTORS
330
D
102
}
330
D
100
AcDbGroup
300

 70
     1
 71
     1
  0
GROUP
  5
19DE
102
{ACAD_REACTORS
330
D
102
}
330
D
100
AcDbGroup
300

 70
     1
 71
     1
  0
GROUP
  5
339
102
{ACAD_REACTORS
330
D
102
}
330
D
100
AcDbGroup
300

 70
     3
 71
     1
  0
GROUP
  5
322
102
{ACAD_REACTORS
330
D
102
}
330
D
100
AcDbGroup
300
Rosetta UNI 1751 A 6.1
 70
     1
 71
     1
  0
GROUP
  5
2C7
102
{ACAD_REACTORS
330
D
102
}
330
D
100
AcDbGroup
300

 70
     3
 71
     1
  0
GROUP
  5
252
102
{ACAD_REACTORS
330
D
102
}
330
D
100
AcDbGroup
300

 70
     3
 71
     1
  0
GROUP
  5
2AA
102
{ACAD_REACTORS
330
D
102
}
330
D
100
AcDbGroup
300

 70
     3
 71
     1
  0
GROUP
  5
1D8
102
{ACAD_REACTORS
330
D
102
}
330
D
100
AcDbGroup
300

 70
     3
 71
     1
  0
GROUP
  5
1D1
102
{ACAD_REACTORS
330
D
102
}
330
D
100
AcDbGroup
300

 70
     3
 71
     1
  0
GROUP
  5
1983
102
{ACAD_REACTORS
330
D
102
}
330
D
100
AcDbGroup
300
Vite UNI 5933 M6X16
 70
     1
 71
     1
  0
GROUP
  5
27A
102
{ACAD_REACTORS
330
D
102
}
330
D
100
AcDbGroup
300
Ghiera autofrenante M20x1
 70
     1
 71
     1
  0
GROUP
  5
19B1
102
{ACAD_REACTORS
330
D
102
}
330
D
100
AcDbGroup
300
Rosetta UNI 1751 A 6.1
 70
     1
 71
     1
  0
GROUP
  5
1FD
102
{ACAD_REACTORS
330
D
102
}
330
D
100
AcDbGroup
300

 70
     1
 71
     1
  0
GROUP
  5
313
102
{ACAD_REACTORS
330
D
102
}
330
D
100
AcDbGroup
300

 70
     3
 71
     1
  0
GROUP
  5
369
102
{ACAD_REACTORS
330
D
102
}
330
D
100
AcDbGroup
300

 70
     3
 71
     1
  0
GROUP
  5
24C
102
{ACAD_REACTORS
330
D
102
}
330
D
100
AcDbGroup
300

 70
     3
 71
     1
  0
GROUP
  5
19DF
102
{ACAD_REACTORS
330
D
102
}
330
D
100
AcDbGroup
300

 70
     3
 71
     1
  0
GROUP
  5
28A
102
{ACAD_REACTORS
330
D
102
}
330
D
100
AcDbGroup
300

 70
     1
 71
     1
  0
GROUP
  5
3CE
102
{ACAD_REACTORS
330
D
102
}
330
D
100
AcDbGroup
300

 70
     3
 71
     1
  0
GROUP
  5
2A8
102
{ACAD_REACTORS
330
D
102
}
330
D
100
AcDbGroup
300

 70
     3
 71
     1
  0
GROUP
  5
25B
102
{ACAD_REACTORS
330
D
102
}
330
D
100
AcDbGroup
300

 70
     3
 71
     1
  0
GROUP
  5
20C
102
{ACAD_REACTORS
330
D
102
}
330
D
100
AcDbGroup
300

 70
     1
 71
     1
  0
GROUP
  5
389
102
{ACAD_REACTORS
330
D
102
}
330
D
100
AcDbGroup
300

 70
     1
 71
     1
  0
GROUP
  5
34D
102
{ACAD_REACTORS
330
D
102
}
330
D
100
AcDbGroup
300

 70
     1
 71
     1
  0
GROUP
  5
1957
102
{ACAD_REACTORS
330
D
102
}
330
D
100
AcDbGroup
300

 70
     3
 71
     1
  0
GROUP
  5
19AE
102
{ACAD_REACTORS
330
D
102
}
330
D
100
AcDbGroup
300

 70
     1
 71
     1
  0
GROUP
  5
354
102
{ACAD_REACTORS
330
D
102
}
330
D
100
AcDbGroup
300

 70
     3
 71
     1
  0
GROUP
  5
202
102
{ACAD_REACTORS
330
D
102
}
330
D
100
AcDbGroup
300

 70
     3
 71
     1
  0
GROUP
  5
330
102
{ACAD_REACTORS
330
D
102
}
330
D
100
AcDbGroup
300

 70
     1
 71
     1
  0
GROUP
  5
209
102
{ACAD_REACTORS
330
D
102
}
330
D
100
AcDbGroup
300

 70
     3
 71
     1
  0
GROUP
  5
19E0
102
{ACAD_REACTORS
330
D
102
}
330
D
100
AcDbGroup
300

 70
     1
 71
     1
  0
GROUP
  5
24B
102
{ACAD_REACTORS
330
D
102
}
330
D
100
AcDbGroup
300

 70
     3
 71
     1
  0
GROUP
  5
19F8
102
{ACAD_REACTORS
330
D
102
}
330
D
100
AcDbGroup
300

 70
     1
 71
     1
  0
GROUP
  5
195B
102
{ACAD_REACTORS
330
D
102
}
330
D
100
AcDbGroup
300
Ghiera autofrenante M20x1
 70
     3
 71
     1
  0
GROUP
  5
19F9
102
{ACAD_REACTORS
330
D
102
}
330
D
100
AcDbGroup
300
Rosetta UNI 1751 A 6.1
 70
     1
 71
     1
  0
GROUP
  5
19FA
102
{ACAD_REACTORS
330
D
102
}
330
D
100
AcDbGroup
300

 70
     3
 71
     1
  0
GROUP
  5
375
102
{ACAD_REACTORS
330
D
102
}
330
D
100
AcDbGroup
300

 70
     3
 71
     1
  0
GROUP
  5
360
102
{ACAD_REACTORS
330
D
102
}
330
D
100
AcDbGroup
300

 70
     3
 71
     1
  0
GROUP
  5
30E
102
{ACAD_REACTORS
330
D
102
}
330
D
100
AcDbGroup
300

 70
     1
 71
     1
  0
GROUP
  5
2A5
102
{ACAD_REACTORS
330
D
102
}
330
D
100
AcDbGroup
300

 70
     3
 71
     1
  0
GROUP
  5
2F4
102
{ACAD_REACTORS
330
D
102
}
330
D
100
AcDbGroup
300

 70
     1
 71
     1
  0
GROUP
  5
237
102
{ACAD_REACTORS
330
D
102
}
330
D
100
AcDbGroup
300

 70
     3
 71
     1
  0
GROUP
  5
1C5
102
{ACAD_REACTORS
330
D
102
}
330
D
100
AcDbGroup
300
Vite UNI 5931 M8X25
 70
     3
 71
     1
  0
GROUP
  5
19A8
102
{ACAD_REACTORS
330
D
102
}
330
D
100
AcDbGroup
300

 70
     1
 71
     1
  0
GROUP
  5
19D2
102
{ACAD_REACTORS
330
D
102
}
330
D
100
AcDbGroup
300

 70
     1
 71
     1
  0
GROUP
  5
1C9
102
{ACAD_REACTORS
330
D
102
}
330
D
100
AcDbGroup
300

 70
     3
 71
     1
  0
GROUP
  5
1E2
102
{ACAD_REACTORS
330
D
102
}
330
D
100
AcDbGroup
300

 70
     1
 71
     1
  0
GROUP
  5
3A1
102
{ACAD_REACTORS
330
D
102
}
330
D
100
AcDbGroup
300
Ghiera KM4
 70
     3
 71
     1
  0
GROUP
  5
29F
102
{ACAD_REACTORS
330
D
102
}
330
D
100
AcDbGroup
300

 70
     3
 71
     1
  0
GROUP
  5
19FB
102
{ACAD_REACTORS
330
D
102
}
330
D
100
AcDbGroup
300
Vite UNI 5931 M8X25
 70
     3
 71
     1
  0
GROUP
  5
2D8
102
{ACAD_REACTORS
330
D
102
}
330
D
100
AcDbGroup
300

 70
     1
 71
     1
  0
GROUP
  5
1961
102
{ACAD_REACTORS
330
D
102
}
330
D
100
AcDbGroup
300

 70
     3
 71
     1
  0
GROUP
  5
2F2
102
{ACAD_REACTORS
330
D
102
}
330
D
100
AcDbGroup
300

 70
     1
 71
     1
  0
GROUP
  5
2AD
102
{ACAD_REACTORS
330
D
102
}
330
D
100
AcDbGroup
300

 70
     3
 71
     1
  0
GROUP
  5
387
102
{ACAD_REACTORS
330
D
102
}
330
D
100
AcDbGroup
300

 70
     3
 71
     1
  0
GROUP
  5
1980
102
{ACAD_REACTORS
330
D
102
}
330
D
100
AcDbGroup
300

 70
     3
 71
     1
  0
GROUP
  5
1FE
102
{ACAD_REACTORS
330
D
102
}
330
D
100
AcDbGroup
300
Vite UNI 5933 M6X16
 70
     1
 71
     1
  0
GROUP
  5
38E
102
{ACAD_REACTORS
330
D
102
}
330
D
100
AcDbGroup
300

 70
     1
 71
     1
  0
GROUP
  5
25D
102
{ACAD_REACTORS
330
D
102
}
330
D
100
AcDbGroup
300

 70
     3
 71
     1
  0
GROUP
  5
36D
102
{ACAD_REACTORS
330
D
102
}
330
D
100
AcDbGroup
300
Vite UNI 5933 M6X16
 70
     1
 71
     1
  0
GROUP
  5
263
102
{ACAD_REACTORS
330
D
102
}
330
D
100
AcDbGroup
300

 70
     3
 71
     1
  0
GROUP
  5
19FC
102
{ACAD_REACTORS
330
D
102
}
330
D
100
AcDbGroup
300

 70
     3
 71
     1
  0
GROUP
  5
1D0
102
{ACAD_REACTORS
330
D
102
}
330
D
100
AcDbGroup
300
Ghiera KM4
 70
     3
 71
     1
  0
GROUP
  5
1A12
102
{ACAD_REACTORS
330
D
102
}
330
D
100
AcDbGroup
300

 70
     3
 71
     1
  0
GROUP
  5
1A13
102
{ACAD_REACTORS
330
D
102
}
330
D
100
AcDbGroup
300

 70
     3
 71
     1
  0
GROUP
  5
1A14
102
{ACAD_REACTORS
330
D
102
}
330
D
100
AcDbGroup
300

 70
     3
 71
     1
  0
GROUP
  5
3AC
102
{ACAD_REACTORS
330
D
102
}
330
D
100
AcDbGroup
300

 70
     3
 71
     1
  0
GROUP
  5
1E9
102
{ACAD_REACTORS
330
D
102
}
330
D
100
AcDbGroup
300

 70
     3
 71
     1
  0
GROUP
  5
34E
102
{ACAD_REACTORS
330
D
102
}
330
D
100
AcDbGroup
300

 70
     1
 71
     1
  0
GROUP
  5
2EF
102
{ACAD_REACTORS
330
D
102
}
330
D
100
AcDbGroup
300

 70
     3
 71
     1
  0
GROUP
  5
337
102
{ACAD_REACTORS
330
D
102
}
330
D
100
AcDbGroup
300

 70
     3
 71
     1
  0
GROUP
  5
28C
102
{ACAD_REACTORS
330
D
102
}
330
D
100
AcDbGroup
300

 70
     3
 71
     1
  0
GROUP
  5
226
102
{ACAD_REACTORS
330
D
102
}
330
D
100
AcDbGroup
300

 70
     3
 71
     1
  0
GROUP
  5
19CA
102
{ACAD_REACTORS
330
D
102
}
330
D
100
AcDbGroup
300
Vite UNI 5933 M6X16
 70
     1
 71
     1
  0
GROUP
  5
229
102
{ACAD_REACTORS
330
D
102
}
330
D
100
AcDbGroup
300

 70
     3
 71
     1
  0
GROUP
  5
240
102
{ACAD_REACTORS
330
D
102
}
330
D
100
AcDbGroup
300

 70
     3
 71
     1
  0
GROUP
  5
3D3
102
{ACAD_REACTORS
330
D
102
}
330
D
100
AcDbGroup
300

 70
     3
 71
     1
  0
GROUP
  5
2EA
102
{ACAD_REACTORS
330
D
102
}
330
D
100
AcDbGroup
300

 70
     1
 71
     1
  0
GROUP
  5
1A15
102
{ACAD_REACTORS
330
D
102
}
330
D
100
AcDbGroup
300

 70
     3
 71
     1
  0
GROUP
  5
31E
102
{ACAD_REACTORS
330
D
102
}
330
D
100
AcDbGroup
300

 70
     3
 71
     1
  0
GROUP
  5
1F7
102
{ACAD_REACTORS
330
D
102
}
330
D
100
AcDbGroup
300

 70
     3
 71
     1
  0
GROUP
  5
335
102
{ACAD_REACTORS
330
D
102
}
330
D
100
AcDbGroup
300
Vite UNI 5931 M8X25
 70
     3
 71
     1
  0
GROUP
  5
2F7
102
{ACAD_REACTORS
330
D
102
}
330
D
100
AcDbGroup
300

 70
     1
 71
     1
  0
GROUP
  5
3BB
102
{ACAD_REACTORS
330
D
102
}
330
D
100
AcDbGroup
300
Vite UNI 5933 M6X16
 70
     3
 71
     1
  0
GROUP
  5
259
102
{ACAD_REACTORS
330
D
102
}
330
D
100
AcDbGroup
300

 70
     3
 71
     1
  0
GROUP
  5
3C1
102
{ACAD_REACTORS
330
D
102
}
330
D
100
AcDbGroup
300

 70
     3
 71
     1
  0
GROUP
  5
2AF
102
{ACAD_REACTORS
330
D
102
}
330
D
100
AcDbGroup
300

 70
     3
 71
     1
  0
GROUP
  5
3A4
102
{ACAD_REACTORS
330
D
102
}
330
D
100
AcDbGroup
300

 70
     3
 71
     1
  0
GROUP
  5
2B4
102
{ACAD_REACTORS
330
D
102
}
330
D
100
AcDbGroup
300
Vite UNI 5933 M6X16
 70
     1
 71
     1
  0
GROUP
  5
205
102
{ACAD_REACTORS
330
D
102
}
330
D
100
AcDbGroup
300

 70
     3
 71
     1
  0
GROUP
  5
230
102
{ACAD_REACTORS
330
D
102
}
330
D
100
AcDbGroup
300

 70
     3
 71
     1
  0
GROUP
  5
207
102
{ACAD_REACTORS
330
D
102
}
330
D
100
AcDbGroup
300
Vite UNI 5933 M6X16
 70
     3
 71
     1
  0
GROUP
  5
1A2A
102
{ACAD_REACTORS
330
D
102
}
330
D
100
AcDbGroup
300

 70
     3
 71
     1
  0
GROUP
  5
1A2B
102
{ACAD_REACTORS
330
D
102
}
330
D
100
AcDbGroup
300

 70
     1
 71
     1
  0
GROUP
  5
246
102
{ACAD_REACTORS
330
D
102
}
330
D
100
AcDbGroup
300

 70
     3
 71
     1
  0
GROUP
  5
388
102
{ACAD_REACTORS
330
D
102
}
330
D
100
AcDbGroup
300

 70
     1
 71
     1
  0
GROUP
  5
333
102
{ACAD_REACTORS
330
D
102
}
330
D
100
AcDbGroup
300

 70
     1
 71
     1
  0
GROUP
  5
373
102
{ACAD_REACTORS
330
D
102
}
330
D
100
AcDbGroup
300
Vite UNI 5933 M6X16
 70
     3
 71
     1
  0
GROUP
  5
2DA
102
{ACAD_REACTORS
330
D
102
}
330
D
100
AcDbGroup
300

 70
     1
 71
     1
  0
GROUP
  5
27E
102
{ACAD_REACTORS
330
D
102
}
330
D
100
AcDbGroup
300

 70
     3
 71
     1
  0
GROUP
  5
19E8
102
{ACAD_REACTORS
330
D
102
}
330
D
100
AcDbGroup
300

 70
     1
 71
     1
  0
GROUP
  5
1BB
102
{ACAD_REACTORS
330
D
102
}
330
D
100
AcDbGroup
300

 70
     3
 71
     1
  0
GROUP
  5
1CF
102
{ACAD_REACTORS
330
D
102
}
330
D
100
AcDbGroup
300
Rosetta UNI 1751 A 6.1
 70
     1
 71
     1
  0
GROUP
  5
1965
102
{ACAD_REACTORS
330
D
102
}
330
D
100
AcDbGroup
300
Vite UNI 5933 M6X16
 70
     3
 71
     1
  0
GROUP
  5
1A2C
102
{ACAD_REACTORS
330
D
102
}
330
D
100
AcDbGroup
300

 70
     3
 71
     1
  0
GROUP
  5
1E3
102
{ACAD_REACTORS
330
D
102
}
330
D
100
AcDbGroup
300

 70
     1
 71
     1
  0
GROUP
  5
253
102
{ACAD_REACTORS
330
D
102
}
330
D
100
AcDbGroup
300
Vite UNI 5931 M8X25
 70
     1
 71
     1
  0
GROUP
  5
371
102
{ACAD_REACTORS
330
D
102
}
330
D
100
AcDbGroup
300

 70
     1
 71
     1
  0
GROUP
  5
33A
102
{ACAD_REACTORS
330
D
102
}
330
D
100
AcDbGroup
300

 70
     1
 71
     1
  0
GROUP
  5
194F
102
{ACAD_REACTORS
330
D
102
}
330
D
100
AcDbGroup
300

 70
     3
 71
     1
  0
GROUP
  5
2AB
102
{ACAD_REACTORS
330
D
102
}
330
D
100
AcDbGroup
300

 70
     3
 71
     1
  0
GROUP
  5
1955
102
{ACAD_REACTORS
330
D
102
}
330
D
100
AcDbGroup
300

 70
     3
 71
     1
  0
GROUP
  5
1D9
102
{ACAD_REACTORS
330
D
102
}
330
D
100
AcDbGroup
300

 70
     3
 71
     1
  0
GROUP
  5
3D5
102
{ACAD_REACTORS
330
D
102
}
330
D
100
AcDbGroup
300

 70
     3
 71
     1
  0
GROUP
  5
260
102
{ACAD_REACTORS
330
D
102
}
330
D
100
AcDbGroup
300

 70
     3
 71
     1
  0
GROUP
  5
286
102
{ACAD_REACTORS
330
D
102
}
330
D
100
AcDbGroup
300

 70
     1
 71
     1
  0
GROUP
  5
262
102
{ACAD_REACTORS
330
D
102
}
330
D
100
AcDbGroup
300

 70
     3
 71
     1
  0
GROUP
  5
1A3E
102
{ACAD_REACTORS
330
D
102
}
330
D
100
AcDbGroup
300

 70
     1
 71
     1
  0
GROUP
  5
1A3F
102
{ACAD_REACTORS
330
D
102
}
330
D
100
AcDbGroup
300

 70
     1
 71
     1
  0
GROUP
  5
29A
102
{ACAD_REACTORS
330
D
102
}
330
D
100
AcDbGroup
300
Vite UNI 5933 M6X16
 70
     3
 71
     1
  0
GROUP
  5
3BC
102
{ACAD_REACTORS
330
D
102
}
330
D
100
AcDbGroup
300

 70
     3
 71
     1
  0
GROUP
  5
370
102
{ACAD_REACTORS
330
D
102
}
330
D
100
AcDbGroup
300

 70
     3
 71
     1
  0
GROUP
  5
3AA
102
{ACAD_REACTORS
330
D
102
}
330
D
100
AcDbGroup
300

 70
     3
 71
     1
  0
GROUP
  5
320
102
{ACAD_REACTORS
330
D
102
}
330
D
100
AcDbGroup
300

 70
     3
 71
     1
  0
GROUP
  5
1A03
102
{ACAD_REACTORS
330
D
102
}
330
D
100
AcDbGroup
300

 70
     3
 71
     1
  0
GROUP
  5
1C3
102
{ACAD_REACTORS
330
D
102
}
330
D
100
AcDbGroup
300

 70
     3
 71
     1
  0
GROUP
  5
22F
102
{ACAD_REACTORS
330
D
102
}
330
D
100
AcDbGroup
300

 70
     3
 71
     1
  0
GROUP
  5
198D
102
{ACAD_REACTORS
330
D
102
}
330
D
100
AcDbGroup
300

 70
     3
 71
     1
  0
GROUP
  5
1A40
102
{ACAD_REACTORS
330
D
102
}
330
D
100
AcDbGroup
300

 70
     3
 71
     1
  0
GROUP
  5
241
102
{ACAD_REACTORS
330
D
102
}
330
D
100
AcDbGroup
300

 70
     1
 71
     1
  0
GROUP
  5
2A6
102
{ACAD_REACTORS
330
D
102
}
330
D
100
AcDbGroup
300
Vite UNI 5931 M8X25
 70
     3
 71
     1
  0
GROUP
  5
3A8
102
{ACAD_REACTORS
330
D
102
}
330
D
100
AcDbGroup
300

 70
     3
 71
     1
  0
GROUP
  5
376
102
{ACAD_REACTORS
330
D
102
}
330
D
100
AcDbGroup
300

 70
     3
 71
     1
  0
GROUP
  5
1979
102
{ACAD_REACTORS
330
D
102
}
330
D
100
AcDbGroup
300

 70
     1
 71
     1
  0
GROUP
  5
197F
102
{ACAD_REACTORS
330
D
102
}
330
D
100
AcDbGroup
300

 70
     1
 71
     1
  0
GROUP
  5
238
102
{ACAD_REACTORS
330
D
102
}
330
D
100
AcDbGroup
300

 70
     3
 71
     1
  0
GROUP
  5
1967
102
{ACAD_REACTORS
330
D
102
}
330
D
100
AcDbGroup
300
Vite UNI 5933 M6X16
 70
     3
 71
     1
  0
GROUP
  5
2B2
102
{ACAD_REACTORS
330
D
102
}
330
D
100
AcDbGroup
300

 70
     1
 71
     1
  0
GROUP
  5
2D4
102
{ACAD_REACTORS
330
D
102
}
330
D
100
AcDbGroup
300

 70
     1
 71
     1
  0
GROUP
  5
2B3
102
{ACAD_REACTORS
330
D
102
}
330
D
100
AcDbGroup
300

 70
     1
 71
     1
  0
GROUP
  5
1A51
102
{ACAD_REACTORS
330
D
102
}
330
D
100
AcDbGroup
300

 70
     3
 71
     1
  0
GROUP
  5
20B
102
{ACAD_REACTORS
330
D
102
}
330
D
100
AcDbGroup
300
Ghiera autofrenante M20x1
 70
     3
 71
     1
  0
GROUP
  5
2E5
102
{ACAD_REACTORS
330
D
102
}
330
D
100
AcDbGroup
300
Rosetta UNI 1751 A 6.1
 70
     1
 71
     1
  0
GROUP
  5
1950
102
{ACAD_REACTORS
330
D
102
}
330
D
100
AcDbGroup
300

 70
     1
 71
     1
  0
GROUP
  5
3DB
102
{ACAD_REACTORS
330
D
102
}
330
D
100
AcDbGroup
300

 70
     3
 71
     1
  0
GROUP
  5
35E
102
{ACAD_REACTORS
330
D
102
}
330
D
100
AcDbGroup
300

 70
     1
 71
     1
  0
GROUP
  5
1A1C
102
{ACAD_REACTORS
330
D
102
}
330
D
100
AcDbGroup
300

 70
     3
 71
     1
  0
GROUP
  5
224
102
{ACAD_REACTORS
330
D
102
}
330
D
100
AcDbGroup
300

 70
     3
 71
     1
  0
GROUP
  5
285
102
{ACAD_REACTORS
330
D
102
}
330
D
100
AcDbGroup
300

 70
     1
 71
     1
  0
GROUP
  5
1FB
102
{ACAD_REACTORS
330
D
102
}
330
D
100
AcDbGroup
300

 70
     3
 71
     1
  0
GROUP
  5
1A52
102
{ACAD_REACTORS
330
D
102
}
330
D
100
AcDbGroup
300

 70
     1
 71
     1
  0
GROUP
  5
295
102
{ACAD_REACTORS
330
D
102
}
330
D
100
AcDbGroup
300
Ghiera autofrenante M20x1
 70
     3
 71
     1
  0
GROUP
  5
2F0
102
{ACAD_REACTORS
330
D
102
}
330
D
100
AcDbGroup
300

 70
     1
 71
     1
  0
GROUP
  5
3D9
102
{ACAD_REACTORS
330
D
102
}
330
D
100
AcDbGroup
300

 70
     3
 71
     1
  0
GROUP
  5
19A5
102
{ACAD_REACTORS
330
D
102
}
330
D
100
AcDbGroup
300

 70
     3
 71
     1
  0
GROUP
  5
28D
102
{ACAD_REACTORS
330
D
102
}
330
D
100
AcDbGroup
300

 70
     1
 71
     1
  0
GROUP
  5
198F
102
{ACAD_REACTORS
330
D
102
}
330
D
100
AcDbGroup
300

 70
     1
 71
     1
  0
GROUP
  5
2FB
102
{ACAD_REACTORS
330
D
102
}
330
D
100
AcDbGroup
300

 70
     3
 71
     1
  0
GROUP
  5
31A
102
{ACAD_REACTORS
330
D
102
}
330
D
100
AcDbGroup
300

 70
     3
 71
     1
  0
GROUP
  5
2FC
102
{ACAD_REACTORS
330
D
102
}
330
D
100
AcDbGroup
300

 70
     3
 71
     1
  0
GROUP
  5
219
102
{ACAD_REACTORS
330
D
102
}
330
D
100
AcDbGroup
300

 70
     3
 71
     1
  0
GROUP
  5
265
102
{ACAD_REACTORS
330
D
102
}
330
D
100
AcDbGroup
300

 70
     1
 71
     1
  0
GROUP
  5
32A
102
{ACAD_REACTORS
330
D
102
}
330
D
100
AcDbGroup
300

 70
     1
 71
     1
  0
GROUP
  5
197A
102
{ACAD_REACTORS
330
D
102
}
330
D
100
AcDbGroup
300

 70
     3
 71
     1
  0
GROUP
  5
397
102
{ACAD_REACTORS
330
D
102
}
330
D
100
AcDbGroup
300
Vite UNI 5931 M8X25
 70
     1
 71
     1
  0
GROUP
  5
1A33
102
{ACAD_REACTORS
330
D
102
}
330
D
100
AcDbGroup
300

 70
     1
 71
     1
  0
GROUP
  5
27C
102
{ACAD_REACTORS
330
D
102
}
330
D
100
AcDbGroup
300

 70
     3
 71
     1
  0
GROUP
  5
2D3
102
{ACAD_REACTORS
330
D
102
}
330
D
100
AcDbGroup
300

 70
     3
 71
     1
  0
GROUP
  5
257
102
{ACAD_REACTORS
330
D
102
}
330
D
100
AcDbGroup
300

 70
     3
 71
     1
  0
GROUP
  5
21A
102
{ACAD_REACTORS
330
D
102
}
330
D
100
AcDbGroup
300

 70
     3
 71
     1
  0
GROUP
  5
2E2
102
{ACAD_REACTORS
330
D
102
}
330
D
100
AcDbGroup
300

 70
     1
 71
     1
  0
GROUP
  5
334
102
{ACAD_REACTORS
330
D
102
}
330
D
100
AcDbGroup
300

 70
     3
 71
     1
  0
GROUP
  5
196B
102
{ACAD_REACTORS
330
D
102
}
330
D
100
AcDbGroup
300

 70
     1
 71
     1
  0
GROUP
  5
19C7
102
{ACAD_REACTORS
330
D
102
}
330
D
100
AcDbGroup
300

 70
     3
 71
     1
  0
GROUP
  5
19B3
102
{ACAD_REACTORS
330
D
102
}
330
D
100
AcDbGroup
300
Vite UNI 5933 M6X16
 70
     1
 71
     1
  0
GROUP
  5
33E
102
{ACAD_REACTORS
330
D
102
}
330
D
100
AcDbGroup
300

 70
     1
 71
     1
  0
GROUP
  5
359
102
{ACAD_REACTORS
330
D
102
}
330
D
100
AcDbGroup
300

 70
     1
 71
     1
  0
LAYOUT
  5
371E
102
{ACAD_XDICTIONARY
360
38C3
102
}
102
{ACAD_REACTORS
330
371B
102
}
330
371B
100
AcDbPlotSettings
  1

  2
C:\Programmi\Acadm 6\plotters\Cadjet 2.pc3
  4

  6

 40
0.0
 41
0.0
 42
0.0
 43
0.0
 44
0.0
 45
0.0
 46
0.0
 47
0.0
 48
0.0
 49
0.0
140
0.0
141
0.0
142
1.0
143
1.0
 70
   688
 72
     0
 73
     0
 74
     5
  7

 75
    16
147
1.0
148
0.0
149
0.0
100
AcDbLayout
  1
Layout1
 70
     1
 71
     1
 10
0.0
 20
0.0
 11
420.0
 21
297.0
 12
0.0
 22
0.0
 32
0.0
 14
1.000000000000000E+20
 24
1.000000000000000E+20
 34
1.000000000000000E+20
 15
-1.000000000000000E+20
 25
-1.000000000000000E+20
 35
-1.000000000000000E+20
146
0.0
 13
0.0
 23
0.0
 33
0.0
 16
1.0
 26
0.0
 36
0.0
 17
0.0
 27
1.0
 37
0.0
 76
     0
330
15
  0
LAYOUT
  5
371D
102
{ACAD_XDICTIONARY
360
38C1
102
}
102
{ACAD_REACTORS
330
371B
102
}
330
371B
100
AcDbPlotSettings
  1

  2
C:\Programmi\Acadm 6\plotters\Cadjet 2.pc3
  4

  6

 40
0.0
 41
0.0
 42
0.0
 43
0.0
 44
0.0
 45
0.0
 46
0.0
 47
0.0
 48
0.0
 49
0.0
140
0.0
141
0.0
142
1.0
143
1.0
 70
  1712
 72
     0
 73
     0
 74
     0
  7

 75
     0
147
1.0
148
0.0
149
0.0
100
AcDbLayout
  1
Model
 70
     1
 71
     0
 10
0.0
 20
0.0
 11
12.0
 21
9.0
 12
0.0
 22
0.0
 32
0.0
 14
0.0
 24
0.0
 34
0.0
 15
0.0
 25
0.0
 35
0.0
146
0.0
 13
0.0
 23
0.0
 33
0.0
 16
1.0
 26
0.0
 36
0.0
 17
0.0
 27
1.0
 37
0.0
 76
     0
330
18
331
3800
  0
MATERIAL
  5
3804
102
{ACAD_XDICTIONARY
360
38C7
102
}
102
{ACAD_REACTORS
330
3802
102
}
330
3802
100
AcDbMaterial
  1
ByBlock
  0
MATERIAL
  5
3803
102
{ACAD_XDICTIONARY
360
38C5
102
}
102
{ACAD_REACTORS
330
3802
102
}
330
3802
100
AcDbMaterial
  1
ByLayer
  0
MATERIAL
  5
3805
102
{ACAD_XDICTIONARY
360
38C9
102
}
102
{ACAD_REACTORS
330
3802
102
}
330
3802
100
AcDbMaterial
  1
Global
  0
MLINESTYLE
  5
1C
102
{ACAD_REACTORS
330
1B
102
}
330
1B
100
AcDbMlineStyle
  2
STANDARD
 70
     0
  3

 62
   256
 51
90.0
 52
90.0
 71
     2
 49
0.5
 62
   256
  6
BYLAYER
 49
-0.5
 62
   256
  6
BYLAYER
  0
ACDBPLACEHOLDER
  5
371A
102
{ACAD_REACTORS
330
3719
102
}
330
3719
  0
TABLESTYLE
  5
3819
102
{ACAD_XDICTIONARY
360
38CB
102
}
102
{ACAD_REACTORS
330
3818
102
}
330
3818
100
AcDbTableStyle
  3
Standard
 70
     0
 71
     0
 40
1.5
 41
1.5
280
     0
281
     0
  7
STANDARD
140
4.5
170
     2
 62
     0
 63
     7
283
     0
274
    -2
284
     1
 64
     0
275
    -2
285
     1
 65
     0
276
    -2
286
     1
 66
     0
277
    -2
287
     1
 67
     0
278
    -2
288
     1
 68
     0
279
    -2
289
     1
 69
     0
  7
STANDARD
140
6.0
170
     5
 62
     0
 63
     7
283
     0
274
    -2
284
     1
 64
     0
275
    -2
285
     1
 65
     0
276
    -2
286
     1
 66
     0
277
    -2
287
     1
 67
     0
278
    -2
288
     1
 68
     0
279
    -2
289
     1
 69
     0
  7
STANDARD
140
4.5
170
     5
 62
     0
 63
     7
283
     0
274
    -2
284
     1
 64
     0
275
    -2
285
     1
 65
     0
276
    -2
286
     1
 66
     0
277
    -2
287
     1
 67
     0
278
    -2
288
     1
 68
     0
279
    -2
289
     1
 69
     0
  0
VISUALSTYLE
  5
380C
102
{ACAD_REACTORS
330
3806
102
}
330
3806
100
AcDbVisualStyle
  2
2dWireframe
 70
     4
 71
     0
 72
     2
 73
     0
 90
        0
 40
-0.6
 41
-30.0
 62
     5
 63
     7
 74
     1
 91
        4
 64
     7
 65
   257
 75
     1
175
     1
 42
1.0
 92
        0
 66
   257
 43
1.0
 76
     1
 77
     6
 78
     2
 67
     7
 79
     5
170
     0
171
     0
290
     0
174
     0
 93
        1
 44
0.0
173
     0
291
     0
 45
0.0
1001
ACAD
1000
AcDbSavedByObjectVersion
1070
     0
  0
VISUALSTYLE
  5
380B
102
{ACAD_REACTORS
330
3806
102
}
330
3806
100
AcDbVisualStyle
  2
Basic
 70
     7
 71
     1
 72
     0
 73
     1
 90
        0
 40
-0.6
 41
-30.0
 62
     5
 63
     7
 74
     0
 91
        4
 64
     7
 65
   257
 75
     1
175
     1
 42
1.0
 92
        8
 66
     7
 43
1.0
 76
     1
 77
     6
 78
     2
 67
     7
 79
     5
170
     0
171
     0
290
     0
174
     0
 93
        1
 44
0.0
173
     0
291
     1
 45
0.0
1001
ACAD
1000
AcDbSavedByObjectVersion
1070
     0
  0
VISUALSTYLE
  5
3812
102
{ACAD_REACTORS
330
3806
102
}
330
3806
100
AcDbVisualStyle
  2
Brighten
 70
    12
 71
     2
 72
     2
 73
     0
 90
        0
 40
-0.6
 41
-30.0
 62
     5
 63
     7
 74
     1
 91
        4
 64
     7
 65
   257
 75
     1
175
     1
 42
1.0
 92
        8
 66
     7
 43
1.0
 76
     1
 77
     6
 78
     2
 67
     7
 79
     5
170
     0
171
     0
290
     0
174
     0
 93
        1
 44
50.0
173
     0
291
     1
 45
0.0
1001
ACAD
1000
AcDbSavedByObjectVersion
1070
     0
  0
VISUALSTYLE
  5
3816
102
{ACAD_REACTORS
330
3806
102
}
330
3806
100
AcDbVisualStyle
  2
ColorChange
 70
    16
 71
     2
 72
     2
 73
     3
 90
        0
 40
-0.6
 41
-30.0
 62
     5
 63
     8
 74
     1
 91
        4
 64
     7
 65
   257
 75
     1
175
     1
 42
1.0
 92
        8
 66
     8
 43
1.0
 76
     1
 77
     6
 78
     2
 67
     7
 79
     5
170
     0
171
     0
290
     0
174
     0
 93
        1
 44
0.0
173
     0
291
     1
 45
0.0
1001
ACAD
1000
AcDbSavedByObjectVersion
1070
     0
  0
VISUALSTYLE
  5
3811
102
{ACAD_REACTORS
330
3806
102
}
330
3806
100
AcDbVisualStyle
  2
Dim
 70
    11
 71
     2
 72
     2
 73
     0
 90
        0
 40
-0.6
 41
-30.0
 62
     5
 63
     7
 74
     1
 91
        4
 64
     7
 65
   257
 75
     1
175
     1
 42
1.0
 92
        8
 66
     7
 43
1.0
 76
     1
 77
     6
 78
     2
 67
     7
 79
     5
170
     0
171
     0
290
     0
174
     0
 93
        1
 44
-50.0
173
     0
291
     1
 45
0.0
1001
ACAD
1000
AcDbSavedByObjectVersion
1070
     0
  0
VISUALSTYLE
  5
3815
102
{ACAD_REACTORS
330
3806
102
}
330
3806
100
AcDbVisualStyle
  2
Facepattern
 70
    15
 71
     2
 72
     2
 73
     0
 90
        0
 40
-0.6
 41
-30.0
 62
     5
 63
     7
 74
     1
 91
        4
 64
     7
 65
   257
 75
     1
175
     1
 42
1.0
 92
        8
 66
     7
 43
1.0
 76
     1
 77
     6
 78
     2
 67
     7
 79
     5
170
     0
171
     0
290
     0
174
     0
 93
        1
 44
0.0
173
     0
291
     1
 45
0.0
1001
ACAD
1000
AcDbSavedByObjectVersion
1070
     0
  0
VISUALSTYLE
  5
3807
102
{ACAD_REACTORS
330
3806
102
}
330
3806
100
AcDbVisualStyle
  2
Flat
 70
     0
 71
     2
 72
     1
 73
     1
 90
        2
 40
-0.6
 41
30.0
 62
     5
 63
     7
 74
     0
 91
        4
 64
     7
 65
   257
 75
     1
175
     1
 42
1.0
 92
        8
 66
     7
 43
1.0
 76
     1
 77
     6
 78
     2
 67
     7
 79
     5
170
     0
171
     0
290
     0
174
     0
 93
       13
 44
0.0
173
     0
291
     1
 45
0.0
1001
ACAD
1000
AcDbSavedByObjectVersion
1070
     0
  0
VISUALSTYLE
  5
3808
102
{ACAD_REACTORS
330
3806
102
}
330
3806
100
AcDbVisualStyle
  2
FlatWithEdges
 70
     1
 71
     2
 72
     1
 73
     1
 90
        2
 40
-0.6
 41
30.0
 62
     5
 63
     7
 74
     1
 91
        4
 64
     7
 65
   257
 75
     1
175
     1
 42
1.0
 92
        0
 66
   257
 43
1.0
 76
     1
 77
     6
 78
     2
 67
     7
 79
     5
170
     0
171
     0
290
     0
174
     0
 93
       13
 44
0.0
173
     0
291
     1
 45
0.0
1001
ACAD
1000
AcDbSavedByObjectVersion
1070
     0
  0
VISUALSTYLE
  5
3809
102
{ACAD_REACTORS
330
3806
102
}
330
3806
100
AcDbVisualStyle
  2
Gouraud
 70
     2
 71
     2
 72
     2
 73
     1
 90
        2
 40
-0.6
 41
30.0
 62
     5
 63
     7
 74
     0
 91
        4
 64
     7
 65
   257
 75
     1
175
     1
 42
1.0
 92
        0
 66
     7
 43
1.0
 76
     1
 77
     6
 78
     2
 67
     7
 79
     5
170
     0
171
     0
290
     0
174
     0
 93
       13
 44
0.0
173
     0
291
     1
 45
0.0
1001
ACAD
1000
AcDbSavedByObjectVersion
1070
     0
  0
VISUALSTYLE
  5
380A
102
{ACAD_REACTORS
330
3806
102
}
330
3806
100
AcDbVisualStyle
  2
GouraudWithEdges
 70
     3
 71
     2
 72
     2
 73
     1
 90
        2
 40
-0.6
 41
30.0
 62
     5
 63
     7
 74
     1
 91
        4
 64
     7
 65
   257
 75
     1
175
     1
 42
1.0
 92
        0
 66
   257
 43
1.0
 76
     1
 77
     6
 78
     2
 67
     7
 79
     5
170
     0
171
     0
290
     0
174
     0
 93
       13
 44
0.0
173
     0
291
     1
 45
0.0
1001
ACAD
1000
AcDbSavedByObjectVersion
1070
     0
  0
VISUALSTYLE
  5
3814
102
{ACAD_REACTORS
330
3806
102
}
330
3806
100
AcDbVisualStyle
  2
Linepattern
 70
    14
 71
     2
 72
     2
 73
     0
 90
        0
 40
-0.6
 41
-30.0
 62
     5
 63
     7
 74
     1
 91
        4
 64
     7
 65
   257
 75
     7
175
     7
 42
1.0
 92
        8
 66
     7
 43
1.0
 76
     1
 77
     6
 78
     2
 67
     7
 79
     5
170
     0
171
     0
290
     0
174
     0
 93
        1
 44
0.0
173
     0
291
     1
 45
0.0
1001
ACAD
1000
AcDbSavedByObjectVersion
1070
     0
  0
VISUALSTYLE
  5
3813
102
{ACAD_REACTORS
330
3806
102
}
330
3806
100
AcDbVisualStyle
  2
Thicken
 70
    13
 71
     2
 72
     2
 73
     0
 90
        0
 40
-0.6
 41
-30.0
 62
     5
 63
     7
 74
     1
 91
        4
 64
     7
 65
   257
 75
     1
175
     1
 42
1.0
 92
       12
 66
     7
 43
1.0
 76
     1
 77
     6
 78
     2
 67
     7
 79
     5
170
     0
171
     0
290
     0
174
     0
 93
        1
 44
0.0
173
     0
291
     1
 45
0.0
1001
ACAD
1000
AcDbSavedByObjectVersion
1070
     0
  0
DICTIONARYVAR
  5
38BE
102
{ACAD_REACTORS
330
3786
102
}
330
3786
100
DictionaryVariables
280
     0
  1
STANDARD
  0
DICTIONARYVAR
  5
3788
102
{ACAD_REACTORS
330
3786
102
}
330
3786
100
DictionaryVariables
280
     0
  1
1
  0
DICTIONARYVAR
  5
3787
102
{ACAD_REACTORS
330
3786
102
}
330
3786
100
DictionaryVariables
280
     0
  1
0
  0
DICTIONARYVAR
  5
38BF
102
{ACAD_REACTORS
330
3786
102
}
330
3786
100
DictionaryVariables
280
     0
  1
127
  0
DICTIONARY
  5
3743
102
{ACAD_REACTORS
330
373D
102
}
330
373D
100
AcDbDictionary
281
     1
  0
XRECORD
  5
386D
102
{ACAD_REACTORS
330
373D
102
}
330
373D
100
AcDbXrecord
280
     1
 90
-1023410169
  0
XRECORD
  5
37AE
102
{ACAD_REACTORS
330
37AC
102
}
330
37AC
100
AcDbXrecord
280
     1
330
1BC3
330
D2
330
D3
330
D4
330
D5
330
D6
330
D7
330
D8
330
D9
330
DA
  0
DICTIONARY
  5
38C3
330
371E
100
AcDbDictionary
280
     1
281
     1
  3
ACAD_XREC_ROUNDTRIP
360
38C4
  0
DICTIONARY
  5
38C1
330
371D
100
AcDbDictionary
280
     1
281
     1
  3
ACAD_XREC_ROUNDTRIP
360
38C2
  0
DICTIONARY
  5
38C7
330
3804
100
AcDbDictionary
280
     1
281
     1
  3
ACAD_XREC_ROUNDTRIP
360
38C8
  0
DICTIONARY
  5
38C5
330
3803
100
AcDbDictionary
280
     1
281
     1
  3
ACAD_XREC_ROUNDTRIP
360
38C6
  0
DICTIONARY
  5
38C9
330
3805
100
AcDbDictionary
280
     1
281
     1
  3
ACAD_XREC_ROUNDTRIP
360
38CA
  0
DICTIONARY
  5
38CB
330
3819
100
AcDbDictionary
280
     1
281
     1
  3
ACAD_XREC_ROUNDTRIP
360
38CC
  0
XRECORD
  5
38C4
102
{ACAD_REACTORS
330
38C3
102
}
330
38C3
100
AcDbXrecord
280
     1
102
SHADEPLOT
 70
     0
102
SHADEPLOTRESLEVEL
 70
     2
102
SHADEPLOTCUSTOMDPI
 70
   300
  0
XRECORD
  5
38C2
102
{ACAD_REACTORS
330
38C1
102
}
330
38C1
100
AcDbXrecord
280
     1
102
SHADEPLOT
 70
     0
102
SHADEPLOTRESLEVEL
 70
     2
102
SHADEPLOTCUSTOMDPI
 70
   300
  0
XRECORD
  5
38C8
102
{ACAD_REACTORS
330
38C7
102
}
330
38C7
100
AcDbXrecord
280
     1
102
MATERIAL
148
0.0
149
0.0
149
0.0
 93
        0
 94
       63
282
     0
 72
     1
 77
     1
171
     1
175
     1
179
     1
273
     0
  0
XRECORD
  5
38C6
102
{ACAD_REACTORS
330
38C5
102
}
330
38C5
100
AcDbXrecord
280
     1
102
MATERIAL
148
0.0
149
0.0
149
0.0
 93
        0
 94
       63
282
     0
 72
     1
 77
     1
171
     1
175
     1
179
     1
273
     0
  0
XRECORD
  5
38CA
102
{ACAD_REACTORS
330
38C9
102
}
330
38C9
100
AcDbXrecord
280
     1
102
MATERIAL
148
0.0
149
0.0
149
0.0
 93
        0
 94
       63
282
     0
 72
     1
 77
     1
171
     1
175
     1
179
     1
273
     0
  0
XRECORD
  5
38CC
102
{ACAD_REACTORS
330
38CB
102
}
330
38CB
100
AcDbXrecord
280
     1
102
ACAD_ROUNDTRIP_PRE2007_TABLESTYLE
 90
      512
 91
        0
  1

 92
      512
 93
        0
  2

 94
      512
 95
        0
  3

  0
ENDSEC
  0
EOF
