  0
SECTION
  2
HEADER
  9
$ACADVER
  1
AC1015
  9
$ACADMAINTVER
 70
    20
  9
$DWGCODEPAGE
  3
ANSI_1252
  9
$INSBASE
 10
0.0
 20
0.0
 30
0.0
  9
$EXTMIN
 10
1222.212069095903
 20
708.774843501239
 30
-0.0000000000000058
  9
$EXTMAX
 10
1362.704024725789
 20
889.1048986572323
 30
0.0000000000000104
  9
$LIMMIN
 10
1210.045184588387
 20
705.3776698586325
  9
$LIMMAX
 10
1368.462626219836
 20
897.4470687424272
  9
$ORTHOMODE
 70
     1
  9
$REGENMODE
 70
     1
  9
$FILLMODE
 70
     1
  9
$QTEXTMODE
 70
     0
  9
$MIRRTEXT
 70
     1
  9
$LTSCALE
 40
15.0
  9
$ATTMODE
 70
     1
  9
$TEXTSIZE
 40
2.5
  9
$TRACEWID
 40
1.0
  9
$TEXTSTYLE
  7
STANDARD
  9
$CLAYER
  8
QUOTE
  9
$CELTYPE
  6
BYLAYER
  9
$CECOLOR
 62
   256
  9
$CELTSCALE
 40
1.0
  9
$DISPSILH
 70
     0
  9
$DIMSCALE
 40
1.0
  9
$DIMASZ
 40
0.18
  9
$DIMEXO
 40
0.0625
  9
$DIMDLI
 40
0.38
  9
$DIMRND
 40
0.0
  9
$DIMDLE
 40
0.0
  9
$DIMEXE
 40
0.18
  9
$DIMTP
 40
0.0
  9
$DIMTM
 40
0.0
  9
$DIMTXT
 40
0.18
  9
$DIMCEN
 40
0.09
  9
$DIMTSZ
 40
0.0
  9
$DIMTOL
 70
     0
  9
$DIMLIM
 70
     0
  9
$DIMTIH
 70
     1
  9
$DIMTOH
 70
     1
  9
$DIMSE1
 70
     0
  9
$DIMSE2
 70
     0
  9
$DIMTAD
 70
     0
  9
$DIMZIN
 70
     0
  9
$DIMBLK
  1

  9
$DIMASO
 70
     1
  9
$DIMSHO
 70
     1
  9
$DIMPOST
  1

  9
$DIMAPOST
  1

  9
$DIMALT
 70
     0
  9
$DIMALTD
 70
     2
  9
$DIMALTF
 40
25.4
  9
$DIMLFAC
 40
1.0
  9
$DIMTOFL
 70
     0
  9
$DIMTVP
 40
0.0
  9
$DIMTIX
 70
     0
  9
$DIMSOXD
 70
     0
  9
$DIMSAH
 70
     0
  9
$DIMBLK1
  1

  9
$DIMBLK2
  1

  9
$DIMSTYLE
  2
STANDARD
  9
$DIMCLRD
 70
     0
  9
$DIMCLRE
 70
     0
  9
$DIMCLRT
 70
     0
  9
$DIMTFAC
 40
1.0
  9
$DIMGAP
 40
0.09
  9
$DIMJUST
 70
     0
  9
$DIMSD1
 70
     0
  9
$DIMSD2
 70
     0
  9
$DIMTOLJ
 70
     1
  9
$DIMTZIN
 70
     0
  9
$DIMALTZ
 70
     0
  9
$DIMALTTZ
 70
     0
  9
$DIMUPT
 70
     0
  9
$DIMDEC
 70
     4
  9
$DIMTDEC
 70
     4
  9
$DIMALTU
 70
     2
  9
$DIMALTTD
 70
     2
  9
$DIMTXSTY
  7
STANDARD
  9
$DIMAUNIT
 70
     0
  9
$DIMADEC
 70
     0
  9
$DIMALTRND
 40
0.0
  9
$DIMAZIN
 70
     0
  9
$DIMDSEP
 70
    46
  9
$DIMATFIT
 70
     3
  9
$DIMFRAC
 70
     0
  9
$DIMLDRBLK
  1

  9
$DIMLUNIT
 70
     2
  9
$DIMLWD
 70
    -2
  9
$DIMLWE
 70
    -2
  9
$DIMTMOVE
 70
     0
  9
$LUNITS
 70
     2
  9
$LUPREC
 70
     4
  9
$SKETCHINC
 40
1.0
  9
$FILLETRAD
 40
10.0
  9
$AUNITS
 70
     0
  9
$AUPREC
 70
     0
  9
$MENU
  1
.
  9
$ELEVATION
 40
0.0
  9
$PELEVATION
 40
0.0
  9
$THICKNESS
 40
0.0
  9
$LIMCHECK
 70
     0
  9
$CHAMFERA
 40
10.0
  9
$CHAMFERB
 40
10.0
  9
$CHAMFERC
 40
20.0
  9
$CHAMFERD
 40
0.0
  9
$SKPOLY
 70
     0
  9
$TDCREATE
 40
2451351.430567639
  9
$TDUCREATE
 40
2451351.347234306
  9
$TDUPDATE
 40
2454372.401641308
  9
$TDUUPDATE
 40
2454372.318307974
  9
$TDINDWG
 40
0.4572181597
  9
$TDUSRTIMER
 40
0.4572181597
  9
$USRTIMER
 70
     1
  9
$ANGBASE
 50
0.0
  9
$ANGDIR
 70
     0
  9
$PDMODE
 70
     0
  9
$PDSIZE
 40
0.0
  9
$PLINEWID
 40
0.0
  9
$SPLFRAME
 70
     0
  9
$SPLINETYPE
 70
     6
  9
$SPLINESEGS
 70
     8
  9
$HANDSEED
  5
469B
  9
$SURFTAB1
 70
     6
  9
$SURFTAB2
 70
     6
  9
$SURFTYPE
 70
     6
  9
$SURFU
 70
     6
  9
$SURFV
 70
     6
  9
$UCSBASE
  2

  9
$UCSNAME
  2

  9
$UCSORG
 10
0.0
 20
0.0
 30
0.0
  9
$UCSXDIR
 10
1.0
 20
0.0
 30
0.0
  9
$UCSYDIR
 10
0.0
 20
1.0
 30
0.0
  9
$UCSORTHOREF
  2

  9
$UCSORTHOVIEW
 70
     0
  9
$UCSORGTOP
 10
0.0
 20
0.0
 30
0.0
  9
$UCSORGBOTTOM
 10
0.0
 20
0.0
 30
0.0
  9
$UCSORGLEFT
 10
0.0
 20
0.0
 30
0.0
  9
$UCSORGRIGHT
 10
0.0
 20
0.0
 30
0.0
  9
$UCSORGFRONT
 10
0.0
 20
0.0
 30
0.0
  9
$UCSORGBACK
 10
0.0
 20
0.0
 30
0.0
  9
$PUCSBASE
  2

  9
$PUCSNAME
  2

  9
$PUCSORG
 10
0.0
 20
0.0
 30
0.0
  9
$PUCSXDIR
 10
1.0
 20
0.0
 30
0.0
  9
$PUCSYDIR
 10
0.0
 20
1.0
 30
0.0
  9
$PUCSORTHOREF
  2

  9
$PUCSORTHOVIEW
 70
     0
  9
$PUCSORGTOP
 10
0.0
 20
0.0
 30
0.0
  9
$PUCSORGBOTTOM
 10
0.0
 20
0.0
 30
0.0
  9
$PUCSORGLEFT
 10
0.0
 20
0.0
 30
0.0
  9
$PUCSORGRIGHT
 10
0.0
 20
0.0
 30
0.0
  9
$PUCSORGFRONT
 10
0.0
 20
0.0
 30
0.0
  9
$PUCSORGBACK
 10
0.0
 20
0.0
 30
0.0
  9
$USERI1
 70
     0
  9
$USERI2
 70
     0
  9
$USERI3
 70
     0
  9
$USERI4
 70
     0
  9
$USERI5
 70
     0
  9
$USERR1
 40
1.0
  9
$USERR2
 40
0.0
  9
$USERR3
 40
0.0
  9
$USERR4
 40
0.0
  9
$USERR5
 40
0.0
  9
$WORLDVIEW
 70
     1
  9
$SHADEDGE
 70
     3
  9
$SHADEDIF
 70
    70
  9
$TILEMODE
 70
     1
  9
$MAXACTVP
 70
    48
  9
$PINSBASE
 10
0.0
 20
0.0
 30
0.0
  9
$PLIMCHECK
 70
     0
  9
$PEXTMIN
 10
1.000000000000000E+20
 20
1.000000000000000E+20
 30
1.000000000000000E+20
  9
$PEXTMAX
 10
-1.000000000000000E+20
 20
-1.000000000000000E+20
 30
-1.000000000000000E+20
  9
$PLIMMIN
 10
0.0
 20
0.0
  9
$PLIMMAX
 10
420.0
 20
297.0
  9
$UNITMODE
 70
     0
  9
$VISRETAIN
 70
     1
  9
$PLINEGEN
 70
     0
  9
$PSLTSCALE
 70
     1
  9
$TREEDEPTH
 70
  3020
  9
$CMLSTYLE
  2
STANDARD
  9
$CMLJUST
 70
     0
  9
$CMLSCALE
 40
20.0
  9
$PROXYGRAPHICS
 70
     1
  9
$MEASUREMENT
 70
     1
  9
$CELWEIGHT
370
    -1
  9
$ENDCAPS
280
     0
  9
$JOINSTYLE
280
     0
  9
$LWDISPLAY
290
     0
  9
$INSUNITS
 70
     0
  9
$HYPERLINKBASE
  1

  9
$STYLESHEET
  1
Tecno-Stamp.ctb
  9
$XEDIT
290
     1
  9
$CEPSNTYPE
380
     0
  9
$PSTYLEMODE
290
     1
  9
$FINGERPRINTGUID
  2
{B52FC0A5-3500-11D6-99E9-000102212E7C}
  9
$VERSIONGUID
  2
{5F9A5365-A25D-4386-AEE3-1128D013341A}
  9
$EXTNAMES
290
     1
  9
$PSVPSCALE
 40
0.0
  9
$OLESTARTUP
290
     0
  0
ENDSEC
  0
SECTION
  2
CLASSES
  0
CLASS
  1
ACDBDICTIONARYWDFLT
  2
AcDbDictionaryWithDefault
  3
ObjectDBX Classes
 90
        0
280
     0
281
     0
  0
CLASS
  1
ACDBPLACEHOLDER
  2
AcDbPlaceHolder
  3
ObjectDBX Classes
 90
        0
280
     0
281
     0
  0
CLASS
  1
LAYOUT
  2
AcDbLayout
  3
ObjectDBX Classes
 90
        0
280
     0
281
     0
  0
CLASS
  1
ACME_DOCUMENT
  2
AcMeDbDoc
  3
AcMeServices
 90
        0
280
     0
281
     0
  0
CLASS
  1
AMGSETTINGSOBJ
  2
AmgSettingsObj
  3
"AcadM|Product Description: AutoCAD Mechanical|Company: Autodesk"
 90
        0
280
     0
281
     0
  0
CLASS
  1
ACMESCOPE
  2
AcMeScope
  3
AcMeServices
 90
        0
280
     0
281
     0
  0
CLASS
  1
ACMECOMMANDHISTORY
  2
AcMeCommandHistory
  3
AcMeServices
 90
        0
280
     0
281
     0
  0
CLASS
  1
ACIMSYSVARMAN
  2
AcImSysVarManager
  3
AcMeServices
 90
        0
280
     0
281
     0
  0
CLASS
  1
ACIMREALSYSVAR
  2
AcImRealSysVar
  3
AcMeServices
 90
        0
280
     0
281
     0
  0
CLASS
  1
ACIMINTSYSVAR
  2
AcImIntSysVar
  3
AcMeServices
 90
        0
280
     0
281
     0
  0
CLASS
  1
ACMEDRAWINGMAN
  2
AcMeDrawingMan
  3
AcMeServices
 90
        0
280
     0
281
     0
  0
CLASS
  1
ACMEVIEW
  2
AcMeView
  3
AcMeServices
 90
        0
280
     0
281
     0
  0
CLASS
  1
ACDBENTITYCACHE
  2
AcMeEntityCache
  3
AcMeServices
 90
        0
280
     0
281
     0
  0
CLASS
  1
GSMANAGER
  2
AcMeGSManager
  3
AcMeServices
 90
        0
280
     0
281
     0
  0
CLASS
  1
AMDTINTERNALREACTOR
  2
AmdtInternalReactor
  3
AcMeServices
 90
        0
280
     0
281
     0
  0
CLASS
  1
ACMESTATEMGR
  2
AcMeStateMgr
  3
AcMeServices
 90
        0
280
     0
281
     0
  0
CLASS
  1
ACGREFMASTER
  2
AcGrefMaster
  3
AcAttribServices
 90
        0
280
     0
281
     0
  0
CLASS
  1
ACME_DATABASE
  2
AcMeDbDatabase
  3
AcMeServices
 90
        0
280
     0
281
     0
  0
CLASS
  1
ACRFINSADJUSTERMGR
  2
AcRfInsAdjusterMgr
  3
AcMeServices
 90
        0
280
     0
281
     0
  0
CLASS
  1
ACGREFACADMASTER
  2
AcGrefacadMaster
  3
AcGrefServices
 90
        0
280
     0
281
     0
  0
CLASS
  1
AMIMASTER
  2
AmiMaster
  3
AmiServices
 90
        0
280
     0
281
     0
  0
CLASS
  1
ACMDATADICTIONARY
  2
AcmDataDictionary
  3
"AcmSymBB|Product Description: AutoCAD Mechanical|Company: Autodesk"
 90
        0
280
     0
281
     0
  0
CLASS
  1
ACMDATAENTRYBLOCK
  2
AcmDataEntryBlock
  3
"AcmSymBB|Product Description: AutoCAD Mechanical|Company: Autodesk"
 90
        0
280
     0
281
     0
  0
CLASS
  1
ACIMSTRSYSVAR
  2
AcImStrSysVar
  3
AcMeServices
 90
        0
280
     0
281
     0
  0
CLASS
  1
ACMSTANDARDISO
  2
AcmStandardISO
  3
"Amdt_StdImp|Product Description: AutoCAD Mechanical|Company: Autodesk"
 90
        0
280
     0
281
     0
  0
CLASS
  1
AMGOBJPROPCFG
  2
AmgObjPropCfg
  3
"AmgLay|Product Description: AutoCAD Mechanical|Company: Autodesk"
 90
        1
280
     0
281
     0
  0
CLASS
  1
AMDTEDGESTANDARDISO
  2
AmdtEdgeStdISO
  3
"Amdt_StdImp|Product Description: AutoCAD Mechanical|Company: Autodesk"
 90
        0
280
     0
281
     0
  0
CLASS
  1
ACMSURFSTANDARDISO
  2
AcmSurfTextStdISO
  3
"Amdt_StdImp|Product Description: AutoCAD Mechanical|Company: Autodesk"
 90
        0
280
     0
281
     0
  0
CLASS
  1
ACMFCFSTANDARDISO
  2
AcmFCFStdISO
  3
"Amdt_StdImp|Product Description: AutoCAD Mechanical|Company: Autodesk"
 90
        0
280
     0
281
     0
  0
CLASS
  1
ACMWELDSTANDARDISO
  2
AcmWeldingStdISO
  3
"Amdt_StdImp|Product Description: AutoCAD Mechanical|Company: Autodesk"
 90
        0
280
     0
281
     0
  0
CLASS
  1
ACMIDSTANDARDISO
  2
AcmIdStdISO
  3
"Amdt_StdImp|Product Description: AutoCAD Mechanical|Company: Autodesk"
 90
        0
280
     0
281
     0
  0
CLASS
  1
ACMDATUMSTANDARDISO
  2
AcmDatumStdISO
  3
"Amdt_StdImp|Product Description: AutoCAD Mechanical|Company: Autodesk"
 90
        0
280
     0
281
     0
  0
CLASS
  1
ACMBOMSTANDARDISO
  2
AcmBOMStdISO
  3
"Amdt_StdImp|Product Description: AutoCAD Mechanical|Company: Autodesk"
 90
        0
280
     0
281
     0
  0
CLASS
  1
ACMDETAILSTANDARDISO
  2
AmdtDetailSymStdISO
  3
"Amdt_StdImp|Product Description: AutoCAD Mechanical|Company: Autodesk"
 90
        0
280
     0
281
     0
  0
CLASS
  1
ACMSECTIONSTANDARDISO
  2
AmdtSectionSymStdISO
  3
"Amdt_StdImp|Product Description: AutoCAD Mechanical|Company: Autodesk"
 90
        0
280
     0
281
     0
  0
CLASS
  1
ACMCENTERLINESTANDARDISO
  2
AmdtCenterLineStdISO
  3
"Amdt_StdImp|Product Description: AutoCAD Mechanical|Company: Autodesk"
 90
        0
280
     0
281
     0
  0
CLASS
  1
ACMNOTESTANDARDISO
  2
AmdtNoteStdISO
  3
"Amdt_StdImp|Product Description: AutoCAD Mechanical|Company: Autodesk"
 90
        0
280
     0
281
     0
  0
CLASS
  1
ACAMGLAYSTD
  2
AcAmgLayStd
  3
"AmgLay|Product Description: AutoCAD Mechanical|Company: Autodesk"
 90
        0
280
     0
281
     0
  0
CLASS
  1
ACAMGDIMSTD
  2
AcAmgDimStd
  3
"AmgDim|Product Description: AutoCAD Mechanical|Company: Autodesk"
 90
        0
280
     0
281
     0
  0
CLASS
  1
ACAMGHOLECHARTSTDISO
  2
AcAmgHoleChartStdISO
  3
ACMSYMBB_MODULE_NAME
 90
        0
280
     0
281
     0
  0
CLASS
  1
ACAMGTITLESTD
  2
AcAmgTitleStd
  3
"AmgTitle|Product Description: AutoCAD Mechanical|Company: Autodesk"
 90
        0
280
     0
281
     0
  0
CLASS
  1
LAYER_INDEX
  2
AcDbLayerIndex
  3
ObjectDBX Classes
 90
    32768
280
     0
281
     0
  0
CLASS
  1
IDBUFFER
  2
AcDbIdBuffer
  3
ObjectDBX Classes
 90
    32768
280
     0
281
     0
  0
CLASS
  1
DICTIONARYVAR
  2
AcDbDictionaryVar
  3
ObjectDBX Classes
 90
        0
280
     0
281
     0
  0
CLASS
  1
ACMSTANDARDANSI
  2
AcmStandardANSI
  3
"Amdt_StdImp|Product Description: AutoCAD Mechanical|Company: Autodesk"
 90
        0
280
     0
281
     0
  0
CLASS
  1
ACMSURFSTANDARDANSI
  2
AcmSurfTextStdANSI
  3
"Amdt_StdImp|Product Description: AutoCAD Mechanical|Company: Autodesk"
 90
        0
280
     0
281
     0
  0
CLASS
  1
ACMFCFSTANDARDANSI
  2
AcmFCFStdANSI
  3
"Amdt_StdImp|Product Description: AutoCAD Mechanical|Company: Autodesk"
 90
        0
280
     0
281
     0
  0
CLASS
  1
ACMWELDSTANDARDANSI
  2
AcmWeldingStdANSI
  3
"Amdt_StdImp|Product Description: AutoCAD Mechanical|Company: Autodesk"
 90
        0
280
     0
281
     0
  0
CLASS
  1
ACMIDSTANDARDANSI
  2
AcmIdStdANSI
  3
"Amdt_StdImp|Product Description: AutoCAD Mechanical|Company: Autodesk"
 90
        0
280
     0
281
     0
  0
CLASS
  1
ACMDATUMSTANDARDANSI
  2
AcmDatumStdANSI
  3
"Amdt_StdImp|Product Description: AutoCAD Mechanical|Company: Autodesk"
 90
        0
280
     0
281
     0
  0
CLASS
  1
ACMBOMSTANDARDANSI
  2
AcmBOMStdANSI
  3
"Amdt_StdImp|Product Description: AutoCAD Mechanical|Company: Autodesk"
 90
        0
280
     0
281
     0
  0
CLASS
  1
ACMDETAILSTANDARDANSI
  2
AmdtDetailSymStdANSI
  3
"Amdt_StdImp|Product Description: AutoCAD Mechanical|Company: Autodesk"
 90
        0
280
     0
281
     0
  0
CLASS
  1
ACMSECTIONSTANDARDANSI
  2
AmdtSectionSymStdANSI
  3
"Amdt_StdImp|Product Description: AutoCAD Mechanical|Company: Autodesk"
 90
        0
280
     0
281
     0
  0
CLASS
  1
ACMCENTERLINESTANDARDANSI
  2
AmdtCenterLineStdANSI
  3
"Amdt_StdImp|Product Description: AutoCAD Mechanical|Company: Autodesk"
 90
        0
280
     0
281
     0
  0
CLASS
  1
ACMNOTESTANDARDANSI
  2
AmdtNoteStdANSI
  3
"Amdt_StdImp|Product Description: AutoCAD Mechanical|Company: Autodesk"
 90
        0
280
     0
281
     0
  0
CLASS
  1
ACAMGHOLECHARTSTDANSI
  2
AcAmgHoleChartStdANSI
  3
ACMSYMBB_MODULE_NAME
 90
        0
280
     0
281
     0
  0
CLASS
  1
ACAMGFILTERDAT
  2
AcAmgFilterDat
  3
"AcadM|Product Description: AutoCAD Mechanical|Company: Autodesk"
 90
        0
280
     0
281
     0
  0
CLASS
  1
AMDTFORMULAUPDATEDISPATCHER
  2
AmdtFormulaUpdateDispatcher
  3
AcMeServices
 90
        0
280
     0
281
     0
  0
CLASS
  1
TABLESTYLE
  2
AcDbTableStyle
  3
ObjectDBX Classes
 90
     4095
280
     0
281
     0
  0
CLASS
  1
AM_DRAWING_MGR
  2
AcDmDwgMgr
  3
AcMechDwgViewMgmt
 90
        0
280
     0
281
     0
  0
CLASS
  1
AM_DWG_DOCUMENT
  2
AcDmDwgDocument
  3
AcMechDwgViewMgmt
 90
        0
280
     0
281
     0
  0
CLASS
  1
AM_DWG_SHEET
  2
AcDmSheet
  3
AcMechDwgViewMgmt
 90
        0
280
     0
281
     0
  0
CLASS
  1
AM_VIEWDIMPARMAP
  2
AcDmViewDimParMap
  3
AcMechDwgViewMgmt
 90
        0
280
     0
281
     0
  0
CLASS
  1
AM_DWGMGR_NAME
  2
AcDmDwgMgrName
  3
AcMechDwgViewMgmt
 90
        0
280
     0
281
     0
  0
CLASS
  1
AMDTMENUSTATEMGR
  2
AmdtMenuStateMgr
  3
McadcomServices
 90
        0
280
     0
281
     0
  0
CLASS
  1
AMDTMCOMMENUSTATE
  2
AmdtMcomMenuState
  3
McadcomServices
 90
        0
280
     0
281
     0
  0
CLASS
  1
MAPIAMMOUDLE
  2
MApiAmModule
  3
MApiAmServices
 90
        0
280
     0
281
     0
  0
CLASS
  1
AMDTADMENUSTATE
  2
AmdtAdMenuState
  3
DesignerServices
 90
        0
280
     0
281
     0
  0
CLASS
  1
ADAPPL
  2
AcAdAppl
  3
DesignerServices
 90
        0
280
     0
281
     0
  0
CLASS
  1
DEPMGR
  2
AcAdDepMgr
  3
DesignerServices
 90
        0
280
     0
281
     0
  0
CLASS
  1
PARAMMGR
  2
AcAdParamMgr
  3
DesignerServices
 90
        0
280
     0
281
     0
  0
CLASS
  1
PARAMSCOPE
  2
AcAdParamScope
  3
DesignerServices
 90
        0
280
     0
281
     0
  0
CLASS
  1
NAMEDAPPL
  2
AcAdNamedAppl
  3
DesignerServices
 90
        0
280
     0
281
     0
  0
CLASS
  1
AMDTDMMENUSTATE
  2
AmdtDmMenuState
  3
AcMechDwgViewMgmt
 90
        0
280
     0
281
     0
  0
CLASS
  1
AMDTAMMENUSTATE
  2
AmdtAmMenuState
  3
DesignerAssemblies
 90
        0
280
     0
281
     0
  0
CLASS
  1
ACAMPROJECT
  2
AcAmProject
  3
DesignerAssemblies
 90
        0
280
     0
281
     0
  0
CLASS
  1
ACAMGRCOMPDEF
  2
AcAmGrCompDef
  3
DesignerAssemblies
 90
        0
280
     0
281
     0
  0
CLASS
  1
ACCMCONTEXT
  2
AcCmContext
  3
DesignerAssemblies
 90
        0
280
     0
281
     0
  0
CLASS
  1
ACAMCOMPDEF
  2
AcAmCompDef
  3
DesignerAssemblies
 90
        0
280
     0
281
     0
  0
CLASS
  1
ACAMCOMPDEFMGR
  2
AcAmCompDefMgr
  3
DesignerAssemblies
 90
        0
280
     0
281
     0
  0
CLASS
  1
AMCONTEXTMGR
  2
AcAmContextMgr
  3
DesignerAssemblies
 90
        0
280
     0
281
     0
  0
CLASS
  1
ACAMCONTEXTMODELER
  2
AcAmContextModeler
  3
DesignerAssemblies
 90
        0
280
     0
281
     0
  0
CLASS
  1
ACMTHREADLINESTANDARDISO
  2
AmdtThreadLineStdISO
  3
"Amdt_StdImp|Product Description: AutoCAD Mechanical|Company: Autodesk"
 90
        0
280
     0
281
     0
  0
CLASS
  1
ACMTHREADLINESTANDARDANSI
  2
AmdtThreadLineStdANSI
  3
"Amdt_StdImp|Product Description: AutoCAD Mechanical|Company: Autodesk"
 90
        0
280
     0
281
     0
  0
CLASS
  1
CATALOGSTATE
  2
AcAmCatalogState
  3
DesignerAssemblies
 90
        0
280
     0
281
     0
  0
CLASS
  1
ACAMGRCOMPDEFSET
  2
AcAmGrCompDefSet
  3
DesignerAssemblies
 90
        0
280
     0
281
     0
  0
CLASS
  1
AMDTBROWSERDBTAB
  2
AmdtBrowserDbTab
  3
McadcomServices
 90
        0
280
     0
281
     0
  0
CLASS
  1
CBROWSERAPPOBJECT
  2
CBrowserAppObject
  3
McadcomServices
 90
        0
280
     0
281
     0
  0
CLASS
  1
DM_PLACEHOLDER
  2
AcDmSelsetPlaceholder
  3
AcMechDwgViewMgmt
 90
        0
280
     0
281
     0
  0
CLASS
  1
EXACXREFPANELOBJECT
  2
ExAcXREFPanelObject
  3
EXAC_ESW
 90
    32768
280
     0
281
     0
  0
CLASS
  1
MATERIAL
  2
AcDbMaterial
  3
ObjectDBX Classes
 90
     1024
280
     0
281
     0
  0
CLASS
  1
VISUALSTYLE
  2
AcDbVisualStyle
  3
ObjectDBX Classes
 90
     4095
280
     0
281
     0
  0
CLASS
  1
ACRFATTGENMGR
  2
AcRfAttGeneralMgr
  3
AcAttribServices
 90
        0
280
     0
281
     0
  0
CLASS
  1
ACRFOBJATTMGR
  2
AcRfObjAttGroupMgr
  3
AcAttribServices
 90
        0
280
     0
281
     0
  0
CLASS
  1
ACRFMCADAPIATTHOLDER
  2
AcRfMCADAPIAttHolder
  3
AcAttribServices
 90
        0
280
     0
281
     0
  0
CLASS
  1
AMDTSYSATTR
  2
AmdtSystemAttribute
  3
AcAttribServices
 90
        0
280
     0
281
     0
  0
CLASS
  1
ACMTAPERSTANDARDISO
  2
AcmTaperStdISO
  3
"Amdt_StdImp|Product Description: AutoCAD Mechanical|Company: Autodesk"
 90
        0
280
     0
281
     0
  0
CLASS
  1
ACMTAPERSTANDARDANSI
  2
AcmTaperStdANSI
  3
"Amdt_StdImp|Product Description: AutoCAD Mechanical|Company: Autodesk"
 90
        0
280
     0
281
     0
  0
ENDSEC
  0
SECTION
  2
TABLES
  0
TABLE
  2
VPORT
  5
8
330
0
100
AcDbSymbolTable
 70
     1
  0
VPORT
  5
4632
330
8
100
AcDbSymbolTableRecord
100
AcDbViewportTableRecord
  2
*Active
 70
     0
 10
0.0
 20
0.0
 11
1.0
 21
1.0
 12
1289.253905404112
 22
801.4123693005299
 13
0.0
 23
0.0
 14
10.0
 24
10.0
 15
10.0
 25
10.0
 16
0.0
 26
0.0
 36
1.0
 17
0.0
 27
0.0
 37
0.0
 40
193.3032494119561
 41
1.978563772775991
 42
50.0
 43
0.0
 44
0.0
 50
0.0
 51
0.0
 71
     0
 72
   100
 73
     1
 74
     1
 75
     0
 76
     0
 77
     0
 78
     0
281
     0
 65
     1
110
0.0
120
0.0
130
0.0
111
1.0
121
0.0
131
0.0
112
0.0
122
1.0
132
0.0
 79
     0
146
0.0
  0
ENDTAB
  0
TABLE
  2
LTYPE
  5
5
330
0
100
AcDbSymbolTable
 70
    17
  0
LTYPE
  5
12
330
5
100
AcDbSymbolTableRecord
100
AcDbLinetypeTableRecord
  2
BYBLOCK
 70
     0
  3

 72
    65
 73
     0
 40
0.0
  0
LTYPE
  5
13
330
5
100
AcDbSymbolTableRecord
100
AcDbLinetypeTableRecord
  2
BYLAYER
 70
     0
  3

 72
    65
 73
     0
 40
0.0
  0
LTYPE
  5
14
330
5
100
AcDbSymbolTableRecord
100
AcDbLinetypeTableRecord
  2
CONTINUOUS
 70
     0
  3
Solid line
 72
    65
 73
     0
 40
0.0
  0
LTYPE
  5
193
330
5
100
AcDbSymbolTableRecord
100
AcDbLinetypeTableRecord
  2
CENTER
 70
     0
  3

 72
    65
 73
     4
 40
2.0
 49
1.25
 74
     0
 49
-0.25
 74
     0
 49
0.25
 74
     0
 49
-0.25
 74
     0
  0
LTYPE
  5
196
330
5
100
AcDbSymbolTableRecord
100
AcDbLinetypeTableRecord
  2
HIDDEN
 70
     0
  3
Hidden __ __ __ __ __ __ __ __ __ __ __ __ __ _
 72
    65
 73
     2
 40
0.375
 49
0.25
 74
     0
 49
-0.125
 74
     0
  0
LTYPE
  5
3746
330
5
100
AcDbSymbolTableRecord
100
AcDbLinetypeTableRecord
  2
AM_ISO02W050
 70
     0
  3
__ __ __ __ __ __ __ __ __ __ __ __ __ __ __
 72
    65
 73
     2
 40
7.5
 49
6.0
 74
     0
 49
-1.5
 74
     0
  0
LTYPE
  5
3747
330
5
100
AcDbSymbolTableRecord
100
AcDbLinetypeTableRecord
  2
AM_ISO08W050
 70
     0
  3
____ . ____ . ____ . ____ . ____ . ____ . ____
 72
    65
 73
     4
 40
18.0
 49
12.0
 74
     0
 49
-1.5
 74
     0
 49
3.0
 74
     0
 49
-1.5
 74
     0
  0
LTYPE
  5
3748
330
5
100
AcDbSymbolTableRecord
100
AcDbLinetypeTableRecord
  2
AM_ISO09W050
 70
     0
  3
_____ . . _____ . . _____ . . ____ .. ____
 72
    65
 73
     6
 40
22.5
 49
12.0
 74
     0
 49
-1.5
 74
     0
 49
3.0
 74
     0
 49
-1.5
 74
     0
 49
3.0
 74
     0
 49
-1.5
 74
     0
  0
LTYPE
  5
3749
330
5
100
AcDbSymbolTableRecord
100
AcDbLinetypeTableRecord
  2
Amconstr
 70
     0
  3
_______________________
 72
    65
 73
     2
 40
9999.0
 49
9999.0
 74
     0
 49
0.0
 74
     0
  0
LTYPE
  5
374A
330
5
100
AcDbSymbolTableRecord
100
AcDbLinetypeTableRecord
  2
AM_ISO08W050x2
 70
     0
  3
__ . __ . __ . __ . __ . __
 72
    65
 73
     4
 40
9.0
 49
6.0
 74
     0
 49
-0.75
 74
     0
 49
1.5
 74
     0
 49
-0.75
 74
     0
  0
LTYPE
  5
374B
330
5
100
AcDbSymbolTableRecord
100
AcDbLinetypeTableRecord
  2
AM_ISO02W050x2
 70
     0
  3
 _ _ _ _ _ _ _ _ _ _ _ _
 72
    65
 73
     2
 40
3.75
 49
3.0
 74
     0
 49
-0.75
 74
     0
  0
LTYPE
  5
374E
330
5
100
AcDbSymbolTableRecord
100
AcDbLinetypeTableRecord
  2
Amzigzag
 70
     0
  3
/\/-/\/-/\/-/\/-/\/-/\/
 72
    65
 73
     2
 40
11.0001
 49
0.0001
 74
     4
 75
   135
340
374D
 46
0.04
 50
0.0
 44
0.0
 45
0.0
 49
-11.0
 74
     0
  0
LTYPE
  5
375C
330
5
100
AcDbSymbolTableRecord
100
AcDbLinetypeTableRecord
  2
ACISOWELD
 70
     0
  3
_ _ _ _ _
 72
    65
 73
     2
 40
2.0
 49
2.0
 74
     0
 49
-1.0
 74
     0
  0
LTYPE
  5
375D
330
5
100
AcDbSymbolTableRecord
100
AcDbLinetypeTableRecord
  2
ACISOTGB
 70
     0
  3
__ . . __ . .
 72
    65
 73
     6
 40
9.0
 49
4.0
 74
     0
 49
-1.0
 74
     0
 49
1.0
 74
     0
 49
-1.0
 74
     0
 49
1.0
 74
     0
 49
-1.0
 74
     0
  0
LTYPE
  5
375E
330
5
100
AcDbSymbolTableRecord
100
AcDbLinetypeTableRecord
  2
ACISOTGL
 70
     0
  3
_ _ _ _ _
 72
    65
 73
     2
 40
3.0
 49
2.0
 74
     0
 49
-1.0
 74
     0
  0
LTYPE
  5
3785
330
5
100
AcDbSymbolTableRecord
100
AcDbLinetypeTableRecord
  2
PHANTOM2
 70
     0
  3
Phantom (.5x) ___ _ _ ___ _ _ ___ _ _ ___ _ _
 72
    65
 73
     6
 40
1.25
 49
0.625
 74
     0
 49
-0.125
 74
     0
 49
0.125
 74
     0
 49
-0.125
 74
     0
 49
0.125
 74
     0
 49
-0.125
 74
     0
  0
LTYPE
  5
3789
330
5
100
AcDbSymbolTableRecord
100
AcDbLinetypeTableRecord
  2
ACANSTGB
 70
     0
  3
__ . . __ . .
 72
    65
 73
     6
 40
0.35433070866
 49
0.15748031496
 74
     0
 49
-0.03937007874
 74
     0
 49
0.03937007874
 74
     0
 49
-0.03937007874
 74
     0
 49
0.03937007874
 74
     0
 49
-0.03937007874
 74
     0
  0
LTYPE
  5
378A
330
5
100
AcDbSymbolTableRecord
100
AcDbLinetypeTableRecord
  2
ACANSTGL
 70
     0
  3
_ _ _ _ _
 72
    65
 73
     2
 40
0.11811023622
 49
0.07874015748
 74
     0
 49
-0.03937007874
 74
     0
  0
ENDTAB
  0
TABLE
  2
LAYER
  5
2
330
0
100
AcDbSymbolTable
 70
    11
  0
LAYER
  5
E
330
2
100
AcDbSymbolTableRecord
100
AcDbLayerTableRecord
  2
0
 70
     0
 62
     7
  6
CONTINUOUS
370
    -3
390
371A
  0
LAYER
  5
199
330
2
100
AcDbSymbolTableRecord
100
AcDbLayerTableRecord
  2
DISEGNO
 70
     0
 62
     7
  6
CONTINUOUS
370
    -3
390
371A
  0
LAYER
  5
19C
330
2
100
AcDbSymbolTableRecord
100
AcDbLayerTableRecord
  2
QUOTE
 70
     0
 62
     1
  6
CONTINUOUS
370
    -3
390
371A
  0
LAYER
  5
1A0
330
2
100
AcDbSymbolTableRecord
100
AcDbLayerTableRecord
  2
ASSI
 70
     0
 62
     2
  6
CENTER
370
    -3
390
371A
  0
ENDTAB
  0
TABLE
  2
STYLE
  5
3
330
0
100
AcDbSymbolTable
 70
     8
  0
STYLE
  5
F
330
3
100
AcDbSymbolTableRecord
100
AcDbTextStyleTableRecord
  2
STANDARD
 70
     0
 40
0.0
 41
1.0
 50
0.0
 71
     0
 42
2.5
  3
txt
  4

  0
STYLE
  5
1A8
330
3
100
AcDbSymbolTableRecord
100
AcDbTextStyleTableRecord
  2
SIMPLEX
 70
     0
 40
0.0
 41
1.0
 50
0.0
 71
     0
 42
7.5
  3
simplex.shx
  4

  0
STYLE
  5
374D
330
3
100
AcDbSymbolTableRecord
100
AcDbTextStyleTableRecord
  2

 70
     1
 40
0.0
 41
1.0
 50
0.0
 71
     0
 42
2.5
  3
ltypeshp.shx
  4

  0
STYLE
  5
374F
330
3
100
AcDbSymbolTableRecord
100
AcDbTextStyleTableRecord
  2
ACISOTS
 70
     0
 40
1.0
 41
1.0
 50
0.0
 71
     0
 42
2.5
  3
isocp.shx
  4

  0
STYLE
  5
375B
330
3
100
AcDbSymbolTableRecord
100
AcDbTextStyleTableRecord
  2
ACISOGDT
 70
     0
 40
0.0
 41
1.0
 50
0.0
 71
     0
 42
2.5
  3
amgdt.shx
  4

  0
STYLE
  5
378B
330
3
100
AcDbSymbolTableRecord
100
AcDbTextStyleTableRecord
  2
ACANSTS
 70
     0
 40
1.0
 41
1.0
 50
0.0
 71
     0
 42
7.5
  3
romans.shx
  4

  0
STYLE
  5
378C
330
3
100
AcDbSymbolTableRecord
100
AcDbTextStyleTableRecord
  2
ACANSGDT
 70
     0
 40
0.0
 41
1.0
 50
0.0
 71
     0
 42
7.5
  3
amgdtans.shx
  4

  0
ENDTAB
  0
TABLE
  2
VIEW
  5
6
330
0
100
AcDbSymbolTable
 70
     0
  0
ENDTAB
  0
TABLE
  2
UCS
  5
7
330
0
100
AcDbSymbolTable
 70
     0
  0
ENDTAB
  0
TABLE
  2
APPID
  5
9
330
0
100
AcDbSymbolTable
 70
    28
  0
APPID
  5
10
330
9
100
AcDbSymbolTableRecord
100
AcDbRegAppTableRecord
  2
ACAD
 70
     0
  0
APPID
  5
1AB
330
9
100
AcDbSymbolTableRecord
100
AcDbRegAppTableRecord
  2
ASM_CADM_VER_12_00
 70
     0
  0
APPID
  5
1AC
330
9
100
AcDbSymbolTableRecord
100
AcDbRegAppTableRecord
  2
ASM_BASE
 70
     0
  0
APPID
  5
1AD
330
9
100
AcDbSymbolTableRecord
100
AcDbRegAppTableRecord
  2
ASM_EXPLO_VER_2_00
 70
     0
  0
APPID
  5
1AE
330
9
100
AcDbSymbolTableRecord
100
AcDbRegAppTableRecord
  2
ASM_BASEFORO
 70
     0
  0
APPID
  5
1AF
330
9
100
AcDbSymbolTableRecord
100
AcDbRegAppTableRecord
  2
ASM_BASETRAVI
 70
     0
  0
APPID
  5
1B0
330
9
100
AcDbSymbolTableRecord
100
AcDbRegAppTableRecord
  2
ASM_BASETRAVI1
 70
     0
  0
APPID
  5
1B1
330
9
100
AcDbSymbolTableRecord
100
AcDbRegAppTableRecord
  2
ASM_GRUPPI
 70
     0
  0
APPID
  5
1B2
330
9
100
AcDbSymbolTableRecord
100
AcDbRegAppTableRecord
  2
ASM_CADM_ALBERO
 70
     0
  0
APPID
  5
1B3
330
9
100
AcDbSymbolTableRecord
100
AcDbRegAppTableRecord
  2
ASM_GOLE
 70
     0
  0
APPID
  5
1B4
330
9
100
AcDbSymbolTableRecord
100
AcDbRegAppTableRecord
  2
AVE_RENDER
 70
     0
  0
APPID
  5
1B5
330
9
100
AcDbSymbolTableRecord
100
AcDbRegAppTableRecord
  2
AVE_ENTITY_MATERIAL
 70
     0
  0
APPID
  5
1B6
330
9
100
AcDbSymbolTableRecord
100
AcDbRegAppTableRecord
  2
AVE_FINISH
 70
     0
  0
APPID
  5
1B7
330
9
100
AcDbSymbolTableRecord
100
AcDbRegAppTableRecord
  2
AVE_MATERIAL
 70
     0
  0
APPID
  5
1B8
330
9
100
AcDbSymbolTableRecord
100
AcDbRegAppTableRecord
  2
AVE_GLOBAL
 70
     0
  0
APPID
  5
1B9
330
9
100
AcDbSymbolTableRecord
100
AcDbRegAppTableRecord
  2
AD_SKETCHDIM
 70
     0
  0
APPID
  5
50B
330
9
100
AcDbSymbolTableRecord
100
AcDbRegAppTableRecord
  2
COMAU_ACADLIB
 70
     0
  0
APPID
  5
3728
330
9
100
AcDbSymbolTableRecord
100
AcDbRegAppTableRecord
  2
MCAD_NO_VIS
 70
     0
  0
APPID
  5
3729
330
9
100
AcDbSymbolTableRecord
100
AcDbRegAppTableRecord
  2
ACAD_TEMP_GRAPHIC
 70
     0
  0
APPID
  5
373A
330
9
100
AcDbSymbolTableRecord
100
AcDbRegAppTableRecord
  2
ACATTRIBSERVICES
 70
     0
  0
APPID
  5
42F3
330
9
100
AcDbSymbolTableRecord
100
AcDbRegAppTableRecord
  2
AD_DRAW
 70
     0
  0
APPID
  5
4311
330
9
100
AcDbSymbolTableRecord
100
AcDbRegAppTableRecord
  2
DESIGNERASSEMBLIES
 70
     0
  0
APPID
  5
4314
330
9
100
AcDbSymbolTableRecord
100
AcDbRegAppTableRecord
  2
ACAD_DSTYLE_DIMARC_LENGTH_SYMBOL
 70
     0
  0
APPID
  5
4315
330
9
100
AcDbSymbolTableRecord
100
AcDbRegAppTableRecord
  2
ACAD_DSTYLE_DIMJOGGED_JOGANGLE_SYMBOL
 70
     0
  0
APPID
  5
4332
330
9
100
AcDbSymbolTableRecord
100
AcDbRegAppTableRecord
  2
ACADM_DIM_EDIT
 70
     0
  0
APPID
  5
4333
330
9
100
AcDbSymbolTableRecord
100
AcDbRegAppTableRecord
  2
AMDT_DM_ADJ
 70
     0
  0
APPID
  5
43C7
330
9
100
AcDbSymbolTableRecord
100
AcDbRegAppTableRecord
  2
GENIUS_GENDTOL_13
 70
     0
  0
APPID
  5
466B
330
9
100
AcDbSymbolTableRecord
100
AcDbRegAppTableRecord
  2
ACAD_EXEMPT_FROM_CAD_STANDARDS
 70
     0
  0
ENDTAB
  0
TABLE
  2
DIMSTYLE
  5
A
330
0
100
AcDbSymbolTable
 70
    16
100
AcDbDimStyleTable
 71
     1
340
1D
  0
DIMSTYLE
105
1D
330
A
100
AcDbSymbolTableRecord
100
AcDbDimStyleTableRecord
  2
STANDARD
 70
     0
340
F
  0
DIMSTYLE
105
3762
330
A
100
AcDbSymbolTableRecord
100
AcDbDimStyleTableRecord
  2
AM_ISO
 70
     0
  4
"
 41
2.5
 42
1.0
 43
10.0
 44
1.0
 47
0.1
 48
0.1
 73
     0
 74
     0
 77
     1
 78
     8
 79
     2
140
3.5
141
0.0
143
0.0393701
146
0.71
147
1.5
172
     1
176
   256
177
   256
178
     2
271
     2
272
     3
274
     4
283
     0
284
     8
340
F
371
    -1
372
    -1
1001
ACAD_DSTYLE_DIMJOGGED_JOGANGLE_SYMBOL
1070
   384
1040
0.7853981633974483
1001
ACAD_DSTYLE_DIMARC_LENGTH_SYMBOL
1070
   379
1070
     1
  0
DIMSTYLE
105
3763
330
A
100
AcDbSymbolTableRecord
100
AcDbDimStyleTableRecord
  2
AM_ISO$3
 70
     0
  4
"
 41
2.5
 42
1.0
 43
10.0
 44
1.0
 47
0.1
 48
0.1
 73
     0
 77
     1
 78
     8
 79
     2
140
3.5
141
0.0
143
0.0393701
146
0.71
147
1.5
176
   256
177
   256
178
     2
271
     2
272
     3
274
     4
283
     0
284
     8
288
     1
289
     0
340
F
371
    -1
372
    -1
1001
ACAD_DSTYLE_DIMJOGGED_JOGANGLE_SYMBOL
1070
   384
1040
0.7853981633974483
1001
ACAD_DSTYLE_DIMARC_LENGTH_SYMBOL
1070
   379
1070
     1
  0
DIMSTYLE
105
3764
330
A
100
AcDbSymbolTableRecord
100
AcDbDimStyleTableRecord
  2
AM_ISO$4
 70
     0
  4
"
 41
2.5
 42
1.0
 43
10.0
 44
1.0
 47
0.1
 48
0.1
 73
     0
 77
     1
 78
     8
 79
     2
140
3.5
141
0.0
143
0.0393701
146
0.71
147
1.5
176
   256
177
   256
178
     2
271
     2
272
     3
274
     4
283
     0
284
     8
288
     1
289
     0
340
F
371
    -1
372
    -1
1001
ACAD_DSTYLE_DIMJOGGED_JOGANGLE_SYMBOL
1070
   384
1040
0.7853981633974483
1001
ACAD_DSTYLE_DIMARC_LENGTH_SYMBOL
1070
   379
1070
     1
  0
DIMSTYLE
105
3765
330
A
100
AcDbSymbolTableRecord
100
AcDbDimStyleTableRecord
  2
AM_ISO$6
 70
     0
  4
"
 41
2.5
 42
1.0
 43
10.0
 44
1.0
 47
0.1
 48
0.1
 73
     0
 74
     0
 78
     8
 79
     2
140
3.5
141
0.0
143
0.0393701
146
0.71
147
1.5
172
     1
176
   256
177
   256
178
     2
271
     2
272
     3
274
     4
283
     0
284
     8
340
F
371
    -1
372
    -1
1001
ACAD_DSTYLE_DIMJOGGED_JOGANGLE_SYMBOL
1070
   384
1040
0.7853981633974483
1001
ACAD_DSTYLE_DIMARC_LENGTH_SYMBOL
1070
   379
1070
     1
  0
DIMSTYLE
105
3766
330
A
100
AcDbSymbolTableRecord
100
AcDbDimStyleTableRecord
  2
AM_ISO$7
 70
     0
  4
"
 41
2.5
 42
1.0
 43
10.0
 44
1.0
 47
0.1
 48
0.1
 73
     0
 74
     0
 77
     1
 78
     8
 79
     2
140
5.0
141
0.0
143
0.0393701
146
0.71
147
1.5
172
     1
176
   256
177
   256
178
     2
271
     2
272
     3
274
     4
283
     0
284
     8
340
F
371
    -1
372
    -1
1001
ACAD_DSTYLE_DIMJOGGED_JOGANGLE_SYMBOL
1070
   384
1040
0.7853981633974483
1001
ACAD_DSTYLE_DIMARC_LENGTH_SYMBOL
1070
   379
1070
     1
  0
DIMSTYLE
105
3767
330
A
100
AcDbSymbolTableRecord
100
AcDbDimStyleTableRecord
  2
AM_ISO$SF
 70
     0
  4
"
 41
2.5
 42
1.0
 43
10.0
 44
1.0
 47
0.1
 48
0.1
 73
     0
 74
     0
 75
     1
 76
     1
 77
     1
 78
     8
 79
     2
140
3.5
141
0.0
143
0.0393701
146
0.71
147
1.5
172
     1
176
   256
177
   256
178
     2
271
     2
272
     3
274
     4
283
     0
284
     8
340
F
371
    -1
372
    -1
1001
ACAD_DSTYLE_DIMJOGGED_JOGANGLE_SYMBOL
1070
   384
1040
0.7853981633974483
1001
ACAD_DSTYLE_DIMARC_LENGTH_SYMBOL
1070
   379
1070
     1
  0
DIMSTYLE
105
376C
330
A
100
AcDbSymbolTableRecord
100
AcDbDimStyleTableRecord
  2
AM_ISO$SH
 70
     0
  4
"
 41
2.5
 42
1.0
 43
10.0
 44
1.0
 47
0.1
 48
0.1
 73
     0
 74
     0
 75
     1
 76
     1
 77
     1
 78
     8
 79
     2
140
3.5
141
0.0
143
0.0393701
144
2.0
146
0.71
147
1.5
172
     1
173
     1
176
   256
177
   256
178
     2
271
     2
272
     3
274
     4
283
     0
284
     8
340
F
343
3768
371
    -1
372
    -1
1001
ACAD_DSTYLE_DIMJOGGED_JOGANGLE_SYMBOL
1070
   384
1040
0.7853981633974483
1001
ACAD_DSTYLE_DIMARC_LENGTH_SYMBOL
1070
   379
1070
     1
  0
DIMSTYLE
105
378E
330
A
100
AcDbSymbolTableRecord
100
AcDbDimStyleTableRecord
  2
AM_ANSI
 70
     0
  4
mm
 41
0.1
 42
0.05
 43
0.5
 44
0.1
 47
0.1
 48
0.1
 78
     7
 79
     2
140
0.12
141
0.0
146
0.71
147
0.06
176
   256
177
   256
178
     2
274
     4
284
     7
340
F
371
    -1
372
    -1
1001
ACAD_DSTYLE_DIMJOGGED_JOGANGLE_SYMBOL
1070
   384
1040
0.7853981633974483
1001
ACAD_DSTYLE_DIMARC_LENGTH_SYMBOL
1070
   379
1070
     1
  0
DIMSTYLE
105
378F
330
A
100
AcDbSymbolTableRecord
100
AcDbDimStyleTableRecord
  2
AM_ANSI$3
 70
     0
  4
mm
 41
0.1
 42
0.05
 43
0.5
 44
0.1
 47
0.1
 48
0.1
 78
     7
 79
     2
140
0.12
141
0.0
146
0.71
147
0.06
176
   256
177
   256
178
     2
274
     4
284
     7
288
     1
289
     0
340
F
371
    -1
372
    -1
1001
ACAD_DSTYLE_DIMJOGGED_JOGANGLE_SYMBOL
1070
   384
1040
0.7853981633974483
1001
ACAD_DSTYLE_DIMARC_LENGTH_SYMBOL
1070
   379
1070
     1
  0
DIMSTYLE
105
3790
330
A
100
AcDbSymbolTableRecord
100
AcDbDimStyleTableRecord
  2
AM_ANSI$4
 70
     0
  4
mm
 41
0.1
 42
0.05
 43
0.5
 44
0.1
 47
0.1
 48
0.1
 78
     7
 79
     2
140
0.12
141
0.0
146
0.71
147
0.06
176
   256
177
   256
178
     2
274
     4
284
     7
288
     1
289
     0
340
F
371
    -1
372
    -1
1001
ACAD_DSTYLE_DIMJOGGED_JOGANGLE_SYMBOL
1070
   384
1040
0.7853981633974483
1001
ACAD_DSTYLE_DIMARC_LENGTH_SYMBOL
1070
   379
1070
     1
  0
DIMSTYLE
105
3791
330
A
100
AcDbSymbolTableRecord
100
AcDbDimStyleTableRecord
  2
AM_ANSI$7
 70
     0
  4
mm
 41
0.1
 42
0.05
 43
0.5
 44
0.1
 47
0.1
 48
0.1
 78
     7
 79
     2
140
0.24
141
0.0
146
0.71
147
0.06
176
   256
177
   256
178
     2
274
     4
284
     7
340
F
371
    -1
372
    -1
1001
ACAD_DSTYLE_DIMJOGGED_JOGANGLE_SYMBOL
1070
   384
1040
0.7853981633974483
1001
ACAD_DSTYLE_DIMARC_LENGTH_SYMBOL
1070
   379
1070
     1
  0
DIMSTYLE
105
3792
330
A
100
AcDbSymbolTableRecord
100
AcDbDimStyleTableRecord
  2
AM_ANSI$SF
 70
     0
  4
mm
 41
0.1
 42
0.05
 43
0.5
 44
0.1
 47
0.1
 48
0.1
 75
     1
 76
     1
 78
     7
 79
     2
140
0.12
141
0.0
146
0.71
147
0.06
176
   256
177
   256
178
     2
274
     4
284
     7
340
F
371
    -1
372
    -1
1001
ACAD_DSTYLE_DIMJOGGED_JOGANGLE_SYMBOL
1070
   384
1040
0.7853981633974483
1001
ACAD_DSTYLE_DIMARC_LENGTH_SYMBOL
1070
   379
1070
     1
  0
DIMSTYLE
105
3793
330
A
100
AcDbSymbolTableRecord
100
AcDbDimStyleTableRecord
  2
AM_ANSI$SH
 70
     0
  4
mm
 41
0.1
 42
0.05
 43
0.5
 44
0.1
 47
0.1
 48
0.1
 75
     1
 76
     1
 78
     7
 79
     2
140
0.12
141
0.0
146
0.71
147
0.06
173
     1
176
   256
177
   256
178
     2
274
     4
284
     7
340
F
341
3768
343
3768
371
    -1
372
    -1
1001
ACAD_DSTYLE_DIMJOGGED_JOGANGLE_SYMBOL
1070
   384
1040
0.7853981633974483
1001
ACAD_DSTYLE_DIMARC_LENGTH_SYMBOL
1070
   379
1070
     1
  0
ENDTAB
  0
TABLE
  2
BLOCK_RECORD
  5
1
330
0
100
AcDbSymbolTable
 70
    30
  0
BLOCK_RECORD
  5
18
102
{ACAD_XDICTIONARY
360
3770
102
}
330
1
100
AcDbSymbolTableRecord
100
AcDbBlockTableRecord
  2
*MODEL_SPACE
340
371D
  0
BLOCK_RECORD
  5
15
330
1
100
AcDbSymbolTableRecord
100
AcDbBlockTableRecord
  2
*PAPER_SPACE
340
371E
  0
BLOCK_RECORD
  5
3768
330
1
100
AcDbSymbolTableRecord
100
AcDbBlockTableRecord
  2
GENAXEH
340
0
  0
ENDTAB
  0
ENDSEC
  0
SECTION
  2
BLOCKS
  0
BLOCK
  5
19
330
18
100
AcDbEntity
  8
0
100
AcDbBlockBegin
  2
*MODEL_SPACE
 70
     0
 10
0.0
 20
0.0
 30
0.0
  3
*MODEL_SPACE
  1

  0
ENDBLK
  5
1A
330
18
100
AcDbEntity
  8
0
100
AcDbBlockEnd
  0
BLOCK
  5
16
330
15
100
AcDbEntity
 67
     1
  8
0
100
AcDbBlockBegin
  2
*PAPER_SPACE
 70
     0
 10
0.0
 20
0.0
 30
0.0
  3
*PAPER_SPACE
  1

  0
ENDBLK
  5
17
330
15
100
AcDbEntity
 67
     1
  8
0
100
AcDbBlockEnd
  0
BLOCK
  5
376A
330
3768
100
AcDbEntity
  8
0
100
AcDbBlockBegin
  2
GENAXEH
 70
     0
 10
0.0
 20
0.0
 30
0.0
  3
GENAXEH
  1

  0
LINE
  5
3769
330
3768
100
AcDbEntity
  8
0
100
AcDbLine
 10
-1.0
 20
0.0
 30
0.0
 11
1.0
 21
0.0
 31
0.0
  0
ENDBLK
  5
376B
330
3768
100
AcDbEntity
  8
0
100
AcDbBlockEnd
  0
ENDSEC
  0
SECTION
  2
ENTITIES
  0
TEXT
  5
1B98
330
18
100
AcDbEntity
  8
QUOTE
 62
     7
100
AcDbText
 10
349.8948249793442
 20
133.440572056882
 30
0.0
 40
3.5
  1

  7
SIMPLEX
100
AcDbText
  0
LINE
  5
3997
330
18
100
AcDbEntity
  8
ASSI
100
AcDbLine
 10
1360.456172806097
 20
750.0328433710383
 30
0.0
 11
1222.269855385748
 21
750.0328433710383
 31
0.0
  0
LINE
  5
3998
330
18
100
AcDbEntity
  8
ASSI
100
AcDbLine
 10
1362.659463019877
 20
850.0328433710382
 30
0.0
 11
1223.889270925437
 21
850.0328433710382
 31
0.0
  0
LINE
  5
3999
330
18
100
AcDbEntity
  8
DISEGNO
100
AcDbLine
 10
1261.016901393052
 20
837.0328433710382
 30
0.0
 11
1325.216901393052
 21
837.0328433710382
 31
0.0
  0
LINE
  5
399A
330
18
100
AcDbEntity
  8
DISEGNO
100
AcDbLine
 10
1278.399901393052
 20
839.5328433710382
 30
0.0
 11
1307.832901393052
 21
839.5328433710382
 31
0.0
  0
LINE
  5
399B
330
18
100
AcDbEntity
  8
DISEGNO
100
AcDbLine
 10
1285.416901393052
 20
880.2328433710382
 30
0.0
 11
1300.816901393052
 21
880.2328433710382
 31
0.0
  0
LINE
  5
399C
330
18
100
AcDbEntity
  8
DISEGNO
100
AcDbLine
 10
1311.866901393052
 20
885.0328433710382
 30
0.0
 11
1274.366901393052
 21
885.0328433710382
 31
0.0
  0
LINE
  5
399E
330
18
100
AcDbEntity
  8
DISEGNO
100
AcDbLine
 10
1285.516901393052
 20
719.9328433710383
 30
0.0
 11
1300.716901393052
 21
719.9328433710383
 31
0.0
  0
LINE
  5
399F
330
18
100
AcDbEntity
  8
DISEGNO
100
AcDbLine
 10
1311.866901393052
 20
715.0328433710383
 30
0.0
 11
1274.366901393052
 21
715.0328433710383
 31
0.0
  0
LINE
  5
39A0
330
18
100
AcDbEntity
  8
DISEGNO
100
AcDbLine
 10
1278.399901393052
 20
760.5328433710383
 30
0.0
 11
1307.832901393052
 21
760.5328433710383
 31
0.0
  0
LINE
  5
39A1
330
18
100
AcDbEntity
  8
DISEGNO
100
AcDbLine
 10
1261.016901393052
 20
763.0328433710383
 30
0.0
 11
1325.216901393052
 21
763.0328433710383
 31
0.0
  0
LINE
  5
39A2
330
18
100
AcDbEntity
  8
DISEGNO
100
AcDbLine
 10
1237.916901393052
 20
769.3328433710383
 30
0.0
 11
1237.916901393052
 21
830.7328433710383
 31
0.0
  0
LINE
  5
39A3
330
18
100
AcDbEntity
  8
DISEGNO
100
AcDbLine
 10
1257.016901393052
 20
767.0328433710383
 30
0.0
 11
1257.016901393052
 21
833.0328433710382
 31
0.0
  0
LINE
  5
39A4
330
18
100
AcDbEntity
  8
DISEGNO
100
AcDbLine
 10
1254.516901393052
 20
766.3328433710383
 30
0.0
 11
1254.516901393052
 21
833.7328433710382
 31
0.0
  0
LINE
  5
39A5
330
18
100
AcDbEntity
  8
DISEGNO
100
AcDbLine
 10
1233.116901393052
 20
756.2828433710383
 30
0.0
 11
1233.116901393052
 21
843.7828433710382
 31
0.0
  0
LINE
  5
39A6
330
18
100
AcDbEntity
  8
ASSI
100
AcDbLine
 10
1268.116901393052
 20
708.9429249488216
 30
0.0
 11
1268.116901393052
 21
889.0528433710382
 31
0.0
  0
ARC
  5
39A7
330
18
100
AcDbEntity
  8
DISEGNO
100
AcDbCircle
 10
1268.116901393052
 20
750.0328433710383
 30
0.0
 40
8.75
100
AcDbArc
 50
348.5409999999997
 51
14.45949999999765
  0
ARC
  5
39A8
330
18
100
AcDbEntity
  8
DISEGNO
100
AcDbCircle
 10
1268.116901393052
 20
750.0328433710383
 30
0.0
 40
8.75
100
AcDbArc
 50
167.5409999999899
 51
193.458999999999
  0
ARC
  5
39A9
330
18
100
AcDbEntity
  8
DISEGNO
100
AcDbCircle
 10
1239.332901393052
 20
750.0328433710383
 30
0.0
 40
15.0
100
AcDbArc
 50
317.2680000000053
 51
42.73219999999724
  0
ARC
  5
39AA
330
18
100
AcDbEntity
  8
DISEGNO
100
AcDbCircle
 10
1268.116901393052
 20
750.0328433710383
 30
0.0
 40
13.0
100
AcDbArc
 50
313.1820000000053
 51
42.73180000000134
  0
LINE
  5
39AB
330
18
100
AcDbEntity
  8
DISEGNO
100
AcDbLine
 10
1249.195901393052
 20
733.9418433710382
 30
0.0
 11
1255.564901393052
 21
740.3108433710383
 31
0.0
  0
LINE
  5
39AC
330
18
100
AcDbEntity
  8
ASSI
100
AcDbLine
 10
1255.613494300234
 20
727.2828433710384
 30
0.0
 11
1235.973227113898
 21
727.2828433710384
 31
0.0
  0
LINE
  5
39AD
330
18
100
AcDbEntity
  8
DISEGNO
100
AcDbLine
 10
1234.116901393052
 20
715.0328433710383
 30
0.0
 11
1261.866901393052
 21
715.0328433710383
 31
0.0
  0
ARC
  5
39AE
330
18
100
AcDbEntity
  8
DISEGNO
100
AcDbCircle
 10
1250.366901393052
 20
722.2828433710382
 30
0.0
 40
2.0
100
AcDbArc
 50
231.7680000000046
 51
38.2322000000031
  0
LINE
  5
39AF
330
18
100
AcDbEntity
  8
DISEGNO
100
AcDbLine
 10
1233.116901393052
 20
716.0328433710382
 30
0.0
 11
1233.116901393052
 21
743.7828433710383
 31
0.0
  0
ARC
  5
39B0
330
18
100
AcDbEntity
  8
DISEGNO
100
AcDbCircle
 10
1234.116901393052
 20
716.0328433710382
 30
0.0
 40
1.0
100
AcDbArc
 50
180.0
 51
270.0
  0
ARC
  5
39B1
330
18
100
AcDbEntity
  8
DISEGNO
100
AcDbCircle
 10
1240.366901393052
 20
732.2828433710383
 30
0.0
 40
2.0
100
AcDbArc
 50
51.76800000000457
 51
218.2320000000006
  0
LINE
  5
39B2
330
18
100
AcDbEntity
  8
ASSI
100
AcDbLine
 10
1245.366901393052
 20
737.188723455902
 30
0.0
 11
1245.366901393052
 21
718.0228433710384
 31
0.0
  0
ARC
  5
39B3
330
18
100
AcDbEntity
  8
DISEGNO
100
AcDbCircle
 10
1238.009901393052
 20
730.4268433710382
 30
0.0
 40
1.0
100
AcDbArc
 50
336.8630000000008
 51
38.2322000000031
  0
ARC
  5
39B4
330
18
100
AcDbEntity
  8
DISEGNO
100
AcDbCircle
 10
1238.009901393052
 20
724.1398433710383
 30
0.0
 40
1.0
100
AcDbArc
 50
321.7679999999995
 51
23.13720000001048
  0
ARC
  5
39B5
330
18
100
AcDbEntity
  8
DISEGNO
100
AcDbCircle
 10
1245.366901393052
 20
727.2828433710383
 30
0.0
 40
7.0
100
AcDbArc
 50
156.8630000000008
 51
203.1369999999992
  0
ARC
  5
39B6
330
18
100
AcDbEntity
  8
DISEGNO
100
AcDbCircle
 10
1240.366901393052
 20
722.2828433710382
 30
0.0
 40
2.0
100
AcDbArc
 50
141.7679999999994
 51
308.2319999999954
  0
ARC
  5
39B7
330
18
100
AcDbEntity
  8
DISEGNO
100
AcDbCircle
 10
1245.366901393052
 20
727.2828433710383
 30
0.0
 40
7.0
100
AcDbArc
 50
246.8630000000008
 51
293.1369999999991
  0
ARC
  5
39B8
330
18
100
AcDbEntity
  8
DISEGNO
100
AcDbCircle
 10
1242.222901393052
 20
719.9268433710382
 30
0.0
 40
1.0
100
AcDbArc
 50
66.86300000000085
 51
128.2319999999954
  0
ARC
  5
39B9
330
18
100
AcDbEntity
  8
DISEGNO
100
AcDbCircle
 10
1248.509901393052
 20
719.9268433710382
 30
0.0
 40
1.0
100
AcDbArc
 50
51.76800000000457
 51
113.1369999999991
  0
LINE
  5
39BA
330
18
100
AcDbEntity
  8
DISEGNO
100
AcDbLine
 10
1233.116901393052
 20
743.7828433710383
 30
0.0
 11
1239.116901393052
 21
743.7828433710383
 31
0.0
  0
LINE
  5
39BB
330
18
100
AcDbEntity
  8
DISEGNO
100
AcDbLine
 10
1239.116901393052
 20
743.7828433710383
 30
0.0
 11
1239.116901393052
 21
739.5328433710383
 31
0.0
  0
ARC
  5
39BC
330
18
100
AcDbEntity
  8
DISEGNO
100
AcDbCircle
 10
1245.366901393052
 20
727.2828433710383
 30
0.0
 40
7.0
100
AcDbArc
 50
67.02500000000586
 51
113.1369999999991
  0
LINE
  5
39BD
330
18
100
AcDbEntity
  8
DISEGNO
100
AcDbLine
 10
1249.616901393052
 20
739.5328433710383
 30
0.0
 11
1239.116901393052
 21
739.5328433710383
 31
0.0
  0
ARC
  5
39BE
330
18
100
AcDbEntity
  8
DISEGNO
100
AcDbCircle
 10
1242.222901393052
 20
734.6398433710382
 30
0.0
 40
1.0
100
AcDbArc
 50
231.7680000000046
 51
293.1369999999991
  0
ARC
  5
39BF
330
18
100
AcDbEntity
  8
DISEGNO
100
AcDbCircle
 10
1249.616901393052
 20
740.5328433710383
 30
0.0
 40
1.0
100
AcDbArc
 50
270.0
 51
317.2680000000053
  0
ARC
  5
39C0
330
18
100
AcDbEntity
  8
DISEGNO
100
AcDbCircle
 10
1248.488901393052
 20
734.6488433710383
 30
0.0
 40
1.0
100
AcDbArc
 50
247.0250000000058
 51
314.9999999999908
  0
LINE
  5
39C1
330
18
100
AcDbEntity
  8
DISEGNO
100
AcDbLine
 10
1274.366901393052
 20
721.0328433710383
 30
0.0
 11
1274.366901393052
 21
715.0328433710383
 31
0.0
  0
LINE
  5
39C2
330
18
100
AcDbEntity
  8
DISEGNO
100
AcDbLine
 10
1261.866901393052
 20
715.0328433710383
 30
0.0
 11
1261.866901393052
 21
721.0328433710383
 31
0.0
  0
ARC
  5
39C3
330
18
100
AcDbEntity
  8
DISEGNO
100
AcDbCircle
 10
1268.116901393052
 20
721.2498433710383
 30
0.0
 40
15.0
100
AcDbArc
 50
47.26780000000274
 51
132.7319999999947
  0
ARC
  5
39C4
330
18
100
AcDbEntity
  8
DISEGNO
100
AcDbCircle
 10
1268.116901393052
 20
750.0328433710383
 30
0.0
 40
8.75
100
AcDbArc
 50
303.5409999999933
 51
329.4589999999975
  0
LINE
  5
39C5
330
18
100
AcDbEntity
  8
DISEGNO
100
AcDbLine
 10
1252.024901393052
 20
731.1128433710382
 30
0.0
 11
1258.393901393052
 21
737.4818433710382
 31
0.0
  0
ARC
  5
39C6
330
18
100
AcDbEntity
  8
DISEGNO
100
AcDbCircle
 10
1245.366901393052
 20
727.2828433710383
 30
0.0
 40
7.0
100
AcDbArc
 50
336.8630000000008
 51
22.97629999999779
  0
LINE
  5
39C7
330
18
100
AcDbEntity
  8
DISEGNO
100
AcDbLine
 10
1257.616901393052
 20
731.5328433710383
 30
0.0
 11
1257.616901393052
 21
721.0328433710383
 31
0.0
  0
ARC
  5
39C8
330
18
100
AcDbEntity
  8
DISEGNO
100
AcDbCircle
 10
1252.722901393052
 20
724.1398433710383
 30
0.0
 40
1.0
100
AcDbArc
 50
156.8630000000008
 51
218.2320000000006
  0
LINE
  5
39C9
330
18
100
AcDbEntity
  8
DISEGNO
100
AcDbLine
 10
1257.616901393052
 20
721.0328433710383
 30
0.0
 11
1261.866901393052
 21
721.0328433710383
 31
0.0
  0
ARC
  5
39CA
330
18
100
AcDbEntity
  8
DISEGNO
100
AcDbCircle
 10
1252.731901393052
 20
730.4058433710382
 30
0.0
 40
1.0
100
AcDbArc
 50
134.9999999999908
 51
202.9759999999997
  0
ARC
  5
39CB
330
18
100
AcDbEntity
  8
DISEGNO
100
AcDbCircle
 10
1258.616901393052
 20
731.5328433710383
 30
0.0
 40
1.0
100
AcDbArc
 50
132.7319999999947
 51
180.0
  0
ARC
  5
39CC
330
18
100
AcDbEntity
  8
DISEGNO
100
AcDbCircle
 10
1268.116901393052
 20
750.0328433710383
 30
0.0
 40
8.75
100
AcDbArc
 50
212.5409999999953
 51
239.4590000000031
  0
ARC
  5
39CD
330
18
100
AcDbEntity
  8
DISEGNO
100
AcDbCircle
 10
1256.979901393052
 20
738.8958433710382
 30
0.0
 40
2.0
100
AcDbArc
 50
314.9999999999908
 51
134.9999999999908
  0
ARC
  5
39CE
330
18
100
AcDbEntity
  8
DISEGNO
100
AcDbCircle
 10
1259.314901393052
 20
747.9268433710382
 30
0.0
 40
0.3
100
AcDbArc
 50
292.9999999999992
 51
13.45950000000371
  0
LINE
  5
39CF
330
18
100
AcDbEntity
  8
DISEGNO
100
AcDbLine
 10
1258.756901393052
 20
747.3638433710383
 30
0.0
 11
1259.431901393052
 21
747.6508433710383
 31
0.0
  0
ARC
  5
39D0
330
18
100
AcDbEntity
  8
DISEGNO
100
AcDbCircle
 10
1258.874901393052
 20
747.0878433710383
 30
0.0
 40
0.3
100
AcDbArc
 50
112.9999999999992
 51
197.6759999999966
  0
ARC
  5
39D1
330
18
100
AcDbEntity
  8
DISEGNO
100
AcDbCircle
 10
1268.116901393052
 20
750.0328433710383
 30
0.0
 40
10.0
100
AcDbArc
 50
197.6759999999966
 51
208.323999999996
  0
ARC
  5
39D2
330
18
100
AcDbEntity
  8
DISEGNO
100
AcDbCircle
 10
1259.577901393052
 20
745.4308433710383
 30
0.0
 40
0.3
100
AcDbArc
 50
208.323999999996
 51
292.9999999999992
  0
LINE
  5
39D3
330
18
100
AcDbEntity
  8
DISEGNO
100
AcDbLine
 10
1259.694901393052
 20
745.1548433710383
 30
0.0
 11
1260.369901393052
 21
745.4408433710383
 31
0.0
  0
ARC
  5
39D4
330
18
100
AcDbEntity
  8
DISEGNO
100
AcDbCircle
 10
1260.486901393052
 20
745.1648433710382
 30
0.0
 40
0.3
100
AcDbArc
 50
32.54059999999904
 51
112.9999999999992
  0
ARC
  5
39D5
330
18
100
AcDbEntity
  8
DISEGNO
100
AcDbCircle
 10
1266.318901393052
 20
741.1638433710383
 30
0.0
 40
0.3
100
AcDbArc
 50
78.540599999997
 51
159.0000000000024
  0
ARC
  5
39D6
330
18
100
AcDbEntity
  8
DISEGNO
100
AcDbCircle
 10
1268.116901393052
 20
750.0328433710383
 30
0.0
 40
8.75
100
AcDbArc
 50
258.5409999999933
 51
284.458999999999
  0
ARC
  5
39D7
330
18
100
AcDbEntity
  8
DISEGNO
100
AcDbCircle
 10
1270.375901393052
 20
741.2698433710382
 30
0.0
 40
0.3
100
AcDbArc
 50
23.99999999999764
 51
104.458999999999
  0
ARC
  5
39D8
330
18
100
AcDbEntity
  8
DISEGNO
100
AcDbCircle
 10
1272.866901393052
 20
741.5758433710383
 30
0.0
 40
0.3
100
AcDbArc
 50
299.3240000000017
 51
23.99999999999764
  0
LINE
  5
39D9
330
18
100
AcDbEntity
  8
DISEGNO
100
AcDbLine
 10
1263.534901393052
 20
741.4468433710382
 30
0.0
 11
1263.797901393052
 21
742.1308433710382
 31
0.0
  0
LINE
  5
39DA
330
18
100
AcDbEntity
  8
DISEGNO
100
AcDbLine
 10
1265.775901393052
 20
740.5868433710382
 30
0.0
 11
1266.038901393051
 21
741.2708433710382
 31
0.0
  0
ARC
  5
39DB
330
18
100
AcDbEntity
  8
DISEGNO
100
AcDbCircle
 10
1263.814901393052
 20
741.3388433710383
 30
0.0
 40
0.3
100
AcDbArc
 50
159.0000000000024
 51
243.6759999999954
  0
ARC
  5
39DC
330
18
100
AcDbEntity
  8
DISEGNO
100
AcDbCircle
 10
1268.116901393052
 20
750.0328433710383
 30
0.0
 40
10.0
100
AcDbArc
 50
243.6759999999954
 51
254.3240000000065
  0
ARC
  5
39DD
330
18
100
AcDbEntity
  8
DISEGNO
100
AcDbCircle
 10
1265.495901393052
 20
740.6938433710384
 30
0.0
 40
0.3
100
AcDbArc
 50
254.3240000000065
 51
339.0000000000024
  0
LINE
  5
39DE
330
18
100
AcDbEntity
  8
DISEGNO
100
AcDbLine
 10
1270.649901393052
 20
741.3918433710382
 30
0.0
 11
1270.948901393052
 21
740.7218433710381
 31
0.0
  0
ARC
  5
39DF
330
18
100
AcDbEntity
  8
DISEGNO
100
AcDbCircle
 10
1271.222901393052
 20
740.8438433710383
 30
0.0
 40
0.3
100
AcDbArc
 50
203.9999999999976
 51
288.6759999999984
  0
ARC
  5
39E0
330
18
100
AcDbEntity
  8
DISEGNO
100
AcDbCircle
 10
1268.116901393052
 20
750.0328433710383
 30
0.0
 40
10.0
100
AcDbArc
 50
288.6759999999984
 51
299.3240000000017
  0
ARC
  5
39E1
330
18
100
AcDbEntity
  8
DISEGNO
100
AcDbCircle
 10
1263.517901393052
 20
742.2388433710383
 30
0.0
 40
0.3
100
AcDbArc
 50
339.0000000000024
 51
59.4594999999946
  0
LINE
  5
39E2
330
18
100
AcDbEntity
  8
DISEGNO
100
AcDbLine
 10
1272.842901393052
 20
742.3678433710382
 30
0.0
 11
1273.140901393052
 21
741.6978433710383
 31
0.0
  0
ARC
  5
39E3
330
18
100
AcDbEntity
  8
DISEGNO
100
AcDbCircle
 10
1273.116901393052
 20
742.4898433710382
 30
0.0
 40
0.3
100
AcDbArc
 50
123.5409999999933
 51
203.9999999999976
  0
ARC
  5
39E4
330
18
100
AcDbEntity
  8
DISEGNO
100
AcDbCircle
 10
1277.616901393052
 20
731.5328433710383
 30
0.0
 40
5.9
100
AcDbArc
 50
0.0000160859977836
 51
47.26780000000274
  0
ARC
  5
39E5
330
18
100
AcDbEntity
  8
DISEGNO
100
AcDbCircle
 10
1285.516901393052
 20
721.9328433710383
 30
0.0
 40
2.0
100
AcDbArc
 50
180.0
 51
270.0
  0
LINE
  5
39E6
330
18
100
AcDbEntity
  8
DISEGNO
100
AcDbLine
 10
1283.516901393052
 20
731.5328433710383
 30
0.0
 11
1283.516901393052
 21
721.9328433710383
 31
0.0
  0
LINE
  5
39E7
330
18
100
AcDbEntity
  8
DISEGNO
100
AcDbLine
 10
1278.616901393052
 20
731.5328433710383
 30
0.0
 11
1278.616901393052
 21
721.0328433710383
 31
0.0
  0
LINE
  5
39E8
330
18
100
AcDbEntity
  8
DISEGNO
100
AcDbLine
 10
1274.366901393052
 20
721.0328433710383
 30
0.0
 11
1278.616901393052
 21
721.0328433710383
 31
0.0
  0
ARC
  5
39E9
330
18
100
AcDbEntity
  8
DISEGNO
100
AcDbCircle
 10
1277.616901393052
 20
731.5328433710383
 30
0.0
 40
1.0
100
AcDbArc
 50
0.0000000036542283
 51
47.26780000000274
  0
ARC
  5
39EA
330
18
100
AcDbEntity
  8
DISEGNO
100
AcDbCircle
 10
1268.116901393052
 20
721.2498433710383
 30
0.0
 40
19.9
100
AcDbArc
 50
47.26780000000274
 51
62.71660000000091
  0
ARC
  5
39EB
330
18
100
AcDbEntity
  8
DISEGNO
100
AcDbCircle
 10
1277.696901393052
 20
739.8248433710382
 30
0.0
 40
1.0
100
AcDbArc
 50
133.1820000000052
 51
242.7170000000036
  0
ARC
  5
39EC
330
18
100
AcDbEntity
  8
DISEGNO
100
AcDbCircle
 10
1275.910901393052
 20
745.4348433710382
 30
0.0
 40
0.3
100
AcDbArc
 50
69.00000000000244
 51
149.4589999999975
  0
LINE
  5
39ED
330
18
100
AcDbEntity
  8
DISEGNO
100
AcDbLine
 10
1276.878901393052
 20
747.9548433710382
 30
0.0
 11
1277.562901393052
 21
747.6918433710381
 31
0.0
  0
ARC
  5
39EE
330
18
100
AcDbEntity
  8
DISEGNO
100
AcDbCircle
 10
1276.985901393052
 20
748.2348433710382
 30
0.0
 40
0.3
100
AcDbArc
 50
168.5409999999997
 51
249.0000000000024
  0
LINE
  5
39EF
330
18
100
AcDbEntity
  8
DISEGNO
100
AcDbLine
 10
1276.018901393052
 20
745.7148433710382
 30
0.0
 11
1276.702901393052
 21
745.4518433710382
 31
0.0
  0
ARC
  5
39F0
330
18
100
AcDbEntity
  8
DISEGNO
100
AcDbCircle
 10
1276.810901393052
 20
745.7318433710383
 30
0.0
 40
0.3
100
AcDbArc
 50
249.0000000000024
 51
333.6760000000041
  0
ARC
  5
39F1
330
18
100
AcDbEntity
  8
DISEGNO
100
AcDbCircle
 10
1268.116901393052
 20
750.0328433710383
 30
0.0
 40
10.0
100
AcDbArc
 50
333.6760000000041
 51
344.3239999999984
  0
ARC
  5
39F2
330
18
100
AcDbEntity
  8
DISEGNO
100
AcDbCircle
 10
1277.455901393052
 20
747.4118433710382
 30
0.0
 40
0.3
100
AcDbArc
 50
344.3239999999984
 51
69.00000000000244
  0
LINE
  5
39F3
330
18
100
AcDbEntity
  8
DISEGNO
100
AcDbLine
 10
1253.516901393052
 20
765.3328433710383
 30
0.0
 11
1241.916901393052
 21
765.3328433710383
 31
0.0
  0
ARC
  5
39F4
330
18
100
AcDbEntity
  8
DISEGNO
100
AcDbCircle
 10
1241.916901393052
 20
769.3328433710383
 30
0.0
 40
4.0
100
AcDbArc
 50
180.0
 51
270.0
  0
LINE
  5
39F5
330
18
100
AcDbEntity
  8
DISEGNO
100
AcDbLine
 10
1233.116901393052
 20
756.2828433710383
 30
0.0
 11
1239.116901393052
 21
756.2828433710383
 31
0.0
  0
LINE
  5
39F6
330
18
100
AcDbEntity
  8
DISEGNO
100
AcDbLine
 10
1239.116901393052
 20
760.5328433710383
 30
0.0
 11
1239.116901393052
 21
756.2828433710383
 31
0.0
  0
LINE
  5
39F7
330
18
100
AcDbEntity
  8
DISEGNO
100
AcDbLine
 10
1249.616901393052
 20
760.5328433710383
 30
0.0
 11
1239.116901393052
 21
760.5328433710383
 31
0.0
  0
ARC
  5
39F8
330
18
100
AcDbEntity
  8
DISEGNO
100
AcDbCircle
 10
1249.616901393052
 20
759.5328433710383
 30
0.0
 40
1.0
100
AcDbArc
 50
42.73219999999724
 51
90.0
  0
ARC
  5
39F9
330
18
100
AcDbEntity
  8
DISEGNO
100
AcDbCircle
 10
1268.116901393052
 20
750.0328433710383
 30
0.0
 40
8.75
100
AcDbArc
 50
33.54059999999671
 51
58.45950000000819
  0
ARC
  5
39FA
330
18
100
AcDbEntity
  8
DISEGNO
100
AcDbCircle
 10
1261.016901393052
 20
767.0328433710383
 30
0.0
 40
4.0
100
AcDbArc
 50
180.0
 51
270.0
  0
ARC
  5
39FB
330
18
100
AcDbEntity
  8
DISEGNO
100
AcDbCircle
 10
1268.116901393052
 20
750.0328433710383
 30
0.0
 40
8.75
100
AcDbArc
 50
122.5409999999988
 51
148.4589999999996
  0
ARC
  5
39FC
330
18
100
AcDbEntity
  8
DISEGNO
100
AcDbCircle
 10
1268.116901393052
 20
750.0328433710383
 30
0.0
 40
10.0
100
AcDbArc
 50
152.6760000000046
 51
163.3240000000003
  0
ARC
  5
39FD
330
18
100
AcDbEntity
  8
DISEGNO
100
AcDbCircle
 10
1258.824901393052
 20
752.8168433710382
 30
0.0
 40
0.3
100
AcDbArc
 50
163.3240000000003
 51
248.0000000000053
  0
LINE
  5
39FE
330
18
100
AcDbEntity
  8
DISEGNO
100
AcDbLine
 10
1259.391901393051
 20
752.2638433710383
 30
0.0
 11
1258.711901393052
 21
752.5388433710382
 31
0.0
  0
ARC
  5
39FF
330
18
100
AcDbEntity
  8
DISEGNO
100
AcDbCircle
 10
1259.279901393052
 20
751.9858433710383
 30
0.0
 40
0.3
100
AcDbArc
 50
347.5409999999899
 51
68.00000000000531
  0
ARC
  5
3A00
330
18
100
AcDbEntity
  8
DISEGNO
100
AcDbCircle
 10
1260.403901393052
 20
754.7668433710382
 30
0.0
 40
0.3
100
AcDbArc
 50
248.0000000000053
 51
328.4589999999996
  0
LINE
  5
3A01
330
18
100
AcDbEntity
  8
DISEGNO
100
AcDbLine
 10
1260.290901393052
 20
754.4888433710383
 30
0.0
 11
1259.610901393052
 21
754.7638433710383
 31
0.0
  0
ARC
  5
3A02
330
18
100
AcDbEntity
  8
DISEGNO
100
AcDbCircle
 10
1259.498901393051
 20
754.4858433710382
 30
0.0
 40
0.3
100
AcDbArc
 50
68.00000000000531
 51
152.6760000000046
  0
ARC
  5
3A03
330
18
100
AcDbEntity
  8
DISEGNO
100
AcDbCircle
 10
1253.516901393052
 20
766.3328433710383
 30
0.0
 40
1.0
100
AcDbArc
 50
270.0
 51
0.0000107390996264
  0
LINE
  5
3A04
330
18
100
AcDbEntity
  8
DISEGNO
100
AcDbLine
 10
1272.572901393052
 20
757.8588433710383
 30
0.0
 11
1272.846901393052
 21
758.5388433710383
 31
0.0
  0
LINE
  5
3A05
330
18
100
AcDbEntity
  8
DISEGNO
100
AcDbLine
 10
1263.524901393052
 20
757.7798433710382
 30
0.0
 11
1263.237901393052
 21
758.4548433710382
 31
0.0
  0
ARC
  5
3A06
330
18
100
AcDbEntity
  8
DISEGNO
100
AcDbCircle
 10
1263.248901393051
 20
757.6628433710383
 30
0.0
 40
0.3
100
AcDbArc
 50
302.5409999999988
 51
22.99999999999926
  0
ARC
  5
3A07
330
18
100
AcDbEntity
  8
DISEGNO
100
AcDbCircle
 10
1272.850901393052
 20
757.7458433710383
 30
0.0
 40
0.3
100
AcDbArc
 50
157.9999999999908
 51
238.458999999994
  0
ARC
  5
3A08
330
18
100
AcDbEntity
  8
DISEGNO
100
AcDbCircle
 10
1268.116901393052
 20
750.0328433710383
 30
0.0
 40
8.75
100
AcDbArc
 50
77.54060000000437
 51
103.4590000000054
  0
ARC
  5
3A09
330
18
100
AcDbEntity
  8
DISEGNO
100
AcDbCircle
 10
1266.009901393052
 20
758.8348433710382
 30
0.0
 40
0.3
100
AcDbArc
 50
202.9999999999992
 51
283.4590000000055
  0
ARC
  5
3A0A
330
18
100
AcDbEntity
  8
DISEGNO
100
AcDbCircle
 10
1265.170901393052
 20
759.2748433710383
 30
0.0
 40
0.3
100
AcDbArc
 50
22.99999999999926
 51
107.6760000000028
  0
ARC
  5
3A0B
330
18
100
AcDbEntity
  8
DISEGNO
100
AcDbCircle
 10
1268.116901393052
 20
750.0328433710383
 30
0.0
 40
10.0
100
AcDbArc
 50
107.6760000000028
 51
118.3240000000048
  0
ARC
  5
3A0C
330
18
100
AcDbEntity
  8
DISEGNO
100
AcDbCircle
 10
1263.513901393052
 20
758.5718433710382
 30
0.0
 40
0.3
100
AcDbArc
 50
118.3240000000048
 51
202.9999999999992
  0
LINE
  5
3A0D
330
18
100
AcDbEntity
  8
DISEGNO
100
AcDbLine
 10
1265.733901393052
 20
758.7168433710381
 30
0.0
 11
1265.446901393052
 21
759.3928433710383
 31
0.0
  0
ARC
  5
3A0E
330
18
100
AcDbEntity
  8
DISEGNO
100
AcDbCircle
 10
1272.568901393052
 20
758.6508433710382
 30
0.0
 40
0.3
100
AcDbArc
 50
337.9999999999908
 51
62.6762999999963
  0
ARC
  5
3A0F
330
18
100
AcDbEntity
  8
DISEGNO
100
AcDbCircle
 10
1268.116901393052
 20
750.0328433710383
 30
0.0
 40
10.0
100
AcDbArc
 50
62.6762999999963
 51
73.32380000000289
  0
ARC
  5
3A10
330
18
100
AcDbEntity
  8
DISEGNO
100
AcDbCircle
 10
1270.899901393052
 20
759.3248433710382
 30
0.0
 40
0.3
100
AcDbArc
 50
73.32380000000289
 51
157.9999999999908
  0
LINE
  5
3A11
330
18
100
AcDbEntity
  8
DISEGNO
100
AcDbLine
 10
1270.346901393051
 20
758.7578433710382
 30
0.0
 11
1270.621901393052
 21
759.4378433710383
 31
0.0
  0
ARC
  5
3A12
330
18
100
AcDbEntity
  8
DISEGNO
100
AcDbCircle
 10
1270.068901393052
 20
758.8698433710382
 30
0.0
 40
0.3
100
AcDbArc
 50
257.5409999999977
 51
337.9999999999908
  0
ARC
  5
3A13
330
18
100
AcDbEntity
  8
DISEGNO
100
AcDbCircle
 10
1268.116901393052
 20
750.0328433710383
 30
0.0
 40
10.0
100
AcDbArc
 50
18.67629999999705
 51
29.32379999999772
  0
ARC
  5
3A14
330
18
100
AcDbEntity
  8
DISEGNO
100
AcDbCircle
 10
1276.879901393052
 20
752.2928433710383
 30
0.0
 40
0.3
100
AcDbArc
 50
114.0000000000035
 51
194.4589999999973
  0
LINE
  5
3A15
330
18
100
AcDbEntity
  8
DISEGNO
100
AcDbLine
 10
1276.757901393051
 20
752.5668433710381
 30
0.0
 11
1277.427901393052
 21
752.8648433710381
 31
0.0
  0
ARC
  5
3A16
330
18
100
AcDbEntity
  8
DISEGNO
100
AcDbCircle
 10
1277.305901393052
 20
753.1388433710382
 30
0.0
 40
0.3
100
AcDbArc
 50
294.0000000000036
 51
18.67629999999705
  0
LINE
  5
3A17
330
18
100
AcDbEntity
  8
DISEGNO
100
AcDbLine
 10
1275.781901393052
 20
754.7598433710382
 30
0.0
 11
1276.451901393051
 21
755.0578433710382
 31
0.0
  0
ARC
  5
3A18
330
18
100
AcDbEntity
  8
DISEGNO
100
AcDbCircle
 10
1275.659901393052
 20
755.0338433710383
 30
0.0
 40
0.3
100
AcDbArc
 50
213.5409999999988
 51
294.0000000000036
  0
ARC
  5
3A19
330
18
100
AcDbEntity
  8
DISEGNO
100
AcDbCircle
 10
1276.573901393052
 20
754.7838433710382
 30
0.0
 40
0.3
100
AcDbArc
 50
29.32379999999772
 51
114.0000000000035
  0
ARC
  5
3A1A
330
18
100
AcDbEntity
  8
DISEGNO
100
AcDbCircle
 10
1278.399901393052
 20
759.5328433710383
 30
0.0
 40
1.0
100
AcDbArc
 50
90.0
 51
222.7319999999947
  0
ARC
  5
3A1B
330
18
100
AcDbEntity
  8
DISEGNO
100
AcDbCircle
 10
1234.116901393052
 20
884.0328433710382
 30
0.0
 40
1.0
100
AcDbArc
 50
90.0
 51
180.0
  0
LINE
  5
3A1C
330
18
100
AcDbEntity
  8
DISEGNO
100
AcDbLine
 10
1274.366901393052
 20
879.0328433710381
 30
0.0
 11
1274.366901393052
 21
885.0328433710382
 31
0.0
  0
LINE
  5
3A1D
330
18
100
AcDbEntity
  8
DISEGNO
100
AcDbLine
 10
1261.866901393052
 20
885.0328433710382
 30
0.0
 11
1261.866901393052
 21
879.0328433710381
 31
0.0
  0
ARC
  5
3A1E
330
18
100
AcDbEntity
  8
DISEGNO
100
AcDbCircle
 10
1250.366901393052
 20
877.7828433710382
 30
0.0
 40
2.0
100
AcDbArc
 50
321.7679999999995
 51
128.2319999999954
  0
ARC
  5
3A20
330
18
100
AcDbEntity
  8
DISEGNO
100
AcDbCircle
 10
1239.332901393052
 20
850.0328433710382
 30
0.0
 40
15.0
100
AcDbArc
 50
317.2680000000053
 51
42.73219999999724
  0
LINE
  5
3A21
330
18
100
AcDbEntity
  8
DISEGNO
100
AcDbLine
 10
1253.516901393052
 20
834.7328433710382
 30
0.0
 11
1241.916901393052
 21
834.7328433710382
 31
0.0
  0
LINE
  5
3A22
330
18
100
AcDbEntity
  8
DISEGNO
100
AcDbLine
 10
1249.195901393052
 20
866.1228433710384
 30
0.0
 11
1255.564901393052
 21
859.7528433710381
 31
0.0
  0
ARC
  5
3A23
330
18
100
AcDbEntity
  8
DISEGNO
100
AcDbCircle
 10
1241.916901393052
 20
830.7328433710383
 30
0.0
 40
4.0
100
AcDbArc
 50
90.0
 51
180.0
  0
LINE
  5
3A24
330
18
100
AcDbEntity
  8
DISEGNO
100
AcDbLine
 10
1233.116901393052
 20
843.7828433710382
 30
0.0
 11
1239.116901393052
 21
843.7828433710382
 31
0.0
  0
LINE
  5
3A25
330
18
100
AcDbEntity
  8
DISEGNO
100
AcDbLine
 10
1239.116901393052
 20
839.5328433710382
 30
0.0
 11
1239.116901393052
 21
843.7828433710382
 31
0.0
  0
LINE
  5
3A26
330
18
100
AcDbEntity
  8
DISEGNO
100
AcDbLine
 10
1249.616901393052
 20
839.5328433710382
 30
0.0
 11
1239.116901393052
 21
839.5328433710382
 31
0.0
  0
ARC
  5
3A27
330
18
100
AcDbEntity
  8
DISEGNO
100
AcDbCircle
 10
1249.616901393052
 20
840.5328433710382
 30
0.0
 40
1.0
100
AcDbArc
 50
270.0
 51
317.2680000000053
  0
ARC
  5
3A29
330
18
100
AcDbEntity
  8
DISEGNO
100
AcDbCircle
 10
1240.366901393052
 20
867.7828433710383
 30
0.0
 40
2.0
100
AcDbArc
 50
141.7679999999994
 51
308.2319999999954
  0
LINE
  5
3A2A
330
18
100
AcDbEntity
  8
DISEGNO
100
AcDbLine
 10
1233.116901393052
 20
884.0328433710382
 30
0.0
 11
1233.116901393052
 21
856.2828433710382
 31
0.0
  0
LINE
  5
3A2B
330
18
100
AcDbEntity
  8
DISEGNO
100
AcDbLine
 10
1239.116901393052
 20
856.2828433710382
 30
0.0
 11
1233.116901393052
 21
856.2828433710382
 31
0.0
  0
LINE
  5
3A2C
330
18
100
AcDbEntity
  8
DISEGNO
100
AcDbLine
 10
1239.116901393052
 20
856.2828433710382
 30
0.0
 11
1239.116901393052
 21
860.5328433710381
 31
0.0
  0
ARC
  5
3A2D
330
18
100
AcDbEntity
  8
DISEGNO
100
AcDbCircle
 10
1245.366901393052
 20
872.7828433710381
 30
0.0
 40
7.0
100
AcDbArc
 50
246.8630000000008
 51
292.9749999999942
  0
LINE
  5
3A2E
330
18
100
AcDbEntity
  8
DISEGNO
100
AcDbLine
 10
1249.616901393052
 20
860.5328433710381
 30
0.0
 11
1239.116901393052
 21
860.5328433710381
 31
0.0
  0
ARC
  5
3A2F
330
18
100
AcDbEntity
  8
DISEGNO
100
AcDbCircle
 10
1242.222901393052
 20
865.4228433710382
 30
0.0
 40
1.0
100
AcDbArc
 50
66.86279999999808
 51
128.2319999999954
  0
ARC
  5
3A30
330
18
100
AcDbEntity
  8
DISEGNO
100
AcDbCircle
 10
1248.488901393052
 20
865.4228433710382
 30
0.0
 40
1.0
100
AcDbArc
 50
45.00000000000921
 51
112.9749999999941
  0
ARC
  5
3A31
330
18
100
AcDbEntity
  8
DISEGNO
100
AcDbCircle
 10
1249.616901393052
 20
859.5328433710381
 30
0.0
 40
1.0
100
AcDbArc
 50
42.73219999999724
 51
90.0
  0
ARC
  5
3A32
330
18
100
AcDbEntity
  8
DISEGNO
100
AcDbCircle
 10
1238.009901393052
 20
875.9228433710383
 30
0.0
 40
1.0
100
AcDbArc
 50
336.8630000000008
 51
38.23200000000055
  0
ARC
  5
3A33
330
18
100
AcDbEntity
  8
DISEGNO
100
AcDbCircle
 10
1238.009901393052
 20
869.6428433710384
 30
0.0
 40
1.0
100
AcDbArc
 50
321.7679999999995
 51
23.13699999999916
  0
ARC
  5
3A34
330
18
100
AcDbEntity
  8
DISEGNO
100
AcDbCircle
 10
1245.366901393052
 20
872.7828433710381
 30
0.0
 40
7.0
100
AcDbArc
 50
156.8630000000008
 51
203.1369999999992
  0
ARC
  5
3A35
330
18
100
AcDbEntity
  8
DISEGNO
100
AcDbCircle
 10
1240.366901393052
 20
877.7828433710382
 30
0.0
 40
2.0
100
AcDbArc
 50
51.76780000000604
 51
218.2320000000006
  0
ARC
  5
3A36
330
18
100
AcDbEntity
  8
DISEGNO
100
AcDbCircle
 10
1245.366901393052
 20
872.7828433710381
 30
0.0
 40
7.0
100
AcDbArc
 50
66.86279999999808
 51
113.1369999999991
  0
ARC
  5
3A37
330
18
100
AcDbEntity
  8
DISEGNO
100
AcDbCircle
 10
1242.222901393052
 20
880.1428433710382
 30
0.0
 40
1.0
100
AcDbArc
 50
231.7680000000046
 51
293.1369999999991
  0
ARC
  5
3A38
330
18
100
AcDbEntity
  8
DISEGNO
100
AcDbCircle
 10
1248.509901393052
 20
880.1428433710382
 30
0.0
 40
1.0
100
AcDbArc
 50
246.8630000000008
 51
308.2319999999954
  0
ARC
  5
3A39
330
18
100
AcDbEntity
  8
DISEGNO
100
AcDbCircle
 10
1268.116901393052
 20
850.0328433710382
 30
0.0
 40
13.0
100
AcDbArc
 50
317.2680000000053
 51
47.25340000000964
  0
ARC
  5
3A3A
330
18
100
AcDbEntity
  8
DISEGNO
100
AcDbCircle
 10
1268.116901393052
 20
850.0328433710382
 30
0.0
 40
8.75
100
AcDbArc
 50
166.5410000000009
 51
192.4590000000101
  0
ARC
  5
3A3B
330
18
100
AcDbEntity
  8
DISEGNO
100
AcDbCircle
 10
1268.116901393052
 20
850.0328433710382
 30
0.0
 40
8.75
100
AcDbArc
 50
345.5410000000026
 51
11.4594000000017
  0
ARC
  5
3A3C
330
18
100
AcDbEntity
  8
DISEGNO
100
AcDbCircle
 10
1268.116901393052
 20
850.0328433710382
 30
0.0
 40
8.75
100
AcDbArc
 50
301.541000000006
 51
326.4590000000012
  0
ARC
  5
3A3D
330
18
100
AcDbEntity
  8
DISEGNO
100
AcDbCircle
 10
1253.516901393052
 20
833.7328433710382
 30
0.0
 40
1.0
100
AcDbArc
 50
0.0000107390996264
 51
90.0
  0
ARC
  5
3A3E
330
18
100
AcDbEntity
  8
DISEGNO
100
AcDbCircle
 10
1261.016901393052
 20
833.0328433710382
 30
0.0
 40
4.0
100
AcDbArc
 50
90.0
 51
180.0
  0
ARC
  5
3A3F
330
18
100
AcDbEntity
  8
DISEGNO
100
AcDbCircle
 10
1268.116901393052
 20
850.0328433710382
 30
0.0
 40
8.75
100
AcDbArc
 50
211.5410000000004
 51
237.4590000000011
  0
ARC
  5
3A40
330
18
100
AcDbEntity
  8
DISEGNO
100
AcDbCircle
 10
1260.403901393052
 20
845.3028433710382
 30
0.0
 40
0.3
100
AcDbArc
 50
31.5406000000041
 51
111.9999999999947
  0
LINE
  5
3A41
330
18
100
AcDbEntity
  8
DISEGNO
100
AcDbLine
 10
1260.290901393052
 20
845.5728433710381
 30
0.0
 11
1259.610901393052
 21
845.3028433710382
 31
0.0
  0
ARC
  5
3A42
330
18
100
AcDbEntity
  8
DISEGNO
100
AcDbCircle
 10
1259.498901393051
 20
845.5828433710383
 30
0.0
 40
0.3
100
AcDbArc
 50
207.3239999999953
 51
291.9999999999946
  0
ARC
  5
3A43
330
18
100
AcDbEntity
  8
DISEGNO
100
AcDbCircle
 10
1268.116901393052
 20
850.0328433710382
 30
0.0
 40
10.0
100
AcDbArc
 50
196.6759999999996
 51
207.3239999999953
  0
ARC
  5
3A44
330
18
100
AcDbEntity
  8
DISEGNO
100
AcDbCircle
 10
1258.824901393052
 20
847.2528433710381
 30
0.0
 40
0.3
100
AcDbArc
 50
111.9999999999947
 51
196.6759999999996
  0
LINE
  5
3A45
330
18
100
AcDbEntity
  8
DISEGNO
100
AcDbLine
 10
1259.391901393051
 20
847.8028433710381
 30
0.0
 11
1258.711901393052
 21
847.5328433710382
 31
0.0
  0
ARC
  5
3A46
330
18
100
AcDbEntity
  8
DISEGNO
100
AcDbCircle
 10
1259.279901393052
 20
848.0828433710383
 30
0.0
 40
0.3
100
AcDbArc
 50
291.9999999999946
 51
12.45940000000338
  0
LINE
  5
3A47
330
18
100
AcDbEntity
  8
DISEGNO
100
AcDbLine
 10
1272.572901393052
 20
842.2128433710382
 30
0.0
 11
1272.846901393052
 21
841.5328433710381
 31
0.0
  0
LINE
  5
3A48
330
18
100
AcDbEntity
  8
DISEGNO
100
AcDbLine
 10
1263.524901393052
 20
842.2828433710382
 30
0.0
 11
1263.237901393052
 21
841.6128433710383
 31
0.0
  0
ARC
  5
3A49
330
18
100
AcDbEntity
  8
DISEGNO
100
AcDbCircle
 10
1268.116901393052
 20
850.0328433710382
 30
0.0
 40
8.75
100
AcDbArc
 50
256.5409999999945
 51
282.4590000000023
  0
ARC
  5
3A4A
330
18
100
AcDbEntity
  8
DISEGNO
100
AcDbCircle
 10
1266.009901393052
 20
841.2328433710381
 30
0.0
 40
0.3
100
AcDbArc
 50
76.54059999999683
 51
157.0000000000007
  0
ARC
  5
3A4B
330
18
100
AcDbEntity
  8
DISEGNO
100
AcDbCircle
 10
1265.170901393052
 20
840.7928433710381
 30
0.0
 40
0.3
100
AcDbArc
 50
252.3239999999972
 51
337.0000000000008
  0
ARC
  5
3A4C
330
18
100
AcDbEntity
  8
DISEGNO
100
AcDbCircle
 10
1268.116901393052
 20
850.0328433710382
 30
0.0
 40
10.0
100
AcDbArc
 50
241.6759999999952
 51
252.3239999999972
  0
ARC
  5
3A4D
330
18
100
AcDbEntity
  8
DISEGNO
100
AcDbCircle
 10
1263.513901393052
 20
841.4928433710382
 30
0.0
 40
0.3
100
AcDbArc
 50
157.0000000000007
 51
241.6759999999952
  0
LINE
  5
3A4E
330
18
100
AcDbEntity
  8
DISEGNO
100
AcDbLine
 10
1265.733901393052
 20
841.3528433710384
 30
0.0
 11
1265.446901393052
 21
840.6728433710382
 31
0.0
  0
ARC
  5
3A4F
330
18
100
AcDbEntity
  8
DISEGNO
100
AcDbCircle
 10
1272.568901393052
 20
841.4128433710382
 30
0.0
 40
0.3
100
AcDbArc
 50
297.3240000000041
 51
22.00000000000921
  0
ARC
  5
3A50
330
18
100
AcDbEntity
  8
DISEGNO
100
AcDbCircle
 10
1268.116901393052
 20
850.0328433710382
 30
0.0
 40
10.0
100
AcDbArc
 50
286.6759999999978
 51
297.3240000000041
  0
ARC
  5
3A51
330
18
100
AcDbEntity
  8
DISEGNO
100
AcDbCircle
 10
1270.899901393052
 20
840.7428433710382
 30
0.0
 40
0.3
100
AcDbArc
 50
202.0000000000092
 51
286.6759999999978
  0
LINE
  5
3A52
330
18
100
AcDbEntity
  8
DISEGNO
100
AcDbLine
 10
1270.346901393051
 20
841.3128433710381
 30
0.0
 11
1270.621901393052
 21
840.6328433710383
 31
0.0
  0
ARC
  5
3A53
330
18
100
AcDbEntity
  8
DISEGNO
100
AcDbCircle
 10
1270.068901393052
 20
841.1928433710382
 30
0.0
 40
0.3
100
AcDbArc
 50
22.00000000000921
 51
102.4590000000023
  0
ARC
  5
3A54
330
18
100
AcDbEntity
  8
DISEGNO
100
AcDbCircle
 10
1263.248901393051
 20
842.4028433710383
 30
0.0
 40
0.3
100
AcDbArc
 50
337.0000000000008
 51
57.45940000000096
  0
ARC
  5
3A55
330
18
100
AcDbEntity
  8
DISEGNO
100
AcDbCircle
 10
1272.850901393052
 20
842.3228433710381
 30
0.0
 40
0.3
100
AcDbArc
 50
121.5410000000059
 51
202.0000000000092
  0
ARC
  5
3A56
330
18
100
AcDbEntity
  8
DISEGNO
100
AcDbCircle
 10
1278.399901393052
 20
840.5328433710382
 30
0.0
 40
1.0
100
AcDbArc
 50
137.2680000000052
 51
270.0
  0
LINE
  5
3A57
330
18
100
AcDbEntity
  8
DISEGNO
100
AcDbLine
 10
1275.781901393052
 20
845.3028433710382
 30
0.0
 11
1276.451901393051
 21
845.0128433710382
 31
0.0
  0
ARC
  5
3A58
330
18
100
AcDbEntity
  8
DISEGNO
100
AcDbCircle
 10
1275.659901393052
 20
845.0328433710382
 30
0.0
 40
0.3
100
AcDbArc
 50
65.99999999999643
 51
146.4590000000012
  0
ARC
  5
3A59
330
18
100
AcDbEntity
  8
DISEGNO
100
AcDbCircle
 10
1276.879901393052
 20
847.7728433710382
 30
0.0
 40
0.3
100
AcDbArc
 50
165.5410000000026
 51
245.9999999999964
  0
LINE
  5
3A5A
330
18
100
AcDbEntity
  8
DISEGNO
100
AcDbLine
 10
1276.757901393051
 20
847.5028433710383
 30
0.0
 11
1277.427901393052
 21
847.2028433710383
 31
0.0
  0
ARC
  5
3A5B
330
18
100
AcDbEntity
  8
DISEGNO
100
AcDbCircle
 10
1277.305901393052
 20
846.9228433710382
 30
0.0
 40
0.3
100
AcDbArc
 50
341.3239999999995
 51
65.99999999999643
  0
ARC
  5
3A5C
330
18
100
AcDbEntity
  8
DISEGNO
100
AcDbCircle
 10
1268.116901393052
 20
850.0328433710382
 30
0.0
 40
10.0
100
AcDbArc
 50
330.6759999999983
 51
341.3239999999995
  0
ARC
  5
3A5D
330
18
100
AcDbEntity
  8
DISEGNO
100
AcDbCircle
 10
1276.573901393052
 20
845.2828433710381
 30
0.0
 40
0.3
100
AcDbArc
 50
245.9999999999964
 51
330.6759999999983
  0
ARC
  5
3A5E
330
18
100
AcDbEntity
  8
DISEGNO
100
AcDbCircle
 10
1268.116901393052
 20
878.8128433710381
 30
0.0
 40
15.0
100
AcDbArc
 50
227.2680000000053
 51
312.7319999999948
  0
ARC
  5
3A5F
330
18
100
AcDbEntity
  8
DISEGNO
100
AcDbCircle
 10
1268.116901393052
 20
850.0328433710382
 30
0.0
 40
8.75
100
AcDbArc
 50
30.54060000000872
 51
56.45939999999427
  0
LINE
  5
3A60
330
18
100
AcDbEntity
  8
DISEGNO
100
AcDbLine
 10
1252.024901393052
 20
868.9528433710382
 30
0.0
 11
1258.393901393052
 21
862.5828433710383
 31
0.0
  0
ARC
  5
3A61
330
18
100
AcDbEntity
  8
DISEGNO
100
AcDbCircle
 10
1268.116901393052
 20
850.0328433710382
 30
0.0
 40
8.75
100
AcDbArc
 50
120.5409999999968
 51
147.4590000000047
  0
ARC
  5
3A62
330
18
100
AcDbEntity
  8
DISEGNO
100
AcDbCircle
 10
1256.979901393052
 20
861.1728433710382
 30
0.0
 40
2.0
100
AcDbArc
 50
225.0000000000092
 51
45.00000000000921
  0
ARC
  5
3A63
330
18
100
AcDbEntity
  8
DISEGNO
100
AcDbCircle
 10
1259.577901393052
 20
854.6328433710383
 30
0.0
 40
0.3
100
AcDbArc
 50
67.00000000000075
 51
151.6760000000039
  0
LINE
  5
3A64
330
18
100
AcDbEntity
  8
DISEGNO
100
AcDbLine
 10
1259.694901393052
 20
854.9128433710382
 30
0.0
 11
1260.369901393052
 21
854.6228433710384
 31
0.0
  0
ARC
  5
3A65
330
18
100
AcDbEntity
  8
DISEGNO
100
AcDbCircle
 10
1260.486901393052
 20
854.9028433710383
 30
0.0
 40
0.3
100
AcDbArc
 50
247.0000000000008
 51
327.4590000000046
  0
ARC
  5
3A66
330
18
100
AcDbEntity
  8
DISEGNO
100
AcDbCircle
 10
1259.314901393052
 20
852.1428433710383
 30
0.0
 40
0.3
100
AcDbArc
 50
346.5410000000009
 51
67.00000000000075
  0
LINE
  5
3A67
330
18
100
AcDbEntity
  8
DISEGNO
100
AcDbLine
 10
1258.756901393052
 20
852.7028433710382
 30
0.0
 11
1259.431901393052
 21
852.4128433710384
 31
0.0
  0
ARC
  5
3A68
330
18
100
AcDbEntity
  8
DISEGNO
100
AcDbCircle
 10
1258.874901393052
 20
852.9828433710383
 30
0.0
 40
0.3
100
AcDbArc
 50
162.3240000000034
 51
247.0000000000008
  0
ARC
  5
3A69
330
18
100
AcDbEntity
  8
DISEGNO
100
AcDbCircle
 10
1268.116901393052
 20
850.0328433710382
 30
0.0
 40
10.0
100
AcDbArc
 50
151.6760000000039
 51
162.3240000000034
  0
LINE
  5
3A6A
330
18
100
AcDbEntity
  8
DISEGNO
100
AcDbLine
 10
1265.775901393052
 20
859.4828433710382
 30
0.0
 11
1266.038901393051
 21
858.7928433710382
 31
0.0
  0
LINE
  5
3A6B
330
18
100
AcDbEntity
  8
DISEGNO
100
AcDbLine
 10
1270.649901393052
 20
858.6728433710383
 30
0.0
 11
1270.948901393052
 21
859.3428433710384
 31
0.0
  0
ARC
  5
3A6C
330
18
100
AcDbEntity
  8
DISEGNO
100
AcDbCircle
 10
1268.116901393052
 20
850.0328433710382
 30
0.0
 40
10.0
100
AcDbArc
 50
60.67629999999734
 51
71.32379999999223
  0
ARC
  5
3A6D
330
18
100
AcDbEntity
  8
DISEGNO
100
AcDbCircle
 10
1263.814901393052
 20
858.7228433710382
 30
0.0
 40
0.3
100
AcDbArc
 50
116.3240000000046
 51
200.9999999999976
  0
ARC
  5
3A6E
330
18
100
AcDbEntity
  8
DISEGNO
100
AcDbCircle
 10
1268.116901393052
 20
850.0328433710382
 30
0.0
 40
8.75
100
AcDbArc
 50
75.54060000000022
 51
101.4590000000066
  0
ARC
  5
3A6F
330
18
100
AcDbEntity
  8
DISEGNO
100
AcDbCircle
 10
1266.318901393052
 20
858.9028433710383
 30
0.0
 40
0.3
100
AcDbArc
 50
200.9999999999976
 51
281.4590000000066
  0
ARC
  5
3A70
330
18
100
AcDbEntity
  8
DISEGNO
100
AcDbCircle
 10
1263.517901393052
 20
857.8328433710384
 30
0.0
 40
0.3
100
AcDbArc
 50
300.5409999999969
 51
20.99999999999756
  0
LINE
  5
3A71
330
18
100
AcDbEntity
  8
DISEGNO
100
AcDbLine
 10
1263.534901393052
 20
858.6228433710383
 30
0.0
 11
1263.797901393052
 21
857.9328433710383
 31
0.0
  0
ARC
  5
3A72
330
18
100
AcDbEntity
  8
DISEGNO
100
AcDbCircle
 10
1270.375901393052
 20
858.7928433710382
 30
0.0
 40
0.3
100
AcDbArc
 50
255.541000000001
 51
336.0000000000023
  0
ARC
  5
3A73
330
18
100
AcDbEntity
  8
DISEGNO
100
AcDbCircle
 10
1272.866901393052
 20
858.4928433710382
 30
0.0
 40
0.3
100
AcDbArc
 50
336.0000000000023
 51
60.67629999999734
  0
LINE
  5
3A74
330
18
100
AcDbEntity
  8
DISEGNO
100
AcDbLine
 10
1272.842901393052
 20
857.7028433710383
 30
0.0
 11
1273.140901393052
 21
858.3728433710383
 31
0.0
  0
ARC
  5
3A75
330
18
100
AcDbEntity
  8
DISEGNO
100
AcDbCircle
 10
1273.116901393052
 20
857.5728433710381
 30
0.0
 40
0.3
100
AcDbArc
 50
156.0000000000023
 51
236.4590000000067
  0
ARC
  5
3A76
330
18
100
AcDbEntity
  8
DISEGNO
100
AcDbCircle
 10
1268.116901393052
 20
850.0328433710382
 30
0.0
 40
10.0
100
AcDbArc
 50
105.6759999999935
 51
116.3240000000046
  0
ARC
  5
3A77
330
18
100
AcDbEntity
  8
DISEGNO
100
AcDbCircle
 10
1265.495901393052
 20
859.3728433710383
 30
0.0
 40
0.3
100
AcDbArc
 50
20.99999999999756
 51
105.6759999999935
  0
ARC
  5
3A78
330
18
100
AcDbEntity
  8
DISEGNO
100
AcDbCircle
 10
1271.222901393052
 20
859.2228433710383
 30
0.0
 40
0.3
100
AcDbArc
 50
71.32379999999223
 51
156.0000000000023
  0
ARC
  5
3A79
330
18
100
AcDbEntity
  8
DISEGNO
100
AcDbCircle
 10
1252.722901393052
 20
875.9228433710383
 30
0.0
 40
1.0
100
AcDbArc
 50
141.7679999999994
 51
203.1369999999992
  0
LINE
  5
3A7A
330
18
100
AcDbEntity
  8
DISEGNO
100
AcDbLine
 10
1257.616901393052
 20
868.5328433710381
 30
0.0
 11
1257.616901393052
 21
879.0328433710381
 31
0.0
  0
ARC
  5
3A7B
330
18
100
AcDbEntity
  8
DISEGNO
100
AcDbCircle
 10
1252.731901393052
 20
869.6628433710383
 30
0.0
 40
1.0
100
AcDbArc
 50
157.0240000000002
 51
225.0000000000092
  0
ARC
  5
3A7C
330
18
100
AcDbEntity
  8
DISEGNO
100
AcDbCircle
 10
1245.366901393052
 20
872.7828433710381
 30
0.0
 40
7.0
100
AcDbArc
 50
337.0240000000003
 51
23.13699999999916
  0
ARC
  5
3A7D
330
18
100
AcDbEntity
  8
DISEGNO
100
AcDbCircle
 10
1258.616901393052
 20
868.5328433710381
 30
0.0
 40
1.0
100
AcDbArc
 50
180.0
 51
227.2680000000053
  0
LINE
  5
3A7E
330
18
100
AcDbEntity
  8
DISEGNO
100
AcDbLine
 10
1257.616901393052
 20
879.0328433710381
 30
0.0
 11
1261.866901393052
 21
879.0328433710381
 31
0.0
  0
ARC
  5
3A7F
330
18
100
AcDbEntity
  8
DISEGNO
100
AcDbCircle
 10
1277.616901393052
 20
868.5328433710381
 30
0.0
 40
5.799999999999999
100
AcDbArc
 50
312.7319999999948
 51
0.0000107469031301
  0
LINE
  5
3A80
330
18
100
AcDbEntity
  8
DISEGNO
100
AcDbLine
 10
1277.098901393052
 20
852.1928433710382
 30
0.0
 11
1276.689901393052
 21
851.7828433710382
 31
0.0
  0
LINE
  5
3A81
330
18
100
AcDbEntity
  8
DISEGNO
100
AcDbLine
 10
1276.878901393052
 20
852.1128433710384
 30
0.0
 11
1277.562901393052
 21
852.3728433710383
 31
0.0
  0
ARC
  5
3A82
330
18
100
AcDbEntity
  8
DISEGNO
100
AcDbCircle
 10
1276.985901393052
 20
851.8328433710383
 30
0.0
 40
0.3
100
AcDbArc
 50
110.9999999999975
 51
191.4590000000002
  0
ARC
  5
3A83
330
18
100
AcDbEntity
  8
DISEGNO
100
AcDbCircle
 10
1277.455901393052
 20
852.6528433710383
 30
0.0
 40
0.3
100
AcDbArc
 50
290.9999999999976
 51
15.67620000000392
  0
ARC
  5
3A84
330
18
100
AcDbEntity
  8
DISEGNO
100
AcDbCircle
 10
1275.910901393052
 20
854.6328433710383
 30
0.0
 40
0.3
100
AcDbArc
 50
210.5410000000025
 51
290.9999999999976
  0
LINE
  5
3A85
330
18
100
AcDbEntity
  8
DISEGNO
100
AcDbLine
 10
1276.018901393052
 20
854.3528433710383
 30
0.0
 11
1276.702901393052
 21
854.6128433710384
 31
0.0
  0
ARC
  5
3A86
330
18
100
AcDbEntity
  8
DISEGNO
100
AcDbCircle
 10
1276.810901393052
 20
854.3328433710383
 30
0.0
 40
0.3
100
AcDbArc
 50
26.32380000000149
 51
110.9999999999975
  0
ARC
  5
3A87
330
18
100
AcDbEntity
  8
DISEGNO
100
AcDbCircle
 10
1268.116901393052
 20
850.0328433710382
 30
0.0
 40
10.0
100
AcDbArc
 50
15.67620000000392
 51
26.32380000000149
  0
ARC
  5
3A88
330
18
100
AcDbEntity
  8
DISEGNO
100
AcDbCircle
 10
1268.116901393052
 20
878.8128433710381
 30
0.0
 40
19.8
100
AcDbArc
 50
297.183999999998
 51
312.7319999999948
  0
ARC
  5
3A89
330
18
100
AcDbEntity
  8
DISEGNO
100
AcDbCircle
 10
1277.618901393052
 20
860.3128433710381
 30
0.0
 40
1.0
100
AcDbArc
 50
117.183999999998
 51
227.2529999999994
  0
ARC
  5
3A8A
330
18
100
AcDbEntity
  8
DISEGNO
100
AcDbCircle
 10
1285.416901393052
 20
878.2328433710382
 30
0.0
 40
2.0
100
AcDbArc
 50
90.0
 51
180.0
  0
LINE
  5
3A8B
330
18
100
AcDbEntity
  8
DISEGNO
100
AcDbLine
 10
1283.416901393052
 20
868.5328433710381
 30
0.0
 11
1283.416901393052
 21
878.2328433710382
 31
0.0
  0
LINE
  5
3A8C
330
18
100
AcDbEntity
  8
DISEGNO
100
AcDbLine
 10
1278.616901393052
 20
868.5328433710381
 30
0.0
 11
1278.616901393052
 21
879.0328433710381
 31
0.0
  0
ARC
  5
3A8D
330
18
100
AcDbEntity
  8
DISEGNO
100
AcDbCircle
 10
1277.616901393052
 20
868.5328433710381
 30
0.0
 40
1.0
100
AcDbArc
 50
312.7319999999948
 51
0.0
  0
LINE
  5
3A8E
330
18
100
AcDbEntity
  8
DISEGNO
100
AcDbLine
 10
1274.366901393052
 20
879.0328433710381
 30
0.0
 11
1278.616901393052
 21
879.0328433710381
 31
0.0
  0
LINE
  5
3A8F
330
18
100
AcDbEntity
  8
DISEGNO
100
AcDbLine
 10
1234.116901393052
 20
885.0328433710382
 30
0.0
 11
1261.866901393052
 21
885.0328433710382
 31
0.0
  0
LINE
  5
3A90
330
18
100
AcDbEntity
  8
DISEGNO
100
AcDbLine
 10
1348.316901393052
 20
769.3328433710383
 30
0.0
 11
1348.316901393052
 21
830.7328433710383
 31
0.0
  0
LINE
  5
3A91
330
18
100
AcDbEntity
  8
DISEGNO
100
AcDbLine
 10
1329.216901393052
 20
767.0328433710383
 30
0.0
 11
1329.216901393052
 21
833.0328433710382
 31
0.0
  0
LINE
  5
3A92
330
18
100
AcDbEntity
  8
DISEGNO
100
AcDbLine
 10
1331.716901393052
 20
766.3328433710383
 30
0.0
 11
1331.716901393052
 21
833.7328433710382
 31
0.0
  0
LINE
  5
3A93
330
18
100
AcDbEntity
  8
DISEGNO
100
AcDbLine
 10
1353.116901393052
 20
756.2828433710383
 30
0.0
 11
1353.116901393052
 21
843.7828433710382
 31
0.0
  0
LINE
  5
3A94
330
18
100
AcDbEntity
  8
ASSI
100
AcDbLine
 10
1318.116901393052
 20
708.7798082235081
 30
0.0
 11
1318.116901393052
 21
889.0528433710382
 31
0.0
  0
ARC
  5
3A95
330
18
100
AcDbEntity
  8
DISEGNO
100
AcDbCircle
 10
1318.116901393052
 20
750.0328433710383
 30
0.0
 40
8.75
100
AcDbArc
 50
346.5410000000009
 51
12.45940000000338
  0
ARC
  5
3A96
330
18
100
AcDbEntity
  8
DISEGNO
100
AcDbCircle
 10
1318.116901393052
 20
750.0328433710383
 30
0.0
 40
8.75
100
AcDbArc
 50
165.5410000000026
 51
191.4590000000002
  0
ARC
  5
3A97
330
18
100
AcDbEntity
  8
DISEGNO
100
AcDbCircle
 10
1318.116901393052
 20
750.0328433710383
 30
0.0
 40
13.0
100
AcDbArc
 50
137.2680000000052
 51
226.8179999999948
  0
ARC
  5
3A98
330
18
100
AcDbEntity
  8
DISEGNO
100
AcDbCircle
 10
1346.899901393052
 20
750.0328433710383
 30
0.0
 40
15.0
100
AcDbArc
 50
137.2680000000052
 51
222.7319999999947
  0
ARC
  5
3A99
330
18
100
AcDbEntity
  8
DISEGNO
100
AcDbCircle
 10
1340.866901393052
 20
727.2828433710383
 30
0.0
 40
7.0
100
AcDbArc
 50
66.86300000000085
 51
112.9749999999941
  0
LINE
  5
3A9A
330
18
100
AcDbEntity
  8
DISEGNO
100
AcDbLine
 10
1336.616901393052
 20
739.5328433710383
 30
0.0
 11
1347.116901393052
 21
739.5328433710383
 31
0.0
  0
LINE
  5
3A9B
330
18
100
AcDbEntity
  8
ASSI
100
AcDbLine
 10
1331.123649560707
 20
727.2828433710384
 30
0.0
 11
1350.805901393052
 21
727.2828433710384
 31
0.0
  0
LINE
  5
3A9C
330
18
100
AcDbEntity
  8
DISEGNO
100
AcDbLine
 10
1352.116901393052
 20
715.0328433710383
 30
0.0
 11
1324.366901393052
 21
715.0328433710383
 31
0.0
  0
ARC
  5
3A9D
330
18
100
AcDbEntity
  8
DISEGNO
100
AcDbCircle
 10
1340.866901393052
 20
727.2828433710383
 30
0.0
 40
7.0
100
AcDbArc
 50
246.8630000000008
 51
293.1369999999991
  0
LINE
  5
3A9E
330
18
100
AcDbEntity
  8
DISEGNO
100
AcDbLine
 10
1311.866901393052
 20
721.0328433710383
 30
0.0
 11
1311.866901393052
 21
715.0328433710383
 31
0.0
  0
LINE
  5
3A9F
330
18
100
AcDbEntity
  8
DISEGNO
100
AcDbLine
 10
1324.366901393052
 20
715.0328433710383
 30
0.0
 11
1324.366901393052
 21
721.0328433710383
 31
0.0
  0
ARC
  5
3AA0
330
18
100
AcDbEntity
  8
DISEGNO
100
AcDbCircle
 10
1319.914901393052
 20
741.1638433710383
 30
0.0
 40
0.3
100
AcDbArc
 50
20.99999999999756
 51
101.4590000000066
  0
ARC
  5
3AA1
330
18
100
AcDbEntity
  8
DISEGNO
100
AcDbCircle
 10
1318.116901393052
 20
721.2498433710383
 30
0.0
 40
15.0
100
AcDbArc
 50
47.26780000000274
 51
132.7319999999947
  0
ARC
  5
3AA2
330
18
100
AcDbEntity
  8
DISEGNO
100
AcDbCircle
 10
1308.616901393052
 20
731.5328433710383
 30
0.0
 40
5.9
100
AcDbArc
 50
132.7319999999947
 51
180.0
  0
LINE
  5
3AA3
330
18
100
AcDbEntity
  8
DISEGNO
100
AcDbLine
 10
1311.866901393052
 20
721.0328433710383
 30
0.0
 11
1307.616901393052
 21
721.0328433710383
 31
0.0
  0
LINE
  5
3AA4
330
18
100
AcDbEntity
  8
DISEGNO
100
AcDbLine
 10
1302.716901393052
 20
731.5328433710383
 30
0.0
 11
1302.716901393052
 21
721.9328433710383
 31
0.0
  0
LINE
  5
3AA5
330
18
100
AcDbEntity
  8
DISEGNO
100
AcDbLine
 10
1307.616901393052
 20
731.5328433710383
 30
0.0
 11
1307.616901393052
 21
721.0328433710383
 31
0.0
  0
ARC
  5
3AA6
330
18
100
AcDbEntity
  8
DISEGNO
100
AcDbCircle
 10
1300.716901393052
 20
721.9328433710383
 30
0.0
 40
2.0
100
AcDbArc
 50
270.0
 51
0.0000000048397356
  0
ARC
  5
3AA7
330
18
100
AcDbEntity
  8
DISEGNO
100
AcDbCircle
 10
1308.616901393052
 20
731.5328433710383
 30
0.0
 40
1.0
100
AcDbArc
 50
132.7319999999947
 51
180.0
  0
ARC
  5
3AA8
330
18
100
AcDbEntity
  8
DISEGNO
100
AcDbCircle
 10
1318.116901393052
 20
721.2498433710383
 30
0.0
 40
19.9
100
AcDbArc
 50
117.2829999999964
 51
132.7319999999947
  0
ARC
  5
3AA9
330
18
100
AcDbEntity
  8
DISEGNO
100
AcDbCircle
 10
1315.856901393052
 20
741.2698433710382
 30
0.0
 40
0.3
100
AcDbArc
 50
75.54060000000022
 51
156.0000000000023
  0
ARC
  5
3AAA
330
18
100
AcDbEntity
  8
DISEGNO
100
AcDbCircle
 10
1313.365901393052
 20
741.5758433710383
 30
0.0
 40
0.3
100
AcDbArc
 50
156.0000000000023
 51
240.6759999999983
  0
ARC
  5
3AAB
330
18
100
AcDbEntity
  8
DISEGNO
100
AcDbCircle
 10
1318.116901393052
 20
750.0328433710383
 30
0.0
 40
8.75
100
AcDbArc
 50
255.541000000001
 51
281.4590000000066
  0
ARC
  5
3AAC
330
18
100
AcDbEntity
  8
DISEGNO
100
AcDbCircle
 10
1318.116901393052
 20
750.0328433710383
 30
0.0
 40
10.0
100
AcDbArc
 50
240.6759999999983
 51
251.3240000000016
  0
ARC
  5
3AAD
330
18
100
AcDbEntity
  8
DISEGNO
100
AcDbCircle
 10
1308.535901393052
 20
739.8248433710382
 30
0.0
 40
1.0
100
AcDbArc
 50
297.2829999999964
 51
46.81849999999218
  0
LINE
  5
3AAE
330
18
100
AcDbEntity
  8
DISEGNO
100
AcDbLine
 10
1315.582901393052
 20
741.3918433710382
 30
0.0
 11
1315.284901393052
 21
740.7218433710381
 31
0.0
  0
ARC
  5
3AAF
330
18
100
AcDbEntity
  8
DISEGNO
100
AcDbCircle
 10
1315.009901393052
 20
740.8438433710383
 30
0.0
 40
0.3
100
AcDbArc
 50
251.3240000000016
 51
336.0000000000023
  0
LINE
  5
3AB0
330
18
100
AcDbEntity
  8
DISEGNO
100
AcDbLine
 10
1309.354901393052
 20
747.9548433710382
 30
0.0
 11
1308.669901393052
 21
747.6918433710381
 31
0.0
  0
ARC
  5
3AB1
330
18
100
AcDbEntity
  8
DISEGNO
100
AcDbCircle
 10
1309.246901393052
 20
748.2348433710382
 30
0.0
 40
0.3
100
AcDbArc
 50
290.9999999999976
 51
11.4594000000017
  0
ARC
  5
3AB2
330
18
100
AcDbEntity
  8
DISEGNO
100
AcDbCircle
 10
1310.321901393052
 20
745.4348433710382
 30
0.0
 40
0.3
100
AcDbArc
 50
30.54060000000872
 51
110.9999999999975
  0
LINE
  5
3AB3
330
18
100
AcDbEntity
  8
DISEGNO
100
AcDbLine
 10
1310.214901393052
 20
745.7148433710382
 30
0.0
 11
1309.529901393052
 21
745.4518433710382
 31
0.0
  0
ARC
  5
3AB4
330
18
100
AcDbEntity
  8
DISEGNO
100
AcDbCircle
 10
1309.421901393052
 20
745.7318433710383
 30
0.0
 40
0.3
100
AcDbArc
 50
206.3239999999959
 51
290.9999999999976
  0
ARC
  5
3AB5
330
18
100
AcDbEntity
  8
DISEGNO
100
AcDbCircle
 10
1318.116901393052
 20
750.0328433710383
 30
0.0
 40
10.0
100
AcDbArc
 50
195.6760000000016
 51
206.3239999999959
  0
ARC
  5
3AB6
330
18
100
AcDbEntity
  8
DISEGNO
100
AcDbCircle
 10
1308.776901393052
 20
747.4118433710382
 30
0.0
 40
0.3
100
AcDbArc
 50
110.9999999999975
 51
195.6760000000016
  0
LINE
  5
3AB7
330
18
100
AcDbEntity
  8
DISEGNO
100
AcDbLine
 10
1313.389901393052
 20
742.3678433710382
 30
0.0
 11
1313.091901393052
 21
741.6978433710383
 31
0.0
  0
ARC
  5
3AB8
330
18
100
AcDbEntity
  8
DISEGNO
100
AcDbCircle
 10
1313.115901393052
 20
742.4898433710382
 30
0.0
 40
0.3
100
AcDbArc
 50
336.0000000000023
 51
56.45939999999427
  0
ARC
  5
3AB9
330
18
100
AcDbEntity
  8
DISEGNO
100
AcDbCircle
 10
1318.116901393052
 20
750.0328433710383
 30
0.0
 40
8.75
100
AcDbArc
 50
210.5410000000025
 51
236.4590000000067
  0
LINE
  5
3ABA
330
18
100
AcDbEntity
  8
DISEGNO
100
AcDbLine
 10
1334.207901393052
 20
731.1128433710382
 30
0.0
 11
1327.838901393052
 21
737.4818433710382
 31
0.0
  0
LINE
  5
3ABB
330
18
100
AcDbEntity
  8
ASSI
100
AcDbLine
 10
1340.866901393052
 20
736.9981150038101
 30
0.0
 11
1340.866901393052
 21
717.7128433710382
 31
0.0
  0
LINE
  5
3ABC
330
18
100
AcDbEntity
  8
DISEGNO
100
AcDbLine
 10
1328.616901393052
 20
731.5328433710383
 30
0.0
 11
1328.616901393052
 21
721.0328433710383
 31
0.0
  0
LINE
  5
3ABD
330
18
100
AcDbEntity
  8
DISEGNO
100
AcDbLine
 10
1328.616901393052
 20
721.0328433710383
 30
0.0
 11
1324.366901393052
 21
721.0328433710383
 31
0.0
  0
ARC
  5
3ABE
330
18
100
AcDbEntity
  8
DISEGNO
100
AcDbCircle
 10
1327.616901393052
 20
731.5328433710383
 30
0.0
 40
1.0
100
AcDbArc
 50
0.0000000049765249
 51
47.26780000000274
  0
ARC
  5
3ABF
330
18
100
AcDbEntity
  8
DISEGNO
100
AcDbCircle
 10
1340.866901393052
 20
727.2828433710383
 30
0.0
 40
7.0
100
AcDbArc
 50
157.0240000000002
 51
203.1369999999992
  0
ARC
  5
3AC0
330
18
100
AcDbEntity
  8
DISEGNO
100
AcDbCircle
 10
1337.722901393052
 20
719.9268433710382
 30
0.0
 40
1.0
100
AcDbArc
 50
66.86279999999808
 51
128.2319999999954
  0
ARC
  5
3AC1
330
18
100
AcDbEntity
  8
DISEGNO
100
AcDbCircle
 10
1333.509901393052
 20
724.1398433710383
 30
0.0
 40
1.0
100
AcDbArc
 50
321.7679999999995
 51
23.13699999999916
  0
ARC
  5
3AC2
330
18
100
AcDbEntity
  8
DISEGNO
100
AcDbCircle
 10
1335.866901393052
 20
722.2828433710382
 30
0.0
 40
2.0
100
AcDbArc
 50
141.7679999999994
 51
308.2319999999954
  0
ARC
  5
3AC3
330
18
100
AcDbEntity
  8
DISEGNO
100
AcDbCircle
 10
1333.500901393052
 20
730.4058433710382
 30
0.0
 40
1.0
100
AcDbArc
 50
337.0240000000003
 51
45.00000000000921
  0
LINE
  5
3AC4
330
18
100
AcDbEntity
  8
DISEGNO
100
AcDbLine
 10
1337.036901393052
 20
733.9418433710382
 30
0.0
 11
1330.667901393052
 21
740.3108433710383
 31
0.0
  0
LINE
  5
3AC5
330
18
100
AcDbEntity
  8
DISEGNO
100
AcDbLine
 10
1322.697901393051
 20
741.4468433710382
 30
0.0
 11
1322.434901393052
 21
742.1308433710382
 31
0.0
  0
ARC
  5
3AC6
330
18
100
AcDbEntity
  8
DISEGNO
100
AcDbCircle
 10
1322.417901393052
 20
741.3388433710383
 30
0.0
 40
0.3
100
AcDbArc
 50
296.3240000000046
 51
20.99999999999756
  0
ARC
  5
3AC7
330
18
100
AcDbEntity
  8
DISEGNO
100
AcDbCircle
 10
1318.116901393052
 20
750.0328433710383
 30
0.0
 40
10.0
100
AcDbArc
 50
285.6759999999935
 51
296.3240000000046
  0
ARC
  5
3AC8
330
18
100
AcDbEntity
  8
DISEGNO
100
AcDbCircle
 10
1320.737901393052
 20
740.6938433710384
 30
0.0
 40
0.3
100
AcDbArc
 50
200.9999999999976
 51
285.6759999999935
  0
LINE
  5
3AC9
330
18
100
AcDbEntity
  8
DISEGNO
100
AcDbLine
 10
1320.456901393052
 20
740.5868433710382
 30
0.0
 11
1320.194901393052
 21
741.2708433710382
 31
0.0
  0
ARC
  5
3ACA
330
18
100
AcDbEntity
  8
DISEGNO
100
AcDbCircle
 10
1329.253901393052
 20
738.8958433710382
 30
0.0
 40
2.0
100
AcDbArc
 50
45.00000000000921
 51
225.0000000000092
  0
ARC
  5
3ACB
330
18
100
AcDbEntity
  8
DISEGNO
100
AcDbCircle
 10
1325.745901393052
 20
745.1648433710382
 30
0.0
 40
0.3
100
AcDbArc
 50
67.00000000000075
 51
147.4590000000047
  0
ARC
  5
3ACC
330
18
100
AcDbEntity
  8
DISEGNO
100
AcDbCircle
 10
1318.116901393052
 20
750.0328433710383
 30
0.0
 40
8.75
100
AcDbArc
 50
300.5409999999969
 51
327.4590000000046
  0
ARC
  5
3ACD
330
18
100
AcDbEntity
  8
DISEGNO
100
AcDbCircle
 10
1322.714901393052
 20
742.2388433710383
 30
0.0
 40
0.3
100
AcDbArc
 50
120.5409999999968
 51
200.9999999999976
  0
ARC
  5
3ACE
330
18
100
AcDbEntity
  8
DISEGNO
100
AcDbCircle
 10
1326.917901393052
 20
747.9268433710382
 30
0.0
 40
0.3
100
AcDbArc
 50
166.5410000000009
 51
247.0000000000008
  0
LINE
  5
3ACF
330
18
100
AcDbEntity
  8
DISEGNO
100
AcDbLine
 10
1327.475901393052
 20
747.3638433710383
 30
0.0
 11
1326.800901393052
 21
747.6508433710383
 31
0.0
  0
ARC
  5
3AD0
330
18
100
AcDbEntity
  8
DISEGNO
100
AcDbCircle
 10
1327.358901393052
 20
747.0878433710383
 30
0.0
 40
0.3
100
AcDbArc
 50
342.3240000000034
 51
67.00000000000075
  0
ARC
  5
3AD1
330
18
100
AcDbEntity
  8
DISEGNO
100
AcDbCircle
 10
1318.116901393052
 20
750.0328433710383
 30
0.0
 40
10.0
100
AcDbArc
 50
331.676000000004
 51
342.3240000000034
  0
ARC
  5
3AD2
330
18
100
AcDbEntity
  8
DISEGNO
100
AcDbCircle
 10
1326.654901393052
 20
745.4308433710383
 30
0.0
 40
0.3
100
AcDbArc
 50
247.0000000000008
 51
331.676000000004
  0
LINE
  5
3AD3
330
18
100
AcDbEntity
  8
DISEGNO
100
AcDbLine
 10
1326.537901393052
 20
745.1548433710383
 30
0.0
 11
1325.862901393052
 21
745.4408433710383
 31
0.0
  0
ARC
  5
3AD4
330
18
100
AcDbEntity
  8
DISEGNO
100
AcDbCircle
 10
1337.743901393052
 20
734.6488433710383
 30
0.0
 40
1.0
100
AcDbArc
 50
225.0000000000092
 51
292.9749999999942
  0
ARC
  5
3AD5
330
18
100
AcDbEntity
  8
DISEGNO
100
AcDbCircle
 10
1336.616901393052
 20
740.5328433710383
 30
0.0
 40
1.0
100
AcDbArc
 50
222.7319999999947
 51
270.0
  0
LINE
  5
3AD6
330
18
100
AcDbEntity
  8
DISEGNO
100
AcDbLine
 10
1353.116901393052
 20
716.0328433710382
 30
0.0
 11
1353.116901393052
 21
743.7828433710383
 31
0.0
  0
ARC
  5
3AD7
330
18
100
AcDbEntity
  8
DISEGNO
100
AcDbCircle
 10
1352.116901393052
 20
716.0328433710382
 30
0.0
 40
1.0
100
AcDbArc
 50
270.0
 51
0.0
  0
ARC
  5
3AD8
330
18
100
AcDbEntity
  8
DISEGNO
100
AcDbCircle
 10
1345.866901393052
 20
732.2828433710383
 30
0.0
 40
2.0
100
AcDbArc
 50
321.7679999999995
 51
128.2319999999954
  0
ARC
  5
3AD9
330
18
100
AcDbEntity
  8
DISEGNO
100
AcDbCircle
 10
1340.866901393052
 20
727.2828433710383
 30
0.0
 40
7.0
100
AcDbArc
 50
336.8630000000008
 51
23.1370999999985
  0
ARC
  5
3ADA
330
18
100
AcDbEntity
  8
DISEGNO
100
AcDbCircle
 10
1344.009901393052
 20
719.9268433710382
 30
0.0
 40
1.0
100
AcDbArc
 50
51.76780000000604
 51
113.1369999999991
  0
ARC
  5
3ADB
330
18
100
AcDbEntity
  8
DISEGNO
100
AcDbCircle
 10
1348.222901393052
 20
724.1398433710383
 30
0.0
 40
1.0
100
AcDbArc
 50
156.8630000000008
 51
218.2320000000006
  0
ARC
  5
3ADC
330
18
100
AcDbEntity
  8
DISEGNO
100
AcDbCircle
 10
1345.866901393052
 20
722.2828433710382
 30
0.0
 40
2.0
100
AcDbArc
 50
231.7680000000046
 51
38.23200000000055
  0
ARC
  5
3ADD
330
18
100
AcDbEntity
  8
DISEGNO
100
AcDbCircle
 10
1348.222901393052
 20
730.4268433710382
 30
0.0
 40
1.0
100
AcDbArc
 50
141.7679999999994
 51
203.1369999999992
  0
LINE
  5
3ADE
330
18
100
AcDbEntity
  8
DISEGNO
100
AcDbLine
 10
1347.116901393052
 20
743.7828433710383
 30
0.0
 11
1347.116901393052
 21
739.5328433710383
 31
0.0
  0
ARC
  5
3ADF
330
18
100
AcDbEntity
  8
DISEGNO
100
AcDbCircle
 10
1344.009901393052
 20
734.6398433710382
 30
0.0
 40
1.0
100
AcDbArc
 50
246.8630000000008
 51
308.2319999999954
  0
LINE
  5
3AE0
330
18
100
AcDbEntity
  8
DISEGNO
100
AcDbLine
 10
1347.116901393052
 20
743.7828433710383
 30
0.0
 11
1353.116901393052
 21
743.7828433710383
 31
0.0
  0
LINE
  5
3AE1
330
18
100
AcDbEntity
  8
DISEGNO
100
AcDbLine
 10
1336.616901393052
 20
760.5328433710383
 30
0.0
 11
1347.116901393052
 21
760.5328433710383
 31
0.0
  0
LINE
  5
3AE2
330
18
100
AcDbEntity
  8
DISEGNO
100
AcDbLine
 10
1332.716901393052
 20
765.3328433710383
 30
0.0
 11
1344.316901393052
 21
765.3328433710383
 31
0.0
  0
ARC
  5
3AE3
330
18
100
AcDbEntity
  8
DISEGNO
100
AcDbCircle
 10
1318.116901393052
 20
750.0328433710383
 30
0.0
 40
8.75
100
AcDbArc
 50
76.54049999999628
 51
102.4590000000023
  0
ARC
  5
3AE4
330
18
100
AcDbEntity
  8
DISEGNO
100
AcDbCircle
 10
1307.832901393052
 20
759.5328433710383
 30
0.0
 40
1.0
100
AcDbArc
 50
317.2680000000053
 51
90.0
  0
LINE
  5
3AE5
330
18
100
AcDbEntity
  8
DISEGNO
100
AcDbLine
 10
1313.660901393052
 20
757.8588433710383
 30
0.0
 11
1313.385901393052
 21
758.5388433710383
 31
0.0
  0
ARC
  5
3AE6
330
18
100
AcDbEntity
  8
DISEGNO
100
AcDbCircle
 10
1313.382901393052
 20
757.7458433710383
 30
0.0
 40
0.3
100
AcDbArc
 50
301.541000000006
 51
22.00000000000921
  0
ARC
  5
3AE7
330
18
100
AcDbEntity
  8
DISEGNO
100
AcDbCircle
 10
1318.116901393052
 20
750.0328433710383
 30
0.0
 40
10.0
100
AcDbArc
 50
150.6759999999983
 51
161.3239999999995
  0
ARC
  5
3AE8
330
18
100
AcDbEntity
  8
DISEGNO
100
AcDbCircle
 10
1309.352901393052
 20
752.2928433710383
 30
0.0
 40
0.3
100
AcDbArc
 50
345.5410000000026
 51
65.99999999999643
  0
LINE
  5
3AE9
330
18
100
AcDbEntity
  8
DISEGNO
100
AcDbLine
 10
1309.474901393052
 20
752.5668433710381
 30
0.0
 11
1308.804901393052
 21
752.8648433710381
 31
0.0
  0
ARC
  5
3AEA
330
18
100
AcDbEntity
  8
DISEGNO
100
AcDbCircle
 10
1308.926901393052
 20
753.1388433710382
 30
0.0
 40
0.3
100
AcDbArc
 50
161.3239999999995
 51
245.9999999999964
  0
ARC
  5
3AEB
330
18
100
AcDbEntity
  8
DISEGNO
100
AcDbCircle
 10
1309.658901393052
 20
754.7838433710382
 30
0.0
 40
0.3
100
AcDbArc
 50
65.99999999999643
 51
150.6759999999983
  0
LINE
  5
3AEC
330
18
100
AcDbEntity
  8
DISEGNO
100
AcDbLine
 10
1310.450901393052
 20
754.7598433710382
 30
0.0
 11
1309.781901393052
 21
755.0578433710382
 31
0.0
  0
ARC
  5
3AED
330
18
100
AcDbEntity
  8
DISEGNO
100
AcDbCircle
 10
1310.572901393052
 20
755.0338433710383
 30
0.0
 40
0.3
100
AcDbArc
 50
245.9999999999964
 51
326.4590000000012
  0
ARC
  5
3AEE
330
18
100
AcDbEntity
  8
DISEGNO
100
AcDbCircle
 10
1318.116901393052
 20
750.0328433710383
 30
0.0
 40
8.75
100
AcDbArc
 50
121.5410000000059
 51
146.4590000000012
  0
ARC
  5
3AEF
330
18
100
AcDbEntity
  8
DISEGNO
100
AcDbCircle
 10
1318.116901393052
 20
750.0328433710383
 30
0.0
 40
10.0
100
AcDbArc
 50
106.6759999999977
 51
117.3240000000041
  0
ARC
  5
3AF0
330
18
100
AcDbEntity
  8
DISEGNO
100
AcDbCircle
 10
1313.663901393052
 20
758.6508433710382
 30
0.0
 40
0.3
100
AcDbArc
 50
117.3240000000041
 51
202.0000000000092
  0
ARC
  5
3AF1
330
18
100
AcDbEntity
  8
DISEGNO
100
AcDbCircle
 10
1315.332901393052
 20
759.3248433710382
 30
0.0
 40
0.3
100
AcDbArc
 50
22.00000000000921
 51
106.6759999999977
  0
LINE
  5
3AF2
330
18
100
AcDbEntity
  8
DISEGNO
100
AcDbLine
 10
1315.885901393052
 20
758.7578433710382
 30
0.0
 11
1315.610901393052
 21
759.4378433710383
 31
0.0
  0
ARC
  5
3AF3
330
18
100
AcDbEntity
  8
DISEGNO
100
AcDbCircle
 10
1316.163901393051
 20
758.8698433710382
 30
0.0
 40
0.3
100
AcDbArc
 50
202.0000000000092
 51
282.4590000000023
  0
ARC
  5
3AF4
330
18
100
AcDbEntity
  8
DISEGNO
100
AcDbCircle
 10
1325.216901393052
 20
767.0328433710383
 30
0.0
 40
4.0
100
AcDbArc
 50
270.0
 51
0.0000160916973376
  0
LINE
  5
3AF5
330
18
100
AcDbEntity
  8
DISEGNO
100
AcDbLine
 10
1322.707901393052
 20
757.7798433710382
 30
0.0
 11
1322.994901393052
 21
758.4548433710382
 31
0.0
  0
ARC
  5
3AF6
330
18
100
AcDbEntity
  8
DISEGNO
100
AcDbCircle
 10
1325.829901393052
 20
754.7668433710382
 30
0.0
 40
0.3
100
AcDbArc
 50
211.5410000000004
 51
291.9999999999946
  0
ARC
  5
3AF7
330
18
100
AcDbEntity
  8
DISEGNO
100
AcDbCircle
 10
1318.116901393052
 20
750.0328433710383
 30
0.0
 40
8.75
100
AcDbArc
 50
31.5406000000041
 51
57.45940000000096
  0
ARC
  5
3AF8
330
18
100
AcDbEntity
  8
DISEGNO
100
AcDbCircle
 10
1322.984901393052
 20
757.6628433710383
 30
0.0
 40
0.3
100
AcDbArc
 50
157.0000000000007
 51
237.4590000000011
  0
ARC
  5
3AF9
330
18
100
AcDbEntity
  8
DISEGNO
100
AcDbCircle
 10
1318.116901393052
 20
750.0328433710383
 30
0.0
 40
10.0
100
AcDbArc
 50
16.67619999999897
 51
27.32380000000838
  0
ARC
  5
3AFA
330
18
100
AcDbEntity
  8
DISEGNO
100
AcDbCircle
 10
1327.408901393052
 20
752.8168433710382
 30
0.0
 40
0.3
100
AcDbArc
 50
291.9999999999946
 51
16.67619999999897
  0
LINE
  5
3AFB
330
18
100
AcDbEntity
  8
DISEGNO
100
AcDbLine
 10
1326.840901393052
 20
752.2638433710383
 30
0.0
 11
1327.520901393052
 21
752.5388433710382
 31
0.0
  0
ARC
  5
3AFC
330
18
100
AcDbEntity
  8
DISEGNO
100
AcDbCircle
 10
1326.952901393052
 20
751.9858433710383
 30
0.0
 40
0.3
100
AcDbArc
 50
111.9999999999947
 51
192.4590000000101
  0
LINE
  5
3AFD
330
18
100
AcDbEntity
  8
DISEGNO
100
AcDbLine
 10
1325.941901393052
 20
754.4888433710383
 30
0.0
 11
1326.621901393052
 21
754.7638433710383
 31
0.0
  0
ARC
  5
3AFE
330
18
100
AcDbEntity
  8
DISEGNO
100
AcDbCircle
 10
1326.733901393052
 20
754.4858433710382
 30
0.0
 40
0.3
100
AcDbArc
 50
27.32380000000838
 51
111.9999999999947
  0
ARC
  5
3AFF
330
18
100
AcDbEntity
  8
DISEGNO
100
AcDbCircle
 10
1320.222901393052
 20
758.8348433710382
 30
0.0
 40
0.3
100
AcDbArc
 50
256.5409999999945
 51
337.0000000000008
  0
LINE
  5
3B00
330
18
100
AcDbEntity
  8
DISEGNO
100
AcDbLine
 10
1320.498901393051
 20
758.7168433710381
 30
0.0
 11
1320.785901393052
 21
759.3928433710383
 31
0.0
  0
ARC
  5
3B01
330
18
100
AcDbEntity
  8
DISEGNO
100
AcDbCircle
 10
1321.061901393052
 20
759.2748433710383
 30
0.0
 40
0.3
100
AcDbArc
 50
72.3236999999996
 51
157.0000000000007
  0
ARC
  5
3B02
330
18
100
AcDbEntity
  8
DISEGNO
100
AcDbCircle
 10
1318.116901393052
 20
750.0328433710383
 30
0.0
 40
10.0
100
AcDbArc
 50
61.67619999999118
 51
72.3236999999996
  0
ARC
  5
3B03
330
18
100
AcDbEntity
  8
DISEGNO
100
AcDbCircle
 10
1322.718901393052
 20
758.5718433710382
 30
0.0
 40
0.3
100
AcDbArc
 50
337.0000000000008
 51
61.67619999999118
  0
ARC
  5
3B04
330
18
100
AcDbEntity
  8
DISEGNO
100
AcDbCircle
 10
1332.716901393052
 20
766.3328433710383
 30
0.0
 40
1.0
100
AcDbArc
 50
180.0
 51
270.0
  0
ARC
  5
3B05
330
18
100
AcDbEntity
  8
DISEGNO
100
AcDbCircle
 10
1336.616901393052
 20
759.5328433710383
 30
0.0
 40
1.0
100
AcDbArc
 50
90.0
 51
137.2680000000052
  0
ARC
  5
3B06
330
18
100
AcDbEntity
  8
DISEGNO
100
AcDbCircle
 10
1344.316901393052
 20
769.3328433710383
 30
0.0
 40
4.0
100
AcDbArc
 50
270.0
 51
0.0
  0
LINE
  5
3B07
330
18
100
AcDbEntity
  8
DISEGNO
100
AcDbLine
 10
1347.116901393052
 20
760.5328433710383
 30
0.0
 11
1347.116901393052
 21
756.2828433710383
 31
0.0
  0
LINE
  5
3B08
330
18
100
AcDbEntity
  8
DISEGNO
100
AcDbLine
 10
1347.116901393052
 20
756.2828433710383
 30
0.0
 11
1353.116901393052
 21
756.2828433710383
 31
0.0
  0
ARC
  5
3B09
330
18
100
AcDbEntity
  8
DISEGNO
100
AcDbCircle
 10
1352.116901393052
 20
884.0328433710382
 30
0.0
 40
1.0
100
AcDbArc
 50
0.0000107197993082
 51
90.0
  0
LINE
  5
3B0A
330
18
100
AcDbEntity
  8
DISEGNO
100
AcDbLine
 10
1311.866901393052
 20
879.0328433710381
 30
0.0
 11
1311.866901393052
 21
885.0328433710382
 31
0.0
  0
LINE
  5
3B0B
330
18
100
AcDbEntity
  8
DISEGNO
100
AcDbLine
 10
1324.366901393052
 20
885.0328433710382
 30
0.0
 11
1324.366901393052
 21
879.0328433710381
 31
0.0
  0
ARC
  5
3B0C
330
18
100
AcDbEntity
  8
DISEGNO
100
AcDbCircle
 10
1340.866901393052
 20
872.7828433710381
 30
0.0
 40
7.0
100
AcDbArc
 50
247.0250000000058
 51
293.1369999999991
  0
ARC
  5
3B0D
330
18
100
AcDbEntity
  8
DISEGNO
100
AcDbCircle
 10
1340.866901393052
 20
872.7828433710381
 30
0.0
 40
7.0
100
AcDbArc
 50
66.86300000000085
 51
113.1369999999991
  0
LINE
  5
3B0E
330
18
100
AcDbEntity
  8
DISEGNO
100
AcDbLine
 10
1336.616901393052
 20
860.5328433710381
 30
0.0
 11
1347.116901393052
 21
860.5328433710381
 31
0.0
  0
LINE
  5
3B10
330
18
100
AcDbEntity
  8
DISEGNO
100
AcDbLine
 10
1336.616901393052
 20
839.5328433710382
 30
0.0
 11
1347.116901393052
 21
839.5328433710382
 31
0.0
  0
LINE
  5
3B11
330
18
100
AcDbEntity
  8
DISEGNO
100
AcDbLine
 10
1332.716901393052
 20
834.7328433710382
 30
0.0
 11
1344.316901393052
 21
834.7328433710382
 31
0.0
  0
ARC
  5
3B12
330
18
100
AcDbEntity
  8
DISEGNO
100
AcDbCircle
 10
1318.116901393052
 20
850.0328433710382
 30
0.0
 40
13.0
100
AcDbArc
 50
132.7470000000006
 51
222.7319999999947
  0
ARC
  5
3B13
330
18
100
AcDbEntity
  8
DISEGNO
100
AcDbCircle
 10
1318.116901393052
 20
850.0328433710382
 30
0.0
 40
8.75
100
AcDbArc
 50
168.5409999999997
 51
194.4589999999973
  0
ARC
  5
3B14
330
18
100
AcDbEntity
  8
DISEGNO
100
AcDbCircle
 10
1318.116901393052
 20
850.0328433710382
 30
0.0
 40
8.75
100
AcDbArc
 50
347.5409999999899
 51
13.45940000000316
  0
ARC
  5
3B15
330
18
100
AcDbEntity
  8
DISEGNO
100
AcDbCircle
 10
1346.899901393052
 20
850.0328433710382
 30
0.0
 40
15.0
100
AcDbArc
 50
137.2680000000052
 51
222.7319999999947
  0
ARC
  5
3B16
330
18
100
AcDbEntity
  8
DISEGNO
100
AcDbCircle
 10
1318.116901393052
 20
850.0328433710382
 30
0.0
 40
8.75
100
AcDbArc
 50
257.5409999999977
 51
283.4590000000055
  0
ARC
  5
3B17
330
18
100
AcDbEntity
  8
DISEGNO
100
AcDbCircle
 10
1307.832901393052
 20
840.5328433710382
 30
0.0
 40
1.0
100
AcDbArc
 50
270.0
 51
42.73180000000134
  0
LINE
  5
3B18
330
18
100
AcDbEntity
  8
DISEGNO
100
AcDbLine
 10
1313.660901393052
 20
842.2128433710382
 30
0.0
 11
1313.385901393052
 21
841.5328433710381
 31
0.0
  0
ARC
  5
3B19
330
18
100
AcDbEntity
  8
DISEGNO
100
AcDbCircle
 10
1318.116901393052
 20
850.0328433710382
 30
0.0
 40
10.0
100
AcDbArc
 50
242.6759999999959
 51
253.3240000000022
  0
ARC
  5
3B1A
330
18
100
AcDbEntity
  8
DISEGNO
100
AcDbCircle
 10
1313.663901393052
 20
841.4128433710382
 30
0.0
 40
0.3
100
AcDbArc
 50
157.9999999999908
 51
242.6759999999959
  0
ARC
  5
3B1B
330
18
100
AcDbEntity
  8
DISEGNO
100
AcDbCircle
 10
1315.332901393052
 20
840.7428433710382
 30
0.0
 40
0.3
100
AcDbArc
 50
253.3240000000022
 51
337.9999999999908
  0
LINE
  5
3B1C
330
18
100
AcDbEntity
  8
DISEGNO
100
AcDbLine
 10
1315.885901393052
 20
841.3128433710381
 30
0.0
 11
1315.610901393052
 21
840.6328433710383
 31
0.0
  0
ARC
  5
3B1D
330
18
100
AcDbEntity
  8
DISEGNO
100
AcDbCircle
 10
1316.163901393051
 20
841.1928433710382
 30
0.0
 40
0.3
100
AcDbArc
 50
77.54060000000437
 51
157.9999999999908
  0
ARC
  5
3B1E
330
18
100
AcDbEntity
  8
DISEGNO
100
AcDbCircle
 10
1309.352901393052
 20
847.7728433710382
 30
0.0
 40
0.3
100
AcDbArc
 50
294.0000000000036
 51
14.45939999999184
  0
LINE
  5
3B1F
330
18
100
AcDbEntity
  8
DISEGNO
100
AcDbLine
 10
1309.474901393052
 20
847.5028433710383
 30
0.0
 11
1308.804901393052
 21
847.2028433710383
 31
0.0
  0
ARC
  5
3B20
330
18
100
AcDbEntity
  8
DISEGNO
100
AcDbCircle
 10
1308.926901393052
 20
846.9228433710382
 30
0.0
 40
0.3
100
AcDbArc
 50
114.0000000000035
 51
198.6760000000004
  0
ARC
  5
3B21
330
18
100
AcDbEntity
  8
DISEGNO
100
AcDbCircle
 10
1318.116901393052
 20
850.0328433710382
 30
0.0
 40
10.0
100
AcDbArc
 50
198.6760000000004
 51
209.3240000000017
  0
ARC
  5
3B22
330
18
100
AcDbEntity
  8
DISEGNO
100
AcDbCircle
 10
1309.658901393052
 20
845.2828433710381
 30
0.0
 40
0.3
100
AcDbArc
 50
209.3240000000017
 51
294.0000000000036
  0
LINE
  5
3B23
330
18
100
AcDbEntity
  8
DISEGNO
100
AcDbLine
 10
1310.450901393052
 20
845.3028433710382
 30
0.0
 11
1309.781901393052
 21
845.0128433710382
 31
0.0
  0
ARC
  5
3B24
330
18
100
AcDbEntity
  8
DISEGNO
100
AcDbCircle
 10
1310.572901393052
 20
845.0328433710382
 30
0.0
 40
0.3
100
AcDbArc
 50
33.54059999999671
 51
114.0000000000035
  0
ARC
  5
3B25
330
18
100
AcDbEntity
  8
DISEGNO
100
AcDbCircle
 10
1313.382901393052
 20
842.3228433710381
 30
0.0
 40
0.3
100
AcDbArc
 50
337.9999999999908
 51
58.45939999999591
  0
ARC
  5
3B26
330
18
100
AcDbEntity
  8
DISEGNO
100
AcDbCircle
 10
1318.116901393052
 20
850.0328433710382
 30
0.0
 40
8.75
100
AcDbArc
 50
213.5409999999988
 51
238.458999999994
  0
ARC
  5
3B27
330
18
100
AcDbEntity
  8
DISEGNO
100
AcDbCircle
 10
1332.716901393052
 20
833.7328433710382
 30
0.0
 40
1.0
100
AcDbArc
 50
90.0
 51
180.0
  0
ARC
  5
3B28
330
18
100
AcDbEntity
  8
DISEGNO
100
AcDbCircle
 10
1325.216901393052
 20
833.0328433710382
 30
0.0
 40
4.0
100
AcDbArc
 50
0.0
 51
90.0
  0
LINE
  5
3B29
330
18
100
AcDbEntity
  8
DISEGNO
100
AcDbLine
 10
1322.707901393052
 20
842.2828433710382
 30
0.0
 11
1322.994901393052
 21
841.6128433710383
 31
0.0
  0
ARC
  5
3B2A
330
18
100
AcDbEntity
  8
DISEGNO
100
AcDbCircle
 10
1320.222901393052
 20
841.2328433710381
 30
0.0
 40
0.3
100
AcDbArc
 50
22.99999999999926
 51
103.4590000000054
  0
LINE
  5
3B2B
330
18
100
AcDbEntity
  8
DISEGNO
100
AcDbLine
 10
1320.498901393051
 20
841.3528433710384
 30
0.0
 11
1320.785901393052
 21
840.6728433710382
 31
0.0
  0
ARC
  5
3B2C
330
18
100
AcDbEntity
  8
DISEGNO
100
AcDbCircle
 10
1321.061901393052
 20
840.7928433710381
 30
0.0
 40
0.3
100
AcDbArc
 50
202.9999999999992
 51
287.6760000000028
  0
ARC
  5
3B2D
330
18
100
AcDbEntity
  8
DISEGNO
100
AcDbCircle
 10
1318.116901393052
 20
850.0328433710382
 30
0.0
 40
10.0
100
AcDbArc
 50
287.6760000000028
 51
298.3240000000048
  0
ARC
  5
3B2E
330
18
100
AcDbEntity
  8
DISEGNO
100
AcDbCircle
 10
1322.718901393052
 20
841.4928433710382
 30
0.0
 40
0.3
100
AcDbArc
 50
298.3240000000048
 51
22.99999999999926
  0
ARC
  5
3B2F
330
18
100
AcDbEntity
  8
DISEGNO
100
AcDbCircle
 10
1325.829901393052
 20
845.3028433710382
 30
0.0
 40
0.3
100
AcDbArc
 50
68.00000000000531
 51
148.4589999999996
  0
ARC
  5
3B30
330
18
100
AcDbEntity
  8
DISEGNO
100
AcDbCircle
 10
1318.116901393052
 20
850.0328433710382
 30
0.0
 40
8.75
100
AcDbArc
 50
302.5409999999988
 51
328.4589999999996
  0
ARC
  5
3B31
330
18
100
AcDbEntity
  8
DISEGNO
100
AcDbCircle
 10
1322.984901393052
 20
842.4028433710383
 30
0.0
 40
0.3
100
AcDbArc
 50
122.5409999999988
 51
202.9999999999992
  0
LINE
  5
3B32
330
18
100
AcDbEntity
  8
DISEGNO
100
AcDbLine
 10
1325.941901393052
 20
845.5728433710381
 30
0.0
 11
1326.621901393052
 21
845.3028433710382
 31
0.0
  0
ARC
  5
3B33
330
18
100
AcDbEntity
  8
DISEGNO
100
AcDbCircle
 10
1326.733901393052
 20
845.5828433710383
 30
0.0
 40
0.3
100
AcDbArc
 50
248.0000000000053
 51
332.6760000000047
  0
ARC
  5
3B34
330
18
100
AcDbEntity
  8
DISEGNO
100
AcDbCircle
 10
1318.116901393052
 20
850.0328433710382
 30
0.0
 40
10.0
100
AcDbArc
 50
332.6760000000047
 51
343.3240000000004
  0
ARC
  5
3B35
330
18
100
AcDbEntity
  8
DISEGNO
100
AcDbCircle
 10
1327.408901393052
 20
847.2528433710381
 30
0.0
 40
0.3
100
AcDbArc
 50
343.3240000000004
 51
68.00000000000531
  0
LINE
  5
3B36
330
18
100
AcDbEntity
  8
DISEGNO
100
AcDbLine
 10
1326.840901393052
 20
847.8028433710381
 30
0.0
 11
1327.520901393052
 21
847.5328433710382
 31
0.0
  0
ARC
  5
3B37
330
18
100
AcDbEntity
  8
DISEGNO
100
AcDbCircle
 10
1326.952901393052
 20
848.0828433710383
 30
0.0
 40
0.3
100
AcDbArc
 50
167.5409999999899
 51
248.0000000000053
  0
ARC
  5
3B38
330
18
100
AcDbEntity
  8
DISEGNO
100
AcDbCircle
 10
1336.616901393052
 20
840.5328433710382
 30
0.0
 40
1.0
100
AcDbArc
 50
222.7319999999947
 51
270.0
  0
ARC
  5
3B39
330
18
100
AcDbEntity
  8
DISEGNO
100
AcDbCircle
 10
1318.116901393052
 20
878.8128433710381
 30
0.0
 40
15.0
100
AcDbArc
 50
227.2680000000053
 51
312.7319999999948
  0
ARC
  5
3B3A
330
18
100
AcDbEntity
  8
DISEGNO
100
AcDbCircle
 10
1319.914901393052
 20
858.9028433710383
 30
0.0
 40
0.3
100
AcDbArc
 50
258.5409999999933
 51
339.0000000000024
  0
ARC
  5
3B3B
330
18
100
AcDbEntity
  8
DISEGNO
100
AcDbCircle
 10
1308.616901393052
 20
868.5328433710381
 30
0.0
 40
5.799999999999999
100
AcDbArc
 50
180.0
 51
227.2680000000053
  0
ARC
  5
3B3C
330
18
100
AcDbEntity
  8
DISEGNO
100
AcDbCircle
 10
1318.116901393052
 20
878.8128433710381
 30
0.0
 40
19.8
100
AcDbArc
 50
227.2680000000053
 51
242.816000000002
  0
LINE
  5
3B3D
330
18
100
AcDbEntity
  8
DISEGNO
100
AcDbLine
 10
1315.582901393052
 20
858.6728433710383
 30
0.0
 11
1315.284901393052
 21
859.3428433710384
 31
0.0
  0
ARC
  5
3B3E
330
18
100
AcDbEntity
  8
DISEGNO
100
AcDbCircle
 10
1318.116901393052
 20
850.0328433710382
 30
0.0
 40
10.0
100
AcDbArc
 50
108.6759999999984
 51
119.3240000000017
  0
ARC
  5
3B3F
330
18
100
AcDbEntity
  8
DISEGNO
100
AcDbCircle
 10
1318.116901393052
 20
850.0328433710382
 30
0.0
 40
8.75
100
AcDbArc
 50
123.5409999999933
 51
149.4589999999975
  0
ARC
  5
3B40
330
18
100
AcDbEntity
  8
DISEGNO
100
AcDbCircle
 10
1313.365901393052
 20
858.4928433710382
 30
0.0
 40
0.3
100
AcDbArc
 50
119.3240000000017
 51
203.9999999999976
  0
LINE
  5
3B41
330
18
100
AcDbEntity
  8
DISEGNO
100
AcDbLine
 10
1313.389901393052
 20
857.7028433710383
 30
0.0
 11
1313.091901393052
 21
858.3728433710383
 31
0.0
  0
ARC
  5
3B42
330
18
100
AcDbEntity
  8
DISEGNO
100
AcDbCircle
 10
1313.115901393052
 20
857.5728433710381
 30
0.0
 40
0.3
100
AcDbArc
 50
303.5409999999933
 51
23.99999999999764
  0
LINE
  5
3B43
330
18
100
AcDbEntity
  8
DISEGNO
100
AcDbLine
 10
1309.354901393052
 20
852.1128433710384
 30
0.0
 11
1308.669901393052
 21
852.3728433710383
 31
0.0
  0
ARC
  5
3B44
330
18
100
AcDbEntity
  8
DISEGNO
100
AcDbCircle
 10
1309.246901393052
 20
851.8328433710383
 30
0.0
 40
0.3
100
AcDbArc
 50
348.5409999999997
 51
69.00000000000244
  0
ARC
  5
3B45
330
18
100
AcDbEntity
  8
DISEGNO
100
AcDbCircle
 10
1308.776901393052
 20
852.6528433710383
 30
0.0
 40
0.3
100
AcDbArc
 50
164.3239999999984
 51
249.0000000000024
  0
ARC
  5
3B46
330
18
100
AcDbEntity
  8
DISEGNO
100
AcDbCircle
 10
1310.321901393052
 20
854.6328433710383
 30
0.0
 40
0.3
100
AcDbArc
 50
249.0000000000024
 51
329.4589999999975
  0
LINE
  5
3B47
330
18
100
AcDbEntity
  8
DISEGNO
100
AcDbLine
 10
1310.214901393052
 20
854.3528433710383
 30
0.0
 11
1309.529901393052
 21
854.6128433710384
 31
0.0
  0
ARC
  5
3B48
330
18
100
AcDbEntity
  8
DISEGNO
100
AcDbCircle
 10
1309.421901393052
 20
854.3328433710383
 30
0.0
 40
0.3
100
AcDbArc
 50
69.00000000000244
 51
153.6760000000041
  0
ARC
  5
3B49
330
18
100
AcDbEntity
  8
DISEGNO
100
AcDbCircle
 10
1318.116901393052
 20
850.0328433710382
 30
0.0
 40
10.0
100
AcDbArc
 50
153.6760000000041
 51
164.3239999999984
  0
ARC
  5
3B4A
330
18
100
AcDbEntity
  8
DISEGNO
100
AcDbCircle
 10
1315.856901393052
 20
858.7928433710382
 30
0.0
 40
0.3
100
AcDbArc
 50
203.9999999999976
 51
284.458999999999
  0
ARC
  5
3B4B
330
18
100
AcDbEntity
  8
DISEGNO
100
AcDbCircle
 10
1318.116901393052
 20
850.0328433710382
 30
0.0
 40
8.75
100
AcDbArc
 50
78.540599999997
 51
104.458999999999
  0
ARC
  5
3B4C
330
18
100
AcDbEntity
  8
DISEGNO
100
AcDbCircle
 10
1308.613901393052
 20
860.3128433710381
 30
0.0
 40
1.0
100
AcDbArc
 50
312.7470000000006
 51
62.8155000000019
  0
ARC
  5
3B4D
330
18
100
AcDbEntity
  8
DISEGNO
100
AcDbCircle
 10
1315.009901393052
 20
859.2228433710383
 30
0.0
 40
0.3
100
AcDbArc
 50
23.99999999999764
 51
108.6759999999984
  0
LINE
  5
3B4E
330
18
100
AcDbEntity
  8
DISEGNO
100
AcDbLine
 10
1311.866901393052
 20
879.0328433710381
 30
0.0
 11
1307.616901393052
 21
879.0328433710381
 31
0.0
  0
LINE
  5
3B4F
330
18
100
AcDbEntity
  8
DISEGNO
100
AcDbLine
 10
1307.616901393052
 20
868.5328433710381
 30
0.0
 11
1307.616901393052
 21
879.0328433710381
 31
0.0
  0
LINE
  5
3B50
330
18
100
AcDbEntity
  8
DISEGNO
100
AcDbLine
 10
1302.816901393052
 20
868.5328433710381
 30
0.0
 11
1302.816901393052
 21
878.2328433710382
 31
0.0
  0
ARC
  5
3B51
330
18
100
AcDbEntity
  8
DISEGNO
100
AcDbCircle
 10
1308.616901393052
 20
868.5328433710381
 30
0.0
 40
1.0
100
AcDbArc
 50
180.0
 51
227.2680000000053
  0
ARC
  5
3B52
330
18
100
AcDbEntity
  8
DISEGNO
100
AcDbCircle
 10
1300.816901393052
 20
878.2328433710382
 30
0.0
 40
2.0
100
AcDbArc
 50
0.0
 51
90.0
  0
LINE
  5
3B53
330
18
100
AcDbEntity
  8
DISEGNO
100
AcDbLine
 10
1334.207901393052
 20
868.9528433710382
 30
0.0
 11
1327.838901393052
 21
862.5828433710383
 31
0.0
  0
LINE
  5
3B55
330
18
100
AcDbEntity
  8
DISEGNO
100
AcDbLine
 10
1337.036901393052
 20
866.1228433710384
 30
0.0
 11
1330.667901393052
 21
859.7528433710381
 31
0.0
  0
LINE
  5
3B56
330
18
100
AcDbEntity
  8
DISEGNO
100
AcDbLine
 10
1320.456901393052
 20
859.4828433710382
 30
0.0
 11
1320.194901393052
 21
858.7928433710382
 31
0.0
  0
ARC
  5
3B57
330
18
100
AcDbEntity
  8
DISEGNO
100
AcDbCircle
 10
1322.417901393052
 20
858.7228433710382
 30
0.0
 40
0.3
100
AcDbArc
 50
339.0000000000024
 51
63.67620000000435
  0
ARC
  5
3B58
330
18
100
AcDbEntity
  8
DISEGNO
100
AcDbCircle
 10
1329.253901393052
 20
861.1728433710382
 30
0.0
 40
2.0
100
AcDbArc
 50
134.9999999999908
 51
314.9999999999908
  0
ARC
  5
3B59
330
18
100
AcDbEntity
  8
DISEGNO
100
AcDbCircle
 10
1325.745901393052
 20
854.9028433710383
 30
0.0
 40
0.3
100
AcDbArc
 50
212.5409999999953
 51
292.9999999999992
  0
ARC
  5
3B5A
330
18
100
AcDbEntity
  8
DISEGNO
100
AcDbCircle
 10
1318.116901393052
 20
850.0328433710382
 30
0.0
 40
8.75
100
AcDbArc
 50
32.54059999999904
 51
59.4594000000002
  0
ARC
  5
3B5B
330
18
100
AcDbEntity
  8
DISEGNO
100
AcDbCircle
 10
1322.714901393052
 20
857.8328433710384
 30
0.0
 40
0.3
100
AcDbArc
 50
159.0000000000024
 51
239.4590000000031
  0
LINE
  5
3B5C
330
18
100
AcDbEntity
  8
DISEGNO
100
AcDbLine
 10
1322.697901393051
 20
858.6228433710383
 30
0.0
 11
1322.434901393052
 21
857.9328433710383
 31
0.0
  0
ARC
  5
3B5D
330
18
100
AcDbEntity
  8
DISEGNO
100
AcDbCircle
 10
1326.654901393052
 20
854.6328433710383
 30
0.0
 40
0.3
100
AcDbArc
 50
28.3238
 51
112.9999999999992
  0
LINE
  5
3B5E
330
18
100
AcDbEntity
  8
DISEGNO
100
AcDbLine
 10
1326.537901393052
 20
854.9128433710382
 30
0.0
 11
1325.862901393052
 21
854.6228433710384
 31
0.0
  0
ARC
  5
3B5F
330
18
100
AcDbEntity
  8
DISEGNO
100
AcDbCircle
 10
1326.917901393052
 20
852.1428433710383
 30
0.0
 40
0.3
100
AcDbArc
 50
112.9999999999992
 51
193.458999999999
  0
LINE
  5
3B60
330
18
100
AcDbEntity
  8
DISEGNO
100
AcDbLine
 10
1327.475901393052
 20
852.7028433710382
 30
0.0
 11
1326.800901393052
 21
852.4128433710384
 31
0.0
  0
ARC
  5
3B61
330
18
100
AcDbEntity
  8
DISEGNO
100
AcDbCircle
 10
1327.358901393052
 20
852.9828433710383
 30
0.0
 40
0.3
100
AcDbArc
 50
292.9999999999992
 51
17.67619999999528
  0
ARC
  5
3B62
330
18
100
AcDbEntity
  8
DISEGNO
100
AcDbCircle
 10
1318.116901393052
 20
850.0328433710382
 30
0.0
 40
10.0
100
AcDbArc
 50
17.67619999999528
 51
28.3238
  0
ARC
  5
3B63
330
18
100
AcDbEntity
  8
DISEGNO
100
AcDbCircle
 10
1318.116901393052
 20
850.0328433710382
 30
0.0
 40
10.0
100
AcDbArc
 50
63.67620000000435
 51
74.32380000000411
  0
ARC
  5
3B64
330
18
100
AcDbEntity
  8
DISEGNO
100
AcDbCircle
 10
1320.737901393052
 20
859.3728433710383
 30
0.0
 40
0.3
100
AcDbArc
 50
74.32380000000411
 51
159.0000000000024
  0
ARC
  5
3B65
330
18
100
AcDbEntity
  8
DISEGNO
100
AcDbCircle
 10
1337.743901393052
 20
865.4228433710382
 30
0.0
 40
1.0
100
AcDbArc
 50
67.02500000000586
 51
134.9999999999908
  0
ARC
  5
3B66
330
18
100
AcDbEntity
  8
DISEGNO
100
AcDbCircle
 10
1336.616901393052
 20
859.5328433710381
 30
0.0
 40
1.0
100
AcDbArc
 50
90.0
 51
137.2680000000052
  0
LINE
  5
3B67
330
18
100
AcDbEntity
  8
DISEGNO
100
AcDbLine
 10
1328.616901393052
 20
868.5328433710381
 30
0.0
 11
1328.616901393052
 21
879.0328433710381
 31
0.0
  0
ARC
  5
3B68
330
18
100
AcDbEntity
  8
DISEGNO
100
AcDbCircle
 10
1327.616901393052
 20
868.5328433710381
 30
0.0
 40
1.0
100
AcDbArc
 50
312.7319999999948
 51
0.0
  0
LINE
  5
3B69
330
18
100
AcDbEntity
  8
DISEGNO
100
AcDbLine
 10
1328.616901393052
 20
879.0328433710381
 30
0.0
 11
1324.366901393052
 21
879.0328433710381
 31
0.0
  0
ARC
  5
3B6A
330
18
100
AcDbEntity
  8
DISEGNO
100
AcDbCircle
 10
1333.509901393052
 20
875.9228433710383
 30
0.0
 40
1.0
100
AcDbArc
 50
336.8630000000008
 51
38.2322000000031
  0
ARC
  5
3B6B
330
18
100
AcDbEntity
  8
DISEGNO
100
AcDbCircle
 10
1333.500901393052
 20
869.6628433710383
 30
0.0
 40
1.0
100
AcDbArc
 50
314.9999999999908
 51
22.97629999999779
  0
ARC
  5
3B6C
330
18
100
AcDbEntity
  8
DISEGNO
100
AcDbCircle
 10
1340.866901393052
 20
872.7828433710381
 30
0.0
 40
7.0
100
AcDbArc
 50
156.8630000000008
 51
202.9759999999997
  0
ARC
  5
3B6D
330
18
100
AcDbEntity
  8
DISEGNO
100
AcDbCircle
 10
1337.722901393052
 20
880.1428433710382
 30
0.0
 40
1.0
100
AcDbArc
 50
231.7680000000046
 51
293.1369999999991
  0
ARC
  5
3B6E
330
18
100
AcDbEntity
  8
DISEGNO
100
AcDbCircle
 10
1335.866901393052
 20
877.7828433710382
 30
0.0
 40
2.0
100
AcDbArc
 50
51.76800000000457
 51
218.2320000000006
  0
ARC
  5
3B6F
330
18
100
AcDbEntity
  8
DISEGNO
100
AcDbCircle
 10
1344.316901393052
 20
830.7328433710383
 30
0.0
 40
4.0
100
AcDbArc
 50
0.0
 51
90.0
  0
LINE
  5
3B70
330
18
100
AcDbEntity
  8
DISEGNO
100
AcDbLine
 10
1347.116901393052
 20
839.5328433710382
 30
0.0
 11
1347.116901393052
 21
843.7828433710382
 31
0.0
  0
LINE
  5
3B71
330
18
100
AcDbEntity
  8
DISEGNO
100
AcDbLine
 10
1353.116901393052
 20
843.7828433710382
 30
0.0
 11
1347.116901393052
 21
843.7828433710382
 31
0.0
  0
ARC
  5
3B72
330
18
100
AcDbEntity
  8
DISEGNO
100
AcDbCircle
 10
1345.866901393052
 20
867.7828433710383
 30
0.0
 40
2.0
100
AcDbArc
 50
231.7680000000046
 51
38.2322000000031
  0
LINE
  5
3B73
330
18
100
AcDbEntity
  8
DISEGNO
100
AcDbLine
 10
1353.116901393052
 20
884.0328433710382
 30
0.0
 11
1353.116901393052
 21
856.2828433710382
 31
0.0
  0
LINE
  5
3B74
330
18
100
AcDbEntity
  8
DISEGNO
100
AcDbLine
 10
1347.116901393052
 20
856.2828433710382
 30
0.0
 11
1347.116901393052
 21
860.5328433710381
 31
0.0
  0
LINE
  5
3B75
330
18
100
AcDbEntity
  8
DISEGNO
100
AcDbLine
 10
1347.116901393052
 20
856.2828433710382
 30
0.0
 11
1353.115901393052
 21
856.2828433710382
 31
0.0
  0
ARC
  5
3B76
330
18
100
AcDbEntity
  8
DISEGNO
100
AcDbCircle
 10
1344.009901393052
 20
865.4228433710382
 30
0.0
 40
1.0
100
AcDbArc
 50
51.76800000000457
 51
113.1369999999991
  0
ARC
  5
3B77
330
18
100
AcDbEntity
  8
DISEGNO
100
AcDbCircle
 10
1348.222901393052
 20
875.9228433710383
 30
0.0
 40
1.0
100
AcDbArc
 50
141.7679999999994
 51
203.1369999999992
  0
ARC
  5
3B78
330
18
100
AcDbEntity
  8
DISEGNO
100
AcDbCircle
 10
1348.222901393052
 20
869.6428433710384
 30
0.0
 40
1.0
100
AcDbArc
 50
156.8630000000008
 51
218.2320000000006
  0
ARC
  5
3B79
330
18
100
AcDbEntity
  8
DISEGNO
100
AcDbCircle
 10
1340.866901393052
 20
872.7828433710381
 30
0.0
 40
7.0
100
AcDbArc
 50
336.8630000000008
 51
23.1370999999985
  0
ARC
  5
3B7A
330
18
100
AcDbEntity
  8
DISEGNO
100
AcDbCircle
 10
1344.009901393052
 20
880.1428433710382
 30
0.0
 40
1.0
100
AcDbArc
 50
246.8630000000008
 51
308.2319999999954
  0
ARC
  5
3B7B
330
18
100
AcDbEntity
  8
DISEGNO
100
AcDbCircle
 10
1345.866901393052
 20
877.7828433710382
 30
0.0
 40
2.0
100
AcDbArc
 50
321.7679999999995
 51
128.2319999999954
  0
LINE
  5
3B7C
330
18
100
AcDbEntity
  8
DISEGNO
100
AcDbLine
 10
1352.116901393052
 20
885.0328433710382
 30
0.0
 11
1324.366901393052
 21
885.0328433710382
 31
0.0
  0
LINE
  5
4671
330
18
100
AcDbEntity
  8
ASSI
100
AcDbLine
 10
1255.613494300234
 20
872.7828433710381
 30
0.0
 11
1235.973227113898
 21
872.7828433710381
 31
0.0
  0
LINE
  5
4672
330
18
100
AcDbEntity
  8
ASSI
100
AcDbLine
 10
1245.366901393052
 20
882.6887234559016
 30
0.0
 11
1245.366901393052
 21
863.5228433710381
 31
0.0
  0
LINE
  5
4673
330
18
100
AcDbEntity
  8
ASSI
100
AcDbLine
 10
1351.113494300234
 20
872.7828433710381
 30
0.0
 11
1331.473227113898
 21
872.7828433710381
 31
0.0
  0
LINE
  5
4674
330
18
100
AcDbEntity
  8
ASSI
100
AcDbLine
 10
1340.866901393052
 20
882.6887234559016
 30
0.0
 11
1340.866901393052
 21
863.5228433710381
 31
0.0
  0
ENDSEC
  0
SECTION
  2
OBJECTS
  0
DICTIONARY
  5
C
330
0
100
AcDbDictionary
281
     1
  3
ACAD_COLOR
350
42C3
  3
ACAD_GROUP
350
D
  3
ACAD_LAYOUT
350
371B
  3
ACAD_MATERIAL
350
42C2
  3
ACAD_MLINESTYLE
350
1B
  3
ACAD_PLOTSETTINGS
350
371C
  3
ACAD_PLOTSTYLENAME
350
3719
  3
ACAD_TABLESTYLE
350
42C4
  3
ACAD_VISUALSTYLE
350
4637
  3
AcDbVariableDictionary
350
377F
  3
AcmDictionary
350
373D
  3
AMG
350
3723
  3
AMGSNAPSETTINGS
350
398F
  3
DWGPROPS
350
468E
  0
DICTIONARY
  5
3770
330
18
100
AcDbDictionary
280
     1
281
     1
  0
DICTIONARY
  5
42C3
102
{ACAD_REACTORS
330
C
102
}
330
C
100
AcDbDictionary
281
     1
  0
DICTIONARY
  5
D
102
{ACAD_REACTORS
330
C
102
}
330
C
100
AcDbDictionary
281
     1
  3
*A1
350
1BA
  3
*A10
350
2B8
  3
*A100
350
2C4
  3
*A101
350
2A2
  3
*A102
350
22A
  3
*A103
350
2C5
  3
*A104
350
300
  3
*A105
350
277
  3
*A106
350
352
  3
*A107
350
301
  3
*A108
350
316
  3
*A109
350
1A0B
  3
*A11
350
2CF
  3
*A110
350
302
  3
*A111
350
19CC
  3
*A112
350
20D
  3
*A113
350
1992
  3
*A114
350
3C4
  3
*A115
350
331
  3
*A116
350
19D7
  3
*A117
350
1943
  3
*A118
350
28B
  3
*A119
350
1DA
  3
*A12
350
19F0
  3
*A120
350
1ED
  3
*A121
350
303
  3
*A122
350
283
  3
*A123
350
3D6
  3
*A124
350
378
  3
*A125
350
340
  3
*A126
350
304
  3
*A127
350
2B0
  3
*A128
350
19B0
  3
*A129
350
19C9
  3
*A13
350
280
  3
*A130
350
1A21
  3
*A131
350
31B
  3
*A132
350
232
  3
*A133
350
1994
  3
*A134
350
242
  3
*A135
350
1D7
  3
*A136
350
19F2
  3
*A137
350
29C
  3
*A138
350
2F8
  3
*A139
350
1A53
  3
*A14
350
2B9
  3
*A140
350
264
  3
*A141
350
2CA
  3
*A142
350
1D2
  3
*A143
350
281
  3
*A144
350
2A3
  3
*A145
350
305
  3
*A146
350
269
  3
*A147
350
19AC
  3
*A148
350
2DE
  3
*A149
350
1F0
  3
*A15
350
19AA
  3
*A150
350
306
  3
*A151
350
307
  3
*A152
350
211
  3
*A153
350
308
  3
*A154
350
19AF
  3
*A155
350
1A49
  3
*A156
350
309
  3
*A157
350
19B2
  3
*A158
350
19F3
  3
*A159
350
3CC
  3
*A16
350
1A44
  3
*A160
350
350
  3
*A161
350
197B
  3
*A162
350
19CB
  3
*A163
350
1A22
  3
*A164
350
19E6
  3
*A165
350
1995
  3
*A166
350
1EA
  3
*A167
350
1E6
  3
*A168
350
353
  3
*A169
350
374
  3
*A17
350
196A
  3
*A170
350
19E1
  3
*A171
350
254
  3
*A172
350
1CE
  3
*A173
350
293
  3
*A174
350
30A
  3
*A175
350
341
  3
*A176
350
3D1
  3
*A177
350
19E2
  3
*A178
350
1986
  3
*A179
350
26A
  3
*A18
350
391
  3
*A180
350
336
  3
*A181
350
30B
  3
*A182
350
39D
  3
*A183
350
297
  3
*A184
350
19D8
  3
*A185
350
1A1A
  3
*A186
350
204
  3
*A187
350
1944
  3
*A188
350
1958
  3
*A189
350
30C
  3
*A19
350
2ED
  3
*A190
350
1CD
  3
*A191
350
1DB
  3
*A192
350
342
  3
*A193
350
1D4
  3
*A194
350
38C
  3
*A195
350
343
  3
*A196
350
355
  3
*A197
350
1A23
  3
*A198
350
344
  3
*A199
350
19EA
  3
*A2
350
267
  3
*A20
350
19B6
  3
*A200
350
1F2
  3
*A201
350
36E
  3
*A202
350
19F4
  3
*A203
350
196F
  3
*A204
350
2D9
  3
*A205
350
239
  3
*A206
350
24A
  3
*A207
350
345
  3
*A208
350
2D1
  3
*A209
350
1968
  3
*A21
350
3AD
  3
*A210
350
37B
  3
*A211
350
346
  3
*A212
350
2F9
  3
*A213
350
19D1
  3
*A214
350
19E7
  3
*A215
350
1A37
  3
*A216
350
35A
  3
*A217
350
288
  3
*A218
350
19B8
  3
*A219
350
296
  3
*A22
350
236
  3
*A220
350
1A0C
  3
*A221
350
2E7
  3
*A222
350
33B
  3
*A223
350
21B
  3
*A224
350
2B5
  3
*A225
350
311
  3
*A226
350
231
  3
*A227
350
2D0
  3
*A228
350
2EE
  3
*A229
350
347
  3
*A23
350
2BA
  3
*A230
350
19CE
  3
*A231
350
323
  3
*A232
350
24D
  3
*A233
350
348
  3
*A234
350
1BD
  3
*A235
350
26B
  3
*A236
350
1E1
  3
*A237
350
19D0
  3
*A238
350
212
  3
*A239
350
349
  3
*A24
350
19D3
  3
*A240
350
1A0D
  3
*A241
350
195F
  3
*A242
350
38A
  3
*A243
350
19A1
  3
*A244
350
19E9
  3
*A245
350
1A38
  3
*A246
350
203
  3
*A247
350
19B9
  3
*A248
350
247
  3
*A249
350
244
  3
*A25
350
38D
  3
*A250
350
3AB
  3
*A251
350
19FD
  3
*A252
350
2A7
  3
*A253
350
22E
  3
*A254
350
2E0
  3
*A255
350
34A
  3
*A256
350
37C
  3
*A257
350
1963
  3
*A258
350
19FE
  3
*A259
350
19AB
  3
*A26
350
2BB
  3
*A260
350
372
  3
*A261
350
34B
  3
*A262
350
3CF
  3
*A263
350
2E4
  3
*A264
350
19F5
  3
*A265
350
1A31
  3
*A266
350
25F
  3
*A267
350
1970
  3
*A268
350
1981
  3
*A269
350
34C
  3
*A27
350
22D
  3
*A270
350
23A
  3
*A271
350
37D
  3
*A272
350
233
  3
*A273
350
3C0
  3
*A274
350
37E
  3
*A275
350
1E8
  3
*A276
350
1A39
  3
*A277
350
37F
  3
*A278
350
1A05
  3
*A279
350
1C8
  3
*A28
350
3A5
  3
*A280
350
1A0E
  3
*A281
350
1996
  3
*A282
350
31F
  3
*A283
350
28E
  3
*A284
350
29E
  3
*A285
350
380
  3
*A286
350
317
  3
*A287
350
1990
  3
*A288
350
3B0
  3
*A289
350
381
  3
*A29
350
33C
  3
*A290
350
19EE
  3
*A291
350
1A02
  3
*A292
350
1A4A
  3
*A293
350
393
  3
*A294
350
2D6
  3
*A295
350
19D9
  3
*A296
350
2E3
  3
*A297
350
1A24
  3
*A298
350
32B
  3
*A299
350
377
  3
*A3
350
274
  3
*A30
350
2FE
  3
*A300
350
351
  3
*A301
350
287
  3
*A302
350
1DC
  3
*A303
350
332
  3
*A304
350
382
  3
*A305
350
19EC
  3
*A306
350
361
  3
*A307
350
2A0
  3
*A308
350
383
  3
*A309
350
21E
  3
*A31
350
2BC
  3
*A310
350
23F
  3
*A311
350
201
  3
*A312
350
26C
  3
*A313
350
384
  3
*A314
350
1A25
  3
*A315
350
1988
  3
*A316
350
3BE
  3
*A317
350
19C4
  3
*A318
350
1A04
  3
*A319
350
1A4B
  3
*A32
350
25E
  3
*A320
350
1C0
  3
*A321
350
29B
  3
*A322
350
298
  3
*A323
350
3DC
  3
*A324
350
1A16
  3
*A325
350
2F1
  3
*A326
350
284
  3
*A327
350
325
  3
*A328
350
1E7
  3
*A329
350
3B1
  3
*A33
350
198B
  3
*A330
350
1A17
  3
*A331
350
19CD
  3
*A332
350
3A9
  3
*A333
350
385
  3
*A334
350
1F3
  3
*A335
350
329
  3
*A336
350
1A0F
  3
*A337
350
1A45
  3
*A338
350
2B1
  3
*A339
350
1997
  3
*A34
350
19A7
  3
*A340
350
386
  3
*A341
350
28F
  3
*A342
350
3B2
  3
*A343
350
289
  3
*A344
350
1954
  3
*A345
350
3B3
  3
*A346
350
245
  3
*A347
350
1A4C
  3
*A348
350
3B4
  3
*A349
350
1A1E
  3
*A35
350
228
  3
*A350
350
1A26
  3
*A351
350
19BA
  3
*A352
350
35D
  3
*A353
350
2DB
  3
*A354
350
2E9
  3
*A355
350
3B5
  3
*A356
350
356
  3
*A357
350
19B4
  3
*A358
350
1945
  3
*A359
350
3B6
  3
*A36
350
1A09
  3
*A360
350
1A1B
  3
*A361
350
1C2
  3
*A362
350
3C6
  3
*A363
350
31C
  3
*A364
350
19F6
  3
*A365
350
328
  3
*A366
350
1A3A
  3
*A367
350
368
  3
*A368
350
1EB
  3
*A369
350
38B
  3
*A37
350
2D5
  3
*A370
350
1C6
  3
*A371
350
36F
  3
*A372
350
1EC
  3
*A373
350
1A07
  3
*A374
350
399
  3
*A375
350
2EB
  3
*A376
350
3B7
  3
*A377
350
1CC
  3
*A378
350
294
  3
*A379
350
25C
  3
*A38
350
1D3
  3
*A380
350
3B8
  3
*A381
350
1A3B
  3
*A382
350
19AD
  3
*A383
350
1952
  3
*A384
350
19E3
  3
*A385
350
1A1D
  3
*A386
350
213
  3
*A387
350
221
  3
*A388
350
2E6
  3
*A389
350
1BC
  3
*A39
350
196D
  3
*A390
350
1A2D
  3
*A391
350
1DF
  3
*A392
350
2D2
  3
*A393
350
363
  3
*A394
350
1C7
  3
*A395
350
1946
  3
*A396
350
1A2E
  3
*A397
350
19EB
  3
*A398
350
3DA
  3
*A399
350
3B9
  3
*A4
350
24F
  3
*A40
350
1E4
  3
*A400
350
1A27
  3
*A401
350
20E
  3
*A402
350
2FA
  3
*A403
350
19BB
  3
*A404
350
3BA
  3
*A405
350
2DC
  3
*A406
350
1947
  3
*A407
350
2D7
  3
*A408
350
197E
  3
*A409
350
1948
  3
*A41
350
299
  3
*A410
350
214
  3
*A411
350
1949
  3
*A412
350
1A34
  3
*A413
350
1A3C
  3
*A414
350
1FF
  3
*A415
350
396
  3
*A416
350
1DD
  3
*A417
350
32D
  3
*A418
350
194A
  3
*A419
350
38F
  3
*A42
350
19D5
  3
*A420
350
1971
  3
*A421
350
194B
  3
*A422
350
1A32
  3
*A423
350
223
  3
*A424
350
1959
  3
*A425
350
35B
  3
*A426
350
1A10
  3
*A427
350
366
  3
*A428
350
1A4D
  3
*A429
350
3A0
  3
*A43
350
248
  3
*A430
350
3BF
  3
*A431
350
1C4
  3
*A432
350
3A6
  3
*A433
350
249
  3
*A434
350
206
  3
*A435
350
3CB
  3
*A436
350
32F
  3
*A437
350
194C
  3
*A438
350
22C
  3
*A439
350
2E1
  3
*A44
350
2AE
  3
*A440
350
194D
  3
*A441
350
1A4E
  3
*A442
350
19CF
  3
*A443
350
197C
  3
*A444
350
19FF
  3
*A445
350
208
  3
*A446
350
1CB
  3
*A447
350
279
  3
*A448
350
1DE
  3
*A449
350
21D
  3
*A45
350
1A41
  3
*A450
350
23D
  3
*A451
350
318
  3
*A452
350
39B
  3
*A453
350
227
  3
*A454
350
1972
  3
*A455
350
1A42
  3
*A456
350
1A06
  3
*A457
350
1F4
  3
*A458
350
1F1
  3
*A459
350
1A3D
  3
*A46
350
268
  3
*A460
350
33D
  3
*A461
350
19DA
  3
*A462
350
194E
  3
*A463
350
321
  3
*A464
350
1973
  3
*A465
350
31D
  3
*A466
350
19A4
  3
*A467
350
1974
  3
*A468
350
26D
  3
*A469
350
1975
  3
*A47
350
20A
  3
*A470
350
1A4F
  3
*A471
350
25A
  3
*A472
350
3C9
  3
*A473
350
23B
  3
*A474
350
36A
  3
*A475
350
1BF
  3
*A476
350
3C2
  3
*A477
350
1998
  3
*A478
350
1F5
  3
*A479
350
1A46
  3
*A48
350
27B
  3
*A480
350
1982
  3
*A481
350
394
  3
*A482
350
1A28
  3
*A483
350
39E
  3
*A484
350
215
  3
*A485
350
3D2
  3
*A486
350
1953
  3
*A487
350
225
  3
*A488
350
3D7
  3
*A489
350
29D
  3
*A49
350
261
  3
*A490
350
195E
  3
*A491
350
36C
  3
*A492
350
1976
  3
*A493
350
282
  3
*A494
350
326
  3
*A495
350
1977
  3
*A496
350
216
  3
*A497
350
19ED
  3
*A498
350
19A2
  3
*A499
350
1A18
  3
*A5
350
1CA
  3
*A50
350
22B
  3
*A500
350
2C8
  3
*A501
350
23C
  3
*A502
350
276
  3
*A503
350
292
  3
*A504
350
357
  3
*A505
350
3CD
  3
*A506
350
27F
  3
*A507
350
1999
  3
*A508
350
1A54
  3
*A509
350
1A1F
  3
*A51
350
250
  3
*A510
350
24E
  3
*A511
350
1A50
  3
*A512
350
379
  3
*A513
350
19F7
  3
*A514
350
1978
  3
*A515
350
35F
  3
*A516
350
199A
  3
*A517
350
35C
  3
*A518
350
19C6
  3
*A519
350
199B
  3
*A52
350
2BD
  3
*A520
350
199C
  3
*A521
350
217
  3
*A522
350
2AC
  3
*A523
350
195C
  3
*A524
350
290
  3
*A525
350
3A2
  3
*A526
350
220
  3
*A527
350
1956
  3
*A528
350
1FC
  3
*A529
350
251
  3
*A53
350
20F
  3
*A530
350
1FA
  3
*A531
350
3C7
  3
*A532
350
1C1
  3
*A533
350
3D0
  3
*A534
350
26E
  3
*A535
350
1964
  3
*A536
350
197D
  3
*A537
350
27D
  3
*A538
350
1969
  3
*A539
350
2E8
  3
*A54
350
1987
  3
*A540
350
3A3
  3
*A541
350
199D
  3
*A542
350
1D5
  3
*A543
350
364
  3
*A544
350
1F9
  3
*A545
350
26F
  3
*A546
350
1A08
  3
*A547
350
19C5
  3
*A548
350
1A2F
  3
*A549
350
30F
  3
*A55
350
291
  3
*A550
350
2C6
  3
*A551
350
2DF
  3
*A552
350
390
  3
*A553
350
1960
  3
*A554
350
2CE
  3
*A555
350
19BC
  3
*A556
350
21C
  3
*A557
350
1A35
  3
*A558
350
2A1
  3
*A559
350
218
  3
*A56
350
3AE
  3
*A560
350
1A11
  3
*A561
350
199E
  3
*A562
350
398
  3
*A563
350
19BD
  3
*A564
350
395
  3
*A565
350
19E4
  3
*A566
350
19BE
  3
*A567
350
19BF
  3
*A568
350
270
  3
*A569
350
2F6
  3
*A57
350
1985
  3
*A570
350
2DD
  3
*A571
350
3D4
  3
*A572
350
278
  3
*A573
350
1F6
  3
*A574
350
258
  3
*A575
350
2A4
  3
*A576
350
256
  3
*A577
350
195A
  3
*A578
350
222
  3
*A579
350
1962
  3
*A58
350
2BE
  3
*A580
350
198C
  3
*A581
350
19A3
  3
*A582
350
2CC
  3
*A583
350
1991
  3
*A584
350
32C
  3
*A585
350
1EF
  3
*A586
350
19C0
  3
*A587
350
234
  3
*A588
350
39C
  3
*A589
350
255
  3
*A59
350
2BF
  3
*A590
350
1A20
  3
*A591
350
200
  3
*A592
350
1A43
  3
*A593
350
34F
  3
*A594
350
30D
  3
*A595
350
324
  3
*A596
350
3C3
  3
*A597
350
1989
  3
*A598
350
315
  3
*A599
350
19DB
  3
*A6
350
275
  3
*A60
350
1A48
  3
*A600
350
2EC
  3
*A601
350
271
  3
*A602
350
1A29
  3
*A603
350
19C1
  3
*A604
350
1EE
  3
*A605
350
19DC
  3
*A606
350
3C8
  3
*A607
350
1A00
  3
*A608
350
19DD
  3
*A609
350
19DE
  3
*A61
350
2C0
  3
*A610
350
339
  3
*A611
350
322
  3
*A612
350
1966
  3
*A613
350
2C7
  3
*A614
350
252
  3
*A615
350
2AA
  3
*A616
350
1D8
  3
*A617
350
1D1
  3
*A618
350
1983
  3
*A619
350
27A
  3
*A62
350
198A
  3
*A620
350
19B1
  3
*A621
350
1FD
  3
*A622
350
313
  3
*A623
350
19B5
  3
*A624
350
369
  3
*A625
350
24C
  3
*A626
350
19DF
  3
*A627
350
28A
  3
*A628
350
3CE
  3
*A629
350
2A8
  3
*A63
350
1A36
  3
*A630
350
25B
  3
*A631
350
20C
  3
*A632
350
389
  3
*A633
350
34D
  3
*A634
350
362
  3
*A635
350
1957
  3
*A636
350
19AE
  3
*A637
350
354
  3
*A638
350
202
  3
*A639
350
330
  3
*A64
350
2C1
  3
*A640
350
209
  3
*A641
350
19E0
  3
*A642
350
24B
  3
*A643
350
19F8
  3
*A644
350
195B
  3
*A645
350
1A19
  3
*A646
350
19F9
  3
*A647
350
19FA
  3
*A648
350
375
  3
*A649
350
360
  3
*A65
350
198E
  3
*A650
350
30E
  3
*A651
350
2A5
  3
*A652
350
2F4
  3
*A653
350
237
  3
*A654
350
1C5
  3
*A655
350
19A8
  3
*A656
350
2C9
  3
*A657
350
19D2
  3
*A658
350
1C9
  3
*A659
350
1E2
  3
*A66
350
19D6
  3
*A660
350
3A1
  3
*A661
350
29F
  3
*A662
350
19FB
  3
*A663
350
2D8
  3
*A664
350
1961
  3
*A665
350
2F2
  3
*A666
350
2AD
  3
*A667
350
266
  3
*A668
350
3BD
  3
*A669
350
387
  3
*A67
350
39A
  3
*A670
350
1980
  3
*A671
350
1FE
  3
*A672
350
38E
  3
*A673
350
25D
  3
*A674
350
36D
  3
*A675
350
263
  3
*A676
350
19FC
  3
*A677
350
1D0
  3
*A678
350
1A12
  3
*A679
350
1984
  3
*A68
350
1A30
  3
*A680
350
1A13
  3
*A681
350
1A14
  3
*A682
350
3AC
  3
*A683
350
1E9
  3
*A684
350
34E
  3
*A685
350
2EF
  3
*A686
350
337
  3
*A687
350
28C
  3
*A688
350
226
  3
*A689
350
19CA
  3
*A69
350
310
  3
*A690
350
19EF
  3
*A691
350
229
  3
*A692
350
240
  3
*A693
350
3D3
  3
*A694
350
2EA
  3
*A695
350
1A15
  3
*A696
350
31E
  3
*A697
350
1F7
  3
*A698
350
335
  3
*A699
350
2F7
  3
*A7
350
2B7
  3
*A70
350
1951
  3
*A700
350
3BB
  3
*A701
350
19A6
  3
*A702
350
259
  3
*A703
350
3C1
  3
*A704
350
2AF
  3
*A705
350
3A4
  3
*A706
350
2B4
  3
*A707
350
205
  3
*A708
350
230
  3
*A709
350
207
  3
*A71
350
19A9
  3
*A710
350
1A2A
  3
*A711
350
1A2B
  3
*A712
350
3DD
  3
*A713
350
246
  3
*A714
350
388
  3
*A715
350
333
  3
*A716
350
373
  3
*A717
350
2DA
  3
*A718
350
27E
  3
*A719
350
19E8
  3
*A72
350
1A0A
  3
*A720
350
1BB
  3
*A721
350
1CF
  3
*A722
350
1965
  3
*A723
350
32E
  3
*A724
350
1A2C
  3
*A725
350
1E3
  3
*A726
350
253
  3
*A727
350
371
  3
*A728
350
33A
  3
*A729
350
194F
  3
*A73
350
19C8
  3
*A730
350
2AB
  3
*A731
350
1955
  3
*A732
350
1D9
  3
*A733
350
3D5
  3
*A734
350
2FD
  3
*A735
350
260
  3
*A736
350
286
  3
*A737
350
262
  3
*A738
350
1A3E
  3
*A739
350
1A3F
  3
*A74
350
196E
  3
*A740
350
29A
  3
*A741
350
3BC
  3
*A742
350
370
  3
*A743
350
3AA
  3
*A744
350
320
  3
*A745
350
2CD
  3
*A746
350
1A03
  3
*A747
350
1C3
  3
*A748
350
22F
  3
*A749
350
198D
  3
*A75
350
36B
  3
*A750
350
1A40
  3
*A751
350
241
  3
*A752
350
2A6
  3
*A753
350
3A8
  3
*A754
350
376
  3
*A755
350
1979
  3
*A756
350
2F5
  3
*A757
350
197F
  3
*A758
350
238
  3
*A759
350
1967
  3
*A76
350
33F
  3
*A760
350
2B2
  3
*A761
350
2D4
  3
*A762
350
2B3
  3
*A763
350
1A51
  3
*A764
350
20B
  3
*A765
350
2E5
  3
*A766
350
1950
  3
*A767
350
3A7
  3
*A768
350
3DB
  3
*A769
350
35E
  3
*A77
350
314
  3
*A770
350
1A1C
  3
*A771
350
224
  3
*A772
350
285
  3
*A773
350
1FB
  3
*A774
350
1A52
  3
*A775
350
295
  3
*A776
350
2F0
  3
*A777
350
3D9
  3
*A778
350
1BE
  3
*A779
350
199F
  3
*A78
350
338
  3
*A780
350
19A5
  3
*A781
350
28D
  3
*A782
350
198F
  3
*A783
350
2FB
  3
*A784
350
31A
  3
*A785
350
2FC
  3
*A786
350
219
  3
*A787
350
265
  3
*A788
350
32A
  3
*A789
350
197A
  3
*A79
350
3D8
  3
*A790
350
196C
  3
*A791
350
397
  3
*A792
350
1A33
  3
*A793
350
27C
  3
*A794
350
2D3
  3
*A795
350
257
  3
*A796
350
21A
  3
*A797
350
2E2
  3
*A798
350
334
  3
*A799
350
196B
  3
*A8
350
21F
  3
*A80
350
19C2
  3
*A800
350
19C7
  3
*A801
350
1D6
  3
*A802
350
19B3
  3
*A803
350
33E
  3
*A804
350
359
  3
*A805
350
1E0
  3
*A806
350
272
  3
*A807
350
2B6
  3
*A808
350
367
  3
*A809
350
19A0
  3
*A81
350
1F8
  3
*A810
350
3CA
  3
*A811
350
1A47
  3
*A812
350
2CB
  3
*A813
350
319
  3
*A814
350
2A9
  3
*A815
350
273
  3
*A816
350
327
  3
*A817
350
1E5
  3
*A818
350
1993
  3
*A819
350
19E5
  3
*A82
350
235
  3
*A820
350
19D4
  3
*A821
350
37A
  3
*A822
350
392
  3
*A83
350
23E
  3
*A84
350
2C2
  3
*A85
350
2FF
  3
*A86
350
39F
  3
*A87
350
19C3
  3
*A88
350
195D
  3
*A89
350
210
  3
*A9
350
312
  3
*A90
350
358
  3
*A91
350
2F3
  3
*A92
350
2C3
  3
*A93
350
365
  3
*A94
350
243
  3
*A95
350
19B7
  3
*A96
350
1A01
  3
*A97
350
19F1
  3
*A98
350
3AF
  3
*A99
350
3C5
  0
DICTIONARY
  5
371B
102
{ACAD_REACTORS
330
C
102
}
330
C
100
AcDbDictionary
281
     1
  3
Layout1
350
371E
  3
Model
350
371D
  0
DICTIONARY
  5
42C2
102
{ACAD_REACTORS
330
C
102
}
330
C
100
AcDbDictionary
281
     1
  3
ByBlock
350
4635
  3
ByLayer
350
4634
  3
Global
350
4636
  0
DICTIONARY
  5
1B
102
{ACAD_REACTORS
330
C
102
}
330
C
100
AcDbDictionary
281
     1
  3
STANDARD
350
1C
  0
DICTIONARY
  5
371C
102
{ACAD_REACTORS
330
C
102
}
330
C
100
AcDbDictionary
281
     1
  0
ACDBDICTIONARYWDFLT
  5
3719
102
{ACAD_REACTORS
330
C
102
}
330
C
100
AcDbDictionary
281
     1
  3
Normal
350
371A
100
AcDbDictionaryWithDefault
340
371A
  0
DICTIONARY
  5
42C4
102
{ACAD_REACTORS
330
C
102
}
330
C
100
AcDbDictionary
281
     1
  3
Standard
350
42C5
  0
DICTIONARY
  5
4637
102
{ACAD_REACTORS
330
C
102
}
330
C
100
AcDbDictionary
281
     1
  3
2dWireframe
350
463D
  3
Basic
350
463C
  3
Brighten
350
4643
  3
ColorChange
350
4647
  3
Dim
350
4642
  3
Facepattern
350
4646
  3
Flat
350
4638
  3
FlatWithEdges
350
4639
  3
Gouraud
350
463A
  3
GouraudWithEdges
350
463B
  3
Linepattern
350
4645
  3
Thicken
350
4644
  0
DICTIONARY
  5
377F
102
{ACAD_REACTORS
330
C
102
}
330
C
100
AcDbDictionary
281
     1
  3
CTABLESTYLE
350
433B
  3
DIMASSOC
350
3781
  3
INDEXCTL
350
3780
  3
SORTENTS
350
468D
  0
DICTIONARY
  5
373D
102
{ACAD_REACTORS
330
C
102
}
330
C
100
AcDbDictionary
281
     1
  3
AcmStdDictionary
350
3743
  3
AMDTSECTSYM_ARROWCOLOR
350
4313
  0
DICTIONARY
  5
3723
102
{ACAD_REACTORS
330
C
102
}
330
C
100
AcDbDictionary
281
     1
  0
DICTIONARY
  5
398F
102
{ACAD_REACTORS
330
C
102
}
330
C
100
AcDbDictionary
281
     1
  0
XRECORD
  5
468E
102
{ACAD_REACTORS
330
C
102
}
330
C
100
AcDbXrecord
280
     1
  1
DWGPROPS COOKIE
  2

  3

  4

  6

  7

  8
fcerrato
  9

300
AmdtFileType=84
301
=
302
=
303
=
304
=
305
=
306
=
307
=
308
=
309
=
 40
0.457217800925926
 41
2451351.430567639
 42
2454372.401641308
  1

 90
        1
  0
GROUP
  5
1BA
102
{ACAD_REACTORS
330
D
102
}
330
D
100
AcDbGroup
300
Vite UNI 5931 M8X25
 70
     1
 71
     1
  0
GROUP
  5
2B8
102
{ACAD_REACTORS
330
D
102
}
330
D
100
AcDbGroup
300

 70
     3
 71
     1
  0
GROUP
  5
2C4
102
{ACAD_REACTORS
330
D
102
}
330
D
100
AcDbGroup
300
Vite UNI 5933 M6X16
 70
     1
 71
     1
  0
GROUP
  5
2A2
102
{ACAD_REACTORS
330
D
102
}
330
D
100
AcDbGroup
300

 70
     1
 71
     1
  0
GROUP
  5
22A
102
{ACAD_REACTORS
330
D
102
}
330
D
100
AcDbGroup
300
Rosetta UNI 1751 A 6.1
 70
     1
 71
     1
  0
GROUP
  5
2C5
102
{ACAD_REACTORS
330
D
102
}
330
D
100
AcDbGroup
300

 70
     1
 71
     1
  0
GROUP
  5
300
102
{ACAD_REACTORS
330
D
102
}
330
D
100
AcDbGroup
300

 70
     1
 71
     1
  0
GROUP
  5
277
102
{ACAD_REACTORS
330
D
102
}
330
D
100
AcDbGroup
300

 70
     3
 71
     1
  0
GROUP
  5
352
102
{ACAD_REACTORS
330
D
102
}
330
D
100
AcDbGroup
300

 70
     3
 71
     1
  0
GROUP
  5
301
102
{ACAD_REACTORS
330
D
102
}
330
D
100
AcDbGroup
300

 70
     3
 71
     1
  0
GROUP
  5
316
102
{ACAD_REACTORS
330
D
102
}
330
D
100
AcDbGroup
300

 70
     3
 71
     1
  0
GROUP
  5
1A0B
102
{ACAD_REACTORS
330
D
102
}
330
D
100
AcDbGroup
300

 70
     3
 71
     1
  0
GROUP
  5
2CF
102
{ACAD_REACTORS
330
D
102
}
330
D
100
AcDbGroup
300

 70
     3
 71
     1
  0
GROUP
  5
302
102
{ACAD_REACTORS
330
D
102
}
330
D
100
AcDbGroup
300

 70
     1
 71
     1
  0
GROUP
  5
19CC
102
{ACAD_REACTORS
330
D
102
}
330
D
100
AcDbGroup
300

 70
     3
 71
     1
  0
GROUP
  5
20D
102
{ACAD_REACTORS
330
D
102
}
330
D
100
AcDbGroup
300
Vite UNI 5933 M6X16
 70
     3
 71
     1
  0
GROUP
  5
1992
102
{ACAD_REACTORS
330
D
102
}
330
D
100
AcDbGroup
300

 70
     3
 71
     1
  0
GROUP
  5
3C4
102
{ACAD_REACTORS
330
D
102
}
330
D
100
AcDbGroup
300

 70
     3
 71
     1
  0
GROUP
  5
331
102
{ACAD_REACTORS
330
D
102
}
330
D
100
AcDbGroup
300

 70
     3
 71
     1
  0
GROUP
  5
19D7
102
{ACAD_REACTORS
330
D
102
}
330
D
100
AcDbGroup
300

 70
     3
 71
     1
  0
GROUP
  5
1943
102
{ACAD_REACTORS
330
D
102
}
330
D
100
AcDbGroup
300
Vite UNI 5931 M8X25
 70
     1
 71
     1
  0
GROUP
  5
28B
102
{ACAD_REACTORS
330
D
102
}
330
D
100
AcDbGroup
300

 70
     3
 71
     1
  0
GROUP
  5
1DA
102
{ACAD_REACTORS
330
D
102
}
330
D
100
AcDbGroup
300

 70
     3
 71
     1
  0
GROUP
  5
19F0
102
{ACAD_REACTORS
330
D
102
}
330
D
100
AcDbGroup
300
Vite UNI 5931 M8X25
 70
     1
 71
     1
  0
GROUP
  5
1ED
102
{ACAD_REACTORS
330
D
102
}
330
D
100
AcDbGroup
300

 70
     1
 71
     1
  0
GROUP
  5
303
102
{ACAD_REACTORS
330
D
102
}
330
D
100
AcDbGroup
300

 70
     1
 71
     1
  0
GROUP
  5
283
102
{ACAD_REACTORS
330
D
102
}
330
D
100
AcDbGroup
300

 70
     1
 71
     1
  0
GROUP
  5
3D6
102
{ACAD_REACTORS
330
D
102
}
330
D
100
AcDbGroup
300

 70
     3
 71
     1
  0
GROUP
  5
378
102
{ACAD_REACTORS
330
D
102
}
330
D
100
AcDbGroup
300
Vite UNI 5933 M6X16
 70
     3
 71
     1
  0
GROUP
  5
340
102
{ACAD_REACTORS
330
D
102
}
330
D
100
AcDbGroup
300

 70
     1
 71
     1
  0
GROUP
  5
304
102
{ACAD_REACTORS
330
D
102
}
330
D
100
AcDbGroup
300

 70
     3
 71
     1
  0
GROUP
  5
2B0
102
{ACAD_REACTORS
330
D
102
}
330
D
100
AcDbGroup
300

 70
     1
 71
     1
  0
GROUP
  5
19B0
102
{ACAD_REACTORS
330
D
102
}
330
D
100
AcDbGroup
300

 70
     3
 71
     1
  0
GROUP
  5
19C9
102
{ACAD_REACTORS
330
D
102
}
330
D
100
AcDbGroup
300

 70
     3
 71
     1
  0
GROUP
  5
280
102
{ACAD_REACTORS
330
D
102
}
330
D
100
AcDbGroup
300

 70
     3
 71
     1
  0
GROUP
  5
1A21
102
{ACAD_REACTORS
330
D
102
}
330
D
100
AcDbGroup
300

 70
     1
 71
     1
  0
GROUP
  5
31B
102
{ACAD_REACTORS
330
D
102
}
330
D
100
AcDbGroup
300

 70
     3
 71
     1
  0
GROUP
  5
232
102
{ACAD_REACTORS
330
D
102
}
330
D
100
AcDbGroup
300
Vite UNI 5931 M8X25
 70
     3
 71
     1
  0
GROUP
  5
1994
102
{ACAD_REACTORS
330
D
102
}
330
D
100
AcDbGroup
300

 70
     3
 71
     1
  0
GROUP
  5
242
102
{ACAD_REACTORS
330
D
102
}
330
D
100
AcDbGroup
300

 70
     3
 71
     1
  0
GROUP
  5
1D7
102
{ACAD_REACTORS
330
D
102
}
330
D
100
AcDbGroup
300

 70
     1
 71
     1
  0
GROUP
  5
19F2
102
{ACAD_REACTORS
330
D
102
}
330
D
100
AcDbGroup
300
Rosetta UNI 1751 A 6.1
 70
     1
 71
     1
  0
GROUP
  5
29C
102
{ACAD_REACTORS
330
D
102
}
330
D
100
AcDbGroup
300

 70
     3
 71
     1
  0
GROUP
  5
2F8
102
{ACAD_REACTORS
330
D
102
}
330
D
100
AcDbGroup
300

 70
     3
 71
     1
  0
GROUP
  5
1A53
102
{ACAD_REACTORS
330
D
102
}
330
D
100
AcDbGroup
300

 70
     3
 71
     1
  0
GROUP
  5
2B9
102
{ACAD_REACTORS
330
D
102
}
330
D
100
AcDbGroup
300
Vite UNI 5931 M8X25
 70
     3
 71
     1
  0
GROUP
  5
264
102
{ACAD_REACTORS
330
D
102
}
330
D
100
AcDbGroup
300

 70
     3
 71
     1
  0
GROUP
  5
2CA
102
{ACAD_REACTORS
330
D
102
}
330
D
100
AcDbGroup
300

 70
     3
 71
     1
  0
GROUP
  5
1D2
102
{ACAD_REACTORS
330
D
102
}
330
D
100
AcDbGroup
300

 70
     3
 71
     1
  0
GROUP
  5
281
102
{ACAD_REACTORS
330
D
102
}
330
D
100
AcDbGroup
300
Ghiera KM4
 70
     3
 71
     1
  0
GROUP
  5
2A3
102
{ACAD_REACTORS
330
D
102
}
330
D
100
AcDbGroup
300

 70
     1
 71
     1
  0
GROUP
  5
305
102
{ACAD_REACTORS
330
D
102
}
330
D
100
AcDbGroup
300

 70
     1
 71
     1
  0
GROUP
  5
269
102
{ACAD_REACTORS
330
D
102
}
330
D
100
AcDbGroup
300

 70
     1
 71
     1
  0
GROUP
  5
19AC
102
{ACAD_REACTORS
330
D
102
}
330
D
100
AcDbGroup
300
Ghiera autofrenante M20x1
 70
     1
 71
     1
  0
GROUP
  5
2DE
102
{ACAD_REACTORS
330
D
102
}
330
D
100
AcDbGroup
300

 70
     1
 71
     1
  0
GROUP
  5
1F0
102
{ACAD_REACTORS
330
D
102
}
330
D
100
AcDbGroup
300

 70
     1
 71
     1
  0
GROUP
  5
19AA
102
{ACAD_REACTORS
330
D
102
}
330
D
100
AcDbGroup
300
Vite UNI 5931 M8X25
 70
     3
 71
     1
  0
GROUP
  5
306
102
{ACAD_REACTORS
330
D
102
}
330
D
100
AcDbGroup
300

 70
     3
 71
     1
  0
GROUP
  5
307
102
{ACAD_REACTORS
330
D
102
}
330
D
100
AcDbGroup
300

 70
     3
 71
     1
  0
GROUP
  5
211
102
{ACAD_REACTORS
330
D
102
}
330
D
100
AcDbGroup
300

 70
     1
 71
     1
  0
GROUP
  5
308
102
{ACAD_REACTORS
330
D
102
}
330
D
100
AcDbGroup
300

 70
     3
 71
     1
  0
GROUP
  5
19AF
102
{ACAD_REACTORS
330
D
102
}
330
D
100
AcDbGroup
300

 70
     1
 71
     1
  0
GROUP
  5
1A49
102
{ACAD_REACTORS
330
D
102
}
330
D
100
AcDbGroup
300

 70
     3
 71
     1
  0
GROUP
  5
309
102
{ACAD_REACTORS
330
D
102
}
330
D
100
AcDbGroup
300

 70
     1
 71
     1
  0
GROUP
  5
19B2
102
{ACAD_REACTORS
330
D
102
}
330
D
100
AcDbGroup
300

 70
     3
 71
     1
  0
GROUP
  5
19F3
102
{ACAD_REACTORS
330
D
102
}
330
D
100
AcDbGroup
300

 70
     1
 71
     1
  0
GROUP
  5
3CC
102
{ACAD_REACTORS
330
D
102
}
330
D
100
AcDbGroup
300

 70
     1
 71
     1
  0
GROUP
  5
1A44
102
{ACAD_REACTORS
330
D
102
}
330
D
100
AcDbGroup
300

 70
     3
 71
     1
  0
GROUP
  5
350
102
{ACAD_REACTORS
330
D
102
}
330
D
100
AcDbGroup
300

 70
     3
 71
     1
  0
GROUP
  5
197B
102
{ACAD_REACTORS
330
D
102
}
330
D
100
AcDbGroup
300
Vite UNI 5931 M8X25
 70
     3
 71
     1
  0
GROUP
  5
19CB
102
{ACAD_REACTORS
330
D
102
}
330
D
100
AcDbGroup
300

 70
     3
 71
     1
  0
GROUP
  5
1A22
102
{ACAD_REACTORS
330
D
102
}
330
D
100
AcDbGroup
300

 70
     3
 71
     1
  0
GROUP
  5
19E6
102
{ACAD_REACTORS
330
D
102
}
330
D
100
AcDbGroup
300

 70
     1
 71
     1
  0
GROUP
  5
1995
102
{ACAD_REACTORS
330
D
102
}
330
D
100
AcDbGroup
300

 70
     3
 71
     1
  0
GROUP
  5
1EA
102
{ACAD_REACTORS
330
D
102
}
330
D
100
AcDbGroup
300
Ghiera autofrenante M20x1
 70
     3
 71
     1
  0
GROUP
  5
1E6
102
{ACAD_REACTORS
330
D
102
}
330
D
100
AcDbGroup
300

 70
     1
 71
     1
  0
GROUP
  5
353
102
{ACAD_REACTORS
330
D
102
}
330
D
100
AcDbGroup
300

 70
     1
 71
     1
  0
GROUP
  5
374
102
{ACAD_REACTORS
330
D
102
}
330
D
100
AcDbGroup
300

 70
     3
 71
     1
  0
GROUP
  5
196A
102
{ACAD_REACTORS
330
D
102
}
330
D
100
AcDbGroup
300

 70
     3
 71
     1
  0
GROUP
  5
19E1
102
{ACAD_REACTORS
330
D
102
}
330
D
100
AcDbGroup
300

 70
     1
 71
     1
  0
GROUP
  5
254
102
{ACAD_REACTORS
330
D
102
}
330
D
100
AcDbGroup
300

 70
     3
 71
     1
  0
GROUP
  5
1CE
102
{ACAD_REACTORS
330
D
102
}
330
D
100
AcDbGroup
300

 70
     1
 71
     1
  0
GROUP
  5
293
102
{ACAD_REACTORS
330
D
102
}
330
D
100
AcDbGroup
300

 70
     3
 71
     1
  0
GROUP
  5
30A
102
{ACAD_REACTORS
330
D
102
}
330
D
100
AcDbGroup
300

 70
     3
 71
     1
  0
GROUP
  5
341
102
{ACAD_REACTORS
330
D
102
}
330
D
100
AcDbGroup
300

 70
     1
 71
     1
  0
GROUP
  5
3D1
102
{ACAD_REACTORS
330
D
102
}
330
D
100
AcDbGroup
300

 70
     3
 71
     1
  0
GROUP
  5
19E2
102
{ACAD_REACTORS
330
D
102
}
330
D
100
AcDbGroup
300

 70
     3
 71
     1
  0
GROUP
  5
1986
102
{ACAD_REACTORS
330
D
102
}
330
D
100
AcDbGroup
300
Vite UNI 5933 M6X16
 70
     3
 71
     1
  0
GROUP
  5
26A
102
{ACAD_REACTORS
330
D
102
}
330
D
100
AcDbGroup
300
Vite UNI 5931 M8X25
 70
     3
 71
     1
  0
GROUP
  5
391
102
{ACAD_REACTORS
330
D
102
}
330
D
100
AcDbGroup
300

 70
     3
 71
     1
  0
GROUP
  5
336
102
{ACAD_REACTORS
330
D
102
}
330
D
100
AcDbGroup
300

 70
     3
 71
     1
  0
GROUP
  5
30B
102
{ACAD_REACTORS
330
D
102
}
330
D
100
AcDbGroup
300

 70
     3
 71
     1
  0
GROUP
  5
39D
102
{ACAD_REACTORS
330
D
102
}
330
D
100
AcDbGroup
300

 70
     3
 71
     1
  0
GROUP
  5
297
102
{ACAD_REACTORS
330
D
102
}
330
D
100
AcDbGroup
300

 70
     3
 71
     1
  0
GROUP
  5
19D8
102
{ACAD_REACTORS
330
D
102
}
330
D
100
AcDbGroup
300

 70
     3
 71
     1
  0
GROUP
  5
1A1A
102
{ACAD_REACTORS
330
D
102
}
330
D
100
AcDbGroup
300

 70
     3
 71
     1
  0
GROUP
  5
204
102
{ACAD_REACTORS
330
D
102
}
330
D
100
AcDbGroup
300

 70
     3
 71
     1
  0
GROUP
  5
1944
102
{ACAD_REACTORS
330
D
102
}
330
D
100
AcDbGroup
300

 70
     3
 71
     1
  0
GROUP
  5
1958
102
{ACAD_REACTORS
330
D
102
}
330
D
100
AcDbGroup
300

 70
     3
 71
     1
  0
GROUP
  5
30C
102
{ACAD_REACTORS
330
D
102
}
330
D
100
AcDbGroup
300

 70
     1
 71
     1
  0
GROUP
  5
2ED
102
{ACAD_REACTORS
330
D
102
}
330
D
100
AcDbGroup
300
Rosetta UNI 1751 A 6.1
 70
     1
 71
     1
  0
GROUP
  5
1CD
102
{ACAD_REACTORS
330
D
102
}
330
D
100
AcDbGroup
300
Ghiera autofrenante M20x1
 70
     1
 71
     1
  0
GROUP
  5
1DB
102
{ACAD_REACTORS
330
D
102
}
330
D
100
AcDbGroup
300

 70
     3
 71
     1
  0
GROUP
  5
342
102
{ACAD_REACTORS
330
D
102
}
330
D
100
AcDbGroup
300

 70
     1
 71
     1
  0
GROUP
  5
1D4
102
{ACAD_REACTORS
330
D
102
}
330
D
100
AcDbGroup
300

 70
     3
 71
     1
  0
GROUP
  5
38C
102
{ACAD_REACTORS
330
D
102
}
330
D
100
AcDbGroup
300
Rosetta UNI 1751 A 3.1
 70
     1
 71
     1
  0
GROUP
  5
343
102
{ACAD_REACTORS
330
D
102
}
330
D
100
AcDbGroup
300

 70
     3
 71
     1
  0
GROUP
  5
355
102
{ACAD_REACTORS
330
D
102
}
330
D
100
AcDbGroup
300
Vite UNI 5931 M8X25
 70
     3
 71
     1
  0
GROUP
  5
1A23
102
{ACAD_REACTORS
330
D
102
}
330
D
100
AcDbGroup
300

 70
     3
 71
     1
  0
GROUP
  5
344
102
{ACAD_REACTORS
330
D
102
}
330
D
100
AcDbGroup
300

 70
     3
 71
     1
  0
GROUP
  5
19EA
102
{ACAD_REACTORS
330
D
102
}
330
D
100
AcDbGroup
300
Ghiera autofrenante M20x1
 70
     3
 71
     1
  0
GROUP
  5
267
102
{ACAD_REACTORS
330
D
102
}
330
D
100
AcDbGroup
300

 70
     3
 71
     1
  0
GROUP
  5
19B6
102
{ACAD_REACTORS
330
D
102
}
330
D
100
AcDbGroup
300

 70
     3
 71
     1
  0
GROUP
  5
1F2
102
{ACAD_REACTORS
330
D
102
}
330
D
100
AcDbGroup
300

 70
     3
 71
     1
  0
GROUP
  5
36E
102
{ACAD_REACTORS
330
D
102
}
330
D
100
AcDbGroup
300

 70
     3
 71
     1
  0
GROUP
  5
19F4
102
{ACAD_REACTORS
330
D
102
}
330
D
100
AcDbGroup
300

 70
     3
 71
     1
  0
GROUP
  5
196F
102
{ACAD_REACTORS
330
D
102
}
330
D
100
AcDbGroup
300

 70
     3
 71
     1
  0
GROUP
  5
2D9
102
{ACAD_REACTORS
330
D
102
}
330
D
100
AcDbGroup
300

 70
     1
 71
     1
  0
GROUP
  5
239
102
{ACAD_REACTORS
330
D
102
}
330
D
100
AcDbGroup
300

 70
     1
 71
     1
  0
GROUP
  5
24A
102
{ACAD_REACTORS
330
D
102
}
330
D
100
AcDbGroup
300

 70
     3
 71
     1
  0
GROUP
  5
345
102
{ACAD_REACTORS
330
D
102
}
330
D
100
AcDbGroup
300
Vite UNI 5931 M8X25
 70
     1
 71
     1
  0
GROUP
  5
2D1
102
{ACAD_REACTORS
330
D
102
}
330
D
100
AcDbGroup
300

 70
     3
 71
     1
  0
GROUP
  5
1968
102
{ACAD_REACTORS
330
D
102
}
330
D
100
AcDbGroup
300

 70
     3
 71
     1
  0
GROUP
  5
3AD
102
{ACAD_REACTORS
330
D
102
}
330
D
100
AcDbGroup
300

 70
     1
 71
     1
  0
GROUP
  5
37B
102
{ACAD_REACTORS
330
D
102
}
330
D
100
AcDbGroup
300

 70
     3
 71
     1
  0
GROUP
  5
346
102
{ACAD_REACTORS
330
D
102
}
330
D
100
AcDbGroup
300

 70
     3
 71
     1
  0
GROUP
  5
2F9
102
{ACAD_REACTORS
330
D
102
}
330
D
100
AcDbGroup
300
Ghiera autofrenante M20x1
 70
     3
 71
     1
  0
GROUP
  5
19D1
102
{ACAD_REACTORS
330
D
102
}
330
D
100
AcDbGroup
300

 70
     3
 71
     1
  0
GROUP
  5
19E7
102
{ACAD_REACTORS
330
D
102
}
330
D
100
AcDbGroup
300

 70
     1
 71
     1
  0
GROUP
  5
1A37
102
{ACAD_REACTORS
330
D
102
}
330
D
100
AcDbGroup
300

 70
     3
 71
     1
  0
GROUP
  5
35A
102
{ACAD_REACTORS
330
D
102
}
330
D
100
AcDbGroup
300
Vite UNI 5933 M6X16
 70
     3
 71
     1
  0
GROUP
  5
288
102
{ACAD_REACTORS
330
D
102
}
330
D
100
AcDbGroup
300

 70
     1
 71
     1
  0
GROUP
  5
19B8
102
{ACAD_REACTORS
330
D
102
}
330
D
100
AcDbGroup
300

 70
     1
 71
     1
  0
GROUP
  5
296
102
{ACAD_REACTORS
330
D
102
}
330
D
100
AcDbGroup
300

 70
     1
 71
     1
  0
GROUP
  5
236
102
{ACAD_REACTORS
330
D
102
}
330
D
100
AcDbGroup
300
Ghiera autofrenante M20x1
 70
     3
 71
     1
  0
GROUP
  5
1A0C
102
{ACAD_REACTORS
330
D
102
}
330
D
100
AcDbGroup
300

 70
     3
 71
     1
  0
GROUP
  5
2E7
102
{ACAD_REACTORS
330
D
102
}
330
D
100
AcDbGroup
300

 70
     1
 71
     1
  0
GROUP
  5
33B
102
{ACAD_REACTORS
330
D
102
}
330
D
100
AcDbGroup
300

 70
     1
 71
     1
  0
GROUP
  5
21B
102
{ACAD_REACTORS
330
D
102
}
330
D
100
AcDbGroup
300
Vite UNI 5933 M6X16
 70
     3
 71
     1
  0
GROUP
  5
2B5
102
{ACAD_REACTORS
330
D
102
}
330
D
100
AcDbGroup
300

 70
     3
 71
     1
  0
GROUP
  5
311
102
{ACAD_REACTORS
330
D
102
}
330
D
100
AcDbGroup
300

 70
     3
 71
     1
  0
GROUP
  5
231
102
{ACAD_REACTORS
330
D
102
}
330
D
100
AcDbGroup
300

 70
     3
 71
     1
  0
GROUP
  5
2D0
102
{ACAD_REACTORS
330
D
102
}
330
D
100
AcDbGroup
300

 70
     3
 71
     1
  0
GROUP
  5
2EE
102
{ACAD_REACTORS
330
D
102
}
330
D
100
AcDbGroup
300

 70
     1
 71
     1
  0
GROUP
  5
347
102
{ACAD_REACTORS
330
D
102
}
330
D
100
AcDbGroup
300

 70
     1
 71
     1
  0
GROUP
  5
2BA
102
{ACAD_REACTORS
330
D
102
}
330
D
100
AcDbGroup
300

 70
     3
 71
     1
  0
GROUP
  5
19CE
102
{ACAD_REACTORS
330
D
102
}
330
D
100
AcDbGroup
300

 70
     3
 71
     1
  0
GROUP
  5
323
102
{ACAD_REACTORS
330
D
102
}
330
D
100
AcDbGroup
300
Vite UNI 5933 M6X16
 70
     3
 71
     1
  0
GROUP
  5
24D
102
{ACAD_REACTORS
330
D
102
}
330
D
100
AcDbGroup
300

 70
     3
 71
     1
  0
GROUP
  5
348
102
{ACAD_REACTORS
330
D
102
}
330
D
100
AcDbGroup
300

 70
     1
 71
     1
  0
GROUP
  5
1BD
102
{ACAD_REACTORS
330
D
102
}
330
D
100
AcDbGroup
300

 70
     3
 71
     1
  0
GROUP
  5
26B
102
{ACAD_REACTORS
330
D
102
}
330
D
100
AcDbGroup
300

 70
     1
 71
     1
  0
GROUP
  5
1E1
102
{ACAD_REACTORS
330
D
102
}
330
D
100
AcDbGroup
300

 70
     3
 71
     1
  0
GROUP
  5
19D0
102
{ACAD_REACTORS
330
D
102
}
330
D
100
AcDbGroup
300
Vite UNI 5933 M6X16
 70
     3
 71
     1
  0
GROUP
  5
212
102
{ACAD_REACTORS
330
D
102
}
330
D
100
AcDbGroup
300

 70
     1
 71
     1
  0
GROUP
  5
349
102
{ACAD_REACTORS
330
D
102
}
330
D
100
AcDbGroup
300

 70
     3
 71
     1
  0
GROUP
  5
19D3
102
{ACAD_REACTORS
330
D
102
}
330
D
100
AcDbGroup
300
Ghiera KM4
 70
     3
 71
     1
  0
GROUP
  5
1A0D
102
{ACAD_REACTORS
330
D
102
}
330
D
100
AcDbGroup
300

 70
     3
 71
     1
  0
GROUP
  5
195F
102
{ACAD_REACTORS
330
D
102
}
330
D
100
AcDbGroup
300

 70
     1
 71
     1
  0
GROUP
  5
38A
102
{ACAD_REACTORS
330
D
102
}
330
D
100
AcDbGroup
300

 70
     3
 71
     1
  0
GROUP
  5
19A1
102
{ACAD_REACTORS
330
D
102
}
330
D
100
AcDbGroup
300

 70
     3
 71
     1
  0
GROUP
  5
19E9
102
{ACAD_REACTORS
330
D
102
}
330
D
100
AcDbGroup
300
Rosetta UNI 1751 A 6.1
 70
     1
 71
     1
  0
GROUP
  5
1A38
102
{ACAD_REACTORS
330
D
102
}
330
D
100
AcDbGroup
300

 70
     3
 71
     1
  0
GROUP
  5
203
102
{ACAD_REACTORS
330
D
102
}
330
D
100
AcDbGroup
300

 70
     3
 71
     1
  0
GROUP
  5
19B9
102
{ACAD_REACTORS
330
D
102
}
330
D
100
AcDbGroup
300
Rosetta UNI 1751 A 6.1
 70
     1
 71
     1
  0
GROUP
  5
247
102
{ACAD_REACTORS
330
D
102
}
330
D
100
AcDbGroup
300

 70
     1
 71
     1
  0
GROUP
  5
244
102
{ACAD_REACTORS
330
D
102
}
330
D
100
AcDbGroup
300
Vite UNI 5933 M6X16
 70
     3
 71
     1
  0
GROUP
  5
38D
102
{ACAD_REACTORS
330
D
102
}
330
D
100
AcDbGroup
300

 70
     3
 71
     1
  0
GROUP
  5
3AB
102
{ACAD_REACTORS
330
D
102
}
330
D
100
AcDbGroup
300

 70
     3
 71
     1
  0
GROUP
  5
19FD
102
{ACAD_REACTORS
330
D
102
}
330
D
100
AcDbGroup
300

 70
     1
 71
     1
  0
GROUP
  5
2A7
102
{ACAD_REACTORS
330
D
102
}
330
D
100
AcDbGroup
300

 70
     3
 71
     1
  0
GROUP
  5
22E
102
{ACAD_REACTORS
330
D
102
}
330
D
100
AcDbGroup
300

 70
     3
 71
     1
  0
GROUP
  5
2E0
102
{ACAD_REACTORS
330
D
102
}
330
D
100
AcDbGroup
300

 70
     1
 71
     1
  0
GROUP
  5
34A
102
{ACAD_REACTORS
330
D
102
}
330
D
100
AcDbGroup
300
Rosetta UNI 1751 A 6.1
 70
     1
 71
     1
  0
GROUP
  5
37C
102
{ACAD_REACTORS
330
D
102
}
330
D
100
AcDbGroup
300
Vite UNI 5931 M8X25
 70
     1
 71
     1
  0
GROUP
  5
1963
102
{ACAD_REACTORS
330
D
102
}
330
D
100
AcDbGroup
300

 70
     3
 71
     1
  0
GROUP
  5
19FE
102
{ACAD_REACTORS
330
D
102
}
330
D
100
AcDbGroup
300

 70
     1
 71
     1
  0
GROUP
  5
19AB
102
{ACAD_REACTORS
330
D
102
}
330
D
100
AcDbGroup
300

 70
     3
 71
     1
  0
GROUP
  5
2BB
102
{ACAD_REACTORS
330
D
102
}
330
D
100
AcDbGroup
300

 70
     3
 71
     1
  0
GROUP
  5
372
102
{ACAD_REACTORS
330
D
102
}
330
D
100
AcDbGroup
300

 70
     3
 71
     1
  0
GROUP
  5
34B
102
{ACAD_REACTORS
330
D
102
}
330
D
100
AcDbGroup
300

 70
     1
 71
     1
  0
GROUP
  5
3CF
102
{ACAD_REACTORS
330
D
102
}
330
D
100
AcDbGroup
300
Vite UNI 5933 M6X16
 70
     1
 71
     1
  0
GROUP
  5
2E4
102
{ACAD_REACTORS
330
D
102
}
330
D
100
AcDbGroup
300

 70
     1
 71
     1
  0
GROUP
  5
19F5
102
{ACAD_REACTORS
330
D
102
}
330
D
100
AcDbGroup
300

 70
     1
 71
     1
  0
GROUP
  5
1A31
102
{ACAD_REACTORS
330
D
102
}
330
D
100
AcDbGroup
300

 70
     3
 71
     1
  0
GROUP
  5
25F
102
{ACAD_REACTORS
330
D
102
}
330
D
100
AcDbGroup
300

 70
     3
 71
     1
  0
GROUP
  5
1970
102
{ACAD_REACTORS
330
D
102
}
330
D
100
AcDbGroup
300

 70
     1
 71
     1
  0
GROUP
  5
1981
102
{ACAD_REACTORS
330
D
102
}
330
D
100
AcDbGroup
300

 70
     3
 71
     1
  0
GROUP
  5
34C
102
{ACAD_REACTORS
330
D
102
}
330
D
100
AcDbGroup
300
Rosetta UNI 1751 A 6.1
 70
     1
 71
     1
  0
GROUP
  5
22D
102
{ACAD_REACTORS
330
D
102
}
330
D
100
AcDbGroup
300

 70
     3
 71
     1
  0
GROUP
  5
23A
102
{ACAD_REACTORS
330
D
102
}
330
D
100
AcDbGroup
300

 70
     3
 71
     1
  0
GROUP
  5
37D
102
{ACAD_REACTORS
330
D
102
}
330
D
100
AcDbGroup
300

 70
     3
 71
     1
  0
GROUP
  5
233
102
{ACAD_REACTORS
330
D
102
}
330
D
100
AcDbGroup
300

 70
     3
 71
     1
  0
GROUP
  5
3C0
102
{ACAD_REACTORS
330
D
102
}
330
D
100
AcDbGroup
300

 70
     3
 71
     1
  0
GROUP
  5
37E
102
{ACAD_REACTORS
330
D
102
}
330
D
100
AcDbGroup
300

 70
     3
 71
     1
  0
GROUP
  5
1E8
102
{ACAD_REACTORS
330
D
102
}
330
D
100
AcDbGroup
300

 70
     3
 71
     1
  0
GROUP
  5
1A39
102
{ACAD_REACTORS
330
D
102
}
330
D
100
AcDbGroup
300

 70
     3
 71
     1
  0
GROUP
  5
37F
102
{ACAD_REACTORS
330
D
102
}
330
D
100
AcDbGroup
300

 70
     1
 71
     1
  0
GROUP
  5
1A05
102
{ACAD_REACTORS
330
D
102
}
330
D
100
AcDbGroup
300

 70
     1
 71
     1
  0
GROUP
  5
1C8
102
{ACAD_REACTORS
330
D
102
}
330
D
100
AcDbGroup
300

 70
     1
 71
     1
  0
GROUP
  5
3A5
102
{ACAD_REACTORS
330
D
102
}
330
D
100
AcDbGroup
300

 70
     3
 71
     1
  0
GROUP
  5
1A0E
102
{ACAD_REACTORS
330
D
102
}
330
D
100
AcDbGroup
300
Ghiera KM4
 70
     3
 71
     1
  0
GROUP
  5
1996
102
{ACAD_REACTORS
330
D
102
}
330
D
100
AcDbGroup
300

 70
     3
 71
     1
  0
GROUP
  5
31F
102
{ACAD_REACTORS
330
D
102
}
330
D
100
AcDbGroup
300

 70
     1
 71
     1
  0
GROUP
  5
28E
102
{ACAD_REACTORS
330
D
102
}
330
D
100
AcDbGroup
300

 70
     1
 71
     1
  0
GROUP
  5
29E
102
{ACAD_REACTORS
330
D
102
}
330
D
100
AcDbGroup
300

 70
     1
 71
     1
  0
GROUP
  5
380
102
{ACAD_REACTORS
330
D
102
}
330
D
100
AcDbGroup
300
Rosetta UNI 1751 A 6.1
 70
     1
 71
     1
  0
GROUP
  5
317
102
{ACAD_REACTORS
330
D
102
}
330
D
100
AcDbGroup
300

 70
     3
 71
     1
  0
GROUP
  5
1990
102
{ACAD_REACTORS
330
D
102
}
330
D
100
AcDbGroup
300

 70
     3
 71
     1
  0
GROUP
  5
3B0
102
{ACAD_REACTORS
330
D
102
}
330
D
100
AcDbGroup
300

 70
     1
 71
     1
  0
GROUP
  5
381
102
{ACAD_REACTORS
330
D
102
}
330
D
100
AcDbGroup
300

 70
     1
 71
     1
  0
GROUP
  5
33C
102
{ACAD_REACTORS
330
D
102
}
330
D
100
AcDbGroup
300

 70
     3
 71
     1
  0
GROUP
  5
19EE
102
{ACAD_REACTORS
330
D
102
}
330
D
100
AcDbGroup
300
Vite UNI 5933 M6X16
 70
     3
 71
     1
  0
GROUP
  5
1A02
102
{ACAD_REACTORS
330
D
102
}
330
D
100
AcDbGroup
300
Vite UNI 5931 M8X25
 70
     3
 71
     1
  0
GROUP
  5
1A4A
102
{ACAD_REACTORS
330
D
102
}
330
D
100
AcDbGroup
300

 70
     3
 71
     1
  0
GROUP
  5
393
102
{ACAD_REACTORS
330
D
102
}
330
D
100
AcDbGroup
300
Vite UNI 5931 M8X25
 70
     3
 71
     1
  0
GROUP
  5
2D6
102
{ACAD_REACTORS
330
D
102
}
330
D
100
AcDbGroup
300

 70
     1
 71
     1
  0
GROUP
  5
19D9
102
{ACAD_REACTORS
330
D
102
}
330
D
100
AcDbGroup
300

 70
     1
 71
     1
  0
GROUP
  5
2E3
102
{ACAD_REACTORS
330
D
102
}
330
D
100
AcDbGroup
300

 70
     1
 71
     1
  0
GROUP
  5
1A24
102
{ACAD_REACTORS
330
D
102
}
330
D
100
AcDbGroup
300

 70
     1
 71
     1
  0
GROUP
  5
32B
102
{ACAD_REACTORS
330
D
102
}
330
D
100
AcDbGroup
300

 70
     1
 71
     1
  0
GROUP
  5
377
102
{ACAD_REACTORS
330
D
102
}
330
D
100
AcDbGroup
300

 70
     3
 71
     1
  0
GROUP
  5
274
102
{ACAD_REACTORS
330
D
102
}
330
D
100
AcDbGroup
300
Vite UNI 5931 M8X25
 70
     3
 71
     1
  0
GROUP
  5
2FE
102
{ACAD_REACTORS
330
D
102
}
330
D
100
AcDbGroup
300

 70
     3
 71
     1
  0
GROUP
  5
351
102
{ACAD_REACTORS
330
D
102
}
330
D
100
AcDbGroup
300

 70
     1
 71
     1
  0
GROUP
  5
287
102
{ACAD_REACTORS
330
D
102
}
330
D
100
AcDbGroup
300

 70
     1
 71
     1
  0
GROUP
  5
1DC
102
{ACAD_REACTORS
330
D
102
}
330
D
100
AcDbGroup
300

 70
     3
 71
     1
  0
GROUP
  5
332
102
{ACAD_REACTORS
330
D
102
}
330
D
100
AcDbGroup
300

 70
     1
 71
     1
  0
GROUP
  5
382
102
{ACAD_REACTORS
330
D
102
}
330
D
100
AcDbGroup
300

 70
     3
 71
     1
  0
GROUP
  5
19EC
102
{ACAD_REACTORS
330
D
102
}
330
D
100
AcDbGroup
300

 70
     1
 71
     1
  0
GROUP
  5
361
102
{ACAD_REACTORS
330
D
102
}
330
D
100
AcDbGroup
300

 70
     3
 71
     1
  0
GROUP
  5
2A0
102
{ACAD_REACTORS
330
D
102
}
330
D
100
AcDbGroup
300

 70
     3
 71
     1
  0
GROUP
  5
383
102
{ACAD_REACTORS
330
D
102
}
330
D
100
AcDbGroup
300

 70
     3
 71
     1
  0
GROUP
  5
21E
102
{ACAD_REACTORS
330
D
102
}
330
D
100
AcDbGroup
300

 70
     3
 71
     1
  0
GROUP
  5
2BC
102
{ACAD_REACTORS
330
D
102
}
330
D
100
AcDbGroup
300
Ghiera autofrenante M20x1
 70
     1
 71
     1
  0
GROUP
  5
23F
102
{ACAD_REACTORS
330
D
102
}
330
D
100
AcDbGroup
300

 70
     3
 71
     1
  0
GROUP
  5
201
102
{ACAD_REACTORS
330
D
102
}
330
D
100
AcDbGroup
300

 70
     1
 71
     1
  0
GROUP
  5
26C
102
{ACAD_REACTORS
330
D
102
}
330
D
100
AcDbGroup
300

 70
     1
 71
     1
  0
GROUP
  5
384
102
{ACAD_REACTORS
330
D
102
}
330
D
100
AcDbGroup
300
Vite UNI 5933 M6X16
 70
     3
 71
     1
  0
GROUP
  5
1A25
102
{ACAD_REACTORS
330
D
102
}
330
D
100
AcDbGroup
300

 70
     3
 71
     1
  0
GROUP
  5
1988
102
{ACAD_REACTORS
330
D
102
}
330
D
100
AcDbGroup
300

 70
     1
 71
     1
  0
GROUP
  5
3BE
102
{ACAD_REACTORS
330
D
102
}
330
D
100
AcDbGroup
300

 70
     3
 71
     1
  0
GROUP
  5
19C4
102
{ACAD_REACTORS
330
D
102
}
330
D
100
AcDbGroup
300

 70
     1
 71
     1
  0
GROUP
  5
1A04
102
{ACAD_REACTORS
330
D
102
}
330
D
100
AcDbGroup
300
Vite UNI 5933 M6X16
 70
     3
 71
     1
  0
GROUP
  5
1A4B
102
{ACAD_REACTORS
330
D
102
}
330
D
100
AcDbGroup
300

 70
     1
 71
     1
  0
GROUP
  5
25E
102
{ACAD_REACTORS
330
D
102
}
330
D
100
AcDbGroup
300

 70
     1
 71
     1
  0
GROUP
  5
1C0
102
{ACAD_REACTORS
330
D
102
}
330
D
100
AcDbGroup
300

 70
     3
 71
     1
  0
GROUP
  5
29B
102
{ACAD_REACTORS
330
D
102
}
330
D
100
AcDbGroup
300
Vite UNI 5933 M6X16
 70
     1
 71
     1
  0
GROUP
  5
298
102
{ACAD_REACTORS
330
D
102
}
330
D
100
AcDbGroup
300

 70
     3
 71
     1
  0
GROUP
  5
3DC
102
{ACAD_REACTORS
330
D
102
}
330
D
100
AcDbGroup
300

 70
     3
 71
     1
  0
GROUP
  5
1A16
102
{ACAD_REACTORS
330
D
102
}
330
D
100
AcDbGroup
300

 70
     3
 71
     1
  0
GROUP
  5
2F1
102
{ACAD_REACTORS
330
D
102
}
330
D
100
AcDbGroup
300

 70
     1
 71
     1
  0
GROUP
  5
284
102
{ACAD_REACTORS
330
D
102
}
330
D
100
AcDbGroup
300
Vite UNI 5931 M8X25
 70
     3
 71
     1
  0
GROUP
  5
325
102
{ACAD_REACTORS
330
D
102
}
330
D
100
AcDbGroup
300

 70
     3
 71
     1
  0
GROUP
  5
1E7
102
{ACAD_REACTORS
330
D
102
}
330
D
100
AcDbGroup
300
Ghiera autofrenante M20x1
 70
     3
 71
     1
  0
GROUP
  5
3B1
102
{ACAD_REACTORS
330
D
102
}
330
D
100
AcDbGroup
300

 70
     3
 71
     1
  0
GROUP
  5
198B
102
{ACAD_REACTORS
330
D
102
}
330
D
100
AcDbGroup
300

 70
     3
 71
     1
  0
GROUP
  5
1A17
102
{ACAD_REACTORS
330
D
102
}
330
D
100
AcDbGroup
300

 70
     3
 71
     1
  0
GROUP
  5
19CD
102
{ACAD_REACTORS
330
D
102
}
330
D
100
AcDbGroup
300
Vite UNI 5933 M6X16
 70
     3
 71
     1
  0
GROUP
  5
3A9
102
{ACAD_REACTORS
330
D
102
}
330
D
100
AcDbGroup
300

 70
     1
 71
     1
  0
GROUP
  5
385
102
{ACAD_REACTORS
330
D
102
}
330
D
100
AcDbGroup
300

 70
     3
 71
     1
  0
GROUP
  5
1F3
102
{ACAD_REACTORS
330
D
102
}
330
D
100
AcDbGroup
300
Vite UNI 5931 M8X25
 70
     3
 71
     1
  0
GROUP
  5
329
102
{ACAD_REACTORS
330
D
102
}
330
D
100
AcDbGroup
300

 70
     1
 71
     1
  0
GROUP
  5
1A0F
102
{ACAD_REACTORS
330
D
102
}
330
D
100
AcDbGroup
300

 70
     3
 71
     1
  0
GROUP
  5
1A45
102
{ACAD_REACTORS
330
D
102
}
330
D
100
AcDbGroup
300

 70
     3
 71
     1
  0
GROUP
  5
2B1
102
{ACAD_REACTORS
330
D
102
}
330
D
100
AcDbGroup
300

 70
     3
 71
     1
  0
GROUP
  5
1997
102
{ACAD_REACTORS
330
D
102
}
330
D
100
AcDbGroup
300

 70
     3
 71
     1
  0
GROUP
  5
19A7
102
{ACAD_REACTORS
330
D
102
}
330
D
100
AcDbGroup
300

 70
     3
 71
     1
  0
GROUP
  5
386
102
{ACAD_REACTORS
330
D
102
}
330
D
100
AcDbGroup
300

 70
     1
 71
     1
  0
GROUP
  5
28F
102
{ACAD_REACTORS
330
D
102
}
330
D
100
AcDbGroup
300

 70
     3
 71
     1
  0
GROUP
  5
3B2
102
{ACAD_REACTORS
330
D
102
}
330
D
100
AcDbGroup
300

 70
     3
 71
     1
  0
GROUP
  5
289
102
{ACAD_REACTORS
330
D
102
}
330
D
100
AcDbGroup
300

 70
     3
 71
     1
  0
GROUP
  5
1954
102
{ACAD_REACTORS
330
D
102
}
330
D
100
AcDbGroup
300

 70
     3
 71
     1
  0
GROUP
  5
3B3
102
{ACAD_REACTORS
330
D
102
}
330
D
100
AcDbGroup
300

 70
     3
 71
     1
  0
GROUP
  5
245
102
{ACAD_REACTORS
330
D
102
}
330
D
100
AcDbGroup
300

 70
     1
 71
     1
  0
GROUP
  5
1A4C
102
{ACAD_REACTORS
330
D
102
}
330
D
100
AcDbGroup
300

 70
     3
 71
     1
  0
GROUP
  5
3B4
102
{ACAD_REACTORS
330
D
102
}
330
D
100
AcDbGroup
300

 70
     3
 71
     1
  0
GROUP
  5
1A1E
102
{ACAD_REACTORS
330
D
102
}
330
D
100
AcDbGroup
300

 70
     3
 71
     1
  0
GROUP
  5
228
102
{ACAD_REACTORS
330
D
102
}
330
D
100
AcDbGroup
300

 70
     3
 71
     1
  0
GROUP
  5
1A26
102
{ACAD_REACTORS
330
D
102
}
330
D
100
AcDbGroup
300

 70
     3
 71
     1
  0
GROUP
  5
19BA
102
{ACAD_REACTORS
330
D
102
}
330
D
100
AcDbGroup
300

 70
     1
 71
     1
  0
GROUP
  5
35D
102
{ACAD_REACTORS
330
D
102
}
330
D
100
AcDbGroup
300

 70
     3
 71
     1
  0
GROUP
  5
2DB
102
{ACAD_REACTORS
330
D
102
}
330
D
100
AcDbGroup
300

 70
     3
 71
     1
  0
GROUP
  5
2E9
102
{ACAD_REACTORS
330
D
102
}
330
D
100
AcDbGroup
300

 70
     3
 71
     1
  0
GROUP
  5
3B5
102
{ACAD_REACTORS
330
D
102
}
330
D
100
AcDbGroup
300

 70
     3
 71
     1
  0
GROUP
  5
356
102
{ACAD_REACTORS
330
D
102
}
330
D
100
AcDbGroup
300

 70
     1
 71
     1
  0
GROUP
  5
19B4
102
{ACAD_REACTORS
330
D
102
}
330
D
100
AcDbGroup
300

 70
     1
 71
     1
  0
GROUP
  5
1945
102
{ACAD_REACTORS
330
D
102
}
330
D
100
AcDbGroup
300
Vite UNI 5931 M8X25
 70
     3
 71
     1
  0
GROUP
  5
3B6
102
{ACAD_REACTORS
330
D
102
}
330
D
100
AcDbGroup
300

 70
     1
 71
     1
  0
GROUP
  5
1A09
102
{ACAD_REACTORS
330
D
102
}
330
D
100
AcDbGroup
300

 70
     1
 71
     1
  0
GROUP
  5
1A1B
102
{ACAD_REACTORS
330
D
102
}
330
D
100
AcDbGroup
300

 70
     3
 71
     1
  0
GROUP
  5
1C2
102
{ACAD_REACTORS
330
D
102
}
330
D
100
AcDbGroup
300
Vite UNI 5931 M8X25
 70
     3
 71
     1
  0
GROUP
  5
3C6
102
{ACAD_REACTORS
330
D
102
}
330
D
100
AcDbGroup
300

 70
     3
 71
     1
  0
GROUP
  5
31C
102
{ACAD_REACTORS
330
D
102
}
330
D
100
AcDbGroup
300

 70
     3
 71
     1
  0
GROUP
  5
19F6
102
{ACAD_REACTORS
330
D
102
}
330
D
100
AcDbGroup
300

 70
     1
 71
     1
  0
GROUP
  5
328
102
{ACAD_REACTORS
330
D
102
}
330
D
100
AcDbGroup
300

 70
     3
 71
     1
  0
GROUP
  5
1A3A
102
{ACAD_REACTORS
330
D
102
}
330
D
100
AcDbGroup
300

 70
     3
 71
     1
  0
GROUP
  5
368
102
{ACAD_REACTORS
330
D
102
}
330
D
100
AcDbGroup
300

 70
     3
 71
     1
  0
GROUP
  5
1EB
102
{ACAD_REACTORS
330
D
102
}
330
D
100
AcDbGroup
300

 70
     3
 71
     1
  0
GROUP
  5
38B
102
{ACAD_REACTORS
330
D
102
}
330
D
100
AcDbGroup
300

 70
     1
 71
     1
  0
GROUP
  5
2D5
102
{ACAD_REACTORS
330
D
102
}
330
D
100
AcDbGroup
300

 70
     1
 71
     1
  0
GROUP
  5
1C6
102
{ACAD_REACTORS
330
D
102
}
330
D
100
AcDbGroup
300

 70
     3
 71
     1
  0
GROUP
  5
36F
102
{ACAD_REACTORS
330
D
102
}
330
D
100
AcDbGroup
300

 70
     3
 71
     1
  0
GROUP
  5
1EC
102
{ACAD_REACTORS
330
D
102
}
330
D
100
AcDbGroup
300

 70
     3
 71
     1
  0
GROUP
  5
1A07
102
{ACAD_REACTORS
330
D
102
}
330
D
100
AcDbGroup
300

 70
     3
 71
     1
  0
GROUP
  5
399
102
{ACAD_REACTORS
330
D
102
}
330
D
100
AcDbGroup
300

 70
     1
 71
     1
  0
GROUP
  5
2EB
102
{ACAD_REACTORS
330
D
102
}
330
D
100
AcDbGroup
300

 70
     3
 71
     1
  0
GROUP
  5
3B7
102
{ACAD_REACTORS
330
D
102
}
330
D
100
AcDbGroup
300

 70
     3
 71
     1
  0
GROUP
  5
1CC
102
{ACAD_REACTORS
330
D
102
}
330
D
100
AcDbGroup
300

 70
     3
 71
     1
  0
GROUP
  5
294
102
{ACAD_REACTORS
330
D
102
}
330
D
100
AcDbGroup
300

 70
     3
 71
     1
  0
GROUP
  5
25C
102
{ACAD_REACTORS
330
D
102
}
330
D
100
AcDbGroup
300

 70
     1
 71
     1
  0
GROUP
  5
1D3
102
{ACAD_REACTORS
330
D
102
}
330
D
100
AcDbGroup
300
Vite UNI 5931 M8X25
 70
     1
 71
     1
  0
GROUP
  5
3B8
102
{ACAD_REACTORS
330
D
102
}
330
D
100
AcDbGroup
300
Vite UNI 5933 M6X16
 70
     1
 71
     1
  0
GROUP
  5
1A3B
102
{ACAD_REACTORS
330
D
102
}
330
D
100
AcDbGroup
300

 70
     1
 71
     1
  0
GROUP
  5
19AD
102
{ACAD_REACTORS
330
D
102
}
330
D
100
AcDbGroup
300

 70
     1
 71
     1
  0
GROUP
  5
1952
102
{ACAD_REACTORS
330
D
102
}
330
D
100
AcDbGroup
300

 70
     1
 71
     1
  0
GROUP
  5
19E3
102
{ACAD_REACTORS
330
D
102
}
330
D
100
AcDbGroup
300
Vite UNI 5933 M6X16
 70
     1
 71
     1
  0
GROUP
  5
1A1D
102
{ACAD_REACTORS
330
D
102
}
330
D
100
AcDbGroup
300

 70
     3
 71
     1
  0
GROUP
  5
213
102
{ACAD_REACTORS
330
D
102
}
330
D
100
AcDbGroup
300

 70
     3
 71
     1
  0
GROUP
  5
221
102
{ACAD_REACTORS
330
D
102
}
330
D
100
AcDbGroup
300
Ghiera KM4
 70
     3
 71
     1
  0
GROUP
  5
2E6
102
{ACAD_REACTORS
330
D
102
}
330
D
100
AcDbGroup
300

 70
     3
 71
     1
  0
GROUP
  5
1BC
102
{ACAD_REACTORS
330
D
102
}
330
D
100
AcDbGroup
300

 70
     1
 71
     1
  0
GROUP
  5
196D
102
{ACAD_REACTORS
330
D
102
}
330
D
100
AcDbGroup
300

 70
     3
 71
     1
  0
GROUP
  5
1A2D
102
{ACAD_REACTORS
330
D
102
}
330
D
100
AcDbGroup
300

 70
     3
 71
     1
  0
GROUP
  5
1DF
102
{ACAD_REACTORS
330
D
102
}
330
D
100
AcDbGroup
300

 70
     3
 71
     1
  0
GROUP
  5
2D2
102
{ACAD_REACTORS
330
D
102
}
330
D
100
AcDbGroup
300

 70
     3
 71
     1
  0
GROUP
  5
363
102
{ACAD_REACTORS
330
D
102
}
330
D
100
AcDbGroup
300

 70
     1
 71
     1
  0
GROUP
  5
1C7
102
{ACAD_REACTORS
330
D
102
}
330
D
100
AcDbGroup
300

 70
     3
 71
     1
  0
GROUP
  5
1946
102
{ACAD_REACTORS
330
D
102
}
330
D
100
AcDbGroup
300

 70
     1
 71
     1
  0
GROUP
  5
1A2E
102
{ACAD_REACTORS
330
D
102
}
330
D
100
AcDbGroup
300

 70
     3
 71
     1
  0
GROUP
  5
19EB
102
{ACAD_REACTORS
330
D
102
}
330
D
100
AcDbGroup
300

 70
     1
 71
     1
  0
GROUP
  5
3DA
102
{ACAD_REACTORS
330
D
102
}
330
D
100
AcDbGroup
300

 70
     1
 71
     1
  0
GROUP
  5
3B9
102
{ACAD_REACTORS
330
D
102
}
330
D
100
AcDbGroup
300

 70
     3
 71
     1
  0
GROUP
  5
24F
102
{ACAD_REACTORS
330
D
102
}
330
D
100
AcDbGroup
300

 70
     3
 71
     1
  0
GROUP
  5
1E4
102
{ACAD_REACTORS
330
D
102
}
330
D
100
AcDbGroup
300

 70
     3
 71
     1
  0
GROUP
  5
1A27
102
{ACAD_REACTORS
330
D
102
}
330
D
100
AcDbGroup
300

 70
     3
 71
     1
  0
GROUP
  5
20E
102
{ACAD_REACTORS
330
D
102
}
330
D
100
AcDbGroup
300
Rosetta UNI 1751 A 3.1
 70
     1
 71
     1
  0
GROUP
  5
2FA
102
{ACAD_REACTORS
330
D
102
}
330
D
100
AcDbGroup
300

 70
     3
 71
     1
  0
GROUP
  5
19BB
102
{ACAD_REACTORS
330
D
102
}
330
D
100
AcDbGroup
300

 70
     3
 71
     1
  0
GROUP
  5
3BA
102
{ACAD_REACTORS
330
D
102
}
330
D
100
AcDbGroup
300

 70
     1
 71
     1
  0
GROUP
  5
2DC
102
{ACAD_REACTORS
330
D
102
}
330
D
100
AcDbGroup
300

 70
     3
 71
     1
  0
GROUP
  5
1947
102
{ACAD_REACTORS
330
D
102
}
330
D
100
AcDbGroup
300

 70
     3
 71
     1
  0
GROUP
  5
2D7
102
{ACAD_REACTORS
330
D
102
}
330
D
100
AcDbGroup
300

 70
     1
 71
     1
  0
GROUP
  5
197E
102
{ACAD_REACTORS
330
D
102
}
330
D
100
AcDbGroup
300

 70
     3
 71
     1
  0
GROUP
  5
1948
102
{ACAD_REACTORS
330
D
102
}
330
D
100
AcDbGroup
300

 70
     3
 71
     1
  0
GROUP
  5
299
102
{ACAD_REACTORS
330
D
102
}
330
D
100
AcDbGroup
300

 70
     3
 71
     1
  0
GROUP
  5
214
102
{ACAD_REACTORS
330
D
102
}
330
D
100
AcDbGroup
300

 70
     3
 71
     1
  0
GROUP
  5
1949
102
{ACAD_REACTORS
330
D
102
}
330
D
100
AcDbGroup
300
Vite UNI 5931 M8X25
 70
     3
 71
     1
  0
GROUP
  5
1A34
102
{ACAD_REACTORS
330
D
102
}
330
D
100
AcDbGroup
300
Vite UNI 5933 M6X16
 70
     3
 71
     1
  0
GROUP
  5
1A3C
102
{ACAD_REACTORS
330
D
102
}
330
D
100
AcDbGroup
300

 70
     1
 71
     1
  0
GROUP
  5
1FF
102
{ACAD_REACTORS
330
D
102
}
330
D
100
AcDbGroup
300

 70
     3
 71
     1
  0
GROUP
  5
396
102
{ACAD_REACTORS
330
D
102
}
330
D
100
AcDbGroup
300

 70
     3
 71
     1
  0
GROUP
  5
1DD
102
{ACAD_REACTORS
330
D
102
}
330
D
100
AcDbGroup
300

 70
     3
 71
     1
  0
GROUP
  5
32D
102
{ACAD_REACTORS
330
D
102
}
330
D
100
AcDbGroup
300

 70
     3
 71
     1
  0
GROUP
  5
194A
102
{ACAD_REACTORS
330
D
102
}
330
D
100
AcDbGroup
300

 70
     3
 71
     1
  0
GROUP
  5
38F
102
{ACAD_REACTORS
330
D
102
}
330
D
100
AcDbGroup
300

 70
     1
 71
     1
  0
GROUP
  5
19D5
102
{ACAD_REACTORS
330
D
102
}
330
D
100
AcDbGroup
300

 70
     3
 71
     1
  0
GROUP
  5
1971
102
{ACAD_REACTORS
330
D
102
}
330
D
100
AcDbGroup
300

 70
     3
 71
     1
  0
GROUP
  5
194B
102
{ACAD_REACTORS
330
D
102
}
330
D
100
AcDbGroup
300
Ghiera autofrenante M20x1
 70
     1
 71
     1
  0
GROUP
  5
1A32
102
{ACAD_REACTORS
330
D
102
}
330
D
100
AcDbGroup
300

 70
     3
 71
     1
  0
GROUP
  5
223
102
{ACAD_REACTORS
330
D
102
}
330
D
100
AcDbGroup
300
Vite UNI 5933 M6X16
 70
     3
 71
     1
  0
GROUP
  5
1959
102
{ACAD_REACTORS
330
D
102
}
330
D
100
AcDbGroup
300

 70
     3
 71
     1
  0
GROUP
  5
35B
102
{ACAD_REACTORS
330
D
102
}
330
D
100
AcDbGroup
300

 70
     1
 71
     1
  0
GROUP
  5
1A10
102
{ACAD_REACTORS
330
D
102
}
330
D
100
AcDbGroup
300
Vite UNI 5933 M6X16
 70
     3
 71
     1
  0
GROUP
  5
366
102
{ACAD_REACTORS
330
D
102
}
330
D
100
AcDbGroup
300

 70
     3
 71
     1
  0
GROUP
  5
1A4D
102
{ACAD_REACTORS
330
D
102
}
330
D
100
AcDbGroup
300

 70
     3
 71
     1
  0
GROUP
  5
3A0
102
{ACAD_REACTORS
330
D
102
}
330
D
100
AcDbGroup
300

 70
     3
 71
     1
  0
GROUP
  5
248
102
{ACAD_REACTORS
330
D
102
}
330
D
100
AcDbGroup
300

 70
     3
 71
     1
  0
GROUP
  5
3BF
102
{ACAD_REACTORS
330
D
102
}
330
D
100
AcDbGroup
300

 70
     3
 71
     1
  0
GROUP
  5
1C4
102
{ACAD_REACTORS
330
D
102
}
330
D
100
AcDbGroup
300

 70
     3
 71
     1
  0
GROUP
  5
3A6
102
{ACAD_REACTORS
330
D
102
}
330
D
100
AcDbGroup
300
Vite UNI 5933 M6X16
 70
     3
 71
     1
  0
GROUP
  5
249
102
{ACAD_REACTORS
330
D
102
}
330
D
100
AcDbGroup
300

 70
     3
 71
     1
  0
GROUP
  5
206
102
{ACAD_REACTORS
330
D
102
}
330
D
100
AcDbGroup
300

 70
     1
 71
     1
  0
GROUP
  5
3CB
102
{ACAD_REACTORS
330
D
102
}
330
D
100
AcDbGroup
300

 70
     3
 71
     1
  0
GROUP
  5
32F
102
{ACAD_REACTORS
330
D
102
}
330
D
100
AcDbGroup
300

 70
     1
 71
     1
  0
GROUP
  5
194C
102
{ACAD_REACTORS
330
D
102
}
330
D
100
AcDbGroup
300

 70
     1
 71
     1
  0
GROUP
  5
22C
102
{ACAD_REACTORS
330
D
102
}
330
D
100
AcDbGroup
300

 70
     1
 71
     1
  0
GROUP
  5
2E1
102
{ACAD_REACTORS
330
D
102
}
330
D
100
AcDbGroup
300

 70
     1
 71
     1
  0
GROUP
  5
2AE
102
{ACAD_REACTORS
330
D
102
}
330
D
100
AcDbGroup
300

 70
     3
 71
     1
  0
GROUP
  5
194D
102
{ACAD_REACTORS
330
D
102
}
330
D
100
AcDbGroup
300

 70
     3
 71
     1
  0
GROUP
  5
1A4E
102
{ACAD_REACTORS
330
D
102
}
330
D
100
AcDbGroup
300

 70
     3
 71
     1
  0
GROUP
  5
19CF
102
{ACAD_REACTORS
330
D
102
}
330
D
100
AcDbGroup
300

 70
     3
 71
     1
  0
GROUP
  5
197C
102
{ACAD_REACTORS
330
D
102
}
330
D
100
AcDbGroup
300

 70
     3
 71
     1
  0
GROUP
  5
19FF
102
{ACAD_REACTORS
330
D
102
}
330
D
100
AcDbGroup
300

 70
     1
 71
     1
  0
GROUP
  5
208
102
{ACAD_REACTORS
330
D
102
}
330
D
100
AcDbGroup
300
Vite UNI 5933 M6X16
 70
     1
 71
     1
  0
GROUP
  5
1CB
102
{ACAD_REACTORS
330
D
102
}
330
D
100
AcDbGroup
300

 70
     3
 71
     1
  0
GROUP
  5
279
102
{ACAD_REACTORS
330
D
102
}
330
D
100
AcDbGroup
300

 70
     1
 71
     1
  0
GROUP
  5
1DE
102
{ACAD_REACTORS
330
D
102
}
330
D
100
AcDbGroup
300
Vite UNI 5933 M6X16
 70
     1
 71
     1
  0
GROUP
  5
21D
102
{ACAD_REACTORS
330
D
102
}
330
D
100
AcDbGroup
300

 70
     3
 71
     1
  0
GROUP
  5
1A41
102
{ACAD_REACTORS
330
D
102
}
330
D
100
AcDbGroup
300

 70
     3
 71
     1
  0
GROUP
  5
23D
102
{ACAD_REACTORS
330
D
102
}
330
D
100
AcDbGroup
300

 70
     3
 71
     1
  0
GROUP
  5
318
102
{ACAD_REACTORS
330
D
102
}
330
D
100
AcDbGroup
300

 70
     1
 71
     1
  0
GROUP
  5
39B
102
{ACAD_REACTORS
330
D
102
}
330
D
100
AcDbGroup
300

 70
     1
 71
     1
  0
GROUP
  5
227
102
{ACAD_REACTORS
330
D
102
}
330
D
100
AcDbGroup
300

 70
     3
 71
     1
  0
GROUP
  5
1972
102
{ACAD_REACTORS
330
D
102
}
330
D
100
AcDbGroup
300

 70
     3
 71
     1
  0
GROUP
  5
1A42
102
{ACAD_REACTORS
330
D
102
}
330
D
100
AcDbGroup
300

 70
     3
 71
     1
  0
GROUP
  5
1A06
102
{ACAD_REACTORS
330
D
102
}
330
D
100
AcDbGroup
300
Rosetta UNI 1751 A 3.1
 70
     1
 71
     1
  0
GROUP
  5
1F4
102
{ACAD_REACTORS
330
D
102
}
330
D
100
AcDbGroup
300

 70
     1
 71
     1
  0
GROUP
  5
1F1
102
{ACAD_REACTORS
330
D
102
}
330
D
100
AcDbGroup
300

 70
     3
 71
     1
  0
GROUP
  5
1A3D
102
{ACAD_REACTORS
330
D
102
}
330
D
100
AcDbGroup
300

 70
     3
 71
     1
  0
GROUP
  5
268
102
{ACAD_REACTORS
330
D
102
}
330
D
100
AcDbGroup
300

 70
     3
 71
     1
  0
GROUP
  5
33D
102
{ACAD_REACTORS
330
D
102
}
330
D
100
AcDbGroup
300
Rosetta UNI 1751 A 6.1
 70
     1
 71
     1
  0
GROUP
  5
19DA
102
{ACAD_REACTORS
330
D
102
}
330
D
100
AcDbGroup
300

 70
     1
 71
     1
  0
GROUP
  5
194E
102
{ACAD_REACTORS
330
D
102
}
330
D
100
AcDbGroup
300

 70
     3
 71
     1
  0
GROUP
  5
321
102
{ACAD_REACTORS
330
D
102
}
330
D
100
AcDbGroup
300

 70
     3
 71
     1
  0
GROUP
  5
1973
102
{ACAD_REACTORS
330
D
102
}
330
D
100
AcDbGroup
300

 70
     3
 71
     1
  0
GROUP
  5
31D
102
{ACAD_REACTORS
330
D
102
}
330
D
100
AcDbGroup
300

 70
     3
 71
     1
  0
GROUP
  5
19A4
102
{ACAD_REACTORS
330
D
102
}
330
D
100
AcDbGroup
300

 70
     3
 71
     1
  0
GROUP
  5
1974
102
{ACAD_REACTORS
330
D
102
}
330
D
100
AcDbGroup
300

 70
     1
 71
     1
  0
GROUP
  5
26D
102
{ACAD_REACTORS
330
D
102
}
330
D
100
AcDbGroup
300

 70
     3
 71
     1
  0
GROUP
  5
1975
102
{ACAD_REACTORS
330
D
102
}
330
D
100
AcDbGroup
300

 70
     3
 71
     1
  0
GROUP
  5
20A
102
{ACAD_REACTORS
330
D
102
}
330
D
100
AcDbGroup
300

 70
     3
 71
     1
  0
GROUP
  5
1A4F
102
{ACAD_REACTORS
330
D
102
}
330
D
100
AcDbGroup
300

 70
     1
 71
     1
  0
GROUP
  5
25A
102
{ACAD_REACTORS
330
D
102
}
330
D
100
AcDbGroup
300

 70
     3
 71
     1
  0
GROUP
  5
3C9
102
{ACAD_REACTORS
330
D
102
}
330
D
100
AcDbGroup
300

 70
     3
 71
     1
  0
GROUP
  5
23B
102
{ACAD_REACTORS
330
D
102
}
330
D
100
AcDbGroup
300

 70
     3
 71
     1
  0
GROUP
  5
36A
102
{ACAD_REACTORS
330
D
102
}
330
D
100
AcDbGroup
300
Vite UNI 5931 M8X25
 70
     3
 71
     1
  0
GROUP
  5
1BF
102
{ACAD_REACTORS
330
D
102
}
330
D
100
AcDbGroup
300

 70
     1
 71
     1
  0
GROUP
  5
3C2
102
{ACAD_REACTORS
330
D
102
}
330
D
100
AcDbGroup
300

 70
     1
 71
     1
  0
GROUP
  5
1998
102
{ACAD_REACTORS
330
D
102
}
330
D
100
AcDbGroup
300

 70
     3
 71
     1
  0
GROUP
  5
1F5
102
{ACAD_REACTORS
330
D
102
}
330
D
100
AcDbGroup
300

 70
     1
 71
     1
  0
GROUP
  5
1A46
102
{ACAD_REACTORS
330
D
102
}
330
D
100
AcDbGroup
300

 70
     3
 71
     1
  0
GROUP
  5
27B
102
{ACAD_REACTORS
330
D
102
}
330
D
100
AcDbGroup
300

 70
     1
 71
     1
  0
GROUP
  5
1982
102
{ACAD_REACTORS
330
D
102
}
330
D
100
AcDbGroup
300

 70
     3
 71
     1
  0
GROUP
  5
394
102
{ACAD_REACTORS
330
D
102
}
330
D
100
AcDbGroup
300
Ghiera autofrenante M20x1
 70
     3
 71
     1
  0
GROUP
  5
1A28
102
{ACAD_REACTORS
330
D
102
}
330
D
100
AcDbGroup
300

 70
     3
 71
     1
  0
GROUP
  5
39E
102
{ACAD_REACTORS
330
D
102
}
330
D
100
AcDbGroup
300

 70
     1
 71
     1
  0
GROUP
  5
215
102
{ACAD_REACTORS
330
D
102
}
330
D
100
AcDbGroup
300

 70
     3
 71
     1
  0
GROUP
  5
3D2
102
{ACAD_REACTORS
330
D
102
}
330
D
100
AcDbGroup
300

 70
     3
 71
     1
  0
GROUP
  5
1953
102
{ACAD_REACTORS
330
D
102
}
330
D
100
AcDbGroup
300

 70
     1
 71
     1
  0
GROUP
  5
225
102
{ACAD_REACTORS
330
D
102
}
330
D
100
AcDbGroup
300

 70
     3
 71
     1
  0
GROUP
  5
3D7
102
{ACAD_REACTORS
330
D
102
}
330
D
100
AcDbGroup
300

 70
     3
 71
     1
  0
GROUP
  5
29D
102
{ACAD_REACTORS
330
D
102
}
330
D
100
AcDbGroup
300

 70
     3
 71
     1
  0
GROUP
  5
261
102
{ACAD_REACTORS
330
D
102
}
330
D
100
AcDbGroup
300

 70
     3
 71
     1
  0
GROUP
  5
195E
102
{ACAD_REACTORS
330
D
102
}
330
D
100
AcDbGroup
300
Rosetta UNI 1751 A 3.1
 70
     1
 71
     1
  0
GROUP
  5
36C
102
{ACAD_REACTORS
330
D
102
}
330
D
100
AcDbGroup
300

 70
     1
 71
     1
  0
GROUP
  5
1976
102
{ACAD_REACTORS
330
D
102
}
330
D
100
AcDbGroup
300

 70
     1
 71
     1
  0
GROUP
  5
282
102
{ACAD_REACTORS
330
D
102
}
330
D
100
AcDbGroup
300

 70
     1
 71
     1
  0
GROUP
  5
326
102
{ACAD_REACTORS
330
D
102
}
330
D
100
AcDbGroup
300
Vite UNI 5933 M6X16
 70
     1
 71
     1
  0
GROUP
  5
1977
102
{ACAD_REACTORS
330
D
102
}
330
D
100
AcDbGroup
300

 70
     1
 71
     1
  0
GROUP
  5
216
102
{ACAD_REACTORS
330
D
102
}
330
D
100
AcDbGroup
300
Rosetta UNI 1751 A 3.1
 70
     1
 71
     1
  0
GROUP
  5
19ED
102
{ACAD_REACTORS
330
D
102
}
330
D
100
AcDbGroup
300

 70
     1
 71
     1
  0
GROUP
  5
19A2
102
{ACAD_REACTORS
330
D
102
}
330
D
100
AcDbGroup
300

 70
     3
 71
     1
  0
GROUP
  5
1A18
102
{ACAD_REACTORS
330
D
102
}
330
D
100
AcDbGroup
300
Ghiera autofrenante M20x1
 70
     3
 71
     1
  0
GROUP
  5
1CA
102
{ACAD_REACTORS
330
D
102
}
330
D
100
AcDbGroup
300

 70
     3
 71
     1
  0
GROUP
  5
22B
102
{ACAD_REACTORS
330
D
102
}
330
D
100
AcDbGroup
300

 70
     1
 71
     1
  0
GROUP
  5
2C8
102
{ACAD_REACTORS
330
D
102
}
330
D
100
AcDbGroup
300
Vite UNI 5933 M6X16
 70
     3
 71
     1
  0
GROUP
  5
23C
102
{ACAD_REACTORS
330
D
102
}
330
D
100
AcDbGroup
300

 70
     3
 71
     1
  0
GROUP
  5
276
102
{ACAD_REACTORS
330
D
102
}
330
D
100
AcDbGroup
300

 70
     3
 71
     1
  0
GROUP
  5
292
102
{ACAD_REACTORS
330
D
102
}
330
D
100
AcDbGroup
300

 70
     3
 71
     1
  0
GROUP
  5
357
102
{ACAD_REACTORS
330
D
102
}
330
D
100
AcDbGroup
300
Rosetta UNI 1751 A 6.1
 70
     1
 71
     1
  0
GROUP
  5
3CD
102
{ACAD_REACTORS
330
D
102
}
330
D
100
AcDbGroup
300

 70
     1
 71
     1
  0
GROUP
  5
27F
102
{ACAD_REACTORS
330
D
102
}
330
D
100
AcDbGroup
300

 70
     3
 71
     1
  0
GROUP
  5
1999
102
{ACAD_REACTORS
330
D
102
}
330
D
100
AcDbGroup
300

 70
     1
 71
     1
  0
GROUP
  5
1A54
102
{ACAD_REACTORS
330
D
102
}
330
D
100
AcDbGroup
300

 70
     3
 71
     1
  0
GROUP
  5
1A1F
102
{ACAD_REACTORS
330
D
102
}
330
D
100
AcDbGroup
300

 70
     1
 71
     1
  0
GROUP
  5
250
102
{ACAD_REACTORS
330
D
102
}
330
D
100
AcDbGroup
300

 70
     3
 71
     1
  0
GROUP
  5
24E
102
{ACAD_REACTORS
330
D
102
}
330
D
100
AcDbGroup
300

 70
     1
 71
     1
  0
GROUP
  5
1A50
102
{ACAD_REACTORS
330
D
102
}
330
D
100
AcDbGroup
300

 70
     3
 71
     1
  0
GROUP
  5
379
102
{ACAD_REACTORS
330
D
102
}
330
D
100
AcDbGroup
300
Vite UNI 5933 M6X16
 70
     3
 71
     1
  0
GROUP
  5
19F7
102
{ACAD_REACTORS
330
D
102
}
330
D
100
AcDbGroup
300

 70
     3
 71
     1
  0
GROUP
  5
1978
102
{ACAD_REACTORS
330
D
102
}
330
D
100
AcDbGroup
300

 70
     3
 71
     1
  0
GROUP
  5
35F
102
{ACAD_REACTORS
330
D
102
}
330
D
100
AcDbGroup
300

 70
     3
 71
     1
  0
GROUP
  5
199A
102
{ACAD_REACTORS
330
D
102
}
330
D
100
AcDbGroup
300

 70
     3
 71
     1
  0
GROUP
  5
35C
102
{ACAD_REACTORS
330
D
102
}
330
D
100
AcDbGroup
300

 70
     3
 71
     1
  0
GROUP
  5
19C6
102
{ACAD_REACTORS
330
D
102
}
330
D
100
AcDbGroup
300

 70
     3
 71
     1
  0
GROUP
  5
199B
102
{ACAD_REACTORS
330
D
102
}
330
D
100
AcDbGroup
300

 70
     1
 71
     1
  0
GROUP
  5
2BD
102
{ACAD_REACTORS
330
D
102
}
330
D
100
AcDbGroup
300

 70
     3
 71
     1
  0
GROUP
  5
199C
102
{ACAD_REACTORS
330
D
102
}
330
D
100
AcDbGroup
300

 70
     3
 71
     1
  0
GROUP
  5
217
102
{ACAD_REACTORS
330
D
102
}
330
D
100
AcDbGroup
300

 70
     1
 71
     1
  0
GROUP
  5
2AC
102
{ACAD_REACTORS
330
D
102
}
330
D
100
AcDbGroup
300
Vite UNI 5933 M6X16
 70
     3
 71
     1
  0
GROUP
  5
195C
102
{ACAD_REACTORS
330
D
102
}
330
D
100
AcDbGroup
300

 70
     1
 71
     1
  0
GROUP
  5
290
102
{ACAD_REACTORS
330
D
102
}
330
D
100
AcDbGroup
300

 70
     1
 71
     1
  0
GROUP
  5
3A2
102
{ACAD_REACTORS
330
D
102
}
330
D
100
AcDbGroup
300

 70
     3
 71
     1
  0
GROUP
  5
220
102
{ACAD_REACTORS
330
D
102
}
330
D
100
AcDbGroup
300

 70
     3
 71
     1
  0
GROUP
  5
1956
102
{ACAD_REACTORS
330
D
102
}
330
D
100
AcDbGroup
300
Vite UNI 5933 M6X16
 70
     1
 71
     1
  0
GROUP
  5
1FC
102
{ACAD_REACTORS
330
D
102
}
330
D
100
AcDbGroup
300

 70
     3
 71
     1
  0
GROUP
  5
251
102
{ACAD_REACTORS
330
D
102
}
330
D
100
AcDbGroup
300

 70
     1
 71
     1
  0
GROUP
  5
20F
102
{ACAD_REACTORS
330
D
102
}
330
D
100
AcDbGroup
300

 70
     3
 71
     1
  0
GROUP
  5
1FA
102
{ACAD_REACTORS
330
D
102
}
330
D
100
AcDbGroup
300

 70
     3
 71
     1
  0
GROUP
  5
3C7
102
{ACAD_REACTORS
330
D
102
}
330
D
100
AcDbGroup
300

 70
     1
 71
     1
  0
GROUP
  5
1C1
102
{ACAD_REACTORS
330
D
102
}
330
D
100
AcDbGroup
300

 70
     3
 71
     1
  0
GROUP
  5
3D0
102
{ACAD_REACTORS
330
D
102
}
330
D
100
AcDbGroup
300

 70
     3
 71
     1
  0
GROUP
  5
26E
102
{ACAD_REACTORS
330
D
102
}
330
D
100
AcDbGroup
300

 70
     3
 71
     1
  0
GROUP
  5
1964
102
{ACAD_REACTORS
330
D
102
}
330
D
100
AcDbGroup
300

 70
     3
 71
     1
  0
GROUP
  5
197D
102
{ACAD_REACTORS
330
D
102
}
330
D
100
AcDbGroup
300

 70
     3
 71
     1
  0
GROUP
  5
27D
102
{ACAD_REACTORS
330
D
102
}
330
D
100
AcDbGroup
300

 70
     3
 71
     1
  0
GROUP
  5
1969
102
{ACAD_REACTORS
330
D
102
}
330
D
100
AcDbGroup
300

 70
     3
 71
     1
  0
GROUP
  5
2E8
102
{ACAD_REACTORS
330
D
102
}
330
D
100
AcDbGroup
300

 70
     1
 71
     1
  0
GROUP
  5
1987
102
{ACAD_REACTORS
330
D
102
}
330
D
100
AcDbGroup
300

 70
     1
 71
     1
  0
GROUP
  5
3A3
102
{ACAD_REACTORS
330
D
102
}
330
D
100
AcDbGroup
300

 70
     3
 71
     1
  0
GROUP
  5
199D
102
{ACAD_REACTORS
330
D
102
}
330
D
100
AcDbGroup
300

 70
     3
 71
     1
  0
GROUP
  5
1D5
102
{ACAD_REACTORS
330
D
102
}
330
D
100
AcDbGroup
300

 70
     3
 71
     1
  0
GROUP
  5
364
102
{ACAD_REACTORS
330
D
102
}
330
D
100
AcDbGroup
300

 70
     1
 71
     1
  0
GROUP
  5
1F9
102
{ACAD_REACTORS
330
D
102
}
330
D
100
AcDbGroup
300

 70
     1
 71
     1
  0
GROUP
  5
26F
102
{ACAD_REACTORS
330
D
102
}
330
D
100
AcDbGroup
300

 70
     3
 71
     1
  0
GROUP
  5
1A08
102
{ACAD_REACTORS
330
D
102
}
330
D
100
AcDbGroup
300

 70
     3
 71
     1
  0
GROUP
  5
19C5
102
{ACAD_REACTORS
330
D
102
}
330
D
100
AcDbGroup
300

 70
     1
 71
     1
  0
GROUP
  5
1A2F
102
{ACAD_REACTORS
330
D
102
}
330
D
100
AcDbGroup
300
Vite UNI 5933 M6X16
 70
     3
 71
     1
  0
GROUP
  5
30F
102
{ACAD_REACTORS
330
D
102
}
330
D
100
AcDbGroup
300

 70
     1
 71
     1
  0
GROUP
  5
291
102
{ACAD_REACTORS
330
D
102
}
330
D
100
AcDbGroup
300
Vite UNI 5933 M6X16
 70
     1
 71
     1
  0
GROUP
  5
2C6
102
{ACAD_REACTORS
330
D
102
}
330
D
100
AcDbGroup
300

 70
     3
 71
     1
  0
GROUP
  5
2DF
102
{ACAD_REACTORS
330
D
102
}
330
D
100
AcDbGroup
300

 70
     1
 71
     1
  0
GROUP
  5
390
102
{ACAD_REACTORS
330
D
102
}
330
D
100
AcDbGroup
300
Rosetta UNI 1751 A 6.1
 70
     1
 71
     1
  0
GROUP
  5
1960
102
{ACAD_REACTORS
330
D
102
}
330
D
100
AcDbGroup
300

 70
     1
 71
     1
  0
GROUP
  5
2CE
102
{ACAD_REACTORS
330
D
102
}
330
D
100
AcDbGroup
300

 70
     3
 71
     1
  0
GROUP
  5
19BC
102
{ACAD_REACTORS
330
D
102
}
330
D
100
AcDbGroup
300

 70
     1
 71
     1
  0
GROUP
  5
21C
102
{ACAD_REACTORS
330
D
102
}
330
D
100
AcDbGroup
300

 70
     1
 71
     1
  0
GROUP
  5
1A35
102
{ACAD_REACTORS
330
D
102
}
330
D
100
AcDbGroup
300

 70
     1
 71
     1
  0
GROUP
  5
2A1
102
{ACAD_REACTORS
330
D
102
}
330
D
100
AcDbGroup
300
Rosetta UNI 1751 A 3.1
 70
     1
 71
     1
  0
GROUP
  5
218
102
{ACAD_REACTORS
330
D
102
}
330
D
100
AcDbGroup
300

 70
     1
 71
     1
  0
GROUP
  5
3AE
102
{ACAD_REACTORS
330
D
102
}
330
D
100
AcDbGroup
300

 70
     3
 71
     1
  0
GROUP
  5
1A11
102
{ACAD_REACTORS
330
D
102
}
330
D
100
AcDbGroup
300

 70
     3
 71
     1
  0
GROUP
  5
199E
102
{ACAD_REACTORS
330
D
102
}
330
D
100
AcDbGroup
300

 70
     3
 71
     1
  0
GROUP
  5
398
102
{ACAD_REACTORS
330
D
102
}
330
D
100
AcDbGroup
300
Vite UNI 5933 M6X16
 70
     3
 71
     1
  0
GROUP
  5
19BD
102
{ACAD_REACTORS
330
D
102
}
330
D
100
AcDbGroup
300

 70
     3
 71
     1
  0
GROUP
  5
395
102
{ACAD_REACTORS
330
D
102
}
330
D
100
AcDbGroup
300

 70
     3
 71
     1
  0
GROUP
  5
19E4
102
{ACAD_REACTORS
330
D
102
}
330
D
100
AcDbGroup
300

 70
     1
 71
     1
  0
GROUP
  5
19BE
102
{ACAD_REACTORS
330
D
102
}
330
D
100
AcDbGroup
300

 70
     3
 71
     1
  0
GROUP
  5
19BF
102
{ACAD_REACTORS
330
D
102
}
330
D
100
AcDbGroup
300

 70
     3
 71
     1
  0
GROUP
  5
270
102
{ACAD_REACTORS
330
D
102
}
330
D
100
AcDbGroup
300
Vite UNI 5931 M8X25
 70
     3
 71
     1
  0
GROUP
  5
2F6
102
{ACAD_REACTORS
330
D
102
}
330
D
100
AcDbGroup
300

 70
     3
 71
     1
  0
GROUP
  5
1985
102
{ACAD_REACTORS
330
D
102
}
330
D
100
AcDbGroup
300

 70
     3
 71
     1
  0
GROUP
  5
2DD
102
{ACAD_REACTORS
330
D
102
}
330
D
100
AcDbGroup
300
Ghiera autofrenante M20x1
 70
     1
 71
     1
  0
GROUP
  5
3D4
102
{ACAD_REACTORS
330
D
102
}
330
D
100
AcDbGroup
300
Ghiera autofrenante M20x1
 70
     3
 71
     1
  0
GROUP
  5
278
102
{ACAD_REACTORS
330
D
102
}
330
D
100
AcDbGroup
300

 70
     3
 71
     1
  0
GROUP
  5
1F6
102
{ACAD_REACTORS
330
D
102
}
330
D
100
AcDbGroup
300
Vite UNI 5933 M6X16
 70
     3
 71
     1
  0
GROUP
  5
258
102
{ACAD_REACTORS
330
D
102
}
330
D
100
AcDbGroup
300

 70
     3
 71
     1
  0
GROUP
  5
2A4
102
{ACAD_REACTORS
330
D
102
}
330
D
100
AcDbGroup
300

 70
     1
 71
     1
  0
GROUP
  5
256
102
{ACAD_REACTORS
330
D
102
}
330
D
100
AcDbGroup
300

 70
     3
 71
     1
  0
GROUP
  5
195A
102
{ACAD_REACTORS
330
D
102
}
330
D
100
AcDbGroup
300

 70
     3
 71
     1
  0
GROUP
  5
222
102
{ACAD_REACTORS
330
D
102
}
330
D
100
AcDbGroup
300

 70
     3
 71
     1
  0
GROUP
  5
1962
102
{ACAD_REACTORS
330
D
102
}
330
D
100
AcDbGroup
300

 70
     3
 71
     1
  0
GROUP
  5
2BE
102
{ACAD_REACTORS
330
D
102
}
330
D
100
AcDbGroup
300

 70
     1
 71
     1
  0
GROUP
  5
198C
102
{ACAD_REACTORS
330
D
102
}
330
D
100
AcDbGroup
300

 70
     3
 71
     1
  0
GROUP
  5
19A3
102
{ACAD_REACTORS
330
D
102
}
330
D
100
AcDbGroup
300

 70
     1
 71
     1
  0
GROUP
  5
2CC
102
{ACAD_REACTORS
330
D
102
}
330
D
100
AcDbGroup
300

 70
     3
 71
     1
  0
GROUP
  5
1991
102
{ACAD_REACTORS
330
D
102
}
330
D
100
AcDbGroup
300

 70
     1
 71
     1
  0
GROUP
  5
32C
102
{ACAD_REACTORS
330
D
102
}
330
D
100
AcDbGroup
300

 70
     3
 71
     1
  0
GROUP
  5
1EF
102
{ACAD_REACTORS
330
D
102
}
330
D
100
AcDbGroup
300
Vite UNI 5933 M6X16
 70
     3
 71
     1
  0
GROUP
  5
19C0
102
{ACAD_REACTORS
330
D
102
}
330
D
100
AcDbGroup
300

 70
     1
 71
     1
  0
GROUP
  5
234
102
{ACAD_REACTORS
330
D
102
}
330
D
100
AcDbGroup
300

 70
     3
 71
     1
  0
GROUP
  5
39C
102
{ACAD_REACTORS
330
D
102
}
330
D
100
AcDbGroup
300

 70
     1
 71
     1
  0
GROUP
  5
255
102
{ACAD_REACTORS
330
D
102
}
330
D
100
AcDbGroup
300

 70
     1
 71
     1
  0
GROUP
  5
2BF
102
{ACAD_REACTORS
330
D
102
}
330
D
100
AcDbGroup
300

 70
     3
 71
     1
  0
GROUP
  5
1A20
102
{ACAD_REACTORS
330
D
102
}
330
D
100
AcDbGroup
300

 70
     3
 71
     1
  0
GROUP
  5
200
102
{ACAD_REACTORS
330
D
102
}
330
D
100
AcDbGroup
300

 70
     3
 71
     1
  0
GROUP
  5
1A43
102
{ACAD_REACTORS
330
D
102
}
330
D
100
AcDbGroup
300

 70
     3
 71
     1
  0
GROUP
  5
34F
102
{ACAD_REACTORS
330
D
102
}
330
D
100
AcDbGroup
300

 70
     3
 71
     1
  0
GROUP
  5
30D
102
{ACAD_REACTORS
330
D
102
}
330
D
100
AcDbGroup
300
Vite UNI 5933 M6X16
 70
     3
 71
     1
  0
GROUP
  5
324
102
{ACAD_REACTORS
330
D
102
}
330
D
100
AcDbGroup
300

 70
     3
 71
     1
  0
GROUP
  5
3C3
102
{ACAD_REACTORS
330
D
102
}
330
D
100
AcDbGroup
300

 70
     3
 71
     1
  0
GROUP
  5
1989
102
{ACAD_REACTORS
330
D
102
}
330
D
100
AcDbGroup
300

 70
     3
 71
     1
  0
GROUP
  5
315
102
{ACAD_REACTORS
330
D
102
}
330
D
100
AcDbGroup
300

 70
     3
 71
     1
  0
GROUP
  5
19DB
102
{ACAD_REACTORS
330
D
102
}
330
D
100
AcDbGroup
300

 70
     1
 71
     1
  0
GROUP
  5
275
102
{ACAD_REACTORS
330
D
102
}
330
D
100
AcDbGroup
300

 70
     3
 71
     1
  0
GROUP
  5
1A48
102
{ACAD_REACTORS
330
D
102
}
330
D
100
AcDbGroup
300

 70
     3
 71
     1
  0
GROUP
  5
2EC
102
{ACAD_REACTORS
330
D
102
}
330
D
100
AcDbGroup
300
Vite UNI 5931 M8X25
 70
     1
 71
     1
  0
GROUP
  5
271
102
{ACAD_REACTORS
330
D
102
}
330
D
100
AcDbGroup
300
Vite UNI 5933 M6X16
 70
     3
 71
     1
  0
GROUP
  5
1A29
102
{ACAD_REACTORS
330
D
102
}
330
D
100
AcDbGroup
300

 70
     3
 71
     1
  0
GROUP
  5
19C1
102
{ACAD_REACTORS
330
D
102
}
330
D
100
AcDbGroup
300
Rosetta UNI 1751 A 6.1
 70
     1
 71
     1
  0
GROUP
  5
1EE
102
{ACAD_REACTORS
330
D
102
}
330
D
100
AcDbGroup
300

 70
     3
 71
     1
  0
GROUP
  5
19DC
102
{ACAD_REACTORS
330
D
102
}
330
D
100
AcDbGroup
300

 70
     1
 71
     1
  0
GROUP
  5
3C8
102
{ACAD_REACTORS
330
D
102
}
330
D
100
AcDbGroup
300

 70
     3
 71
     1
  0
GROUP
  5
1A00
102
{ACAD_REACTORS
330
D
102
}
330
D
100
AcDbGroup
300
Vite UNI 5933 M6X16
 70
     3
 71
     1
  0
GROUP
  5
19DD
102
{ACAD_REACTORS
330
D
102
}
330
D
100
AcDbGroup
300

 70
     1
 71
     1
  0
GROUP
  5
19DE
102
{ACAD_REACTORS
330
D
102
}
330
D
100
AcDbGroup
300

 70
     1
 71
     1
  0
GROUP
  5
2C0
102
{ACAD_REACTORS
330
D
102
}
330
D
100
AcDbGroup
300

 70
     1
 71
     1
  0
GROUP
  5
339
102
{ACAD_REACTORS
330
D
102
}
330
D
100
AcDbGroup
300

 70
     3
 71
     1
  0
GROUP
  5
322
102
{ACAD_REACTORS
330
D
102
}
330
D
100
AcDbGroup
300
Rosetta UNI 1751 A 6.1
 70
     1
 71
     1
  0
GROUP
  5
1966
102
{ACAD_REACTORS
330
D
102
}
330
D
100
AcDbGroup
300

 70
     3
 71
     1
  0
GROUP
  5
2C7
102
{ACAD_REACTORS
330
D
102
}
330
D
100
AcDbGroup
300

 70
     3
 71
     1
  0
GROUP
  5
252
102
{ACAD_REACTORS
330
D
102
}
330
D
100
AcDbGroup
300

 70
     3
 71
     1
  0
GROUP
  5
2AA
102
{ACAD_REACTORS
330
D
102
}
330
D
100
AcDbGroup
300

 70
     3
 71
     1
  0
GROUP
  5
1D8
102
{ACAD_REACTORS
330
D
102
}
330
D
100
AcDbGroup
300

 70
     3
 71
     1
  0
GROUP
  5
1D1
102
{ACAD_REACTORS
330
D
102
}
330
D
100
AcDbGroup
300

 70
     3
 71
     1
  0
GROUP
  5
1983
102
{ACAD_REACTORS
330
D
102
}
330
D
100
AcDbGroup
300
Vite UNI 5933 M6X16
 70
     1
 71
     1
  0
GROUP
  5
27A
102
{ACAD_REACTORS
330
D
102
}
330
D
100
AcDbGroup
300
Ghiera autofrenante M20x1
 70
     1
 71
     1
  0
GROUP
  5
198A
102
{ACAD_REACTORS
330
D
102
}
330
D
100
AcDbGroup
300

 70
     3
 71
     1
  0
GROUP
  5
19B1
102
{ACAD_REACTORS
330
D
102
}
330
D
100
AcDbGroup
300
Rosetta UNI 1751 A 6.1
 70
     1
 71
     1
  0
GROUP
  5
1FD
102
{ACAD_REACTORS
330
D
102
}
330
D
100
AcDbGroup
300

 70
     1
 71
     1
  0
GROUP
  5
313
102
{ACAD_REACTORS
330
D
102
}
330
D
100
AcDbGroup
300

 70
     3
 71
     1
  0
GROUP
  5
19B5
102
{ACAD_REACTORS
330
D
102
}
330
D
100
AcDbGroup
300

 70
     1
 71
     1
  0
GROUP
  5
369
102
{ACAD_REACTORS
330
D
102
}
330
D
100
AcDbGroup
300

 70
     3
 71
     1
  0
GROUP
  5
24C
102
{ACAD_REACTORS
330
D
102
}
330
D
100
AcDbGroup
300

 70
     3
 71
     1
  0
GROUP
  5
19DF
102
{ACAD_REACTORS
330
D
102
}
330
D
100
AcDbGroup
300

 70
     3
 71
     1
  0
GROUP
  5
28A
102
{ACAD_REACTORS
330
D
102
}
330
D
100
AcDbGroup
300

 70
     1
 71
     1
  0
GROUP
  5
3CE
102
{ACAD_REACTORS
330
D
102
}
330
D
100
AcDbGroup
300

 70
     3
 71
     1
  0
GROUP
  5
2A8
102
{ACAD_REACTORS
330
D
102
}
330
D
100
AcDbGroup
300

 70
     3
 71
     1
  0
GROUP
  5
1A36
102
{ACAD_REACTORS
330
D
102
}
330
D
100
AcDbGroup
300

 70
     3
 71
     1
  0
GROUP
  5
25B
102
{ACAD_REACTORS
330
D
102
}
330
D
100
AcDbGroup
300

 70
     3
 71
     1
  0
GROUP
  5
20C
102
{ACAD_REACTORS
330
D
102
}
330
D
100
AcDbGroup
300

 70
     1
 71
     1
  0
GROUP
  5
389
102
{ACAD_REACTORS
330
D
102
}
330
D
100
AcDbGroup
300

 70
     1
 71
     1
  0
GROUP
  5
34D
102
{ACAD_REACTORS
330
D
102
}
330
D
100
AcDbGroup
300

 70
     1
 71
     1
  0
GROUP
  5
362
102
{ACAD_REACTORS
330
D
102
}
330
D
100
AcDbGroup
300
Vite UNI 5931 M8X25
 70
     1
 71
     1
  0
GROUP
  5
1957
102
{ACAD_REACTORS
330
D
102
}
330
D
100
AcDbGroup
300

 70
     3
 71
     1
  0
GROUP
  5
19AE
102
{ACAD_REACTORS
330
D
102
}
330
D
100
AcDbGroup
300

 70
     1
 71
     1
  0
GROUP
  5
354
102
{ACAD_REACTORS
330
D
102
}
330
D
100
AcDbGroup
300

 70
     3
 71
     1
  0
GROUP
  5
202
102
{ACAD_REACTORS
330
D
102
}
330
D
100
AcDbGroup
300

 70
     3
 71
     1
  0
GROUP
  5
330
102
{ACAD_REACTORS
330
D
102
}
330
D
100
AcDbGroup
300

 70
     1
 71
     1
  0
GROUP
  5
2C1
102
{ACAD_REACTORS
330
D
102
}
330
D
100
AcDbGroup
300

 70
     3
 71
     1
  0
GROUP
  5
209
102
{ACAD_REACTORS
330
D
102
}
330
D
100
AcDbGroup
300

 70
     3
 71
     1
  0
GROUP
  5
19E0
102
{ACAD_REACTORS
330
D
102
}
330
D
100
AcDbGroup
300

 70
     1
 71
     1
  0
GROUP
  5
24B
102
{ACAD_REACTORS
330
D
102
}
330
D
100
AcDbGroup
300

 70
     3
 71
     1
  0
GROUP
  5
19F8
102
{ACAD_REACTORS
330
D
102
}
330
D
100
AcDbGroup
300

 70
     1
 71
     1
  0
GROUP
  5
195B
102
{ACAD_REACTORS
330
D
102
}
330
D
100
AcDbGroup
300
Ghiera autofrenante M20x1
 70
     3
 71
     1
  0
GROUP
  5
1A19
102
{ACAD_REACTORS
330
D
102
}
330
D
100
AcDbGroup
300

 70
     3
 71
     1
  0
GROUP
  5
19F9
102
{ACAD_REACTORS
330
D
102
}
330
D
100
AcDbGroup
300
Rosetta UNI 1751 A 6.1
 70
     1
 71
     1
  0
GROUP
  5
19FA
102
{ACAD_REACTORS
330
D
102
}
330
D
100
AcDbGroup
300

 70
     3
 71
     1
  0
GROUP
  5
375
102
{ACAD_REACTORS
330
D
102
}
330
D
100
AcDbGroup
300

 70
     3
 71
     1
  0
GROUP
  5
360
102
{ACAD_REACTORS
330
D
102
}
330
D
100
AcDbGroup
300

 70
     3
 71
     1
  0
GROUP
  5
198E
102
{ACAD_REACTORS
330
D
102
}
330
D
100
AcDbGroup
300

 70
     1
 71
     1
  0
GROUP
  5
30E
102
{ACAD_REACTORS
330
D
102
}
330
D
100
AcDbGroup
300

 70
     1
 71
     1
  0
GROUP
  5
2A5
102
{ACAD_REACTORS
330
D
102
}
330
D
100
AcDbGroup
300

 70
     3
 71
     1
  0
GROUP
  5
2F4
102
{ACAD_REACTORS
330
D
102
}
330
D
100
AcDbGroup
300

 70
     1
 71
     1
  0
GROUP
  5
237
102
{ACAD_REACTORS
330
D
102
}
330
D
100
AcDbGroup
300

 70
     3
 71
     1
  0
GROUP
  5
1C5
102
{ACAD_REACTORS
330
D
102
}
330
D
100
AcDbGroup
300
Vite UNI 5931 M8X25
 70
     3
 71
     1
  0
GROUP
  5
19A8
102
{ACAD_REACTORS
330
D
102
}
330
D
100
AcDbGroup
300

 70
     1
 71
     1
  0
GROUP
  5
2C9
102
{ACAD_REACTORS
330
D
102
}
330
D
100
AcDbGroup
300

 70
     3
 71
     1
  0
GROUP
  5
19D2
102
{ACAD_REACTORS
330
D
102
}
330
D
100
AcDbGroup
300

 70
     1
 71
     1
  0
GROUP
  5
1C9
102
{ACAD_REACTORS
330
D
102
}
330
D
100
AcDbGroup
300

 70
     3
 71
     1
  0
GROUP
  5
1E2
102
{ACAD_REACTORS
330
D
102
}
330
D
100
AcDbGroup
300

 70
     1
 71
     1
  0
GROUP
  5
19D6
102
{ACAD_REACTORS
330
D
102
}
330
D
100
AcDbGroup
300

 70
     3
 71
     1
  0
GROUP
  5
3A1
102
{ACAD_REACTORS
330
D
102
}
330
D
100
AcDbGroup
300
Ghiera KM4
 70
     3
 71
     1
  0
GROUP
  5
29F
102
{ACAD_REACTORS
330
D
102
}
330
D
100
AcDbGroup
300

 70
     3
 71
     1
  0
GROUP
  5
19FB
102
{ACAD_REACTORS
330
D
102
}
330
D
100
AcDbGroup
300
Vite UNI 5931 M8X25
 70
     3
 71
     1
  0
GROUP
  5
2D8
102
{ACAD_REACTORS
330
D
102
}
330
D
100
AcDbGroup
300

 70
     1
 71
     1
  0
GROUP
  5
1961
102
{ACAD_REACTORS
330
D
102
}
330
D
100
AcDbGroup
300

 70
     3
 71
     1
  0
GROUP
  5
2F2
102
{ACAD_REACTORS
330
D
102
}
330
D
100
AcDbGroup
300

 70
     1
 71
     1
  0
GROUP
  5
2AD
102
{ACAD_REACTORS
330
D
102
}
330
D
100
AcDbGroup
300

 70
     3
 71
     1
  0
GROUP
  5
266
102
{ACAD_REACTORS
330
D
102
}
330
D
100
AcDbGroup
300

 70
     3
 71
     1
  0
GROUP
  5
3BD
102
{ACAD_REACTORS
330
D
102
}
330
D
100
AcDbGroup
300
Vite UNI 5933 M6X16
 70
     3
 71
     1
  0
GROUP
  5
387
102
{ACAD_REACTORS
330
D
102
}
330
D
100
AcDbGroup
300

 70
     3
 71
     1
  0
GROUP
  5
39A
102
{ACAD_REACTORS
330
D
102
}
330
D
100
AcDbGroup
300

 70
     3
 71
     1
  0
GROUP
  5
1980
102
{ACAD_REACTORS
330
D
102
}
330
D
100
AcDbGroup
300

 70
     3
 71
     1
  0
GROUP
  5
1FE
102
{ACAD_REACTORS
330
D
102
}
330
D
100
AcDbGroup
300
Vite UNI 5933 M6X16
 70
     1
 71
     1
  0
GROUP
  5
38E
102
{ACAD_REACTORS
330
D
102
}
330
D
100
AcDbGroup
300

 70
     1
 71
     1
  0
GROUP
  5
25D
102
{ACAD_REACTORS
330
D
102
}
330
D
100
AcDbGroup
300

 70
     3
 71
     1
  0
GROUP
  5
36D
102
{ACAD_REACTORS
330
D
102
}
330
D
100
AcDbGroup
300
Vite UNI 5933 M6X16
 70
     1
 71
     1
  0
GROUP
  5
263
102
{ACAD_REACTORS
330
D
102
}
330
D
100
AcDbGroup
300

 70
     3
 71
     1
  0
GROUP
  5
19FC
102
{ACAD_REACTORS
330
D
102
}
330
D
100
AcDbGroup
300

 70
     3
 71
     1
  0
GROUP
  5
1D0
102
{ACAD_REACTORS
330
D
102
}
330
D
100
AcDbGroup
300
Ghiera KM4
 70
     3
 71
     1
  0
GROUP
  5
1A12
102
{ACAD_REACTORS
330
D
102
}
330
D
100
AcDbGroup
300

 70
     3
 71
     1
  0
GROUP
  5
1984
102
{ACAD_REACTORS
330
D
102
}
330
D
100
AcDbGroup
300

 70
     3
 71
     1
  0
GROUP
  5
1A30
102
{ACAD_REACTORS
330
D
102
}
330
D
100
AcDbGroup
300

 70
     3
 71
     1
  0
GROUP
  5
1A13
102
{ACAD_REACTORS
330
D
102
}
330
D
100
AcDbGroup
300

 70
     3
 71
     1
  0
GROUP
  5
1A14
102
{ACAD_REACTORS
330
D
102
}
330
D
100
AcDbGroup
300

 70
     3
 71
     1
  0
GROUP
  5
3AC
102
{ACAD_REACTORS
330
D
102
}
330
D
100
AcDbGroup
300

 70
     3
 71
     1
  0
GROUP
  5
1E9
102
{ACAD_REACTORS
330
D
102
}
330
D
100
AcDbGroup
300

 70
     3
 71
     1
  0
GROUP
  5
34E
102
{ACAD_REACTORS
330
D
102
}
330
D
100
AcDbGroup
300

 70
     1
 71
     1
  0
GROUP
  5
2EF
102
{ACAD_REACTORS
330
D
102
}
330
D
100
AcDbGroup
300

 70
     3
 71
     1
  0
GROUP
  5
337
102
{ACAD_REACTORS
330
D
102
}
330
D
100
AcDbGroup
300

 70
     3
 71
     1
  0
GROUP
  5
28C
102
{ACAD_REACTORS
330
D
102
}
330
D
100
AcDbGroup
300

 70
     3
 71
     1
  0
GROUP
  5
226
102
{ACAD_REACTORS
330
D
102
}
330
D
100
AcDbGroup
300

 70
     3
 71
     1
  0
GROUP
  5
19CA
102
{ACAD_REACTORS
330
D
102
}
330
D
100
AcDbGroup
300
Vite UNI 5933 M6X16
 70
     1
 71
     1
  0
GROUP
  5
310
102
{ACAD_REACTORS
330
D
102
}
330
D
100
AcDbGroup
300

 70
     3
 71
     1
  0
GROUP
  5
19EF
102
{ACAD_REACTORS
330
D
102
}
330
D
100
AcDbGroup
300

 70
     3
 71
     1
  0
GROUP
  5
229
102
{ACAD_REACTORS
330
D
102
}
330
D
100
AcDbGroup
300

 70
     3
 71
     1
  0
GROUP
  5
240
102
{ACAD_REACTORS
330
D
102
}
330
D
100
AcDbGroup
300

 70
     3
 71
     1
  0
GROUP
  5
3D3
102
{ACAD_REACTORS
330
D
102
}
330
D
100
AcDbGroup
300

 70
     3
 71
     1
  0
GROUP
  5
2EA
102
{ACAD_REACTORS
330
D
102
}
330
D
100
AcDbGroup
300

 70
     1
 71
     1
  0
GROUP
  5
1A15
102
{ACAD_REACTORS
330
D
102
}
330
D
100
AcDbGroup
300

 70
     3
 71
     1
  0
GROUP
  5
31E
102
{ACAD_REACTORS
330
D
102
}
330
D
100
AcDbGroup
300

 70
     3
 71
     1
  0
GROUP
  5
1F7
102
{ACAD_REACTORS
330
D
102
}
330
D
100
AcDbGroup
300

 70
     3
 71
     1
  0
GROUP
  5
335
102
{ACAD_REACTORS
330
D
102
}
330
D
100
AcDbGroup
300
Vite UNI 5931 M8X25
 70
     3
 71
     1
  0
GROUP
  5
2F7
102
{ACAD_REACTORS
330
D
102
}
330
D
100
AcDbGroup
300

 70
     1
 71
     1
  0
GROUP
  5
2B7
102
{ACAD_REACTORS
330
D
102
}
330
D
100
AcDbGroup
300
Vite UNI 5931 M8X25
 70
     3
 71
     1
  0
GROUP
  5
1951
102
{ACAD_REACTORS
330
D
102
}
330
D
100
AcDbGroup
300
Vite UNI 5931 M8X25
 70
     3
 71
     1
  0
GROUP
  5
3BB
102
{ACAD_REACTORS
330
D
102
}
330
D
100
AcDbGroup
300
Vite UNI 5933 M6X16
 70
     3
 71
     1
  0
GROUP
  5
19A6
102
{ACAD_REACTORS
330
D
102
}
330
D
100
AcDbGroup
300
Vite UNI 5931 M8X25
 70
     3
 71
     1
  0
GROUP
  5
259
102
{ACAD_REACTORS
330
D
102
}
330
D
100
AcDbGroup
300

 70
     3
 71
     1
  0
GROUP
  5
3C1
102
{ACAD_REACTORS
330
D
102
}
330
D
100
AcDbGroup
300

 70
     3
 71
     1
  0
GROUP
  5
2AF
102
{ACAD_REACTORS
330
D
102
}
330
D
100
AcDbGroup
300

 70
     3
 71
     1
  0
GROUP
  5
3A4
102
{ACAD_REACTORS
330
D
102
}
330
D
100
AcDbGroup
300

 70
     3
 71
     1
  0
GROUP
  5
2B4
102
{ACAD_REACTORS
330
D
102
}
330
D
100
AcDbGroup
300
Vite UNI 5933 M6X16
 70
     1
 71
     1
  0
GROUP
  5
205
102
{ACAD_REACTORS
330
D
102
}
330
D
100
AcDbGroup
300

 70
     3
 71
     1
  0
GROUP
  5
230
102
{ACAD_REACTORS
330
D
102
}
330
D
100
AcDbGroup
300

 70
     3
 71
     1
  0
GROUP
  5
207
102
{ACAD_REACTORS
330
D
102
}
330
D
100
AcDbGroup
300
Vite UNI 5933 M6X16
 70
     3
 71
     1
  0
GROUP
  5
19A9
102
{ACAD_REACTORS
330
D
102
}
330
D
100
AcDbGroup
300

 70
     3
 71
     1
  0
GROUP
  5
1A2A
102
{ACAD_REACTORS
330
D
102
}
330
D
100
AcDbGroup
300

 70
     3
 71
     1
  0
GROUP
  5
1A2B
102
{ACAD_REACTORS
330
D
102
}
330
D
100
AcDbGroup
300

 70
     1
 71
     1
  0
GROUP
  5
3DD
102
{ACAD_REACTORS
330
D
102
}
330
D
100
AcDbGroup
300

 70
     3
 71
     1
  0
GROUP
  5
246
102
{ACAD_REACTORS
330
D
102
}
330
D
100
AcDbGroup
300

 70
     3
 71
     1
  0
GROUP
  5
388
102
{ACAD_REACTORS
330
D
102
}
330
D
100
AcDbGroup
300

 70
     1
 71
     1
  0
GROUP
  5
333
102
{ACAD_REACTORS
330
D
102
}
330
D
100
AcDbGroup
300

 70
     1
 71
     1
  0
GROUP
  5
373
102
{ACAD_REACTORS
330
D
102
}
330
D
100
AcDbGroup
300
Vite UNI 5933 M6X16
 70
     3
 71
     1
  0
GROUP
  5
2DA
102
{ACAD_REACTORS
330
D
102
}
330
D
100
AcDbGroup
300

 70
     1
 71
     1
  0
GROUP
  5
27E
102
{ACAD_REACTORS
330
D
102
}
330
D
100
AcDbGroup
300

 70
     3
 71
     1
  0
GROUP
  5
19E8
102
{ACAD_REACTORS
330
D
102
}
330
D
100
AcDbGroup
300

 70
     1
 71
     1
  0
GROUP
  5
1A0A
102
{ACAD_REACTORS
330
D
102
}
330
D
100
AcDbGroup
300

 70
     3
 71
     1
  0
GROUP
  5
1BB
102
{ACAD_REACTORS
330
D
102
}
330
D
100
AcDbGroup
300

 70
     3
 71
     1
  0
GROUP
  5
1CF
102
{ACAD_REACTORS
330
D
102
}
330
D
100
AcDbGroup
300
Rosetta UNI 1751 A 6.1
 70
     1
 71
     1
  0
GROUP
  5
1965
102
{ACAD_REACTORS
330
D
102
}
330
D
100
AcDbGroup
300
Vite UNI 5933 M6X16
 70
     3
 71
     1
  0
GROUP
  5
32E
102
{ACAD_REACTORS
330
D
102
}
330
D
100
AcDbGroup
300

 70
     1
 71
     1
  0
GROUP
  5
1A2C
102
{ACAD_REACTORS
330
D
102
}
330
D
100
AcDbGroup
300

 70
     3
 71
     1
  0
GROUP
  5
1E3
102
{ACAD_REACTORS
330
D
102
}
330
D
100
AcDbGroup
300

 70
     1
 71
     1
  0
GROUP
  5
253
102
{ACAD_REACTORS
330
D
102
}
330
D
100
AcDbGroup
300
Vite UNI 5931 M8X25
 70
     1
 71
     1
  0
GROUP
  5
371
102
{ACAD_REACTORS
330
D
102
}
330
D
100
AcDbGroup
300

 70
     1
 71
     1
  0
GROUP
  5
33A
102
{ACAD_REACTORS
330
D
102
}
330
D
100
AcDbGroup
300

 70
     1
 71
     1
  0
GROUP
  5
194F
102
{ACAD_REACTORS
330
D
102
}
330
D
100
AcDbGroup
300

 70
     3
 71
     1
  0
GROUP
  5
19C8
102
{ACAD_REACTORS
330
D
102
}
330
D
100
AcDbGroup
300
Vite UNI 5933 M6X16
 70
     1
 71
     1
  0
GROUP
  5
2AB
102
{ACAD_REACTORS
330
D
102
}
330
D
100
AcDbGroup
300

 70
     3
 71
     1
  0
GROUP
  5
1955
102
{ACAD_REACTORS
330
D
102
}
330
D
100
AcDbGroup
300

 70
     3
 71
     1
  0
GROUP
  5
1D9
102
{ACAD_REACTORS
330
D
102
}
330
D
100
AcDbGroup
300

 70
     3
 71
     1
  0
GROUP
  5
3D5
102
{ACAD_REACTORS
330
D
102
}
330
D
100
AcDbGroup
300

 70
     3
 71
     1
  0
GROUP
  5
2FD
102
{ACAD_REACTORS
330
D
102
}
330
D
100
AcDbGroup
300

 70
     3
 71
     1
  0
GROUP
  5
260
102
{ACAD_REACTORS
330
D
102
}
330
D
100
AcDbGroup
300

 70
     3
 71
     1
  0
GROUP
  5
286
102
{ACAD_REACTORS
330
D
102
}
330
D
100
AcDbGroup
300

 70
     1
 71
     1
  0
GROUP
  5
262
102
{ACAD_REACTORS
330
D
102
}
330
D
100
AcDbGroup
300

 70
     3
 71
     1
  0
GROUP
  5
1A3E
102
{ACAD_REACTORS
330
D
102
}
330
D
100
AcDbGroup
300

 70
     1
 71
     1
  0
GROUP
  5
1A3F
102
{ACAD_REACTORS
330
D
102
}
330
D
100
AcDbGroup
300

 70
     1
 71
     1
  0
GROUP
  5
196E
102
{ACAD_REACTORS
330
D
102
}
330
D
100
AcDbGroup
300
Ghiera autofrenante M20x1
 70
     3
 71
     1
  0
GROUP
  5
29A
102
{ACAD_REACTORS
330
D
102
}
330
D
100
AcDbGroup
300
Vite UNI 5933 M6X16
 70
     3
 71
     1
  0
GROUP
  5
3BC
102
{ACAD_REACTORS
330
D
102
}
330
D
100
AcDbGroup
300

 70
     3
 71
     1
  0
GROUP
  5
370
102
{ACAD_REACTORS
330
D
102
}
330
D
100
AcDbGroup
300

 70
     3
 71
     1
  0
GROUP
  5
3AA
102
{ACAD_REACTORS
330
D
102
}
330
D
100
AcDbGroup
300

 70
     3
 71
     1
  0
GROUP
  5
320
102
{ACAD_REACTORS
330
D
102
}
330
D
100
AcDbGroup
300

 70
     3
 71
     1
  0
GROUP
  5
2CD
102
{ACAD_REACTORS
330
D
102
}
330
D
100
AcDbGroup
300

 70
     1
 71
     1
  0
GROUP
  5
1A03
102
{ACAD_REACTORS
330
D
102
}
330
D
100
AcDbGroup
300

 70
     3
 71
     1
  0
GROUP
  5
1C3
102
{ACAD_REACTORS
330
D
102
}
330
D
100
AcDbGroup
300

 70
     3
 71
     1
  0
GROUP
  5
22F
102
{ACAD_REACTORS
330
D
102
}
330
D
100
AcDbGroup
300

 70
     3
 71
     1
  0
GROUP
  5
198D
102
{ACAD_REACTORS
330
D
102
}
330
D
100
AcDbGroup
300

 70
     3
 71
     1
  0
GROUP
  5
36B
102
{ACAD_REACTORS
330
D
102
}
330
D
100
AcDbGroup
300

 70
     3
 71
     1
  0
GROUP
  5
1A40
102
{ACAD_REACTORS
330
D
102
}
330
D
100
AcDbGroup
300

 70
     3
 71
     1
  0
GROUP
  5
241
102
{ACAD_REACTORS
330
D
102
}
330
D
100
AcDbGroup
300

 70
     1
 71
     1
  0
GROUP
  5
2A6
102
{ACAD_REACTORS
330
D
102
}
330
D
100
AcDbGroup
300
Vite UNI 5931 M8X25
 70
     3
 71
     1
  0
GROUP
  5
3A8
102
{ACAD_REACTORS
330
D
102
}
330
D
100
AcDbGroup
300

 70
     3
 71
     1
  0
GROUP
  5
376
102
{ACAD_REACTORS
330
D
102
}
330
D
100
AcDbGroup
300

 70
     3
 71
     1
  0
GROUP
  5
1979
102
{ACAD_REACTORS
330
D
102
}
330
D
100
AcDbGroup
300

 70
     1
 71
     1
  0
GROUP
  5
2F5
102
{ACAD_REACTORS
330
D
102
}
330
D
100
AcDbGroup
300
Rosetta UNI 1751 A 6.1
 70
     1
 71
     1
  0
GROUP
  5
197F
102
{ACAD_REACTORS
330
D
102
}
330
D
100
AcDbGroup
300

 70
     1
 71
     1
  0
GROUP
  5
238
102
{ACAD_REACTORS
330
D
102
}
330
D
100
AcDbGroup
300

 70
     3
 71
     1
  0
GROUP
  5
1967
102
{ACAD_REACTORS
330
D
102
}
330
D
100
AcDbGroup
300
Vite UNI 5933 M6X16
 70
     3
 71
     1
  0
GROUP
  5
33F
102
{ACAD_REACTORS
330
D
102
}
330
D
100
AcDbGroup
300

 70
     1
 71
     1
  0
GROUP
  5
2B2
102
{ACAD_REACTORS
330
D
102
}
330
D
100
AcDbGroup
300

 70
     1
 71
     1
  0
GROUP
  5
2D4
102
{ACAD_REACTORS
330
D
102
}
330
D
100
AcDbGroup
300

 70
     1
 71
     1
  0
GROUP
  5
2B3
102
{ACAD_REACTORS
330
D
102
}
330
D
100
AcDbGroup
300

 70
     1
 71
     1
  0
GROUP
  5
1A51
102
{ACAD_REACTORS
330
D
102
}
330
D
100
AcDbGroup
300

 70
     3
 71
     1
  0
GROUP
  5
20B
102
{ACAD_REACTORS
330
D
102
}
330
D
100
AcDbGroup
300
Ghiera autofrenante M20x1
 70
     3
 71
     1
  0
GROUP
  5
2E5
102
{ACAD_REACTORS
330
D
102
}
330
D
100
AcDbGroup
300
Rosetta UNI 1751 A 6.1
 70
     1
 71
     1
  0
GROUP
  5
1950
102
{ACAD_REACTORS
330
D
102
}
330
D
100
AcDbGroup
300

 70
     1
 71
     1
  0
GROUP
  5
3A7
102
{ACAD_REACTORS
330
D
102
}
330
D
100
AcDbGroup
300

 70
     1
 71
     1
  0
GROUP
  5
3DB
102
{ACAD_REACTORS
330
D
102
}
330
D
100
AcDbGroup
300

 70
     3
 71
     1
  0
GROUP
  5
35E
102
{ACAD_REACTORS
330
D
102
}
330
D
100
AcDbGroup
300

 70
     1
 71
     1
  0
GROUP
  5
314
102
{ACAD_REACTORS
330
D
102
}
330
D
100
AcDbGroup
300

 70
     1
 71
     1
  0
GROUP
  5
1A1C
102
{ACAD_REACTORS
330
D
102
}
330
D
100
AcDbGroup
300

 70
     3
 71
     1
  0
GROUP
  5
224
102
{ACAD_REACTORS
330
D
102
}
330
D
100
AcDbGroup
300

 70
     3
 71
     1
  0
GROUP
  5
285
102
{ACAD_REACTORS
330
D
102
}
330
D
100
AcDbGroup
300

 70
     1
 71
     1
  0
GROUP
  5
1FB
102
{ACAD_REACTORS
330
D
102
}
330
D
100
AcDbGroup
300

 70
     3
 71
     1
  0
GROUP
  5
1A52
102
{ACAD_REACTORS
330
D
102
}
330
D
100
AcDbGroup
300

 70
     1
 71
     1
  0
GROUP
  5
295
102
{ACAD_REACTORS
330
D
102
}
330
D
100
AcDbGroup
300
Ghiera autofrenante M20x1
 70
     3
 71
     1
  0
GROUP
  5
2F0
102
{ACAD_REACTORS
330
D
102
}
330
D
100
AcDbGroup
300

 70
     1
 71
     1
  0
GROUP
  5
3D9
102
{ACAD_REACTORS
330
D
102
}
330
D
100
AcDbGroup
300

 70
     3
 71
     1
  0
GROUP
  5
1BE
102
{ACAD_REACTORS
330
D
102
}
330
D
100
AcDbGroup
300

 70
     3
 71
     1
  0
GROUP
  5
199F
102
{ACAD_REACTORS
330
D
102
}
330
D
100
AcDbGroup
300

 70
     3
 71
     1
  0
GROUP
  5
338
102
{ACAD_REACTORS
330
D
102
}
330
D
100
AcDbGroup
300

 70
     3
 71
     1
  0
GROUP
  5
19A5
102
{ACAD_REACTORS
330
D
102
}
330
D
100
AcDbGroup
300

 70
     3
 71
     1
  0
GROUP
  5
28D
102
{ACAD_REACTORS
330
D
102
}
330
D
100
AcDbGroup
300

 70
     1
 71
     1
  0
GROUP
  5
198F
102
{ACAD_REACTORS
330
D
102
}
330
D
100
AcDbGroup
300

 70
     1
 71
     1
  0
GROUP
  5
2FB
102
{ACAD_REACTORS
330
D
102
}
330
D
100
AcDbGroup
300

 70
     3
 71
     1
  0
GROUP
  5
31A
102
{ACAD_REACTORS
330
D
102
}
330
D
100
AcDbGroup
300

 70
     3
 71
     1
  0
GROUP
  5
2FC
102
{ACAD_REACTORS
330
D
102
}
330
D
100
AcDbGroup
300

 70
     3
 71
     1
  0
GROUP
  5
219
102
{ACAD_REACTORS
330
D
102
}
330
D
100
AcDbGroup
300

 70
     3
 71
     1
  0
GROUP
  5
265
102
{ACAD_REACTORS
330
D
102
}
330
D
100
AcDbGroup
300

 70
     1
 71
     1
  0
GROUP
  5
32A
102
{ACAD_REACTORS
330
D
102
}
330
D
100
AcDbGroup
300

 70
     1
 71
     1
  0
GROUP
  5
197A
102
{ACAD_REACTORS
330
D
102
}
330
D
100
AcDbGroup
300

 70
     3
 71
     1
  0
GROUP
  5
3D8
102
{ACAD_REACTORS
330
D
102
}
330
D
100
AcDbGroup
300

 70
     3
 71
     1
  0
GROUP
  5
196C
102
{ACAD_REACTORS
330
D
102
}
330
D
100
AcDbGroup
300

 70
     3
 71
     1
  0
GROUP
  5
397
102
{ACAD_REACTORS
330
D
102
}
330
D
100
AcDbGroup
300
Vite UNI 5931 M8X25
 70
     1
 71
     1
  0
GROUP
  5
1A33
102
{ACAD_REACTORS
330
D
102
}
330
D
100
AcDbGroup
300

 70
     1
 71
     1
  0
GROUP
  5
27C
102
{ACAD_REACTORS
330
D
102
}
330
D
100
AcDbGroup
300

 70
     3
 71
     1
  0
GROUP
  5
2D3
102
{ACAD_REACTORS
330
D
102
}
330
D
100
AcDbGroup
300

 70
     3
 71
     1
  0
GROUP
  5
257
102
{ACAD_REACTORS
330
D
102
}
330
D
100
AcDbGroup
300

 70
     3
 71
     1
  0
GROUP
  5
21A
102
{ACAD_REACTORS
330
D
102
}
330
D
100
AcDbGroup
300

 70
     3
 71
     1
  0
GROUP
  5
2E2
102
{ACAD_REACTORS
330
D
102
}
330
D
100
AcDbGroup
300

 70
     1
 71
     1
  0
GROUP
  5
334
102
{ACAD_REACTORS
330
D
102
}
330
D
100
AcDbGroup
300

 70
     3
 71
     1
  0
GROUP
  5
196B
102
{ACAD_REACTORS
330
D
102
}
330
D
100
AcDbGroup
300

 70
     1
 71
     1
  0
GROUP
  5
21F
102
{ACAD_REACTORS
330
D
102
}
330
D
100
AcDbGroup
300

 70
     1
 71
     1
  0
GROUP
  5
19C2
102
{ACAD_REACTORS
330
D
102
}
330
D
100
AcDbGroup
300

 70
     3
 71
     1
  0
GROUP
  5
19C7
102
{ACAD_REACTORS
330
D
102
}
330
D
100
AcDbGroup
300

 70
     3
 71
     1
  0
GROUP
  5
1D6
102
{ACAD_REACTORS
330
D
102
}
330
D
100
AcDbGroup
300

 70
     1
 71
     1
  0
GROUP
  5
19B3
102
{ACAD_REACTORS
330
D
102
}
330
D
100
AcDbGroup
300
Vite UNI 5933 M6X16
 70
     1
 71
     1
  0
GROUP
  5
33E
102
{ACAD_REACTORS
330
D
102
}
330
D
100
AcDbGroup
300

 70
     1
 71
     1
  0
GROUP
  5
359
102
{ACAD_REACTORS
330
D
102
}
330
D
100
AcDbGroup
300

 70
     1
 71
     1
  0
GROUP
  5
1E0
102
{ACAD_REACTORS
330
D
102
}
330
D
100
AcDbGroup
300
Vite UNI 5933 M6X16
 70
     3
 71
     1
  0
GROUP
  5
272
102
{ACAD_REACTORS
330
D
102
}
330
D
100
AcDbGroup
300

 70
     3
 71
     1
  0
GROUP
  5
2B6
102
{ACAD_REACTORS
330
D
102
}
330
D
100
AcDbGroup
300

 70
     3
 71
     1
  0
GROUP
  5
367
102
{ACAD_REACTORS
330
D
102
}
330
D
100
AcDbGroup
300
Vite UNI 5933 M6X16
 70
     1
 71
     1
  0
GROUP
  5
19A0
102
{ACAD_REACTORS
330
D
102
}
330
D
100
AcDbGroup
300

 70
     1
 71
     1
  0
GROUP
  5
1F8
102
{ACAD_REACTORS
330
D
102
}
330
D
100
AcDbGroup
300

 70
     1
 71
     1
  0
GROUP
  5
3CA
102
{ACAD_REACTORS
330
D
102
}
330
D
100
AcDbGroup
300

 70
     3
 71
     1
  0
GROUP
  5
1A47
102
{ACAD_REACTORS
330
D
102
}
330
D
100
AcDbGroup
300

 70
     1
 71
     1
  0
GROUP
  5
2CB
102
{ACAD_REACTORS
330
D
102
}
330
D
100
AcDbGroup
300
Vite UNI 5933 M6X16
 70
     3
 71
     1
  0
GROUP
  5
319
102
{ACAD_REACTORS
330
D
102
}
330
D
100
AcDbGroup
300

 70
     3
 71
     1
  0
GROUP
  5
2A9
102
{ACAD_REACTORS
330
D
102
}
330
D
100
AcDbGroup
300

 70
     3
 71
     1
  0
GROUP
  5
273
102
{ACAD_REACTORS
330
D
102
}
330
D
100
AcDbGroup
300

 70
     3
 71
     1
  0
GROUP
  5
327
102
{ACAD_REACTORS
330
D
102
}
330
D
100
AcDbGroup
300

 70
     3
 71
     1
  0
GROUP
  5
1E5
102
{ACAD_REACTORS
330
D
102
}
330
D
100
AcDbGroup
300

 70
     1
 71
     1
  0
GROUP
  5
1993
102
{ACAD_REACTORS
330
D
102
}
330
D
100
AcDbGroup
300

 70
     3
 71
     1
  0
GROUP
  5
19E5
102
{ACAD_REACTORS
330
D
102
}
330
D
100
AcDbGroup
300

 70
     1
 71
     1
  0
GROUP
  5
235
102
{ACAD_REACTORS
330
D
102
}
330
D
100
AcDbGroup
300

 70
     3
 71
     1
  0
GROUP
  5
19D4
102
{ACAD_REACTORS
330
D
102
}
330
D
100
AcDbGroup
300

 70
     3
 71
     1
  0
GROUP
  5
37A
102
{ACAD_REACTORS
330
D
102
}
330
D
100
AcDbGroup
300

 70
     3
 71
     1
  0
GROUP
  5
392
102
{ACAD_REACTORS
330
D
102
}
330
D
100
AcDbGroup
300

 70
     1
 71
     1
  0
GROUP
  5
23E
102
{ACAD_REACTORS
330
D
102
}
330
D
100
AcDbGroup
300

 70
     3
 71
     1
  0
GROUP
  5
2C2
102
{ACAD_REACTORS
330
D
102
}
330
D
100
AcDbGroup
300

 70
     1
 71
     1
  0
GROUP
  5
2FF
102
{ACAD_REACTORS
330
D
102
}
330
D
100
AcDbGroup
300

 70
     3
 71
     1
  0
GROUP
  5
39F
102
{ACAD_REACTORS
330
D
102
}
330
D
100
AcDbGroup
300
Vite UNI 5931 M8X25
 70
     3
 71
     1
  0
GROUP
  5
19C3
102
{ACAD_REACTORS
330
D
102
}
330
D
100
AcDbGroup
300
Vite UNI 5931 M8X25
 70
     1
 71
     1
  0
GROUP
  5
195D
102
{ACAD_REACTORS
330
D
102
}
330
D
100
AcDbGroup
300
Vite UNI 5933 M6X16
 70
     3
 71
     1
  0
GROUP
  5
210
102
{ACAD_REACTORS
330
D
102
}
330
D
100
AcDbGroup
300

 70
     3
 71
     1
  0
GROUP
  5
312
102
{ACAD_REACTORS
330
D
102
}
330
D
100
AcDbGroup
300

 70
     1
 71
     1
  0
GROUP
  5
358
102
{ACAD_REACTORS
330
D
102
}
330
D
100
AcDbGroup
300

 70
     3
 71
     1
  0
GROUP
  5
2F3
102
{ACAD_REACTORS
330
D
102
}
330
D
100
AcDbGroup
300

 70
     3
 71
     1
  0
GROUP
  5
2C3
102
{ACAD_REACTORS
330
D
102
}
330
D
100
AcDbGroup
300

 70
     3
 71
     1
  0
GROUP
  5
365
102
{ACAD_REACTORS
330
D
102
}
330
D
100
AcDbGroup
300

 70
     3
 71
     1
  0
GROUP
  5
243
102
{ACAD_REACTORS
330
D
102
}
330
D
100
AcDbGroup
300

 70
     3
 71
     1
  0
GROUP
  5
19B7
102
{ACAD_REACTORS
330
D
102
}
330
D
100
AcDbGroup
300
Vite UNI 5931 M8X25
 70
     1
 71
     1
  0
GROUP
  5
1A01
102
{ACAD_REACTORS
330
D
102
}
330
D
100
AcDbGroup
300

 70
     1
 71
     1
  0
GROUP
  5
19F1
102
{ACAD_REACTORS
330
D
102
}
330
D
100
AcDbGroup
300

 70
     1
 71
     1
  0
GROUP
  5
3AF
102
{ACAD_REACTORS
330
D
102
}
330
D
100
AcDbGroup
300

 70
     3
 71
     1
  0
GROUP
  5
3C5
102
{ACAD_REACTORS
330
D
102
}
330
D
100
AcDbGroup
300

 70
     1
 71
     1
  0
LAYOUT
  5
371E
102
{ACAD_XDICTIONARY
360
4691
102
}
102
{ACAD_REACTORS
330
371B
102
}
330
371B
100
AcDbPlotSettings
  1

  2
C:\Programmi\Acadm 6\plotters\Cadjet 2.pc3
  4

  6

 40
0.0
 41
0.0
 42
0.0
 43
0.0
 44
0.0
 45
0.0
 46
0.0
 47
0.0
 48
0.0
 49
0.0
140
0.0
141
0.0
142
1.0
143
1.0
 70
   688
 72
     0
 73
     0
 74
     5
  7
Tecno-Stamp.ctb
 75
    16
147
1.0
148
0.0
149
0.0
100
AcDbLayout
  1
Layout1
 70
     1
 71
     1
 10
0.0
 20
0.0
 11
420.0
 21
297.0
 12
0.0
 22
0.0
 32
0.0
 14
1.000000000000000E+20
 24
1.000000000000000E+20
 34
1.000000000000000E+20
 15
-1.000000000000000E+20
 25
-1.000000000000000E+20
 35
-1.000000000000000E+20
146
0.0
 13
0.0
 23
0.0
 33
0.0
 16
1.0
 26
0.0
 36
0.0
 17
0.0
 27
1.0
 37
0.0
 76
     0
330
15
  0
LAYOUT
  5
371D
102
{ACAD_XDICTIONARY
360
468F
102
}
102
{ACAD_REACTORS
330
371B
102
}
330
371B
100
AcDbPlotSettings
  1

  2
\\bdc\OCE 6450
  4
A3
  6

 40
3.174999952316284
 41
3.174999952316284
 42
3.17498779296875
 43
3.17498779296875
 44
297.0
 45
420.0
 46
0.0
 47
0.0
 48
0.0
 49
0.0
140
1485.0
141
1050.0
142
1.0
143
3.612592312846071
 70
 11952
 72
     1
 73
     1
 74
     4
  7
Tecno-Stamp.ctb
 75
     0
147
0.2768095354806809
148
0.0
149
0.0
100
AcDbLayout
  1
Model
 70
     1
 71
     0
 10
0.0
 20
0.0
 11
12.0
 21
9.0
 12
0.0
 22
0.0
 32
0.0
 14
0.0
 24
0.0
 34
0.0
 15
0.0
 25
0.0
 35
0.0
146
0.0
 13
0.0
 23
0.0
 33
0.0
 16
1.0
 26
0.0
 36
0.0
 17
0.0
 27
1.0
 37
0.0
 76
     0
330
18
331
4632
  0
MATERIAL
  5
4635
102
{ACAD_XDICTIONARY
360
4697
102
}
102
{ACAD_REACTORS
330
42C2
102
}
330
42C2
100
AcDbMaterial
  1
ByBlock
  0
MATERIAL
  5
4634
102
{ACAD_XDICTIONARY
360
4695
102
}
102
{ACAD_REACTORS
330
42C2
102
}
330
42C2
100
AcDbMaterial
  1
ByLayer
  0
MATERIAL
  5
4636
102
{ACAD_XDICTIONARY
360
4699
102
}
102
{ACAD_REACTORS
330
42C2
102
}
330
42C2
100
AcDbMaterial
  1
Global
  0
MLINESTYLE
  5
1C
102
{ACAD_REACTORS
330
1B
102
}
330
1B
100
AcDbMlineStyle
  2
STANDARD
 70
     0
  3

 62
   256
 51
90.0
 52
90.0
 71
     2
 49
0.5
 62
   256
  6
BYLAYER
 49
-0.5
 62
   256
  6
BYLAYER
  0
ACDBPLACEHOLDER
  5
371A
102
{ACAD_REACTORS
330
3719
102
}
330
3719
  0
TABLESTYLE
  5
42C5
102
{ACAD_XDICTIONARY
360
4693
102
}
102
{ACAD_REACTORS
330
42C4
102
}
330
42C4
100
AcDbTableStyle
  3
Standard
 70
     0
 71
     0
 40
1.5
 41
1.5
280
     0
281
     0
  7
STANDARD
140
4.5
170
     2
 62
     0
 63
     7
283
     0
274
    -2
284
     1
 64
     0
275
    -2
285
     1
 65
     0
276
    -2
286
     1
 66
     0
277
    -2
287
     1
 67
     0
278
    -2
288
     1
 68
     0
279
    -2
289
     1
 69
     0
  7
STANDARD
140
6.0
170
     5
 62
     0
 63
     7
283
     0
274
    -2
284
     1
 64
     0
275
    -2
285
     1
 65
     0
276
    -2
286
     1
 66
     0
277
    -2
287
     1
 67
     0
278
    -2
288
     1
 68
     0
279
    -2
289
     1
 69
     0
  7
STANDARD
140
4.5
170
     5
 62
     0
 63
     7
283
     0
274
    -2
284
     1
 64
     0
275
    -2
285
     1
 65
     0
276
    -2
286
     1
 66
     0
277
    -2
287
     1
 67
     0
278
    -2
288
     1
 68
     0
279
    -2
289
     1
 69
     0
  0
VISUALSTYLE
  5
463D
102
{ACAD_REACTORS
330
4637
102
}
330
4637
100
AcDbVisualStyle
  2
2dWireframe
 70
     4
 71
     0
 72
     2
 73
     0
 90
        0
 40
-0.6
 41
-30.0
 62
     5
 63
     7
 74
     1
 91
        4
 64
     7
 65
   257
 75
     1
175
     1
 42
1.0
 92
        0
 66
   257
 43
1.0
 76
     1
 77
     6
 78
     2
 67
     7
 79
     5
170
     0
171
     0
290
     0
174
     0
 93
        1
 44
0.0
173
     0
291
     0
 45
0.0
1001
ACAD
1000
AcDbSavedByObjectVersion
1070
     0
  0
VISUALSTYLE
  5
463C
102
{ACAD_REACTORS
330
4637
102
}
330
4637
100
AcDbVisualStyle
  2
Basic
 70
     7
 71
     1
 72
     0
 73
     1
 90
        0
 40
-0.6
 41
-30.0
 62
     5
 63
     7
 74
     0
 91
        4
 64
     7
 65
   257
 75
     1
175
     1
 42
1.0
 92
        8
 66
     7
 43
1.0
 76
     1
 77
     6
 78
     2
 67
     7
 79
     5
170
     0
171
     0
290
     0
174
     0
 93
        1
 44
0.0
173
     0
291
     1
 45
0.0
1001
ACAD
1000
AcDbSavedByObjectVersion
1070
     0
  0
VISUALSTYLE
  5
4643
102
{ACAD_REACTORS
330
4637
102
}
330
4637
100
AcDbVisualStyle
  2
Brighten
 70
    12
 71
     2
 72
     2
 73
     0
 90
        0
 40
-0.6
 41
-30.0
 62
     5
 63
     7
 74
     1
 91
        4
 64
     7
 65
   257
 75
     1
175
     1
 42
1.0
 92
        8
 66
     7
 43
1.0
 76
     1
 77
     6
 78
     2
 67
     7
 79
     5
170
     0
171
     0
290
     0
174
     0
 93
        1
 44
50.0
173
     0
291
     1
 45
0.0
1001
ACAD
1000
AcDbSavedByObjectVersion
1070
     0
  0
VISUALSTYLE
  5
4647
102
{ACAD_REACTORS
330
4637
102
}
330
4637
100
AcDbVisualStyle
  2
ColorChange
 70
    16
 71
     2
 72
     2
 73
     3
 90
        0
 40
-0.6
 41
-30.0
 62
     5
 63
     8
 74
     1
 91
        4
 64
     7
 65
   257
 75
     1
175
     1
 42
1.0
 92
        8
 66
     8
 43
1.0
 76
     1
 77
     6
 78
     2
 67
     7
 79
     5
170
     0
171
     0
290
     0
174
     0
 93
        1
 44
0.0
173
     0
291
     1
 45
0.0
1001
ACAD
1000
AcDbSavedByObjectVersion
1070
     0
  0
VISUALSTYLE
  5
4642
102
{ACAD_REACTORS
330
4637
102
}
330
4637
100
AcDbVisualStyle
  2
Dim
 70
    11
 71
     2
 72
     2
 73
     0
 90
        0
 40
-0.6
 41
-30.0
 62
     5
 63
     7
 74
     1
 91
        4
 64
     7
 65
   257
 75
     1
175
     1
 42
1.0
 92
        8
 66
     7
 43
1.0
 76
     1
 77
     6
 78
     2
 67
     7
 79
     5
170
     0
171
     0
290
     0
174
     0
 93
        1
 44
-50.0
173
     0
291
     1
 45
0.0
1001
ACAD
1000
AcDbSavedByObjectVersion
1070
     0
  0
VISUALSTYLE
  5
4646
102
{ACAD_REACTORS
330
4637
102
}
330
4637
100
AcDbVisualStyle
  2
Facepattern
 70
    15
 71
     2
 72
     2
 73
     0
 90
        0
 40
-0.6
 41
-30.0
 62
     5
 63
     7
 74
     1
 91
        4
 64
     7
 65
   257
 75
     1
175
     1
 42
1.0
 92
        8
 66
     7
 43
1.0
 76
     1
 77
     6
 78
     2
 67
     7
 79
     5
170
     0
171
     0
290
     0
174
     0
 93
        1
 44
0.0
173
     0
291
     1
 45
0.0
1001
ACAD
1000
AcDbSavedByObjectVersion
1070
     0
  0
VISUALSTYLE
  5
4638
102
{ACAD_REACTORS
330
4637
102
}
330
4637
100
AcDbVisualStyle
  2
Flat
 70
     0
 71
     2
 72
     1
 73
     1
 90
        2
 40
-0.6
 41
30.0
 62
     5
 63
     7
 74
     0
 91
        4
 64
     7
 65
   257
 75
     1
175
     1
 42
1.0
 92
        8
 66
     7
 43
1.0
 76
     1
 77
     6
 78
     2
 67
     7
 79
     5
170
     0
171
     0
290
     0
174
     0
 93
       13
 44
0.0
173
     0
291
     1
 45
0.0
1001
ACAD
1000
AcDbSavedByObjectVersion
1070
     0
  0
VISUALSTYLE
  5
4639
102
{ACAD_REACTORS
330
4637
102
}
330
4637
100
AcDbVisualStyle
  2
FlatWithEdges
 70
     1
 71
     2
 72
     1
 73
     1
 90
        2
 40
-0.6
 41
30.0
 62
     5
 63
     7
 74
     1
 91
        4
 64
     7
 65
   257
 75
     1
175
     1
 42
1.0
 92
        0
 66
   257
 43
1.0
 76
     1
 77
     6
 78
     2
 67
     7
 79
     5
170
     0
171
     0
290
     0
174
     0
 93
       13
 44
0.0
173
     0
291
     1
 45
0.0
1001
ACAD
1000
AcDbSavedByObjectVersion
1070
     0
  0
VISUALSTYLE
  5
463A
102
{ACAD_REACTORS
330
4637
102
}
330
4637
100
AcDbVisualStyle
  2
Gouraud
 70
     2
 71
     2
 72
     2
 73
     1
 90
        2
 40
-0.6
 41
30.0
 62
     5
 63
     7
 74
     0
 91
        4
 64
     7
 65
   257
 75
     1
175
     1
 42
1.0
 92
        0
 66
     7
 43
1.0
 76
     1
 77
     6
 78
     2
 67
     7
 79
     5
170
     0
171
     0
290
     0
174
     0
 93
       13
 44
0.0
173
     0
291
     1
 45
0.0
1001
ACAD
1000
AcDbSavedByObjectVersion
1070
     0
  0
VISUALSTYLE
  5
463B
102
{ACAD_REACTORS
330
4637
102
}
330
4637
100
AcDbVisualStyle
  2
GouraudWithEdges
 70
     3
 71
     2
 72
     2
 73
     1
 90
        2
 40
-0.6
 41
30.0
 62
     5
 63
     7
 74
     1
 91
        4
 64
     7
 65
   257
 75
     1
175
     1
 42
1.0
 92
        0
 66
   257
 43
1.0
 76
     1
 77
     6
 78
     2
 67
     7
 79
     5
170
     0
171
     0
290
     0
174
     0
 93
       13
 44
0.0
173
     0
291
     1
 45
0.0
1001
ACAD
1000
AcDbSavedByObjectVersion
1070
     0
  0
VISUALSTYLE
  5
4645
102
{ACAD_REACTORS
330
4637
102
}
330
4637
100
AcDbVisualStyle
  2
Linepattern
 70
    14
 71
     2
 72
     2
 73
     0
 90
        0
 40
-0.6
 41
-30.0
 62
     5
 63
     7
 74
     1
 91
        4
 64
     7
 65
   257
 75
     7
175
     7
 42
1.0
 92
        8
 66
     7
 43
1.0
 76
     1
 77
     6
 78
     2
 67
     7
 79
     5
170
     0
171
     0
290
     0
174
     0
 93
        1
 44
0.0
173
     0
291
     1
 45
0.0
1001
ACAD
1000
AcDbSavedByObjectVersion
1070
     0
  0
VISUALSTYLE
  5
4644
102
{ACAD_REACTORS
330
4637
102
}
330
4637
100
AcDbVisualStyle
  2
Thicken
 70
    13
 71
     2
 72
     2
 73
     0
 90
        0
 40
-0.6
 41
-30.0
 62
     5
 63
     7
 74
     1
 91
        4
 64
     7
 65
   257
 75
     1
175
     1
 42
1.0
 92
       12
 66
     7
 43
1.0
 76
     1
 77
     6
 78
     2
 67
     7
 79
     5
170
     0
171
     0
290
     0
174
     0
 93
        1
 44
0.0
173
     0
291
     1
 45
0.0
1001
ACAD
1000
AcDbSavedByObjectVersion
1070
     0
  0
DICTIONARYVAR
  5
433B
102
{ACAD_REACTORS
330
377F
102
}
330
377F
100
DictionaryVariables
280
     0
  1
STANDARD
  0
DICTIONARYVAR
  5
3781
102
{ACAD_REACTORS
330
377F
102
}
330
377F
100
DictionaryVariables
280
     0
  1
1
  0
DICTIONARYVAR
  5
3780
102
{ACAD_REACTORS
330
377F
102
}
330
377F
100
DictionaryVariables
280
     0
  1
0
  0
DICTIONARYVAR
  5
468D
102
{ACAD_REACTORS
330
377F
102
}
330
377F
100
DictionaryVariables
280
     0
  1
127
  0
DICTIONARY
  5
3743
102
{ACAD_REACTORS
330
373D
102
}
330
373D
100
AcDbDictionary
281
     1
  0
XRECORD
  5
4313
102
{ACAD_REACTORS
330
373D
102
}
330
373D
100
AcDbXrecord
280
     1
 90
-1023410169
  0
DICTIONARY
  5
4691
330
371E
100
AcDbDictionary
280
     1
281
     1
  3
ACAD_XREC_ROUNDTRIP
360
4692
  0
DICTIONARY
  5
468F
330
371D
100
AcDbDictionary
280
     1
281
     1
  3
ACAD_XREC_ROUNDTRIP
360
4690
  0
DICTIONARY
  5
4697
330
4635
100
AcDbDictionary
280
     1
281
     1
  3
ACAD_XREC_ROUNDTRIP
360
4698
  0
DICTIONARY
  5
4695
330
4634
100
AcDbDictionary
280
     1
281
     1
  3
ACAD_XREC_ROUNDTRIP
360
4696
  0
DICTIONARY
  5
4699
330
4636
100
AcDbDictionary
280
     1
281
     1
  3
ACAD_XREC_ROUNDTRIP
360
469A
  0
DICTIONARY
  5
4693
330
42C5
100
AcDbDictionary
280
     1
281
     1
  3
ACAD_XREC_ROUNDTRIP
360
4694
  0
XRECORD
  5
4692
102
{ACAD_REACTORS
330
4691
102
}
330
4691
100
AcDbXrecord
280
     1
102
SHADEPLOT
 70
     0
102
SHADEPLOTRESLEVEL
 70
     2
102
SHADEPLOTCUSTOMDPI
 70
   300
  0
XRECORD
  5
4690
102
{ACAD_REACTORS
330
468F
102
}
330
468F
100
AcDbXrecord
280
     1
102
SHADEPLOT
 70
     0
102
SHADEPLOTRESLEVEL
 70
     2
102
SHADEPLOTCUSTOMDPI
 70
   300
  0
XRECORD
  5
4698
102
{ACAD_REACTORS
330
4697
102
}
330
4697
100
AcDbXrecord
280
     1
102
MATERIAL
148
0.0
149
0.0
149
0.0
 93
        0
 94
       63
282
     0
 72
     1
 77
     1
171
     1
175
     1
179
     1
273
     0
  0
XRECORD
  5
4696
102
{ACAD_REACTORS
330
4695
102
}
330
4695
100
AcDbXrecord
280
     1
102
MATERIAL
148
0.0
149
0.0
149
0.0
 93
        0
 94
       63
282
     0
 72
     1
 77
     1
171
     1
175
     1
179
     1
273
     0
  0
XRECORD
  5
469A
102
{ACAD_REACTORS
330
4699
102
}
330
4699
100
AcDbXrecord
280
     1
102
MATERIAL
148
0.0
149
0.0
149
0.0
 93
        0
 94
       63
282
     0
 72
     1
 77
     1
171
     1
175
     1
179
     1
273
     0
  0
XRECORD
  5
4694
102
{ACAD_REACTORS
330
4693
102
}
330
4693
100
AcDbXrecord
280
     1
102
ACAD_ROUNDTRIP_PRE2007_TABLESTYLE
 90
        4
 91
        0
  1

 92
        4
 93
        0
  2

 94
        4
 95
        0
  3

  0
ENDSEC
  0
EOF
