  0
SECTION
  2
HEADER
  9
$ACADVER
  1
AC1015
  9
$ACADMAINTVER
 70
    20
  9
$DWGCODEPAGE
  3
ANSI_1252
  9
$INSBASE
 10
-726.4630818137338
 20
4569.850271072635
 30
0.0
  9
$EXTMIN
 10
2808.042343248552
 20
4157.332943003813
 30
-0.0000000000000129
  9
$EXTMAX
 10
2940.8983777752
 20
4375.783134791254
 30
0.0000000000000023
  9
$LIMMIN
 10
2793.7170736713
 20
4146.368863502157
  9
$LIMMAX
 10
2950.007310807929
 20
4380.974804266264
  9
$ORTHOMODE
 70
     1
  9
$REGENMODE
 70
     1
  9
$FILLMODE
 70
     1
  9
$QTEXTMODE
 70
     0
  9
$MIRRTEXT
 70
     1
  9
$LTSCALE
 40
25.0
  9
$ATTMODE
 70
     1
  9
$TEXTSIZE
 40
0.2
  9
$TRACEWID
 40
1.0
  9
$TEXTSTYLE
  7
SIMPLEX
  9
$CLAYER
  8
DISEGNO
  9
$CELTYPE
  6
BYLAYER
  9
$CECOLOR
 62
   256
  9
$CELTSCALE
 40
1.0
  9
$DISPSILH
 70
     0
  9
$DIMSCALE
 40
1.0
  9
$DIMASZ
 40
2.5
  9
$DIMEXO
 40
1.0
  9
$DIMDLI
 40
7.0
  9
$DIMRND
 40
0.0
  9
$DIMDLE
 40
0.0
  9
$DIMEXE
 40
1.0
  9
$DIMTP
 40
0.1
  9
$DIMTM
 40
0.1
  9
$DIMTXT
 40
3.5
  9
$DIMCEN
 40
0.0
  9
$DIMTSZ
 40
0.0
  9
$DIMTOL
 70
     0
  9
$DIMLIM
 70
     0
  9
$DIMTIH
 70
     0
  9
$DIMTOH
 70
     0
  9
$DIMSE1
 70
     0
  9
$DIMSE2
 70
     0
  9
$DIMTAD
 70
     1
  9
$DIMZIN
 70
     8
  9
$DIMBLK
  1

  9
$DIMASO
 70
     1
  9
$DIMSHO
 70
     1
  9
$DIMPOST
  1
<>
  9
$DIMAPOST
  1

  9
$DIMALT
 70
     0
  9
$DIMALTD
 70
     2
  9
$DIMALTF
 40
0.0393701
  9
$DIMLFAC
 40
1.0
  9
$DIMTOFL
 70
     1
  9
$DIMTVP
 40
0.0
  9
$DIMTIX
 70
     0
  9
$DIMSOXD
 70
     0
  9
$DIMSAH
 70
     0
  9
$DIMBLK1
  1

  9
$DIMBLK2
  1

  9
$DIMSTYLE
  2
GEN-ISO
  9
$DIMCLRD
 70
     0
  9
$DIMCLRE
 70
     0
  9
$DIMCLRT
 70
     0
  9
$DIMTFAC
 40
0.71
  9
$DIMGAP
 40
0.6
  9
$DIMJUST
 70
     0
  9
$DIMSD1
 70
     0
  9
$DIMSD2
 70
     0
  9
$DIMTOLJ
 70
     0
  9
$DIMTZIN
 70
     0
  9
$DIMALTZ
 70
     0
  9
$DIMALTTZ
 70
     0
  9
$DIMUPT
 70
     0
  9
$DIMDEC
 70
     2
  9
$DIMTDEC
 70
     3
  9
$DIMALTU
 70
     2
  9
$DIMALTTD
 70
     4
  9
$DIMTXSTY
  7
STANDARD
  9
$DIMAUNIT
 70
     0
  9
$DIMADEC
 70
     0
  9
$DIMALTRND
 40
0.0
  9
$DIMAZIN
 70
     0
  9
$DIMDSEP
 70
    46
  9
$DIMATFIT
 70
     3
  9
$DIMFRAC
 70
     0
  9
$DIMLDRBLK
  1

  9
$DIMLUNIT
 70
     2
  9
$DIMLWD
 70
    -2
  9
$DIMLWE
 70
    -2
  9
$DIMTMOVE
 70
     0
  9
$LUNITS
 70
     2
  9
$LUPREC
 70
     2
  9
$SKETCHINC
 40
1.0
  9
$FILLETRAD
 40
12.5
  9
$AUNITS
 70
     0
  9
$AUPREC
 70
     0
  9
$MENU
  1
.
  9
$ELEVATION
 40
0.0
  9
$PELEVATION
 40
0.0
  9
$THICKNESS
 40
0.0
  9
$LIMCHECK
 70
     0
  9
$CHAMFERA
 40
12.5
  9
$CHAMFERB
 40
12.5
  9
$CHAMFERC
 40
20.0
  9
$CHAMFERD
 40
0.0
  9
$SKPOLY
 70
     0
  9
$TDCREATE
 40
2451487.429802894
  9
$TDUCREATE
 40
2451487.346469560
  9
$TDUPDATE
 40
2454372.404413275
  9
$TDUUPDATE
 40
2454372.321079942
  9
$TDINDWG
 40
9.1490386227
  9
$TDUSRTIMER
 40
9.1490386227
  9
$USRTIMER
 70
     1
  9
$ANGBASE
 50
0.0
  9
$ANGDIR
 70
     0
  9
$PDMODE
 70
     0
  9
$PDSIZE
 40
0.0
  9
$PLINEWID
 40
0.0
  9
$SPLFRAME
 70
     0
  9
$SPLINETYPE
 70
     6
  9
$SPLINESEGS
 70
     8
  9
$HANDSEED
  5
2260A
  9
$SURFTAB1
 70
     6
  9
$SURFTAB2
 70
     6
  9
$SURFTYPE
 70
     6
  9
$SURFU
 70
     6
  9
$SURFV
 70
     6
  9
$UCSBASE
  2

  9
$UCSNAME
  2

  9
$UCSORG
 10
460.540300000009
 20
2535.461804021347
 30
0.0
  9
$UCSXDIR
 10
1.0
 20
0.0
 30
0.0
  9
$UCSYDIR
 10
0.0
 20
1.0
 30
0.0
  9
$UCSORTHOREF
  2

  9
$UCSORTHOVIEW
 70
     0
  9
$UCSORGTOP
 10
0.0
 20
0.0
 30
0.0
  9
$UCSORGBOTTOM
 10
0.0
 20
0.0
 30
0.0
  9
$UCSORGLEFT
 10
0.0
 20
0.0
 30
0.0
  9
$UCSORGRIGHT
 10
0.0
 20
0.0
 30
0.0
  9
$UCSORGFRONT
 10
0.0
 20
0.0
 30
0.0
  9
$UCSORGBACK
 10
0.0
 20
0.0
 30
0.0
  9
$PUCSBASE
  2

  9
$PUCSNAME
  2

  9
$PUCSORG
 10
0.0
 20
0.0
 30
0.0
  9
$PUCSXDIR
 10
1.0
 20
0.0
 30
0.0
  9
$PUCSYDIR
 10
0.0
 20
1.0
 30
0.0
  9
$PUCSORTHOREF
  2

  9
$PUCSORTHOVIEW
 70
     0
  9
$PUCSORGTOP
 10
0.0
 20
0.0
 30
0.0
  9
$PUCSORGBOTTOM
 10
0.0
 20
0.0
 30
0.0
  9
$PUCSORGLEFT
 10
0.0
 20
0.0
 30
0.0
  9
$PUCSORGRIGHT
 10
0.0
 20
0.0
 30
0.0
  9
$PUCSORGFRONT
 10
0.0
 20
0.0
 30
0.0
  9
$PUCSORGBACK
 10
0.0
 20
0.0
 30
0.0
  9
$USERI1
 70
     0
  9
$USERI2
 70
     0
  9
$USERI3
 70
     0
  9
$USERI4
 70
     0
  9
$USERI5
 70
     0
  9
$USERR1
 40
5.0
  9
$USERR2
 40
0.0
  9
$USERR3
 40
0.0
  9
$USERR4
 40
0.0
  9
$USERR5
 40
0.0
  9
$WORLDVIEW
 70
     1
  9
$SHADEDGE
 70
     3
  9
$SHADEDIF
 70
    70
  9
$TILEMODE
 70
     1
  9
$MAXACTVP
 70
    48
  9
$PINSBASE
 10
0.0
 20
0.0
 30
0.0
  9
$PLIMCHECK
 70
     0
  9
$PEXTMIN
 10
1.000000000000000E+20
 20
1.000000000000000E+20
 30
1.000000000000000E+20
  9
$PEXTMAX
 10
-1.000000000000000E+20
 20
-1.000000000000000E+20
 30
-1.000000000000000E+20
  9
$PLIMMIN
 10
0.0
 20
0.0
  9
$PLIMMAX
 10
420.0
 20
297.0
  9
$UNITMODE
 70
     0
  9
$VISRETAIN
 70
     1
  9
$PLINEGEN
 70
     0
  9
$PSLTSCALE
 70
     1
  9
$TREEDEPTH
 70
  3020
  9
$CMLSTYLE
  2
STANDARD
  9
$CMLJUST
 70
     0
  9
$CMLSCALE
 40
20.0
  9
$PROXYGRAPHICS
 70
     1
  9
$MEASUREMENT
 70
     1
  9
$CELWEIGHT
370
    -1
  9
$ENDCAPS
280
     0
  9
$JOINSTYLE
280
     0
  9
$LWDISPLAY
290
     0
  9
$INSUNITS
 70
     4
  9
$HYPERLINKBASE
  1

  9
$STYLESHEET
  1
Tecno-stam.ctb
  9
$XEDIT
290
     1
  9
$CEPSNTYPE
380
     0
  9
$PSTYLEMODE
290
     1
  9
$FINGERPRINTGUID
  2
{A286E915-AAD7-4775-AA79-2463924F207D}
  9
$VERSIONGUID
  2
{CBD8EDF4-E909-4F64-A951-9B4FDA6998E6}
  9
$EXTNAMES
290
     1
  9
$PSVPSCALE
 40
0.0
  9
$OLESTARTUP
290
     0
  0
ENDSEC
  0
SECTION
  2
CLASSES
  0
CLASS
  1
LWPOLYLINE
  2
AcDbPolyline
  3
ObjectDBX Classes
 90
        0
280
     0
281
     1
  0
CLASS
  1
HATCH
  2
AcDbHatch
  3
ObjectDBX Classes
 90
    32768
280
     0
281
     1
  0
CLASS
  1
DICTIONARYVAR
  2
AcDbDictionaryVar
  3
ObjectDBX Classes
 90
        0
280
     0
281
     0
  0
CLASS
  1
ACDBDICTIONARYWDFLT
  2
AcDbDictionaryWithDefault
  3
ObjectDBX Classes
 90
        0
280
     0
281
     0
  0
CLASS
  1
ACDBPLACEHOLDER
  2
AcDbPlaceHolder
  3
ObjectDBX Classes
 90
        0
280
     0
281
     0
  0
CLASS
  1
LAYOUT
  2
AcDbLayout
  3
ObjectDBX Classes
 90
        0
280
     0
281
     0
  0
CLASS
  1
ACME_DOCUMENT
  2
AcMeDbDoc
  3
AcMeServices
 90
        0
280
     0
281
     0
  0
CLASS
  1
AMGSETTINGSOBJ
  2
AmgSettingsObj
  3
"AcadM|Product Description: AutoCAD Mechanical|Company: Autodesk"
 90
        0
280
     0
281
     0
  0
CLASS
  1
ACMESCOPE
  2
AcMeScope
  3
AcMeServices
 90
        0
280
     0
281
     0
  0
CLASS
  1
ACMECOMMANDHISTORY
  2
AcMeCommandHistory
  3
AcMeServices
 90
        0
280
     0
281
     0
  0
CLASS
  1
ACIMSYSVARMAN
  2
AcImSysVarManager
  3
AcMeServices
 90
        0
280
     0
281
     0
  0
CLASS
  1
ACIMREALSYSVAR
  2
AcImRealSysVar
  3
AcMeServices
 90
        0
280
     0
281
     0
  0
CLASS
  1
ACIMINTSYSVAR
  2
AcImIntSysVar
  3
AcMeServices
 90
        0
280
     0
281
     0
  0
CLASS
  1
ACMEDRAWINGMAN
  2
AcMeDrawingMan
  3
AcMeServices
 90
        0
280
     0
281
     0
  0
CLASS
  1
ACMEVIEW
  2
AcMeView
  3
AcMeServices
 90
        0
280
     0
281
     0
  0
CLASS
  1
ACDBENTITYCACHE
  2
AcMeEntityCache
  3
AcMeServices
 90
        0
280
     0
281
     0
  0
CLASS
  1
GSMANAGER
  2
AcMeGSManager
  3
AcMeServices
 90
        0
280
     0
281
     0
  0
CLASS
  1
AMDTINTERNALREACTOR
  2
AmdtInternalReactor
  3
AcMeServices
 90
        0
280
     0
281
     0
  0
CLASS
  1
ACMESTATEMGR
  2
AcMeStateMgr
  3
AcMeServices
 90
        0
280
     0
281
     0
  0
CLASS
  1
ACGREFMASTER
  2
AcGrefMaster
  3
AcAttribServices
 90
        0
280
     0
281
     0
  0
CLASS
  1
ACME_DATABASE
  2
AcMeDbDatabase
  3
AcMeServices
 90
        0
280
     0
281
     0
  0
CLASS
  1
ACRFINSADJUSTERMGR
  2
AcRfInsAdjusterMgr
  3
AcMeServices
 90
        0
280
     0
281
     0
  0
CLASS
  1
ACGREFACADMASTER
  2
AcGrefacadMaster
  3
AcGrefServices
 90
        0
280
     0
281
     0
  0
CLASS
  1
AMIMASTER
  2
AmiMaster
  3
AmiServices
 90
        0
280
     0
281
     0
  0
CLASS
  1
ACMDATADICTIONARY
  2
AcmDataDictionary
  3
"AcmSymBB|Product Description: AutoCAD Mechanical|Company: Autodesk"
 90
        0
280
     0
281
     0
  0
CLASS
  1
ACMDATAENTRYBLOCK
  2
AcmDataEntryBlock
  3
"AcmSymBB|Product Description: AutoCAD Mechanical|Company: Autodesk"
 90
        0
280
     0
281
     0
  0
CLASS
  1
ACIMSTRSYSVAR
  2
AcImStrSysVar
  3
AcMeServices
 90
        0
280
     0
281
     0
  0
CLASS
  1
ACMSTANDARDANSI
  2
AcmStandardANSI
  3
"Amdt_StdImp|Product Description: AutoCAD Mechanical|Company: Autodesk"
 90
        0
280
     0
281
     0
  0
CLASS
  1
AMGOBJPROPCFG
  2
AmgObjPropCfg
  3
"AmgLay|Product Description: AutoCAD Mechanical|Company: Autodesk"
 90
        1
280
     0
281
     0
  0
CLASS
  1
ACMSURFSTANDARDANSI
  2
AcmSurfTextStdANSI
  3
"Amdt_StdImp|Product Description: AutoCAD Mechanical|Company: Autodesk"
 90
        0
280
     0
281
     0
  0
CLASS
  1
ACMFCFSTANDARDANSI
  2
AcmFCFStdANSI
  3
"Amdt_StdImp|Product Description: AutoCAD Mechanical|Company: Autodesk"
 90
        0
280
     0
281
     0
  0
CLASS
  1
ACMWELDSTANDARDANSI
  2
AcmWeldingStdANSI
  3
"Amdt_StdImp|Product Description: AutoCAD Mechanical|Company: Autodesk"
 90
        0
280
     0
281
     0
  0
CLASS
  1
ACMIDSTANDARDANSI
  2
AcmIdStdANSI
  3
"Amdt_StdImp|Product Description: AutoCAD Mechanical|Company: Autodesk"
 90
        0
280
     0
281
     0
  0
CLASS
  1
ACMDATUMSTANDARDANSI
  2
AcmDatumStdANSI
  3
"Amdt_StdImp|Product Description: AutoCAD Mechanical|Company: Autodesk"
 90
        0
280
     0
281
     0
  0
CLASS
  1
ACMBOMSTANDARDANSI
  2
AcmBOMStdANSI
  3
"Amdt_StdImp|Product Description: AutoCAD Mechanical|Company: Autodesk"
 90
        0
280
     0
281
     0
  0
CLASS
  1
ACMDETAILSTANDARDANSI
  2
AmdtDetailSymStdANSI
  3
"Amdt_StdImp|Product Description: AutoCAD Mechanical|Company: Autodesk"
 90
        0
280
     0
281
     0
  0
CLASS
  1
ACMSECTIONSTANDARDANSI
  2
AmdtSectionSymStdANSI
  3
"Amdt_StdImp|Product Description: AutoCAD Mechanical|Company: Autodesk"
 90
        0
280
     0
281
     0
  0
CLASS
  1
ACMCENTERLINESTANDARDANSI
  2
AmdtCenterLineStdANSI
  3
"Amdt_StdImp|Product Description: AutoCAD Mechanical|Company: Autodesk"
 90
        0
280
     0
281
     0
  0
CLASS
  1
ACMNOTESTANDARDANSI
  2
AmdtNoteStdANSI
  3
"Amdt_StdImp|Product Description: AutoCAD Mechanical|Company: Autodesk"
 90
        0
280
     0
281
     0
  0
CLASS
  1
ACAMGLAYSTD
  2
AcAmgLayStd
  3
"AmgLay|Product Description: AutoCAD Mechanical|Company: Autodesk"
 90
        0
280
     0
281
     0
  0
CLASS
  1
ACAMGDIMSTD
  2
AcAmgDimStd
  3
"AmgDim|Product Description: AutoCAD Mechanical|Company: Autodesk"
 90
        0
280
     0
281
     0
  0
CLASS
  1
ACAMGHOLECHARTSTDANSI
  2
AcAmgHoleChartStdANSI
  3
ACMSYMBB_MODULE_NAME
 90
        0
280
     0
281
     0
  0
CLASS
  1
ACAMGTITLESTD
  2
AcAmgTitleStd
  3
"AmgTitle|Product Description: AutoCAD Mechanical|Company: Autodesk"
 90
        0
280
     0
281
     0
  0
CLASS
  1
LAYER_INDEX
  2
AcDbLayerIndex
  3
ObjectDBX Classes
 90
        0
280
     0
281
     0
  0
CLASS
  1
IDBUFFER
  2
AcDbIdBuffer
  3
ObjectDBX Classes
 90
        0
280
     0
281
     0
  0
CLASS
  1
LONG_TRANSACTION
  2
AcDbLongTransaction
  3
ObjectDBX Classes
 90
    32768
280
     0
281
     0
  0
CLASS
  1
LWPOLYLINE
  2
AcDbPolyline
  3
ObjectDBX Classes
 90
        0
280
     0
281
     1
  0
CLASS
  1
HATCH
  2
AcDbHatch
  3
ObjectDBX Classes
 90
    32768
280
     0
281
     1
  0
CLASS
  1
XRECORD
  2
AcDbXrecord
  3
ObjectDBX Classes
 90
        0
280
     0
281
     0
  0
CLASS
  1
ACAMGFILTERDAT
  2
AcAmgFilterDat
  3
"AcadM|Product Description: AutoCAD Mechanical|Company: Autodesk"
 90
    32768
280
     0
281
     0
  0
CLASS
  1
ACMSTANDARDISO
  2
AcmStandardISO
  3
"Amdt_StdImp|Product Description: AutoCAD Mechanical|Company: Autodesk"
 90
        0
280
     0
281
     0
  0
CLASS
  1
AMDTEDGESTANDARDISO
  2
AmdtEdgeStdISO
  3
"Amdt_StdImp|Product Description: AutoCAD Mechanical|Company: Autodesk"
 90
        0
280
     0
281
     0
  0
CLASS
  1
ACMSURFSTANDARDISO
  2
AcmSurfTextStdISO
  3
"Amdt_StdImp|Product Description: AutoCAD Mechanical|Company: Autodesk"
 90
        0
280
     0
281
     0
  0
CLASS
  1
ACMFCFSTANDARDISO
  2
AcmFCFStdISO
  3
"Amdt_StdImp|Product Description: AutoCAD Mechanical|Company: Autodesk"
 90
        0
280
     0
281
     0
  0
CLASS
  1
ACMWELDSTANDARDISO
  2
AcmWeldingStdISO
  3
"Amdt_StdImp|Product Description: AutoCAD Mechanical|Company: Autodesk"
 90
        0
280
     0
281
     0
  0
CLASS
  1
ACMIDSTANDARDISO
  2
AcmIdStdISO
  3
"Amdt_StdImp|Product Description: AutoCAD Mechanical|Company: Autodesk"
 90
        0
280
     0
281
     0
  0
CLASS
  1
ACMDATUMSTANDARDISO
  2
AcmDatumStdISO
  3
"Amdt_StdImp|Product Description: AutoCAD Mechanical|Company: Autodesk"
 90
        0
280
     0
281
     0
  0
CLASS
  1
ACMBOMSTANDARDISO
  2
AcmBOMStdISO
  3
"Amdt_StdImp|Product Description: AutoCAD Mechanical|Company: Autodesk"
 90
        0
280
     0
281
     0
  0
CLASS
  1
ACMDETAILSTANDARDISO
  2
AmdtDetailSymStdISO
  3
"Amdt_StdImp|Product Description: AutoCAD Mechanical|Company: Autodesk"
 90
        0
280
     0
281
     0
  0
CLASS
  1
ACMSECTIONSTANDARDISO
  2
AmdtSectionSymStdISO
  3
"Amdt_StdImp|Product Description: AutoCAD Mechanical|Company: Autodesk"
 90
        0
280
     0
281
     0
  0
CLASS
  1
ACMCENTERLINESTANDARDISO
  2
AmdtCenterLineStdISO
  3
"Amdt_StdImp|Product Description: AutoCAD Mechanical|Company: Autodesk"
 90
        0
280
     0
281
     0
  0
CLASS
  1
ACMNOTESTANDARDISO
  2
AmdtNoteStdISO
  3
"Amdt_StdImp|Product Description: AutoCAD Mechanical|Company: Autodesk"
 90
        0
280
     0
281
     0
  0
CLASS
  1
ACAMGHOLECHARTSTDISO
  2
AcAmgHoleChartStdISO
  3
ACMSYMBB_MODULE_NAME
 90
        0
280
     0
281
     0
  0
CLASS
  1
AMDTFORMULAUPDATEDISPATCHER
  2
AmdtFormulaUpdateDispatcher
  3
AcMeServices
 90
        0
280
     0
281
     0
  0
CLASS
  1
LONG_TRANSACTION
  2
AcDbLongTransaction
  3
ObjectDBX Classes
 90
    32768
280
     0
281
     0
  0
CLASS
  1
LWPOLYLINE
  2
AcDbPolyline
  3
ObjectDBX Classes
 90
        0
280
     0
281
     1
  0
CLASS
  1
HATCH
  2
AcDbHatch
  3
ObjectDBX Classes
 90
    32768
280
     0
281
     1
  0
CLASS
  1
XRECORD
  2
AcDbXrecord
  3
ObjectDBX Classes
 90
        0
280
     0
281
     0
  0
CLASS
  1
LONG_TRANSACTION
  2
AcDbLongTransaction
  3
ObjectDBX Classes
 90
    32768
280
     0
281
     0
  0
CLASS
  1
LWPOLYLINE
  2
AcDbPolyline
  3
ObjectDBX Classes
 90
        0
280
     0
281
     1
  0
CLASS
  1
HATCH
  2
AcDbHatch
  3
ObjectDBX Classes
 90
    32768
280
     0
281
     1
  0
CLASS
  1
XRECORD
  2
AcDbXrecord
  3
ObjectDBX Classes
 90
        0
280
     0
281
     0
  0
CLASS
  1
LONG_TRANSACTION
  2
AcDbLongTransaction
  3
ObjectDBX Classes
 90
    32768
280
     0
281
     0
  0
CLASS
  1
LWPOLYLINE
  2
AcDbPolyline
  3
ObjectDBX Classes
 90
        0
280
     0
281
     1
  0
CLASS
  1
HATCH
  2
AcDbHatch
  3
ObjectDBX Classes
 90
    32768
280
     0
281
     1
  0
CLASS
  1
XRECORD
  2
AcDbXrecord
  3
ObjectDBX Classes
 90
        0
280
     0
281
     0
  0
CLASS
  1
LONG_TRANSACTION
  2
AcDbLongTransaction
  3
ObjectDBX Classes
 90
    32768
280
     0
281
     0
  0
CLASS
  1
LWPOLYLINE
  2
AcDbPolyline
  3
ObjectDBX Classes
 90
        0
280
     0
281
     1
  0
CLASS
  1
HATCH
  2
AcDbHatch
  3
ObjectDBX Classes
 90
    32768
280
     0
281
     1
  0
CLASS
  1
XRECORD
  2
AcDbXrecord
  3
ObjectDBX Classes
 90
        0
280
     0
281
     0
  0
CLASS
  1
LONG_TRANSACTION
  2
AcDbLongTransaction
  3
ObjectDBX Classes
 90
    32768
280
     0
281
     0
  0
CLASS
  1
LWPOLYLINE
  2
AcDbPolyline
  3
ObjectDBX Classes
 90
        0
280
     0
281
     1
  0
CLASS
  1
HATCH
  2
AcDbHatch
  3
ObjectDBX Classes
 90
    32768
280
     0
281
     1
  0
CLASS
  1
XRECORD
  2
AcDbXrecord
  3
ObjectDBX Classes
 90
        0
280
     0
281
     0
  0
CLASS
  1
LONG_TRANSACTION
  2
AcDbLongTransaction
  3
ObjectDBX Classes
 90
    32768
280
     0
281
     0
  0
CLASS
  1
LWPOLYLINE
  2
AcDbPolyline
  3
ObjectDBX Classes
 90
        0
280
     0
281
     1
  0
CLASS
  1
HATCH
  2
AcDbHatch
  3
ObjectDBX Classes
 90
    32768
280
     0
281
     1
  0
CLASS
  1
XRECORD
  2
AcDbXrecord
  3
ObjectDBX Classes
 90
        0
280
     0
281
     0
  0
CLASS
  1
LONG_TRANSACTION
  2
AcDbLongTransaction
  3
ObjectDBX Classes
 90
    32768
280
     0
281
     0
  0
CLASS
  1
LWPOLYLINE
  2
AcDbPolyline
  3
ObjectDBX Classes
 90
        0
280
     0
281
     1
  0
CLASS
  1
HATCH
  2
AcDbHatch
  3
ObjectDBX Classes
 90
    32768
280
     0
281
     1
  0
CLASS
  1
XRECORD
  2
AcDbXrecord
  3
ObjectDBX Classes
 90
        0
280
     0
281
     0
  0
CLASS
  1
LONG_TRANSACTION
  2
AcDbLongTransaction
  3
ObjectDBX Classes
 90
    32768
280
     0
281
     0
  0
CLASS
  1
LWPOLYLINE
  2
AcDbPolyline
  3
ObjectDBX Classes
 90
        0
280
     0
281
     1
  0
CLASS
  1
HATCH
  2
AcDbHatch
  3
ObjectDBX Classes
 90
    32768
280
     0
281
     1
  0
CLASS
  1
XRECORD
  2
AcDbXrecord
  3
ObjectDBX Classes
 90
        0
280
     0
281
     0
  0
CLASS
  1
LONG_TRANSACTION
  2
AcDbLongTransaction
  3
ObjectDBX Classes
 90
    32768
280
     0
281
     0
  0
CLASS
  1
LWPOLYLINE
  2
AcDbPolyline
  3
ObjectDBX Classes
 90
        0
280
     0
281
     1
  0
CLASS
  1
HATCH
  2
AcDbHatch
  3
ObjectDBX Classes
 90
    32768
280
     0
281
     1
  0
CLASS
  1
XRECORD
  2
AcDbXrecord
  3
ObjectDBX Classes
 90
        0
280
     0
281
     0
  0
CLASS
  1
LONG_TRANSACTION
  2
AcDbLongTransaction
  3
ObjectDBX Classes
 90
    32768
280
     0
281
     0
  0
CLASS
  1
LWPOLYLINE
  2
AcDbPolyline
  3
ObjectDBX Classes
 90
        0
280
     0
281
     1
  0
CLASS
  1
HATCH
  2
AcDbHatch
  3
ObjectDBX Classes
 90
    32768
280
     0
281
     1
  0
CLASS
  1
XRECORD
  2
AcDbXrecord
  3
ObjectDBX Classes
 90
        0
280
     0
281
     0
  0
CLASS
  1
LONG_TRANSACTION
  2
AcDbLongTransaction
  3
ObjectDBX Classes
 90
    32768
280
     0
281
     0
  0
CLASS
  1
LWPOLYLINE
  2
AcDbPolyline
  3
ObjectDBX Classes
 90
        0
280
     0
281
     1
  0
CLASS
  1
HATCH
  2
AcDbHatch
  3
ObjectDBX Classes
 90
    32768
280
     0
281
     1
  0
CLASS
  1
XRECORD
  2
AcDbXrecord
  3
ObjectDBX Classes
 90
        0
280
     0
281
     0
  0
CLASS
  1
LONG_TRANSACTION
  2
AcDbLongTransaction
  3
ObjectDBX Classes
 90
    32768
280
     0
281
     0
  0
CLASS
  1
LWPOLYLINE
  2
AcDbPolyline
  3
ObjectDBX Classes
 90
        0
280
     0
281
     1
  0
CLASS
  1
HATCH
  2
AcDbHatch
  3
ObjectDBX Classes
 90
    32768
280
     0
281
     1
  0
CLASS
  1
XRECORD
  2
AcDbXrecord
  3
ObjectDBX Classes
 90
        0
280
     0
281
     0
  0
CLASS
  1
STDPART2D
  2
AmgStdPart
  3
"g3vace|Class: AmgStdPart|Product Description: AutoCAD Mechanical|Company: Autodesk"
 90
    35839
280
     0
281
     1
  0
CLASS
  1
ACMDATAENTRYPART
  2
AcmDataEntryPart
  3
"AcmSymBB|Product Description: AutoCAD Mechanical|Company: Autodesk"
 90
    32768
280
     0
281
     0
  0
CLASS
  1
ACMPARTREF
  2
AcmPartRef
  3
"AcmSymBB|Product Description: AutoCAD Mechanical|Company: Autodesk"
 90
    35839
280
     0
281
     1
  0
CLASS
  1
ACDBSTDPARTRES_LINE
  2
AcDbStdPartRes_Line
  3
"g3vace|Class: AcDbStdPartRes_Line|Product Description: AutoCAD Mechanical|Company: Autodesk"
 90
    32768
280
     0
281
     0
  0
CLASS
  1
AM_DRAWING_MGR
  2
AcDmDwgMgr
  3
AcMechDwgViewMgmt
 90
        0
280
     0
281
     0
  0
CLASS
  1
AM_DWG_DOCUMENT
  2
AcDmDwgDocument
  3
AcMechDwgViewMgmt
 90
        0
280
     0
281
     0
  0
CLASS
  1
AM_DWG_SHEET
  2
AcDmSheet
  3
AcMechDwgViewMgmt
 90
        0
280
     0
281
     0
  0
CLASS
  1
AM_VIEWDIMPARMAP
  2
AcDmViewDimParMap
  3
AcMechDwgViewMgmt
 90
        0
280
     0
281
     0
  0
CLASS
  1
AM_DWGMGR_NAME
  2
AcDmDwgMgrName
  3
AcMechDwgViewMgmt
 90
        0
280
     0
281
     0
  0
CLASS
  1
AMDTMENUSTATEMGR
  2
AmdtMenuStateMgr
  3
McadcomServices
 90
        0
280
     0
281
     0
  0
CLASS
  1
AMDTMCOMMENUSTATE
  2
AmdtMcomMenuState
  3
McadcomServices
 90
        0
280
     0
281
     0
  0
CLASS
  1
ASAPP
  2
AcAsAppObject
  3
AutoSurfServices
 90
        0
280
     0
281
     0
  0
CLASS
  1
IM_STATIC_MAN
  2
AcImStaticVarManager
  3
AcMeServices
 90
        0
280
     0
281
     0
  0
CLASS
  1
ACIMDBLSTATICVAR
  2
AcImDblStaticVar
  3
AcMeServices
 90
        0
280
     0
281
     0
  0
CLASS
  1
ACIMSTRSTATICVAR
  2
AcImStrStaticVar
  3
AcMeServices
 90
        0
280
     0
281
     0
  0
CLASS
  1
ACIMINTSTATICVAR
  2
AcImIntStaticVar
  3
AcMeServices
 90
        0
280
     0
281
     0
  0
CLASS
  1
ACASGREFMASTER
  2
AcAsGrefMaster
  3
AutoSurfResolverServices
 90
        0
280
     0
281
     0
  0
CLASS
  1
ACADGREFMODULE
  2
AcAdGrefModule
  3
AdGrefServices
 90
        0
280
     0
281
     0
  0
CLASS
  1
AMDTMAPISURFMOUDULE
  2
AmdtMApiSurfModule
  3
MApiSurfServices
 90
        0
280
     0
281
     0
  0
CLASS
  1
MAPIAMMOUDLE
  2
MApiAmModule
  3
MApiAmServices
 90
        0
280
     0
281
     0
  0
CLASS
  1
AMDTADMENUSTATE
  2
AmdtAdMenuState
  3
DesignerServices
 90
        0
280
     0
281
     0
  0
CLASS
  1
ADAPPL
  2
AcAdAppl
  3
DesignerServices
 90
        0
280
     0
281
     0
  0
CLASS
  1
DEPMGR
  2
AcAdDepMgr
  3
DesignerServices
 90
        0
280
     0
281
     0
  0
CLASS
  1
PARAMMGR
  2
AcAdParamMgr
  3
DesignerServices
 90
        0
280
     0
281
     0
  0
CLASS
  1
PARAMSCOPE
  2
AcAdParamScope
  3
DesignerServices
 90
        0
280
     0
281
     0
  0
CLASS
  1
NAMEDAPPL
  2
AcAdNamedAppl
  3
DesignerServices
 90
        0
280
     0
281
     0
  0
CLASS
  1
AMDTDMMENUSTATE
  2
AmdtDmMenuState
  3
AcMechDwgViewMgmt
 90
        0
280
     0
281
     0
  0
CLASS
  1
MAPIADMODULE
  2
MApiAdModule
  3
MApiAdServices
 90
        0
280
     0
281
     0
  0
CLASS
  1
AMDTAMMENUSTATE
  2
AmdtAmMenuState
  3
DesignerAssemblies
 90
        0
280
     0
281
     0
  0
CLASS
  1
ACAMPROJECT
  2
AcAmProject
  3
DesignerAssemblies
 90
        0
280
     0
281
     0
  0
CLASS
  1
ACAMGRCOMPDEF
  2
AcAmGrCompDef
  3
DesignerAssemblies
 90
        0
280
     0
281
     0
  0
CLASS
  1
ACCMCONTEXT
  2
AcCmContext
  3
DesignerAssemblies
 90
        0
280
     0
281
     0
  0
CLASS
  1
ACAMCOMPDEF
  2
AcAmCompDef
  3
DesignerAssemblies
 90
        0
280
     0
281
     0
  0
CLASS
  1
ACAMCOMPDEFMGR
  2
AcAmCompDefMgr
  3
DesignerAssemblies
 90
        0
280
     0
281
     0
  0
CLASS
  1
AMCONTEXTMGR
  2
AcAmContextMgr
  3
DesignerAssemblies
 90
        0
280
     0
281
     0
  0
CLASS
  1
ACAMCONTEXTMODELER
  2
AcAmContextModeler
  3
DesignerAssemblies
 90
        0
280
     0
281
     0
  0
CLASS
  1
CATALOGSTATE
  2
AcAmCatalogState
  3
DesignerAssemblies
 90
        0
280
     0
281
     0
  0
CLASS
  1
ACAMGRCOMPDEFSET
  2
AcAmGrCompDefSet
  3
DesignerAssemblies
 90
        0
280
     0
281
     0
  0
CLASS
  1
AMDTBROWSERDBTAB
  2
AmdtBrowserDbTab
  3
McadcomServices
 90
        0
280
     0
281
     0
  0
CLASS
  1
CBROWSERAPPOBJECT
  2
CBrowserAppObject
  3
McadcomServices
 90
        0
280
     0
281
     0
  0
CLASS
  1
DM_PLACEHOLDER
  2
AcDmSelsetPlaceholder
  3
AcMechDwgViewMgmt
 90
        0
280
     0
281
     0
  0
CLASS
  1
MATERIAL
  2
AcDbMaterial
  3
ObjectDBX Classes
 90
     1024
280
     0
281
     0
  0
CLASS
  1
VISUALSTYLE
  2
AcDbVisualStyle
  3
ObjectDBX Classes
 90
     4095
280
     0
281
     0
  0
CLASS
  1
TABLESTYLE
  2
AcDbTableStyle
  3
ObjectDBX Classes
 90
     4095
280
     0
281
     0
  0
CLASS
  1
ACRFATTGENMGR
  2
AcRfAttGeneralMgr
  3
AcAttribServices
 90
        0
280
     0
281
     0
  0
CLASS
  1
ACRFOBJATTMGR
  2
AcRfObjAttGroupMgr
  3
AcAttribServices
 90
        0
280
     0
281
     0
  0
CLASS
  1
ACRFMCADAPIATTHOLDER
  2
AcRfMCADAPIAttHolder
  3
AcAttribServices
 90
        0
280
     0
281
     0
  0
CLASS
  1
AMDTSYSATTR
  2
AmdtSystemAttribute
  3
AcAttribServices
 90
        0
280
     0
281
     0
  0
CLASS
  1
ACMTHREADLINESTANDARDANSI
  2
AmdtThreadLineStdANSI
  3
"Amdt_StdImp|Product Description: AutoCAD Mechanical|Company: Autodesk"
 90
        0
280
     0
281
     0
  0
CLASS
  1
ACMTAPERSTANDARDANSI
  2
AcmTaperStdANSI
  3
"Amdt_StdImp|Product Description: AutoCAD Mechanical|Company: Autodesk"
 90
        0
280
     0
281
     0
  0
CLASS
  1
ACMTHREADLINESTANDARDISO
  2
AmdtThreadLineStdISO
  3
"Amdt_StdImp|Product Description: AutoCAD Mechanical|Company: Autodesk"
 90
        0
280
     0
281
     0
  0
CLASS
  1
ACMTAPERSTANDARDISO
  2
AcmTaperStdISO
  3
"Amdt_StdImp|Product Description: AutoCAD Mechanical|Company: Autodesk"
 90
        0
280
     0
281
     0
  0
ENDSEC
  0
SECTION
  2
TABLES
  0
TABLE
  2
VPORT
  5
12
330
0
100
AcDbSymbolTable
 70
     1
  0
VPORT
  5
22590
330
12
100
AcDbSymbolTableRecord
100
AcDbViewportTableRecord
  2
*Active
 70
     0
 10
0.0
 20
0.0
 11
1.0
 21
1.0
 12
1662.772982096349
 22
1348.927002805846
 13
0.0
 23
0.0
 14
12.5
 24
12.5
 15
50.0
 25
50.0
 16
0.0
 26
0.0
 36
1.0
 17
1209.089210143266
 27
2914.744831078365
 37
0.0
 40
236.1130453086303
 41
1.978563772775991
 42
50.0
 43
0.0
 44
0.0
 50
0.0
 51
0.0
 71
     0
 72
 20000
 73
     1
 74
     1
 75
     0
 76
     0
 77
     0
 78
     0
281
     0
 65
     0
110
460.540300000009
120
2535.461804021347
130
0.0
111
1.0
121
0.0
131
0.0
112
0.0
122
1.0
132
0.0
 79
     0
146
0.0
  0
ENDTAB
  0
TABLE
  2
LTYPE
  5
D
330
0
100
AcDbSymbolTable
 70
    20
  0
LTYPE
  5
E
330
D
100
AcDbSymbolTableRecord
100
AcDbLinetypeTableRecord
  2
BYBLOCK
 70
     0
  3

 72
    65
 73
     0
 40
0.0
  0
LTYPE
  5
F
330
D
100
AcDbSymbolTableRecord
100
AcDbLinetypeTableRecord
  2
BYLAYER
 70
     0
  3

 72
    65
 73
     0
 40
0.0
  0
LTYPE
  5
5
330
D
100
AcDbSymbolTableRecord
100
AcDbLinetypeTableRecord
  2
CONTINUOUS
 70
     0
  3
Solid line
 72
    65
 73
     0
 40
0.0
  0
LTYPE
  5
24
330
D
100
AcDbSymbolTableRecord
100
AcDbLinetypeTableRecord
  2
CENTER
 70
     0
  3
____ _ ____ _ ____ _ ____ _ ____ _ ____ _ ____ 
 72
    65
 73
     4
 40
2.0
 49
1.25
 74
     0
 49
-0.25
 74
     0
 49
0.25
 74
     0
 49
-0.25
 74
     0
  0
LTYPE
  5
1C
330
D
100
AcDbSymbolTableRecord
100
AcDbLinetypeTableRecord
  2
HIDDEN
 70
     0
  3
Hidden __ __ __ __ __ __ __ __ __ __ __ __ __ _
 72
    65
 73
     2
 40
0.375
 49
0.25
 74
     0
 49
-0.125
 74
     0
  0
LTYPE
  5
1783D
330
D
100
AcDbSymbolTableRecord
100
AcDbLinetypeTableRecord
  2
Amconstr
 70
     0
  3
_______________________
 72
    65
 73
     2
 40
9999.0
 49
9999.0
 74
     0
 49
0.0
 74
     0
  0
LTYPE
  5
17843
330
D
100
AcDbSymbolTableRecord
100
AcDbLinetypeTableRecord
  2
PHANTOM2
 70
     0
  3
Phantom (.5x) ___ _ _ ___ _ _ ___ _ _ ___ _ _
 72
    65
 73
     6
 40
1.25
 49
0.625
 74
     0
 49
-0.125
 74
     0
 49
0.125
 74
     0
 49
-0.125
 74
     0
 49
0.125
 74
     0
 49
-0.125
 74
     0
  0
LTYPE
  5
17853
330
D
100
AcDbSymbolTableRecord
100
AcDbLinetypeTableRecord
  2
ACANSTGB
 70
     0
  3
__ . . __ . .
 72
    65
 73
     6
 40
0.35433070866
 49
0.15748031496
 74
     0
 49
-0.03937007874
 74
     0
 49
0.03937007874
 74
     0
 49
-0.03937007874
 74
     0
 49
0.03937007874
 74
     0
 49
-0.03937007874
 74
     0
  0
LTYPE
  5
17854
330
D
100
AcDbSymbolTableRecord
100
AcDbLinetypeTableRecord
  2
ACANSTGL
 70
     0
  3
_ _ _ _ _
 72
    65
 73
     2
 40
0.11811023622
 49
0.07874015748
 74
     0
 49
-0.03937007874
 74
     0
  0
LTYPE
  5
1DB87
330
D
100
AcDbSymbolTableRecord
100
AcDbLinetypeTableRecord
  2
AM_ISO02W050
 70
     0
  3
__ __ __ __ __ __ __ __ __ __ __ __ __ __ __
 72
    65
 73
     2
 40
7.5
 49
6.0
 74
     0
 49
-1.5
 74
     0
  0
LTYPE
  5
1DB88
330
D
100
AcDbSymbolTableRecord
100
AcDbLinetypeTableRecord
  2
ACISOWELD
 70
     0
  3
_ _ _ _ _
 72
    65
 73
     2
 40
2.0
 49
2.0
 74
     0
 49
-1.0
 74
     0
  0
LTYPE
  5
1DB89
330
D
100
AcDbSymbolTableRecord
100
AcDbLinetypeTableRecord
  2
ACISOTGB
 70
     0
  3
__ . . __ . .
 72
    65
 73
     6
 40
9.0
 49
4.0
 74
     0
 49
-1.0
 74
     0
 49
1.0
 74
     0
 49
-1.0
 74
     0
 49
1.0
 74
     0
 49
-1.0
 74
     0
  0
LTYPE
  5
1DB8A
330
D
100
AcDbSymbolTableRecord
100
AcDbLinetypeTableRecord
  2
ACISOTGL
 70
     0
  3
_ _ _ _ _
 72
    65
 73
     2
 40
3.0
 49
2.0
 74
     0
 49
-1.0
 74
     0
  0
LTYPE
  5
1E083
330
D
100
AcDbSymbolTableRecord
100
AcDbLinetypeTableRecord
  2
AM_ISO08W050
 70
     0
  3
____ . ____ . ____ . ____ . ____ . ____ . ____
 72
    65
 73
     4
 40
18.0
 49
12.0
 74
     0
 49
-1.5
 74
     0
 49
3.0
 74
     0
 49
-1.5
 74
     0
  0
LTYPE
  5
1E084
330
D
100
AcDbSymbolTableRecord
100
AcDbLinetypeTableRecord
  2
AM_ISO09W050
 70
     0
  3
_____ . . _____ . . _____ . . ____ .. ____
 72
    65
 73
     6
 40
22.5
 49
12.0
 74
     0
 49
-1.5
 74
     0
 49
3.0
 74
     0
 49
-1.5
 74
     0
 49
3.0
 74
     0
 49
-1.5
 74
     0
  0
LTYPE
  5
1E085
330
D
100
AcDbSymbolTableRecord
100
AcDbLinetypeTableRecord
  2
AM_ISO08W050x2
 70
     0
  3
__ . __ . __ . __ . __ . __
 72
    65
 73
     4
 40
9.0
 49
6.0
 74
     0
 49
-0.75
 74
     0
 49
1.5
 74
     0
 49
-0.75
 74
     0
  0
LTYPE
  5
1E086
330
D
100
AcDbSymbolTableRecord
100
AcDbLinetypeTableRecord
  2
AM_ISO02W050x2
 70
     0
  3
 _ _ _ _ _ _ _ _ _ _ _ _
 72
    65
 73
     2
 40
3.75
 49
3.0
 74
     0
 49
-0.75
 74
     0
  0
LTYPE
  5
1E087
330
D
100
AcDbSymbolTableRecord
100
AcDbLinetypeTableRecord
  2
Amzigzag
 70
     0
  3
/\/-/\/-/\/-/\/-/\/-/\/
 72
    65
 73
     2
 40
11.0001
 49
0.0001
 74
     4
 75
   135
340
17841
 46
0.04
 50
0.0
 44
0.0
 45
0.0
 49
-11.0
 74
     0
  0
ENDTAB
  0
TABLE
  2
LAYER
  5
A
102
{ACAD_XDICTIONARY
360
1DB82
102
}
330
0
100
AcDbSymbolTable
 70
    15
  0
LAYER
  5
4
330
A
100
AcDbSymbolTableRecord
100
AcDbLayerTableRecord
  2
0
 70
     0
 62
     7
  6
CONTINUOUS
370
    -3
390
1780D
  0
LAYER
  5
2F
330
A
100
AcDbSymbolTableRecord
100
AcDbLayerTableRecord
  2
DISEGNO
 70
     0
 62
     7
  6
CONTINUOUS
370
    -3
390
1780D
  0
LAYER
  5
23
330
A
100
AcDbSymbolTableRecord
100
AcDbLayerTableRecord
  2
ASSI
 70
     0
 62
     2
  6
CENTER
370
    -3
390
1780D
  0
LAYER
  5
2B
330
A
100
AcDbSymbolTableRecord
100
AcDbLayerTableRecord
  2
RICHIAMI
 70
     0
 62
     7
  6
CONTINUOUS
370
    -3
390
1780D
  0
ENDTAB
  0
TABLE
  2
STYLE
  5
B
330
0
100
AcDbSymbolTable
 70
     8
  0
STYLE
  5
C
330
B
100
AcDbSymbolTableRecord
100
AcDbTextStyleTableRecord
  2
STANDARD
 70
     0
 40
0.0
 41
1.0
 50
0.0
 71
     0
 42
2.5
  3
ISOCP.SHX
  4

  0
STYLE
  5
1D
330
B
100
AcDbSymbolTableRecord
100
AcDbTextStyleTableRecord
  2
SIMPLEX
 70
     0
 40
0.0
 41
1.0
 50
0.0
 71
     0
 42
0.2
  3
SIMPLEX.shx
  4

  0
STYLE
  5
17841
330
B
100
AcDbSymbolTableRecord
100
AcDbTextStyleTableRecord
  2

 70
     1
 40
0.0
 41
1.0
 50
0.0
 71
     0
 42
2.5
  3
ltypeshp.shx
  4

  0
STYLE
  5
17847
330
B
100
AcDbSymbolTableRecord
100
AcDbTextStyleTableRecord
  2
ACANSTS
 70
     0
 40
1.0
 41
1.0
 50
0.0
 71
     0
 42
2.5
  3
romans.shx
  4

  0
STYLE
  5
17852
330
B
100
AcDbSymbolTableRecord
100
AcDbTextStyleTableRecord
  2
ACANSGDT
 70
     0
 40
0.0
 41
1.0
 50
0.0
 71
     0
 42
2.5
  3
amgdtans.shx
  4

  0
STYLE
  5
1DB91
330
B
100
AcDbSymbolTableRecord
100
AcDbTextStyleTableRecord
  2
ACISOTS
 70
     0
 40
1.0
 41
1.0
 50
0.0
 71
     0
 42
0.2
  3
isocp.shx
  4

  0
STYLE
  5
1DB92
330
B
100
AcDbSymbolTableRecord
100
AcDbTextStyleTableRecord
  2
ACISOGDT
 70
     0
 40
0.0
 41
1.0
 50
0.0
 71
     0
 42
0.2
  3
amgdt.shx
  4

  0
ENDTAB
  0
TABLE
  2
VIEW
  5
10
330
0
100
AcDbSymbolTable
 70
     0
  0
ENDTAB
  0
TABLE
  2
UCS
  5
11
330
0
100
AcDbSymbolTable
 70
     1
  0
UCS
  5
170E9
330
11
100
AcDbSymbolTableRecord
100
AcDbUCSTableRecord
  2
AUTOCAD
 70
     0
 10
460.540300000009
 20
2535.461804021347
 30
0.0
 11
1.0
 21
0.0
 31
0.0
 12
0.0
 22
1.0
 32
0.0
 79
     0
146
0.0
  0
ENDTAB
  0
TABLE
  2
APPID
  5
14
330
0
100
AcDbSymbolTable
 70
    29
  0
APPID
  5
15
330
14
100
AcDbSymbolTableRecord
100
AcDbRegAppTableRecord
  2
ACAD
 70
     0
  0
APPID
  5
25EA
330
14
100
AcDbSymbolTableRecord
100
AcDbRegAppTableRecord
  2
AVE_RENDER
 70
     0
  0
APPID
  5
25F6
330
14
100
AcDbSymbolTableRecord
100
AcDbRegAppTableRecord
  2
AVE_MATERIAL
 70
     0
  0
APPID
  5
7C
330
14
100
AcDbSymbolTableRecord
100
AcDbRegAppTableRecord
  2
COMAU_ACADLIB
 70
     0
  0
APPID
  5
10C0
330
14
100
AcDbSymbolTableRecord
100
AcDbRegAppTableRecord
  2
PHOENIX7010
 70
     0
  0
APPID
  5
1781C
330
14
100
AcDbSymbolTableRecord
100
AcDbRegAppTableRecord
  2
MCAD_NO_VIS
 70
     0
  0
APPID
  5
1781D
330
14
100
AcDbSymbolTableRecord
100
AcDbRegAppTableRecord
  2
ACAD_TEMP_GRAPHIC
 70
     0
  0
APPID
  5
1782E
330
14
100
AcDbSymbolTableRecord
100
AcDbRegAppTableRecord
  2
ACATTRIBSERVICES
 70
     0
  0
APPID
  5
1DB2A
330
14
100
AcDbSymbolTableRecord
100
AcDbRegAppTableRecord
  2
DCO15
 70
     0
  0
APPID
  5
1E094
330
14
100
AcDbSymbolTableRecord
100
AcDbRegAppTableRecord
  2
GEVID1048582427
 70
     0
  0
APPID
  5
1E095
330
14
100
AcDbSymbolTableRecord
100
AcDbRegAppTableRecord
  2
GEVDC
 70
     0
  0
APPID
  5
1E099
330
14
100
AcDbSymbolTableRecord
100
AcDbRegAppTableRecord
  2
GENIUS_GENBH_13
 70
     0
  0
APPID
  5
1E09C
330
14
100
AcDbSymbolTableRecord
100
AcDbRegAppTableRecord
  2
GENIUS_GENODEF_13
 70
     0
  0
APPID
  5
1E09D
330
14
100
AcDbSymbolTableRecord
100
AcDbRegAppTableRecord
  2
GENIUS_GENOLIS_13
 70
     0
  0
APPID
  5
1E09E
330
14
100
AcDbSymbolTableRecord
100
AcDbRegAppTableRecord
  2
GENIUS_GENOBJ-NBEHI-BHF_13
 70
     0
  0
APPID
  5
1E09F
330
14
100
AcDbSymbolTableRecord
100
AcDbRegAppTableRecord
  2
GENIUS_GENOENT_13
 70
     0
  0
APPID
  5
1E0A0
330
14
100
AcDbSymbolTableRecord
100
AcDbRegAppTableRecord
  2
GENIUS_GENOREF_13
 70
     0
  0
APPID
  5
1E0A2
330
14
100
AcDbSymbolTableRecord
100
AcDbRegAppTableRecord
  2
GENIUS_GENOBJ-NBEHI-BHB_13
 70
     0
  0
APPID
  5
1E0D7
330
14
100
AcDbSymbolTableRecord
100
AcDbRegAppTableRecord
  2
GEVID1048582428
 70
     0
  0
APPID
  5
2086D
330
14
100
AcDbSymbolTableRecord
100
AcDbRegAppTableRecord
  2
GENIUS_GENDIM_13
 70
     0
  0
APPID
  5
2086E
330
14
100
AcDbSymbolTableRecord
100
AcDbRegAppTableRecord
  2
GENIUS_GENDTOL_13
 70
     0
  0
APPID
  5
2086F
330
14
100
AcDbSymbolTableRecord
100
AcDbRegAppTableRecord
  2
GENIUS_GE3DTOL_13
 70
     0
  0
APPID
  5
20895
330
14
100
AcDbSymbolTableRecord
100
AcDbRegAppTableRecord
  2
AD_DRAW
 70
     0
  0
APPID
  5
208E1
330
14
100
AcDbSymbolTableRecord
100
AcDbRegAppTableRecord
  2
ASURF_PCURVE_APPNAME
 70
     0
  0
APPID
  5
208E6
330
14
100
AcDbSymbolTableRecord
100
AcDbRegAppTableRecord
  2
AMG_3D2D_5.0
 70
     0
  0
APPID
  5
20911
330
14
100
AcDbSymbolTableRecord
100
AcDbRegAppTableRecord
  2
DESIGNERASSEMBLIES
 70
     0
  0
APPID
  5
20916
330
14
100
AcDbSymbolTableRecord
100
AcDbRegAppTableRecord
  2
ACADM_DIM_EDIT
 70
     0
  0
APPID
  5
20917
330
14
100
AcDbSymbolTableRecord
100
AcDbRegAppTableRecord
  2
AMDT_DM_ADJ
 70
     0
  0
APPID
  5
225DA
330
14
100
AcDbSymbolTableRecord
100
AcDbRegAppTableRecord
  2
ACAD_EXEMPT_FROM_CAD_STANDARDS
 70
     0
  0
ENDTAB
  0
TABLE
  2
DIMSTYLE
  5
16
330
0
100
AcDbSymbolTable
 70
    24
100
AcDbDimStyleTable
 71
     1
340
1DB95
  0
DIMSTYLE
105
17857
330
16
100
AcDbSymbolTableRecord
100
AcDbDimStyleTableRecord
  2
AM_ANSI
 70
     0
  4
mm
 41
0.1
 42
0.05
 43
0.5
 44
0.1
 47
0.1
 48
0.1
 78
     7
 79
     2
140
0.12
141
0.0
146
0.71
147
0.06
176
   256
177
   256
178
     2
274
     4
284
     7
340
C
371
    -1
372
    -1
  0
DIMSTYLE
105
17858
330
16
100
AcDbSymbolTableRecord
100
AcDbDimStyleTableRecord
  2
AM_ANSI$3
 70
     0
  4
mm
 41
0.1
 42
0.05
 43
0.5
 44
0.1
 47
0.1
 48
0.1
 78
     7
 79
     2
140
0.12
141
0.0
146
0.71
147
0.06
176
   256
177
   256
178
     2
274
     4
284
     7
288
     1
289
     0
340
C
371
    -1
372
    -1
  0
DIMSTYLE
105
17859
330
16
100
AcDbSymbolTableRecord
100
AcDbDimStyleTableRecord
  2
AM_ANSI$4
 70
     0
  4
mm
 41
0.1
 42
0.05
 43
0.5
 44
0.1
 47
0.1
 48
0.1
 78
     7
 79
     2
140
0.12
141
0.0
146
0.71
147
0.06
176
   256
177
   256
178
     2
274
     4
284
     7
288
     1
289
     0
340
C
371
    -1
372
    -1
  0
DIMSTYLE
105
1785A
330
16
100
AcDbSymbolTableRecord
100
AcDbDimStyleTableRecord
  2
AM_ANSI$7
 70
     0
  4
mm
 41
0.1
 42
0.05
 43
0.5
 44
0.1
 47
0.1
 48
0.1
 78
     7
 79
     2
140
0.24
141
0.0
146
0.71
147
0.06
176
   256
177
   256
178
     2
274
     4
284
     7
340
C
371
    -1
372
    -1
  0
DIMSTYLE
105
1785B
330
16
100
AcDbSymbolTableRecord
100
AcDbDimStyleTableRecord
  2
AM_ANSI$SF
 70
     0
  4
mm
 41
0.1
 42
0.05
 43
0.5
 44
0.1
 47
0.1
 48
0.1
 75
     1
 76
     1
 78
     7
 79
     2
140
0.12
141
0.0
146
0.71
147
0.06
176
   256
177
   256
178
     2
274
     4
284
     7
340
C
371
    -1
372
    -1
  0
DIMSTYLE
105
17860
330
16
100
AcDbSymbolTableRecord
100
AcDbDimStyleTableRecord
  2
AM_ANSI$SH
 70
     0
  4
mm
 41
0.1
 42
0.05
 43
0.5
 44
0.1
 47
0.1
 48
0.1
 75
     1
 76
     1
 78
     7
 79
     2
140
0.12
141
0.0
146
0.71
147
0.06
173
     1
176
   256
177
   256
178
     2
274
     4
284
     7
340
C
341
1785C
343
1785C
371
    -1
372
    -1
  0
DIMSTYLE
105
1DB95
330
16
100
AcDbSymbolTableRecord
100
AcDbDimStyleTableRecord
  2
GEN-ISO
 70
     0
  3
<>
 41
2.5
 42
1.0
 43
7.0
 44
1.0
 47
0.1
 48
0.1
 73
     0
 74
     0
 77
     1
 78
     8
140
3.5
141
0.0
143
0.0393701
146
0.71
147
0.6
172
     1
271
     2
272
     3
274
     4
283
     0
340
C
  0
DIMSTYLE
105
1DB96
330
16
100
AcDbSymbolTableRecord
100
AcDbDimStyleTableRecord
  2
GEN-ISO$3
 70
     0
  3
<>
 41
2.5
 42
1.0
 43
7.0
 44
1.0
 47
0.1
 48
0.1
 73
     0
 77
     1
 78
     8
140
3.5
141
0.0
143
0.0393701
146
0.71
147
0.6
271
     2
272
     3
274
     4
283
     0
288
     1
289
     0
340
C
  0
DIMSTYLE
105
1DB97
330
16
100
AcDbSymbolTableRecord
100
AcDbDimStyleTableRecord
  2
GEN-ISO$4
 70
     0
  3
<>
 41
2.5
 42
1.0
 43
7.0
 44
1.0
 47
0.1
 48
0.1
 73
     0
 77
     1
 78
     8
140
3.5
141
0.0
143
0.0393701
146
0.71
147
0.6
271
     2
272
     3
274
     4
283
     0
288
     1
289
     0
340
C
  0
DIMSTYLE
105
1DB98
330
16
100
AcDbSymbolTableRecord
100
AcDbDimStyleTableRecord
  2
GEN-ISO$6
 70
     0
  3
<>
 41
2.5
 42
1.0
 43
7.0
 44
1.0
 47
0.1
 48
0.1
 73
     0
 74
     0
 78
     8
140
3.5
141
0.0
143
0.0393701
146
0.71
147
0.6
271
     2
272
     3
274
     4
283
     0
340
C
  0
DIMSTYLE
105
1DB99
330
16
100
AcDbSymbolTableRecord
100
AcDbDimStyleTableRecord
  2
GEN-ISO-POS
 70
     0
  3
<>
 41
2.5
 42
1.0
 43
7.0
 44
1.0
 47
0.1
 48
0.1
 73
     0
 74
     0
 78
     8
140
5.0
141
0.0
143
0.0393701
146
0.71
147
1.5
271
     2
272
     3
274
     4
283
     0
340
C
  0
DIMSTYLE
105
1DB9A
330
16
100
AcDbSymbolTableRecord
100
AcDbDimStyleTableRecord
  2
GEN-ISO-AXE-F
 70
     0
  3
<>
 41
2.5
 42
1.0
 43
7.0
 44
1.0
 47
0.1
 48
0.1
 73
     0
 74
     0
 75
     1
 76
     1
 77
     1
 78
     8
140
3.5
141
0.0
143
0.0393701
146
0.71
147
0.6
172
     1
271
     2
272
     3
274
     4
283
     0
340
C
  0
DIMSTYLE
105
1DB9B
330
16
100
AcDbSymbolTableRecord
100
AcDbDimStyleTableRecord
  2
GEN-ISO-AXE-H
 70
     0
  3
<>
 41
2.5
 42
1.0
 43
7.0
 44
1.0
 47
0.1
 48
0.1
 73
     0
 74
     0
 75
     1
 76
     1
 77
     1
 78
     8
140
3.5
141
0.0
143
0.0393701
144
2.0
146
0.71
147
0.6
172
     1
173
     1
271
     2
272
     3
274
     4
283
     0
340
C
343
1785C
  0
ENDTAB
  0
TABLE
  2
BLOCK_RECORD
  5
1
330
0
100
AcDbSymbolTable
 70
    31
  0
BLOCK_RECORD
  5
2
102
{ACAD_XDICTIONARY
360
17864
102
}
330
1
100
AcDbSymbolTableRecord
100
AcDbBlockTableRecord
  2
*MODEL_SPACE
340
17810
  0
BLOCK_RECORD
  5
7
102
{ACAD_XDICTIONARY
360
178A5
102
}
330
1
100
AcDbSymbolTableRecord
100
AcDbBlockTableRecord
  2
*PAPER_SPACE
340
17811
  0
BLOCK_RECORD
  5
1785C
330
1
100
AcDbSymbolTableRecord
100
AcDbBlockTableRecord
  2
GENAXEH
340
0
  0
ENDTAB
  0
ENDSEC
  0
SECTION
  2
BLOCKS
  0
BLOCK
  5
3
330
2
100
AcDbEntity
  8
0
100
AcDbBlockBegin
  2
*MODEL_SPACE
 70
     0
 10
0.0
 20
0.0
 30
0.0
  3
*MODEL_SPACE
  1

  0
ENDBLK
  5
6
330
2
100
AcDbEntity
  8
0
100
AcDbBlockEnd
  0
BLOCK
  5
8
330
7
100
AcDbEntity
 67
     1
  8
0
100
AcDbBlockBegin
  2
*PAPER_SPACE
 70
     0
 10
0.0
 20
0.0
 30
0.0
  3
*PAPER_SPACE
  1

  0
ENDBLK
  5
9
330
7
100
AcDbEntity
 67
     1
  8
0
100
AcDbBlockEnd
  0
BLOCK
  5
1785E
330
1785C
100
AcDbEntity
  8
0
100
AcDbBlockBegin
  2
GENAXEH
 70
     0
 10
0.0
 20
0.0
 30
0.0
  3
GENAXEH
  1

  0
LINE
  5
1785D
330
1785C
100
AcDbEntity
  8
0
100
AcDbLine
 10
-1.0
 20
0.0
 30
0.0
 11
1.0
 21
0.0
 31
0.0
  0
ENDBLK
  5
1785F
330
1785C
100
AcDbEntity
  8
0
100
AcDbBlockEnd
  0
ENDSEC
  0
SECTION
  2
ENTITIES
  0
TEXT
  5
153D4
330
2
100
AcDbEntity
  8
RICHIAMI
100
AcDbText
 10
2609.735371793279
 20
2228.716262280581
 30
0.0
 40
20.0
  1

  7
SIMPLEX
 72
     4
 11
2609.735371793279
 21
2228.716262280581
 31
0.0
100
AcDbText
  0
TEXT
  5
168FE
330
2
100
AcDbEntity
  8
RICHIAMI
100
AcDbText
 10
3131.224086836441
 20
10.29484292433881
 30
0.0
 40
20.0
  1

  7
SIMPLEX
 72
     4
 11
3131.224086836441
 21
10.29484292433881
 31
0.0
100
AcDbText
  0
TEXT
  5
16971
330
2
100
AcDbEntity
  8
RICHIAMI
100
AcDbText
 10
3655.921918775827
 20
3245.637480235953
 30
0.0
 40
20.0
  1

  7
SIMPLEX
 72
     4
 11
3655.921918775827
 21
3245.637480235953
 31
0.0
100
AcDbText
  0
TEXT
  5
16978
330
2
100
AcDbEntity
  8
RICHIAMI
100
AcDbText
 10
3655.921918775827
 20
3245.637480235953
 30
0.0
 40
20.0
  1

  7
SIMPLEX
 72
     4
 11
3655.921918775827
 21
3245.637480235953
 31
0.0
100
AcDbText
  0
ARC
  5
218ED
330
2
100
AcDbEntity
  8
DISEGNO
100
AcDbCircle
 10
2884.451794744755
 20
4320.869603742936
 30
0.0
 40
3.0
100
AcDbArc
 50
270.0
 51
343.2690000000043
  0
ARC
  5
218EE
330
2
100
AcDbEntity
  8
DISEGNO
100
AcDbCircle
 10
2883.753294744753
 20
4310.369603742937
 30
0.0
 40
4.0
100
AcDbArc
 50
0.0
 51
90.0
  0
LINE
  5
218EF
330
2
100
AcDbEntity
  8
DISEGNO
100
AcDbLine
 10
2890.253294744752
 20
4366.119403742936
 30
0.0
 11
2872.753294744752
 21
4366.119403742936
 31
0.0
  0
ARC
  5
218F0
330
2
100
AcDbEntity
  8
DISEGNO
100
AcDbCircle
 10
2890.003294744753
 20
4347.119503742935
 30
0.0
 40
5.0
100
AcDbArc
 50
180.0
 51
247.9179999999867
  0
ARC
  5
218F1
330
2
100
AcDbEntity
  8
DISEGNO
100
AcDbCircle
 10
2880.003294744753
 20
4355.119503742935
 30
0.0
 40
5.0
100
AcDbArc
 50
0.0
 51
90.0
  0
LINE
  5
218F2
330
2
100
AcDbEntity
  8
DISEGNO
100
AcDbLine
 10
2875.253294588367
 20
4366.119403742936
 30
0.0
 11
2894.003294744753
 21
4366.119403742936
 31
0.0
  0
LINE
  5
218FD
330
2
100
AcDbEntity
  8
DISEGNO
100
AcDbLine
 10
2890.253294744752
 20
4166.119403742936
 30
0.0
 11
2872.753294744752
 21
4166.119403742936
 31
0.0
  0
ARC
  5
218FE
330
2
100
AcDbEntity
  8
DISEGNO
100
AcDbCircle
 10
2890.003294744753
 20
4185.119303742935
 30
0.0
 40
5.0
100
AcDbArc
 50
112.0820000000133
 51
180.0
  0
LINE
  5
218FF
330
2
100
AcDbEntity
  8
DISEGNO
100
AcDbLine
 10
2875.253294588367
 20
4166.119403742936
 30
0.0
 11
2894.003294744753
 21
4166.119403742936
 31
0.0
  0
ARC
  5
21900
330
2
100
AcDbEntity
  8
DISEGNO
100
AcDbCircle
 10
2880.003294744753
 20
4177.119303742935
 30
0.0
 40
5.0
100
AcDbArc
 50
270.0
 51
0.0
  0
ARC
  5
21901
330
2
100
AcDbEntity
  8
DISEGNO
100
AcDbCircle
 10
2884.451794744755
 20
4211.369303742935
 30
0.0
 40
3.0
100
AcDbArc
 50
16.73099999999576
 51
90.0
  0
LINE
  5
21902
330
2
100
AcDbEntity
  8
ASSI
100
AcDbLine
 10
2808.166550728273
 20
4216.119303742934
 30
0.0
 11
2940.634398908894
 21
4216.119303742934
 31
0.0
  0
ARC
  5
21903
330
2
100
AcDbEntity
  8
DISEGNO
100
AcDbCircle
 10
2883.753294744753
 20
4221.869303742934
 30
0.0
 40
4.0
100
AcDbArc
 50
270.0
 51
0.0
  0
LINE
  5
21919
330
2
100
AcDbEntity
  8
DISEGNO
100
AcDbLine
 10
2860.503294744752
 20
4347.802203742936
 30
0.0
 11
2860.503294744752
 21
4359.155603742936
 31
0.0
  0
LINE
  5
2191A
330
2
100
AcDbEntity
  8
DISEGNO
100
AcDbLine
 10
2865.503294744753
 20
4355.119503742935
 30
0.0
 11
2865.503294744753
 21
4347.119503742935
 31
0.0
  0
LINE
  5
2191B
330
2
100
AcDbEntity
  8
DISEGNO
100
AcDbLine
 10
2885.003294744753
 20
4355.119503742935
 30
0.0
 11
2885.003294744753
 21
4347.119503742935
 31
0.0
  0
LINE
  5
2191C
330
2
100
AcDbEntity
  8
DISEGNO
100
AcDbLine
 10
2815.253294744753
 20
4365.119503742935
 30
0.0
 11
2815.253294744753
 21
4322.369603742936
 31
0.0
  0
LINE
  5
2191D
330
2
100
AcDbEntity
  8
DISEGNO
100
AcDbLine
 10
2821.253294744753
 20
4355.119503742935
 30
0.0
 11
2821.253294744753
 21
4336.369603742936
 31
0.0
  0
LINE
  5
2191E
330
2
100
AcDbEntity
  8
DISEGNO
100
AcDbLine
 10
2840.003294744753
 20
4359.155603742936
 30
0.0
 11
2840.003294744753
 21
4347.802203742936
 31
0.0
  0
LINE
  5
2191F
330
2
100
AcDbEntity
  8
DISEGNO
100
AcDbLine
 10
2835.003294744753
 20
4347.119503742935
 30
0.0
 11
2835.003294744753
 21
4355.119503742935
 31
0.0
  0
LINE
  5
21929
330
2
100
AcDbEntity
  8
DISEGNO
100
AcDbLine
 10
2815.253294744753
 20
4167.119303742935
 30
0.0
 11
2815.253294744753
 21
4209.869303742935
 31
0.0
  0
LINE
  5
2192A
330
2
100
AcDbEntity
  8
DISEGNO
100
AcDbLine
 10
2821.253294744753
 20
4177.119303742935
 30
0.0
 11
2821.253294744753
 21
4195.869303742934
 31
0.0
  0
ARC
  5
2192B
330
2
100
AcDbEntity
  8
DISEGNO
100
AcDbCircle
 10
2850.253294744753
 20
4159.853403742936
 30
0.0
 40
32.2656
100
AcDbArc
 50
98.15089999998491
 51
112.0820000000133
  0
LINE
  5
2192C
330
2
100
AcDbEntity
  8
DISEGNO
100
AcDbLine
 10
2815.253294744751
 20
4174.119503742935
 30
0.0
 11
2815.253294744753
 21
4209.869303742935
 31
0.0
  0
ARC
  5
2192D
330
2
100
AcDbEntity
  8
DISEGNO
100
AcDbCircle
 10
2850.253294744753
 20
4159.853403742936
 30
0.0
 40
32.2656
100
AcDbArc
 50
67.91809999999441
 51
81.84910000001508
  0
LINE
  5
2195C
330
2
100
AcDbEntity
  8
DISEGNO
100
AcDbLine
 10
2816.239152962602
 20
4166.119403742936
 30
0.0
 11
2844.003294744753
 21
4166.119403742936
 31
0.0
  0
LINE
  5
2195D
330
2
100
AcDbEntity
  8
DISEGNO
100
AcDbLine
 10
2830.003294744753
 20
4172.119303742935
 30
0.0
 11
2826.253294744752
 21
4172.119303742935
 31
0.0
  0
ARC
  5
2195E
330
2
100
AcDbEntity
  8
DISEGNO
100
AcDbCircle
 10
2826.253294744752
 20
4177.119303742935
 30
0.0
 40
5.0
100
AcDbArc
 50
180.0
 51
270.0
  0
ARC
  5
2195F
330
2
100
AcDbEntity
  8
DISEGNO
100
AcDbCircle
 10
2816.253294744753
 20
4167.119303742935
 30
0.0
 40
1.0
100
AcDbArc
 50
180.0
 51
270.0
  0
ARC
  5
21962
330
2
100
AcDbEntity
  8
DISEGNO
100
AcDbCircle
 10
2870.503294744753
 20
4177.119303742935
 30
0.0
 40
5.0
100
AcDbArc
 50
180.0
 51
270.0
  0
LINE
  5
21963
330
2
100
AcDbEntity
  8
DISEGNO
100
AcDbLine
 10
2865.503294744753
 20
4177.119303742935
 30
0.0
 11
2865.503294744753
 21
4185.119303742935
 31
0.0
  0
ARC
  5
21964
330
2
100
AcDbEntity
  8
DISEGNO
100
AcDbCircle
 10
2859.503294744753
 20
4184.436603742935
 30
0.0
 40
1.0
100
AcDbArc
 50
0.0
 51
69.37979999999225
  0
LINE
  5
21965
330
2
100
AcDbEntity
  8
DISEGNO
100
AcDbLine
 10
2860.503294744752
 20
4184.436603742935
 30
0.0
 11
2860.503294744752
 21
4173.083303742936
 31
0.0
  0
ARC
  5
21966
330
2
100
AcDbEntity
  8
DISEGNO
100
AcDbCircle
 10
2860.503294744752
 20
4185.119303742935
 30
0.0
 40
5.0
100
AcDbArc
 50
0.0
 51
67.91809999999441
  0
LINE
  5
21969
330
2
100
AcDbEntity
  8
DISEGNO
100
AcDbLine
 10
2885.003294744753
 20
4177.119303742935
 30
0.0
 11
2885.003294744753
 21
4185.119303742935
 31
0.0
  0
LINE
  5
2196A
330
2
100
AcDbEntity
  8
DISEGNO
100
AcDbLine
 10
2870.503294744753
 20
4172.119303742935
 30
0.0
 11
2880.003294744753
 21
4172.119303742935
 31
0.0
  0
LINE
  5
2196E
330
2
100
AcDbEntity
  8
DISEGNO
100
AcDbLine
 10
2844.003294744753
 20
4166.119403742936
 30
0.0
 11
2844.003294744753
 21
4173.083303742936
 31
0.0
  0
LINE
  5
2196F
330
2
100
AcDbEntity
  8
DISEGNO
100
AcDbLine
 10
2856.503294744753
 20
4173.083303742936
 30
0.0
 11
2856.503294744753
 21
4166.119403742936
 31
0.0
  0
ARC
  5
21970
330
2
100
AcDbEntity
  8
DISEGNO
100
AcDbCircle
 10
2841.003294744753
 20
4184.436603742935
 30
0.0
 40
1.0
100
AcDbArc
 50
110.6200000000106
 51
180.0
  0
LINE
  5
21971
330
2
100
AcDbEntity
  8
DISEGNO
100
AcDbLine
 10
2840.003294744753
 20
4173.083303742936
 30
0.0
 11
2840.003294744753
 21
4184.436603742935
 31
0.0
  0
LINE
  5
21972
330
2
100
AcDbEntity
  8
DISEGNO
100
AcDbLine
 10
2835.003294744753
 20
4185.119303742935
 30
0.0
 11
2835.003294744753
 21
4177.119303742935
 31
0.0
  0
ARC
  5
21973
330
2
100
AcDbEntity
  8
DISEGNO
100
AcDbCircle
 10
2840.003294744753
 20
4185.119303742935
 30
0.0
 40
5.0
100
AcDbArc
 50
112.0820000000133
 51
180.0
  0
ARC
  5
21974
330
2
100
AcDbEntity
  8
DISEGNO
100
AcDbCircle
 10
2830.003294744753
 20
4177.119303742935
 30
0.0
 40
5.0
100
AcDbArc
 50
270.0
 51
0.0
  0
LINE
  5
21975
330
2
100
AcDbEntity
  8
DISEGNO
100
AcDbLine
 10
2840.003294744753
 20
4173.083303742936
 30
0.0
 11
2844.003294744753
 21
4173.083303742936
 31
0.0
  0
LINE
  5
21976
330
2
100
AcDbEntity
  8
DISEGNO
100
AcDbLine
 10
2840.253294744753
 20
4173.083303742936
 30
0.0
 11
2844.003294744755
 21
4173.083303742936
 31
0.0
  0
LINE
  5
21978
330
2
100
AcDbEntity
  8
DISEGNO
100
AcDbLine
 10
2875.253294588367
 20
4166.119403742936
 30
0.0
 11
2856.503294744753
 21
4166.119403742936
 31
0.0
  0
LINE
  5
21979
330
2
100
AcDbEntity
  8
DISEGNO
100
AcDbLine
 10
2856.503294744753
 20
4173.083303742936
 30
0.0
 11
2860.503294744752
 21
4173.083303742936
 31
0.0
  0
ARC
  5
2197A
330
2
100
AcDbEntity
  8
DISEGNO
100
AcDbCircle
 10
2850.253294744753
 20
4159.853403742936
 30
0.0
 40
27.2656
100
AcDbArc
 50
69.37979999999225
 51
110.6200000000106
  0
LINE
  5
2197B
330
2
100
AcDbEntity
  8
DISEGNO
100
AcDbLine
 10
2856.503294744753
 20
4173.083303742935
 30
0.0
 11
2860.253294744753
 21
4173.083303742934
 31
0.0
  0
LINE
  5
21988
330
2
100
AcDbEntity
  8
DISEGNO
100
AcDbLine
 10
2825.253294744753
 20
4289.428803742936
 30
0.0
 11
2825.253294744753
 21
4242.810003742936
 31
0.0
  0
LINE
  5
21989
330
2
100
AcDbEntity
  8
DISEGNO
100
AcDbLine
 10
2831.753294744753
 20
4288.919803742936
 30
0.0
 11
2831.753294744753
 21
4243.319003742936
 31
0.0
  0
LINE
  5
2198A
330
2
100
AcDbEntity
  8
DISEGNO
100
AcDbLine
 10
2833.570594744753
 20
4226.369303742934
 30
0.0
 11
2822.253294744753
 21
4226.369303742934
 31
0.0
  0
LINE
  5
2198B
330
2
100
AcDbEntity
  8
DISEGNO
100
AcDbLine
 10
2822.253294744753
 20
4205.869303742935
 30
0.0
 11
2833.570594744753
 21
4205.869303742935
 31
0.0
  0
LINE
  5
2198C
330
2
100
AcDbEntity
  8
DISEGNO
100
AcDbLine
 10
2826.253294744752
 20
4200.869303742934
 30
0.0
 11
2834.253294744753
 21
4200.869303742934
 31
0.0
  0
ARC
  5
2198D
330
2
100
AcDbEntity
  8
DISEGNO
100
AcDbCircle
 10
2824.253294744753
 20
4242.810003742936
 30
0.0
 40
1.0
100
AcDbArc
 50
240.0000000000027
 51
0.0
  0
LINE
  5
2198E
330
2
100
AcDbEntity
  8
DISEGNO
100
AcDbLine
 10
2815.253294744753
 20
4245.619403742936
 30
0.0
 11
2817.387294744755
 21
4245.619403742936
 31
0.0
  0
LINE
  5
2198F
330
2
100
AcDbEntity
  8
DISEGNO
100
AcDbLine
 10
2817.387294744755
 20
4245.619403742936
 30
0.0
 11
2823.753294744753
 21
4241.944003742935
 31
0.0
  0
LINE
  5
21990
330
2
100
AcDbEntity
  8
DISEGNO
100
AcDbLine
 10
2822.253294744753
 20
4222.369303742935
 30
0.0
 11
2822.253294744753
 21
4226.369303742934
 31
0.0
  0
LINE
  5
21991
330
2
100
AcDbEntity
  8
DISEGNO
100
AcDbLine
 10
2822.253294744753
 20
4222.369303742935
 30
0.0
 11
2815.253294744753
 21
4222.369303742935
 31
0.0
  0
LINE
  5
21992
330
2
100
AcDbEntity
  8
DISEGNO
100
AcDbLine
 10
2815.253294744753
 20
4222.369303742935
 30
0.0
 11
2815.253294744753
 21
4245.619403742936
 31
0.0
  0
LINE
  5
21993
330
2
100
AcDbEntity
  8
DISEGNO
100
AcDbLine
 10
2815.253294744753
 20
4231.119292142936
 30
0.0
 11
2815.253294744755
 21
4222.369303742935
 31
0.0
  0
LINE
  5
21994
330
2
100
AcDbEntity
  8
DISEGNO
100
AcDbLine
 10
2815.253294744753
 20
4234.119303742935
 30
0.0
 11
2815.253294744753
 21
4222.369303742935
 31
0.0
  0
ARC
  5
21995
330
2
100
AcDbEntity
  8
DISEGNO
100
AcDbCircle
 10
2826.253294744752
 20
4195.869303742934
 30
0.0
 40
5.0
100
AcDbArc
 50
90.0
 51
180.0
  0
LINE
  5
21996
330
2
100
AcDbEntity
  8
DISEGNO
100
AcDbLine
 10
2822.253294744753
 20
4205.869303742935
 30
0.0
 11
2822.253294744753
 21
4209.869303742935
 31
0.0
  0
LINE
  5
21997
330
2
100
AcDbEntity
  8
DISEGNO
100
AcDbLine
 10
2815.253294744753
 20
4209.869303742935
 30
0.0
 11
2822.253294744753
 21
4209.869303742935
 31
0.0
  0
LINE
  5
21998
330
2
100
AcDbEntity
  8
DISEGNO
100
AcDbLine
 10
2815.253294744753
 20
4209.869303742935
 30
0.0
 11
2815.253294744753
 21
4201.119292142935
 31
0.0
  0
LINE
  5
21999
330
2
100
AcDbEntity
  8
DISEGNO
100
AcDbLine
 10
2815.253294744753
 20
4209.869303742935
 30
0.0
 11
2815.253294744753
 21
4198.119303742936
 31
0.0
  0
ARC
  5
2199A
330
2
100
AcDbEntity
  8
DISEGNO
100
AcDbCircle
 10
2859.753294744752
 20
4226.619303742935
 30
0.0
 40
3.0
100
AcDbArc
 50
0.0
 51
90.0
  0
ARC
  5
2199B
330
2
100
AcDbEntity
  8
DISEGNO
100
AcDbCircle
 10
2858.710394744754
 20
4220.869803742934
 30
0.0
 40
0.3
100
AcDbArc
 50
29.3238000000027
 51
113.9999999999797
  0
ARC
  5
2199C
330
2
100
AcDbEntity
  8
DISEGNO
100
AcDbCircle
 10
2857.796394744753
 20
4221.119603742937
 30
0.0
 40
0.3
100
AcDbArc
 50
213.5410000000114
 51
293.9999999999798
  0
LINE
  5
2199D
330
2
100
AcDbEntity
  8
DISEGNO
100
AcDbLine
 10
2857.918394744755
 20
4220.845603742935
 30
0.0
 11
2858.588394744753
 21
4221.143903742936
 31
0.0
  0
LINE
  5
2199E
330
2
100
AcDbEntity
  8
DISEGNO
100
AcDbLine
 10
2862.753294744753
 20
4226.619303742935
 30
0.0
 11
2862.753294744753
 21
4221.869303742934
 31
0.0
  0
ARC
  5
2199F
330
2
100
AcDbEntity
  8
DISEGNO
100
AcDbCircle
 10
2833.570594744753
 20
4225.369303742935
 30
0.0
 40
1.0
100
AcDbArc
 50
20.62020000001693
 51
90.0
  0
ARC
  5
219A0
330
2
100
AcDbEntity
  8
DISEGNO
100
AcDbCircle
 10
2850.253294744753
 20
4216.119303742934
 30
0.0
 40
10.0
100
AcDbArc
 50
62.676300000034
 51
73.32380000001352
  0
LINE
  5
219A1
330
2
100
AcDbEntity
  8
DISEGNO
100
AcDbLine
 10
2852.483994744753
 20
4224.843803742935
 30
0.0
 11
2852.758694744755
 21
4225.523703742935
 31
0.0
  0
ARC
  5
219A2
330
2
100
AcDbEntity
  8
DISEGNO
100
AcDbCircle
 10
2853.036794744754
 20
4225.411303742936
 30
0.0
 40
0.3
100
AcDbArc
 50
73.32380000001352
 51
158.00000000001
  0
ARC
  5
219A3
330
2
100
AcDbEntity
  8
DISEGNO
100
AcDbCircle
 10
2852.205794744754
 20
4224.956103742935
 30
0.0
 40
0.3
100
AcDbArc
 50
257.541000000009
 51
338.0000000000101
  0
LINE
  5
219A4
330
2
100
AcDbEntity
  8
DISEGNO
100
AcDbLine
 10
2854.709194744753
 20
4223.944703742936
 30
0.0
 11
2854.983894744754
 21
4224.624603742936
 31
0.0
  0
ARC
  5
219A5
330
2
100
AcDbEntity
  8
DISEGNO
100
AcDbCircle
 10
2854.987394744754
 20
4223.832303742937
 30
0.0
 40
0.3
100
AcDbArc
 50
158.00000000001
 51
238.4590000000094
  0
ARC
  5
219A6
330
2
100
AcDbEntity
  8
DISEGNO
100
AcDbCircle
 10
2850.253294744753
 20
4216.119303742934
 30
0.0
 40
8.75
100
AcDbArc
 50
77.54059999999026
 51
103.4590000000024
  0
LINE
  5
219A7
330
2
100
AcDbEntity
  8
DISEGNO
100
AcDbLine
 10
2845.661494744755
 20
4223.865703742935
 30
0.0
 11
2845.374994744754
 21
4224.540803742935
 31
0.0
  0
ARC
  5
219A8
330
2
100
AcDbEntity
  8
DISEGNO
100
AcDbCircle
 10
2845.651094744754
 20
4224.658003742936
 30
0.0
 40
0.3
100
AcDbArc
 50
118.3240000000132
 51
203.0000000000043
  0
ARC
  5
219A9
330
2
100
AcDbEntity
  8
DISEGNO
100
AcDbCircle
 10
2847.307994744753
 20
4225.361303742935
 30
0.0
 40
0.3
100
AcDbArc
 50
23.00000000000434
 51
107.6760000000152
  0
ARC
  5
219AA
330
2
100
AcDbEntity
  8
DISEGNO
100
AcDbCircle
 10
2845.385294744754
 20
4223.748503742935
 30
0.0
 40
0.3
100
AcDbArc
 50
302.5409999999914
 51
23.00000000000434
  0
ARC
  5
219AB
330
2
100
AcDbEntity
  8
DISEGNO
100
AcDbCircle
 10
2850.253294744753
 20
4216.119303742934
 30
0.0
 40
10.0
100
AcDbArc
 50
107.6760000000152
 51
118.3240000000132
  0
LINE
  5
219AC
330
2
100
AcDbEntity
  8
DISEGNO
100
AcDbLine
 10
2847.870694744754
 20
4224.803503742935
 30
0.0
 11
2847.584194744753
 21
4225.478503742936
 31
0.0
  0
ARC
  5
219AD
330
2
100
AcDbEntity
  8
DISEGNO
100
AcDbCircle
 10
2848.146894744754
 20
4224.920703742935
 30
0.0
 40
0.3
100
AcDbArc
 50
203.0000000000043
 51
283.4590000000024
  0
ARC
  5
219AE
330
2
100
AcDbEntity
  8
DISEGNO
100
AcDbCircle
 10
2842.540294744753
 20
4220.853403742936
 30
0.0
 40
0.3
100
AcDbArc
 50
247.9999999999716
 51
328.4590000000009
  0
ARC
  5
219AF
330
2
100
AcDbEntity
  8
DISEGNO
100
AcDbCircle
 10
2841.635594744754
 20
4220.571803742936
 30
0.0
 40
0.3
100
AcDbArc
 50
67.99999999997152
 51
152.6759999999813
  0
LINE
  5
219B0
330
2
100
AcDbEntity
  8
DISEGNO
100
AcDbLine
 10
2842.427894744755
 20
4220.575203742935
 30
0.0
 11
2841.747894744754
 21
4220.849903742935
 31
0.0
  0
ARC
  5
219B1
330
2
100
AcDbEntity
  8
DISEGNO
100
AcDbCircle
 10
2850.253294744753
 20
4216.119303742934
 30
0.0
 40
8.75
100
AcDbArc
 50
122.5409999999913
 51
148.4590000000008
  0
ARC
  5
219B2
330
2
100
AcDbEntity
  8
DISEGNO
100
AcDbCircle
 10
2854.705794744754
 20
4224.737003742935
 30
0.0
 40
0.3
100
AcDbArc
 50
338.0000000000101
 51
62.676300000034
  0
LINE
  5
219B3
330
2
100
AcDbEntity
  8
DISEGNO
100
AcDbLine
 10
2838.381994744754
 20
4232.548203742935
 30
0.0
 11
2834.682194744754
 21
4236.248003742935
 31
0.0
  0
ARC
  5
219B4
330
2
100
AcDbEntity
  8
DISEGNO
100
AcDbCircle
 10
2841.753294744753
 20
4243.319003742936
 30
0.0
 40
10.0
100
AcDbArc
 50
180.0
 51
224.9999999999816
  0
ARC
  5
219B5
330
2
100
AcDbEntity
  8
DISEGNO
100
AcDbCircle
 10
2845.452994744754
 20
4239.619303742935
 30
0.0
 40
10.0
100
AcDbArc
 50
224.9999999999816
 51
270.0
  0
ARC
  5
219B6
330
2
100
AcDbEntity
  8
DISEGNO
100
AcDbCircle
 10
2850.253294744753
 20
4216.119303742934
 30
0.0
 40
8.75
100
AcDbArc
 50
33.54060000002019
 51
58.45949999999708
  0
LINE
  5
219B7
330
2
100
AcDbEntity
  8
DISEGNO
100
AcDbLine
 10
2859.753294744752
 20
4229.619303742935
 30
0.0
 11
2845.452994744754
 21
4229.619303742935
 31
0.0
  0
LINE
  5
219B8
330
2
100
AcDbEntity
  8
DISEGNO
100
AcDbLine
 10
2866.054794744754
 20
4214.369303742935
 30
0.0
 11
2884.451794744755
 21
4214.369303742935
 31
0.0
  0
ARC
  5
219B9
330
2
100
AcDbEntity
  8
DISEGNO
100
AcDbCircle
 10
2866.054794744754
 20
4211.369303742935
 30
0.0
 40
3.0
100
AcDbArc
 50
90.0
 51
163.2690000000042
  0
ARC
  5
219BA
330
2
100
AcDbEntity
  8
DISEGNO
100
AcDbCircle
 10
2850.253294744753
 20
4216.119303742934
 30
0.0
 40
8.75
100
AcDbArc
 50
348.5409999999908
 51
14.45940000000466
  0
ARC
  5
219BB
330
2
100
AcDbEntity
  8
DISEGNO
100
AcDbCircle
 10
2859.122894744754
 20
4214.321303742936
 30
0.0
 40
0.3
100
AcDbArc
 50
168.5409999999907
 51
249.00000000001
  0
ARC
  5
219BC
330
2
100
AcDbEntity
  8
DISEGNO
100
AcDbCircle
 10
2859.442494744753
 20
4219.225403742935
 30
0.0
 40
0.3
100
AcDbArc
 50
293.9999999999798
 51
18.67630000000522
  0
LINE
  5
219BD
330
2
100
AcDbEntity
  8
DISEGNO
100
AcDbLine
 10
2858.894594744754
 20
4218.653103742936
 30
0.0
 11
2859.564494744753
 21
4218.951403742936
 31
0.0
  0
ARC
  5
219BE
330
2
100
AcDbEntity
  8
DISEGNO
100
AcDbCircle
 10
2859.016594744755
 20
4218.379003742935
 30
0.0
 40
0.3
100
AcDbArc
 50
113.9999999999797
 51
194.4589999999941
  0
ARC
  5
219BF
330
2
100
AcDbEntity
  8
DISEGNO
100
AcDbCircle
 10
2858.947394744753
 20
4211.817903742936
 30
0.0
 40
0.3
100
AcDbArc
 50
249.00000000001
 51
333.6759999999868
  0
ARC
  5
219C0
330
2
100
AcDbEntity
  8
DISEGNO
100
AcDbCircle
 10
2859.592494744754
 20
4213.498303742936
 30
0.0
 40
0.3
100
AcDbArc
 50
344.3240000000011
 51
69.00000000000995
  0
ARC
  5
219C1
330
2
100
AcDbEntity
  8
DISEGNO
100
AcDbCircle
 10
2850.253294744753
 20
4216.119303742934
 30
0.0
 40
10.0
100
AcDbArc
 50
333.6759999999868
 51
344.3240000000011
  0
ARC
  5
219C2
330
2
100
AcDbEntity
  8
DISEGNO
100
AcDbCircle
 10
2858.047794744753
 20
4211.520503742934
 30
0.0
 40
0.3
100
AcDbArc
 50
69.00000000000995
 51
149.4589999999985
  0
LINE
  5
219C3
330
2
100
AcDbEntity
  8
DISEGNO
100
AcDbLine
 10
2858.155294744755
 20
4211.800603742935
 30
0.0
 11
2858.839894744755
 21
4211.537803742936
 31
0.0
  0
LINE
  5
219C4
330
2
100
AcDbEntity
  8
DISEGNO
100
AcDbLine
 10
2859.015394744753
 20
4214.041203742936
 30
0.0
 11
2859.699994744753
 21
4213.778403742935
 31
0.0
  0
LINE
  5
219C5
330
2
100
AcDbEntity
  8
DISEGNO
100
AcDbLine
 10
2866.753294744753
 20
4217.869303742935
 30
0.0
 11
2883.753294744753
 21
4217.869303742935
 31
0.0
  0
ARC
  5
219C6
330
2
100
AcDbEntity
  8
DISEGNO
100
AcDbCircle
 10
2855.253294744753
 20
4200.395103742936
 30
0.0
 40
3.0
100
AcDbArc
 50
107.6399999999765
 51
180.0
  0
ARC
  5
219C7
330
2
100
AcDbEntity
  8
DISEGNO
100
AcDbCircle
 10
2855.253294744753
 20
4194.763103742936
 30
0.0
 40
3.0
100
AcDbArc
 50
180.0
 51
261.849000000012
  0
LINE
  5
219C8
330
2
100
AcDbEntity
  8
DISEGNO
100
AcDbLine
 10
2848.253294744753
 20
4194.763103742936
 30
0.0
 11
2848.253294744753
 21
4199.871203742936
 31
0.0
  0
LINE
  5
219C9
330
2
100
AcDbEntity
  8
DISEGNO
100
AcDbLine
 10
2852.253294744753
 20
4194.763103742936
 30
0.0
 11
2852.253294744753
 21
4200.395103742936
 31
0.0
  0
ARC
  5
219CA
330
2
100
AcDbEntity
  8
DISEGNO
100
AcDbCircle
 10
2850.253294744753
 20
4216.119303742934
 30
0.0
 40
14.0
100
AcDbArc
 50
247.1000000000125
 51
252.8950000000127
  0
ARC
  5
219CB
330
2
100
AcDbEntity
  8
DISEGNO
100
AcDbCircle
 10
2845.253294744752
 20
4194.763103742936
 30
0.0
 40
3.0
100
AcDbArc
 50
278.150999999988
 51
0.0
  0
ARC
  5
219CC
330
2
100
AcDbEntity
  8
DISEGNO
100
AcDbCircle
 10
2845.253294744752
 20
4199.871203742936
 30
0.0
 40
3.0
100
AcDbArc
 50
0.0
 51
72.89540000003147
  0
ARC
  5
219CD
330
2
100
AcDbEntity
  8
DISEGNO
100
AcDbCircle
 10
2834.253294744753
 20
4205.869303742935
 30
0.0
 40
5.0
100
AcDbArc
 50
270.0
 51
310.7200000000137
  0
ARC
  5
219CE
330
2
100
AcDbEntity
  8
DISEGNO
100
AcDbCircle
 10
2842.081694744755
 20
4196.774403742937
 30
0.0
 40
7.0
100
AcDbArc
 50
67.09989999997732
 51
130.7200000000136
  0
ARC
  5
219CF
330
2
100
AcDbEntity
  8
DISEGNO
100
AcDbCircle
 10
2855.003794744755
 20
4207.662203742935
 30
0.0
 40
0.3
100
AcDbArc
 50
299.3240000000181
 51
24.00000000000358
  0
ARC
  5
219D0
330
2
100
AcDbEntity
  8
DISEGNO
100
AcDbCircle
 10
2853.359394744753
 20
4206.930003742935
 30
0.0
 40
0.3
100
AcDbArc
 50
204.0000000000036
 51
288.6760000000252
  0
LINE
  5
219D1
330
2
100
AcDbEntity
  8
DISEGNO
100
AcDbLine
 10
2852.787094744753
 20
4207.478003742935
 30
0.0
 11
2853.085394744754
 21
4206.808003742935
 31
0.0
  0
ARC
  5
219D2
330
2
100
AcDbEntity
  8
DISEGNO
100
AcDbCircle
 10
2852.512994744755
 20
4207.355903742935
 30
0.0
 40
0.3
100
AcDbArc
 50
24.00000000000358
 51
104.4589999999754
  0
ARC
  5
219D3
330
2
100
AcDbEntity
  8
DISEGNO
100
AcDbCircle
 10
2848.455294744754
 20
4207.249703742935
 30
0.0
 40
0.3
100
AcDbArc
 50
78.54060000001107
 51
159.0000000000193
  0
ARC
  5
219D4
330
2
100
AcDbEntity
  8
DISEGNO
100
AcDbCircle
 10
2850.253294744753
 20
4216.119303742934
 30
0.0
 40
8.75
100
AcDbArc
 50
258.5409999999959
 51
284.4589999999754
  0
ARC
  5
219D5
330
2
100
AcDbEntity
  8
DISEGNO
100
AcDbCircle
 10
2850.253294744753
 20
4216.119303742934
 30
0.0
 40
8.75
100
AcDbArc
 50
167.5409999999835
 51
193.4590000000024
  0
ARC
  5
219D6
330
2
100
AcDbEntity
  8
DISEGNO
100
AcDbCircle
 10
2841.416394744754
 20
4218.071803742936
 30
0.0
 40
0.3
100
AcDbArc
 50
347.5409999999836
 51
67.99999999997152
  0
ARC
  5
219D7
330
2
100
AcDbEntity
  8
DISEGNO
100
AcDbCircle
 10
2850.253294744753
 20
4216.119303742934
 30
0.0
 40
10.0
100
AcDbArc
 50
243.6760000000216
 51
254.3240000000082
  0
ARC
  5
219D8
330
2
100
AcDbEntity
  8
DISEGNO
100
AcDbCircle
 10
2845.951894744752
 20
4207.425103742934
 30
0.0
 40
0.3
100
AcDbArc
 50
159.0000000000193
 51
243.6760000000216
  0
LINE
  5
219D9
330
2
100
AcDbEntity
  8
DISEGNO
100
AcDbLine
 10
2845.671794744752
 20
4207.532703742936
 30
0.0
 11
2845.934594744753
 21
4208.217303742936
 31
0.0
  0
ARC
  5
219DA
330
2
100
AcDbEntity
  8
DISEGNO
100
AcDbCircle
 10
2845.654594744754
 20
4208.324803742935
 30
0.0
 40
0.3
100
AcDbArc
 50
339.0000000000193
 51
59.45950000002035
  0
LINE
  5
219DB
330
2
100
AcDbEntity
  8
DISEGNO
100
AcDbLine
 10
2840.893994744753
 20
4213.450103742936
 30
0.0
 11
2841.569094744753
 21
4213.736703742935
 31
0.0
  0
ARC
  5
219DC
330
2
100
AcDbEntity
  8
DISEGNO
100
AcDbCircle
 10
2842.624094744753
 20
4211.251303742936
 30
0.0
 40
0.3
100
AcDbArc
 50
32.54059999998503
 51
113.0000000000043
  0
ARC
  5
219DD
330
2
100
AcDbEntity
  8
DISEGNO
100
AcDbCircle
 10
2841.714594744754
 20
4211.517103742935
 30
0.0
 40
0.3
100
AcDbArc
 50
208.3239999999903
 51
293.0000000000043
  0
LINE
  5
219DE
330
2
100
AcDbEntity
  8
DISEGNO
100
AcDbLine
 10
2841.831794744754
 20
4211.240903742935
 30
0.0
 11
2842.506794744754
 21
4211.527503742936
 31
0.0
  0
ARC
  5
219DF
330
2
100
AcDbEntity
  8
DISEGNO
100
AcDbCircle
 10
2850.253294744753
 20
4216.119303742934
 30
0.0
 40
8.75
100
AcDbArc
 50
212.5409999999993
 51
239.4589999999853
  0
ARC
  5
219E0
330
2
100
AcDbEntity
  8
DISEGNO
100
AcDbCircle
 10
2841.451894744752
 20
4214.012803742934
 30
0.0
 40
0.3
100
AcDbArc
 50
293.0000000000043
 51
13.45949999999408
  0
LINE
  5
219E1
330
2
100
AcDbEntity
  8
DISEGNO
100
AcDbLine
 10
2847.912394744753
 20
4206.672603742936
 30
0.0
 11
2848.175194744754
 21
4207.357203742935
 31
0.0
  0
ARC
  5
219E2
330
2
100
AcDbEntity
  8
DISEGNO
100
AcDbCircle
 10
2847.632294744754
 20
4206.780103742936
 30
0.0
 40
0.3
100
AcDbArc
 50
254.3240000000082
 51
339.0000000000193
  0
ARC
  5
219E3
330
2
100
AcDbEntity
  8
DISEGNO
100
AcDbCircle
 10
2850.253294744753
 20
4216.119303742934
 30
0.0
 40
10.0
100
AcDbArc
 50
288.6760000000252
 51
299.3240000000181
  0
ARC
  5
219E4
330
2
100
AcDbEntity
  8
DISEGNO
100
AcDbCircle
 10
2855.253694744753
 20
4208.576103742936
 30
0.0
 40
0.3
100
AcDbArc
 50
123.5410000000114
 51
204.0000000000036
  0
LINE
  5
219E5
330
2
100
AcDbEntity
  8
DISEGNO
100
AcDbLine
 10
2854.979594744755
 20
4208.454103742935
 30
0.0
 11
2855.277894744753
 21
4207.784203742936
 31
0.0
  0
ARC
  5
219E6
330
2
100
AcDbEntity
  8
DISEGNO
100
AcDbCircle
 10
2840.961294744755
 20
4218.902803742936
 30
0.0
 40
0.3
100
AcDbArc
 50
163.3240000000041
 51
247.9999999999716
  0
ARC
  5
219E7
330
2
100
AcDbEntity
  8
DISEGNO
100
AcDbCircle
 10
2833.570594744753
 20
4206.869303742934
 30
0.0
 40
1.0
100
AcDbArc
 50
270.0
 51
339.3799999999986
  0
LINE
  5
219E8
330
2
100
AcDbEntity
  8
DISEGNO
100
AcDbLine
 10
2841.528794744752
 20
4218.350003742934
 30
0.0
 11
2840.848894744753
 21
4218.624703742935
 31
0.0
  0
ARC
  5
219E9
330
2
100
AcDbEntity
  8
DISEGNO
100
AcDbCircle
 10
2850.253294744753
 20
4216.119303742934
 30
0.0
 40
10.0
100
AcDbArc
 50
197.6759999999904
 51
208.3239999999903
  0
ARC
  5
219EA
330
2
100
AcDbEntity
  8
DISEGNO
100
AcDbCircle
 10
2841.011294744755
 20
4213.174003742935
 30
0.0
 40
0.3
100
AcDbArc
 50
113.0000000000043
 51
197.6759999999904
  0
ARC
  5
219EB
330
2
100
AcDbEntity
  8
DISEGNO
100
AcDbCircle
 10
2850.253294744753
 20
4216.119303742934
 30
0.0
 40
13.5
100
AcDbArc
 50
287.6399999999766
 51
343.2690000000043
  0
ARC
  5
219EC
330
2
100
AcDbEntity
  8
DISEGNO
100
AcDbCircle
 10
2850.253294744753
 20
4216.119303742934
 30
0.0
 40
8.75
100
AcDbArc
 50
303.5410000000114
 51
329.4589999999986
  0
ARC
  5
219ED
330
2
100
AcDbEntity
  8
DISEGNO
100
AcDbCircle
 10
2866.753294744753
 20
4221.869303742934
 30
0.0
 40
4.0
100
AcDbArc
 50
180.0
 51
270.0
  0
ARC
  5
219EE
330
2
100
AcDbEntity
  8
DISEGNO
100
AcDbCircle
 10
2850.253294744753
 20
4216.119303742934
 30
0.0
 40
10.0
100
AcDbArc
 50
18.67630000000522
 51
29.3238000000027
  0
ARC
  5
219EF
330
2
100
AcDbEntity
  8
DISEGNO
100
AcDbCircle
 10
2808.987694744754
 20
4216.119303742934
 30
0.0
 40
27.2656
100
AcDbArc
 50
339.3799999999986
 51
20.62020000001693
  0
ARC
  5
219F0
330
2
100
AcDbEntity
  8
DISEGNO
100
AcDbCircle
 10
2850.253294744753
 20
4216.119303742934
 30
0.0
 40
10.0
100
AcDbArc
 50
152.6759999999813
 51
163.3240000000041
  0
LINE
  5
219F1
330
2
100
AcDbEntity
  8
DISEGNO
100
AcDbLine
 10
2822.253294744753
 20
4326.369603742936
 30
0.0
 11
2833.570594744753
 21
4326.369603742936
 31
0.0
  0
LINE
  5
219F2
330
2
100
AcDbEntity
  8
DISEGNO
100
AcDbLine
 10
2826.253294744752
 20
4331.369603742937
 30
0.0
 11
2834.253294744753
 21
4331.369603742937
 31
0.0
  0
LINE
  5
219F3
330
2
100
AcDbEntity
  8
DISEGNO
100
AcDbLine
 10
2833.570594744753
 20
4305.869603742936
 30
0.0
 11
2822.253294744753
 21
4305.869603742936
 31
0.0
  0
ARC
  5
219F4
330
2
100
AcDbEntity
  8
DISEGNO
100
AcDbCircle
 10
2826.253294744752
 20
4336.369603742936
 30
0.0
 40
5.0
100
AcDbArc
 50
180.0
 51
270.0
  0
LINE
  5
219F5
330
2
100
AcDbEntity
  8
DISEGNO
100
AcDbLine
 10
2822.253294744753
 20
4309.869603742936
 30
0.0
 11
2815.253294744753
 21
4309.869603742936
 31
0.0
  0
LINE
  5
219F6
330
2
100
AcDbEntity
  8
DISEGNO
100
AcDbLine
 10
2822.253294744753
 20
4326.369603742936
 30
0.0
 11
2822.253294744753
 21
4322.369603742936
 31
0.0
  0
LINE
  5
219F7
330
2
100
AcDbEntity
  8
DISEGNO
100
AcDbLine
 10
2815.253294744753
 20
4322.369603742936
 30
0.0
 11
2822.253294744753
 21
4322.369603742936
 31
0.0
  0
ARC
  5
219F8
330
2
100
AcDbEntity
  8
DISEGNO
100
AcDbCircle
 10
2824.253294744753
 20
4289.428803742936
 30
0.0
 40
1.0
100
AcDbArc
 50
0.0
 51
119.9999999999973
  0
LINE
  5
219F9
330
2
100
AcDbEntity
  8
DISEGNO
100
AcDbLine
 10
2815.253294744753
 20
4286.619403742935
 30
0.0
 11
2817.387294744755
 21
4286.619403742935
 31
0.0
  0
LINE
  5
219FA
330
2
100
AcDbEntity
  8
DISEGNO
100
AcDbLine
 10
2817.387294744755
 20
4286.619403742935
 30
0.0
 11
2823.753294744753
 21
4290.294903742934
 31
0.0
  0
LINE
  5
219FB
330
2
100
AcDbEntity
  8
DISEGNO
100
AcDbLine
 10
2822.253294744753
 20
4309.869603742936
 30
0.0
 11
2822.253294744753
 21
4305.869603742936
 31
0.0
  0
LINE
  5
219FC
330
2
100
AcDbEntity
  8
DISEGNO
100
AcDbLine
 10
2815.253294744753
 20
4309.869603742935
 30
0.0
 11
2815.253294744753
 21
4286.619403742935
 31
0.0
  0
LINE
  5
21A03
330
2
100
AcDbEntity
  8
DISEGNO
100
AcDbLine
 10
2858.922994744755
 20
4321.103303742935
 30
0.0
 11
2857.762694744753
 21
4320.610803742935
 31
0.0
  0
ARC
  5
21A04
330
2
100
AcDbEntity
  8
DISEGNO
100
AcDbCircle
 10
2850.253294744753
 20
4316.119603742936
 30
0.0
 40
10.0
100
AcDbArc
 50
16.10790000001396
 51
29.89210000001184
  0
ARC
  5
21A05
330
2
100
AcDbEntity
  8
DISEGNO
100
AcDbCircle
 10
2866.753294744753
 20
4310.369603742937
 30
0.0
 40
4.0
100
AcDbArc
 50
90.0
 51
180.0
  0
LINE
  5
21A06
330
2
100
AcDbEntity
  8
DISEGNO
100
AcDbLine
 10
2866.054794744754
 20
4317.869603742936
 30
0.0
 11
2884.451794744755
 21
4317.869603742936
 31
0.0
  0
ARC
  5
21A07
330
2
100
AcDbEntity
  8
DISEGNO
100
AcDbCircle
 10
2866.054794744754
 20
4320.869603742936
 30
0.0
 40
3.0
100
AcDbArc
 50
196.7309999999958
 51
270.0
  0
ARC
  5
21A08
330
2
100
AcDbEntity
  8
DISEGNO
100
AcDbCircle
 10
2850.253294744753
 20
4316.119603742936
 30
0.0
 40
8.75
100
AcDbArc
 50
345.883000000007
 51
15.11750000000352
  0
LINE
  5
21A09
330
2
100
AcDbEntity
  8
DISEGNO
100
AcDbLine
 10
2858.738994744754
 20
4313.985403742935
 30
0.0
 11
2859.907694744754
 21
4313.513203742935
 31
0.0
  0
LINE
  5
21A0A
330
2
100
AcDbEntity
  8
DISEGNO
100
AcDbLine
 10
2859.860694744753
 20
4318.894103742936
 30
0.0
 11
2858.700494744755
 21
4318.401603742936
 31
0.0
  0
LINE
  5
21A0B
330
2
100
AcDbEntity
  8
DISEGNO
100
AcDbLine
 10
2857.839994744752
 20
4311.760103742936
 30
0.0
 11
2859.008594744754
 21
4311.288003742935
 31
0.0
  0
ARC
  5
21A0C
330
2
100
AcDbEntity
  8
DISEGNO
100
AcDbCircle
 10
2850.253294744753
 20
4316.119603742936
 30
0.0
 40
10.0
100
AcDbArc
 50
331.1080000000092
 51
344.8919999999946
  0
LINE
  5
21A0D
330
2
100
AcDbEntity
  8
DISEGNO
100
AcDbLine
 10
2866.753294744753
 20
4314.369603742936
 30
0.0
 11
2883.753294744753
 21
4314.369603742936
 31
0.0
  0
ARC
  5
21A0E
330
2
100
AcDbEntity
  8
DISEGNO
100
AcDbCircle
 10
2860.503294744752
 20
4347.119503742935
 30
0.0
 40
5.0
100
AcDbArc
 50
292.0820000000134
 51
0.0
  0
ARC
  5
21A0F
330
2
100
AcDbEntity
  8
DISEGNO
100
AcDbCircle
 10
2859.503294744753
 20
4347.802203742936
 30
0.0
 40
1.0
100
AcDbArc
 50
290.6200000000106
 51
0.0000053719631672
  0
LINE
  5
21A10
330
2
100
AcDbEntity
  8
DISEGNO
100
AcDbLine
 10
2841.583594744754
 20
4321.103303742935
 30
0.0
 11
2842.743894744754
 21
4320.610803742935
 31
0.0
  0
ARC
  5
21A11
330
2
100
AcDbEntity
  8
DISEGNO
100
AcDbCircle
 10
2850.253294744753
 20
4316.119603742936
 30
0.0
 40
8.75
100
AcDbArc
 50
118.8830000000203
 51
149.1169999999986
  0
ARC
  5
21A12
330
2
100
AcDbEntity
  8
DISEGNO
100
AcDbCircle
 10
2808.987694744754
 20
4316.119603742936
 30
0.0
 40
27.2656
100
AcDbArc
 50
339.3799999999986
 51
20.62020000001693
  0
ARC
  5
21A13
330
2
100
AcDbEntity
  8
DISEGNO
100
AcDbCircle
 10
2850.253294744753
 20
4316.119603742936
 30
0.0
 40
10.0
100
AcDbArc
 50
150.1080000000065
 51
163.8920000000043
  0
LINE
  5
21A14
330
2
100
AcDbEntity
  8
DISEGNO
100
AcDbLine
 10
2852.535294744754
 20
4307.672403742936
 30
0.0
 11
2853.027794744754
 21
4306.512203742935
 31
0.0
  0
ARC
  5
21A15
330
2
100
AcDbEntity
  8
DISEGNO
100
AcDbCircle
 10
2850.253294744753
 20
4316.119603742936
 30
0.0
 40
8.75
100
AcDbArc
 50
254.8830000000151
 51
285.1169999999848
  0
ARC
  5
21A16
330
2
100
AcDbEntity
  8
DISEGNO
100
AcDbCircle
 10
2850.253294744753
 20
4316.119603742936
 30
0.0
 40
8.75
100
AcDbArc
 50
164.8830000000151
 51
194.116999999993
  0
LINE
  5
21A17
330
2
100
AcDbEntity
  8
DISEGNO
100
AcDbLine
 10
2845.762094744754
 20
4308.610103742936
 30
0.0
 11
2845.269594744754
 21
4307.449903742936
 31
0.0
  0
ARC
  5
21A18
330
2
100
AcDbEntity
  8
DISEGNO
100
AcDbCircle
 10
2850.253294744753
 20
4316.119603742936
 30
0.0
 40
10.0
100
AcDbArc
 50
240.107999999997
 51
253.8920000000221
  0
LINE
  5
21A19
330
2
100
AcDbEntity
  8
DISEGNO
100
AcDbLine
 10
2842.666594744753
 20
4311.760103742936
 30
0.0
 11
2841.497994744754
 21
4311.288003742935
 31
0.0
  0
ARC
  5
21A1A
330
2
100
AcDbEntity
  8
DISEGNO
100
AcDbCircle
 10
2850.253294744753
 20
4316.119603742936
 30
0.0
 40
8.75
100
AcDbArc
 50
211.5409999999992
 51
239.1169999999986
  0
LINE
  5
21A1B
330
2
100
AcDbEntity
  8
DISEGNO
100
AcDbLine
 10
2847.971294744754
 20
4307.672403742936
 30
0.0
 11
2847.478794744753
 21
4306.512203742935
 31
0.0
  0
ARC
  5
21A1C
330
2
100
AcDbEntity
  8
DISEGNO
100
AcDbCircle
 10
2850.253294744753
 20
4316.119603742936
 30
0.0
 40
10.0
100
AcDbArc
 50
286.1079999999779
 51
299.8920000000031
  0
LINE
  5
21A1D
330
2
100
AcDbEntity
  8
DISEGNO
100
AcDbLine
 10
2854.744494744753
 20
4308.610103742936
 30
0.0
 11
2855.236994744754
 21
4307.449903742936
 31
0.0
  0
LINE
  5
21A1E
330
2
100
AcDbEntity
  8
DISEGNO
100
AcDbLine
 10
2840.645894744754
 20
4318.894103742936
 30
0.0
 11
2841.806094744754
 21
4318.401603742936
 31
0.0
  0
LINE
  5
21A1F
330
2
100
AcDbEntity
  8
DISEGNO
100
AcDbLine
 10
2841.767594744754
 20
4313.985403742935
 30
0.0
 11
2840.598894744753
 21
4313.513203742935
 31
0.0
  0
ARC
  5
21A20
330
2
100
AcDbEntity
  8
DISEGNO
100
AcDbCircle
 10
2850.253294744753
 20
4316.119603742936
 30
0.0
 40
10.0
100
AcDbArc
 50
195.1080000000054
 51
208.8919999999907
  0
ARC
  5
21A21
330
2
100
AcDbEntity
  8
DISEGNO
100
AcDbCircle
 10
2855.253294744753
 20
4337.475803742936
 30
0.0
 40
3.0
100
AcDbArc
 50
98.15089999998491
 51
180.0
  0
ARC
  5
21A22
330
2
100
AcDbEntity
  8
DISEGNO
100
AcDbCircle
 10
2845.253294744752
 20
4337.475803742936
 30
0.0
 40
3.0
100
AcDbArc
 50
0.0000053719631672
 51
81.84910000001508
  0
ARC
  5
21A23
330
2
100
AcDbEntity
  8
DISEGNO
100
AcDbCircle
 10
2850.253294744753
 20
4316.119603742936
 30
0.0
 40
10.0
100
AcDbArc
 50
62.10790000001559
 51
75.89209999998513
  0
LINE
  5
21A24
330
2
100
AcDbEntity
  8
DISEGNO
100
AcDbLine
 10
2852.690794744752
 20
4325.818003742935
 30
0.0
 11
2852.239094744755
 21
4324.641303742935
 31
0.0
  0
LINE
  5
21A25
330
2
100
AcDbEntity
  8
DISEGNO
100
AcDbLine
 10
2854.931394744754
 20
4324.957903742935
 30
0.0
 11
2854.479694744754
 21
4323.781203742935
 31
0.0
  0
ARC
  5
21A26
330
2
100
AcDbEntity
  8
DISEGNO
100
AcDbCircle
 10
2850.253294744753
 20
4316.119603742936
 30
0.0
 40
8.75
100
AcDbArc
 50
76.8825000000012
 51
103.1169999999975
  0
ARC
  5
21A27
330
2
100
AcDbEntity
  8
DISEGNO
100
AcDbCircle
 10
2855.253294744753
 20
4331.843803742935
 30
0.0
 40
3.0
100
AcDbArc
 50
180.0
 51
252.3600000000234
  0
ARC
  5
21A28
330
2
100
AcDbEntity
  8
DISEGNO
100
AcDbCircle
 10
2850.253294744753
 20
4316.119603742936
 30
0.0
 40
14.0
100
AcDbArc
 50
107.1049999999873
 51
112.8999999999875
  0
ARC
  5
21A29
330
2
100
AcDbEntity
  8
DISEGNO
100
AcDbCircle
 10
2850.253294744753
 20
4316.119603742936
 30
0.0
 40
10.0
100
AcDbArc
 50
104.1079999999652
 51
117.8920000000088
  0
LINE
  5
21A2A
330
2
100
AcDbEntity
  8
DISEGNO
100
AcDbLine
 10
2845.575194744754
 20
4324.957903742935
 30
0.0
 11
2846.026894744753
 21
4323.781203742935
 31
0.0
  0
LINE
  5
21A2B
330
2
100
AcDbEntity
  8
DISEGNO
100
AcDbLine
 10
2847.815794744753
 20
4325.818003742935
 30
0.0
 11
2848.267494744754
 21
4324.641303742935
 31
0.0
  0
ARC
  5
21A2C
330
2
100
AcDbEntity
  8
DISEGNO
100
AcDbCircle
 10
2845.253294744752
 20
4332.367703742935
 30
0.0
 40
3.0
100
AcDbArc
 50
287.1049999999872
 51
0.0
  0
LINE
  5
21A2D
330
2
100
AcDbEntity
  8
DISEGNO
100
AcDbLine
 10
2848.253294744753
 20
4337.475803742936
 30
0.0
 11
2848.253294744753
 21
4332.367703742935
 31
0.0
  0
LINE
  5
21A2E
330
2
100
AcDbEntity
  8
DISEGNO
100
AcDbLine
 10
2852.253294744753
 20
4337.475803742936
 30
0.0
 11
2852.253294744753
 21
4331.843803742935
 31
0.0
  0
ARC
  5
21A2F
330
2
100
AcDbEntity
  8
DISEGNO
100
AcDbCircle
 10
2841.003294744753
 20
4347.802203742936
 30
0.0
 40
1.0
100
AcDbArc
 50
180.0
 51
249.3799999999894
  0
ARC
  5
21A30
330
2
100
AcDbEntity
  8
DISEGNO
100
AcDbCircle
 10
2840.003294744753
 20
4347.119503742935
 30
0.0
 40
5.0
100
AcDbArc
 50
180.0
 51
247.9179999999867
  0
ARC
  5
21A31
330
2
100
AcDbEntity
  8
DISEGNO
100
AcDbCircle
 10
2834.253294744753
 20
4326.369603742936
 30
0.0
 40
5.0
100
AcDbArc
 50
49.27999999998636
 51
90.0
  0
ARC
  5
21A32
330
2
100
AcDbEntity
  8
DISEGNO
100
AcDbCircle
 10
2833.570594744753
 20
4325.369603742936
 30
0.0
 40
1.0
100
AcDbArc
 50
20.62020000001693
 51
90.0
  0
ARC
  5
21A33
330
2
100
AcDbEntity
  8
DISEGNO
100
AcDbCircle
 10
2842.081694744755
 20
4335.464503742936
 30
0.0
 40
7.0
100
AcDbArc
 50
229.2799999999864
 51
292.8999999999875
  0
ARC
  5
21A34
330
2
100
AcDbEntity
  8
DISEGNO
100
AcDbCircle
 10
2850.253294744753
 20
4372.385403742935
 30
0.0
 40
32.2656
100
AcDbArc
 50
247.9179999999867
 51
261.849000000012
  0
ARC
  5
21A35
330
2
100
AcDbEntity
  8
DISEGNO
100
AcDbCircle
 10
2850.253294744753
 20
4316.119603742936
 30
0.0
 40
13.5
100
AcDbArc
 50
16.73099999999576
 51
72.36029999998837
  0
ARC
  5
21A36
330
2
100
AcDbEntity
  8
DISEGNO
100
AcDbCircle
 10
2850.253294744753
 20
4316.119603742936
 30
0.0
 40
8.75
100
AcDbArc
 50
30.54059999999648
 51
61.11749999999143
  0
ARC
  5
21A37
330
2
100
AcDbEntity
  8
DISEGNO
100
AcDbCircle
 10
2850.253294744753
 20
4316.119603742936
 30
0.0
 40
8.75
100
AcDbArc
 50
300.8830000000014
 51
330.1169999999941
  0
ARC
  5
21A38
330
2
100
AcDbEntity
  8
DISEGNO
100
AcDbCircle
 10
2850.253294744753
 20
4372.385403742935
 30
0.0
 40
32.2656
100
AcDbArc
 50
278.150999999988
 51
292.0820000000134
  0
ARC
  5
21A39
330
2
100
AcDbEntity
  8
DISEGNO
100
AcDbCircle
 10
2850.253294744753
 20
4372.385403742935
 30
0.0
 40
27.2656
100
AcDbArc
 50
249.3799999999894
 51
290.6200000000106
  0
ARC
  5
21A3A
330
2
100
AcDbEntity
  8
DISEGNO
100
AcDbCircle
 10
2859.753294744752
 20
4305.619603742936
 30
0.0
 40
3.0
100
AcDbArc
 50
270.0
 51
0.0
  0
LINE
  5
21A3B
330
2
100
AcDbEntity
  8
DISEGNO
100
AcDbLine
 10
2838.381994744754
 20
4299.690703742935
 30
0.0
 11
2834.682194744754
 21
4295.990903742935
 31
0.0
  0
ARC
  5
21A3C
330
2
100
AcDbEntity
  8
DISEGNO
100
AcDbCircle
 10
2841.753294744753
 20
4288.919803742936
 30
0.0
 40
10.0
100
AcDbArc
 50
135.0000000000184
 51
180.0
  0
ARC
  5
21A3D
330
2
100
AcDbEntity
  8
DISEGNO
100
AcDbCircle
 10
2845.452994744754
 20
4292.619603742936
 30
0.0
 40
10.0
100
AcDbArc
 50
90.0
 51
135.0000000000184
  0
LINE
  5
21A3E
330
2
100
AcDbEntity
  8
DISEGNO
100
AcDbLine
 10
2859.753294744752
 20
4302.619603742936
 30
0.0
 11
2845.452994744754
 21
4302.619603742936
 31
0.0
  0
LINE
  5
21A3F
330
2
100
AcDbEntity
  8
DISEGNO
100
AcDbLine
 10
2862.753294744753
 20
4305.619603742936
 30
0.0
 11
2862.753294744753
 21
4310.369603742937
 31
0.0
  0
ARC
  5
21A40
330
2
100
AcDbEntity
  8
DISEGNO
100
AcDbCircle
 10
2833.570594744753
 20
4306.869603742936
 30
0.0
 40
1.0
100
AcDbArc
 50
270.0
 51
339.3799999999986
  0
LINE
  5
21AD5
330
2
100
AcDbEntity
  8
DISEGNO
100
AcDbLine
 10
2816.253294744753
 20
4366.119403742936
 30
0.0
 11
2844.003294744753
 21
4366.119403742937
 31
0.0
  0
LINE
  5
21AD6
330
2
100
AcDbEntity
  8
DISEGNO
100
AcDbLine
 10
2830.003294744753
 20
4360.119503742935
 30
0.0
 11
2826.253294744752
 21
4360.119503742935
 31
0.0
  0
ARC
  5
21AD7
330
2
100
AcDbEntity
  8
DISEGNO
100
AcDbCircle
 10
2826.253294744752
 20
4355.119503742935
 30
0.0
 40
5.0
100
AcDbArc
 50
90.0
 51
180.0
  0
ARC
  5
21AD8
330
2
100
AcDbEntity
  8
DISEGNO
100
AcDbCircle
 10
2816.253294744753
 20
4365.119503742935
 30
0.0
 40
1.0
100
AcDbArc
 50
90.0
 51
180.0
  0
ARC
  5
21B01
330
2
100
AcDbEntity
  8
DISEGNO
100
AcDbCircle
 10
2870.503294744753
 20
4355.119503742935
 30
0.0
 40
5.0
100
AcDbArc
 50
90.0
 51
180.0
  0
LINE
  5
21B02
330
2
100
AcDbEntity
  8
DISEGNO
100
AcDbLine
 10
2870.503294744753
 20
4360.119503742935
 30
0.0
 11
2880.003294744753
 21
4360.119503742935
 31
0.0
  0
LINE
  5
21B09
330
2
100
AcDbEntity
  8
DISEGNO
100
AcDbLine
 10
2856.503294744753
 20
4359.155603742936
 30
0.0
 11
2856.503294744753
 21
4366.119403742936
 31
0.0
  0
LINE
  5
21B0A
330
2
100
AcDbEntity
  8
DISEGNO
100
AcDbLine
 10
2844.003294744753
 20
4366.119403742936
 30
0.0
 11
2844.003294744753
 21
4359.155603742936
 31
0.0
  0
ARC
  5
21B0B
330
2
100
AcDbEntity
  8
DISEGNO
100
AcDbCircle
 10
2830.003294744753
 20
4355.119503742935
 30
0.0
 40
5.0
100
AcDbArc
 50
0.0
 51
90.0
  0
LINE
  5
21B0C
330
2
100
AcDbEntity
  8
DISEGNO
100
AcDbLine
 10
2840.003294744753
 20
4359.155603742936
 30
0.0
 11
2844.003294744753
 21
4359.155603742936
 31
0.0
  0
LINE
  5
21B0D
330
2
100
AcDbEntity
  8
DISEGNO
100
AcDbLine
 10
2875.253294588367
 20
4366.119403742936
 30
0.0
 11
2856.503294744753
 21
4366.119403742936
 31
0.0
  0
LINE
  5
21B0E
330
2
100
AcDbEntity
  8
DISEGNO
100
AcDbLine
 10
2856.503294744753
 20
4359.155603742936
 30
0.0
 11
2860.503294744752
 21
4359.155603742936
 31
0.0
  0
LINE
  5
21C64
330
2
100
AcDbEntity
  8
DISEGNO
100
AcDbLine
 10
2890.003294744753
 20
4347.802203742936
 30
0.0
 11
2890.003294744753
 21
4359.155603742936
 31
0.0
  0
LINE
  5
21C65
330
2
100
AcDbEntity
  8
DISEGNO
100
AcDbLine
 10
2915.503294744753
 20
4347.119503742935
 30
0.0
 11
2915.503294744753
 21
4355.119503742935
 31
0.0
  0
LINE
  5
21C66
330
2
100
AcDbEntity
  8
DISEGNO
100
AcDbLine
 10
2910.503294744753
 20
4359.155603742936
 30
0.0
 11
2910.503294744753
 21
4347.802203742936
 31
0.0
  0
LINE
  5
21C67
330
2
100
AcDbEntity
  8
DISEGNO
100
AcDbLine
 10
2929.253294744753
 20
4355.119503742935
 30
0.0
 11
2929.253294744753
 21
4336.369603742936
 31
0.0
  0
LINE
  5
21C68
330
2
100
AcDbEntity
  8
DISEGNO
100
AcDbLine
 10
2935.253294744752
 20
4365.119503742935
 30
0.0
 11
2935.253294744752
 21
4322.369603742936
 31
0.0
  0
LINE
  5
21C6C
330
2
100
AcDbEntity
  8
ASSI
100
AcDbLine
 10
2900.253294744753
 20
4157.568646756772
 30
0.0
 11
2900.253294744753
 21
4375.669647262332
 31
0.0
  0
LINE
  5
21CDA
330
2
100
AcDbEntity
  8
DISEGNO
100
AcDbLine
 10
2935.253294744752
 20
4206.119403742936
 30
0.0
 11
2935.253294744752
 21
4170.119403742936
 31
0.0
  0
LINE
  5
21CDB
330
2
100
AcDbEntity
  8
DISEGNO
100
AcDbLine
 10
2935.253294744752
 20
4203.119392142935
 30
0.0
 11
2935.253294744752
 21
4173.119392142935
 31
0.0
  0
ARC
  5
21CE9
330
2
100
AcDbEntity
  8
DISEGNO
100
AcDbCircle
 10
2900.253294744753
 20
4159.853403742936
 30
0.0
 40
32.2656
100
AcDbArc
 50
67.91809999999441
 51
81.84910000001508
  0
ARC
  5
21CEA
330
2
100
AcDbEntity
  8
DISEGNO
100
AcDbCircle
 10
2900.253294744753
 20
4159.853403742936
 30
0.0
 40
32.2656
100
AcDbArc
 50
98.15089999998491
 51
112.0820000000133
  0
LINE
  5
21CEB
330
2
100
AcDbEntity
  8
DISEGNO
100
AcDbLine
 10
2935.253294744752
 20
4167.119303742935
 30
0.0
 11
2935.253294744752
 21
4209.869303742935
 31
0.0
  0
LINE
  5
21CEC
330
2
100
AcDbEntity
  8
DISEGNO
100
AcDbLine
 10
2929.253294744753
 20
4177.119303742935
 30
0.0
 11
2929.253294744753
 21
4195.869303742934
 31
0.0
  0
LINE
  5
21D45
330
2
100
AcDbEntity
  8
DISEGNO
100
AcDbLine
 10
2910.503294744753
 20
4173.083303742936
 30
0.0
 11
2906.503294744753
 21
4173.083303742936
 31
0.0
  0
LINE
  5
21D46
330
2
100
AcDbEntity
  8
DISEGNO
100
AcDbLine
 10
2934.253294744753
 20
4166.119403742936
 30
0.0
 11
2906.503294744753
 21
4166.119403742936
 31
0.0
  0
ARC
  5
21D47
330
2
100
AcDbEntity
  8
DISEGNO
100
AcDbCircle
 10
2900.253294744753
 20
4159.853403742936
 30
0.0
 40
27.2656
100
AcDbArc
 50
69.37979999999225
 51
110.6200000000106
  0
LINE
  5
21D4E
330
2
100
AcDbEntity
  8
DISEGNO
100
AcDbLine
 10
2906.503294744753
 20
4166.119403742936
 30
0.0
 11
2906.503294744753
 21
4173.083303742936
 31
0.0
  0
LINE
  5
21D4F
330
2
100
AcDbEntity
  8
DISEGNO
100
AcDbLine
 10
2890.003294744753
 20
4184.436603742935
 30
0.0
 11
2890.003294744753
 21
4173.083303742936
 31
0.0
  0
LINE
  5
21D50
330
2
100
AcDbEntity
  8
DISEGNO
100
AcDbLine
 10
2894.003294744753
 20
4173.083303742936
 30
0.0
 11
2890.003294744753
 21
4173.083303742936
 31
0.0
  0
ARC
  5
21D51
330
2
100
AcDbEntity
  8
DISEGNO
100
AcDbCircle
 10
2891.003294744752
 20
4184.436603742935
 30
0.0
 40
1.0
100
AcDbArc
 50
110.6200000000106
 51
180.0
  0
LINE
  5
21D52
330
2
100
AcDbEntity
  8
DISEGNO
100
AcDbLine
 10
2894.003294744753
 20
4173.083303742936
 30
0.0
 11
2894.003294744753
 21
4166.119403742936
 31
0.0
  0
LINE
  5
21D61
330
2
100
AcDbEntity
  8
DISEGNO
100
AcDbLine
 10
2927.753294744753
 20
4166.119403742936
 30
0.0
 11
2910.253294744753
 21
4166.119403742936
 31
0.0
  0
ARC
  5
21D62
330
2
100
AcDbEntity
  8
DISEGNO
100
AcDbCircle
 10
2934.253294744753
 20
4167.119303742935
 30
0.0
 40
1.0
100
AcDbArc
 50
270.0
 51
0.0
  0
LINE
  5
21D63
330
2
100
AcDbEntity
  8
DISEGNO
100
AcDbLine
 10
2915.503294744753
 20
4185.119303742935
 30
0.0
 11
2915.503294744753
 21
4177.119303742935
 31
0.0
  0
ARC
  5
21D64
330
2
100
AcDbEntity
  8
DISEGNO
100
AcDbCircle
 10
2910.503294744753
 20
4185.119303742935
 30
0.0
 40
5.0
100
AcDbArc
 50
0.0
 51
67.91809999999441
  0
ARC
  5
21D65
330
2
100
AcDbEntity
  8
DISEGNO
100
AcDbCircle
 10
2909.503294744752
 20
4184.436603742935
 30
0.0
 40
1.0
100
AcDbArc
 50
0.0
 51
69.37979999999225
  0
LINE
  5
21D66
330
2
100
AcDbEntity
  8
DISEGNO
100
AcDbLine
 10
2910.503294744753
 20
4173.083303742936
 30
0.0
 11
2910.503294744753
 21
4184.436603742935
 31
0.0
  0
LINE
  5
21D67
330
2
100
AcDbEntity
  8
DISEGNO
100
AcDbLine
 10
2920.503294744753
 20
4172.119303742935
 30
0.0
 11
2924.253294744753
 21
4172.119303742935
 31
0.0
  0
ARC
  5
21D68
330
2
100
AcDbEntity
  8
DISEGNO
100
AcDbCircle
 10
2920.503294744753
 20
4177.119303742935
 30
0.0
 40
5.0
100
AcDbArc
 50
180.0
 51
270.0
  0
ARC
  5
21D69
330
2
100
AcDbEntity
  8
DISEGNO
100
AcDbCircle
 10
2924.253294744753
 20
4177.119303742935
 30
0.0
 40
5.0
100
AcDbArc
 50
270.0
 51
0.0
  0
LINE
  5
21F2F
330
2
100
AcDbEntity
  8
DISEGNO
100
AcDbLine
 10
2918.753294744753
 20
4243.319003742936
 30
0.0
 11
2918.753294744753
 21
4288.919803742936
 31
0.0
  0
LINE
  5
21F30
330
2
100
AcDbEntity
  8
DISEGNO
100
AcDbLine
 10
2925.253294744753
 20
4242.810003742936
 30
0.0
 11
2925.253294744753
 21
4289.428803742936
 31
0.0
  0
ARC
  5
21F3F
330
2
100
AcDbEntity
  8
DISEGNO
100
AcDbCircle
 10
2907.796394744753
 20
4221.119603742937
 30
0.0
 40
0.3
100
AcDbArc
 50
213.5410000000114
 51
293.9999999999798
  0
ARC
  5
21F40
330
2
100
AcDbEntity
  8
DISEGNO
100
AcDbCircle
 10
2905.053594744753
 20
4239.619303742935
 30
0.0
 40
10.0
100
AcDbArc
 50
270.0
 51
315.0000000000184
  0
ARC
  5
21F41
330
2
100
AcDbEntity
  8
DISEGNO
100
AcDbCircle
 10
2904.705794744754
 20
4224.737003742935
 30
0.0
 40
0.3
100
AcDbArc
 50
338.0000000000101
 51
62.676300000034
  0
LINE
  5
21F42
330
2
100
AcDbEntity
  8
DISEGNO
100
AcDbLine
 10
2904.709194744754
 20
4223.944703742936
 30
0.0
 11
2904.983894744754
 21
4224.624603742936
 31
0.0
  0
ARC
  5
21F43
330
2
100
AcDbEntity
  8
DISEGNO
100
AcDbCircle
 10
2904.987394744754
 20
4223.832303742937
 30
0.0
 40
0.3
100
AcDbArc
 50
158.00000000001
 51
238.4590000000094
  0
ARC
  5
21F44
330
2
100
AcDbEntity
  8
DISEGNO
100
AcDbCircle
 10
2903.036794744754
 20
4225.411303742936
 30
0.0
 40
0.3
100
AcDbArc
 50
73.32380000001352
 51
158.00000000001
  0
ARC
  5
21F45
330
2
100
AcDbEntity
  8
DISEGNO
100
AcDbCircle
 10
2902.205794744754
 20
4224.956103742935
 30
0.0
 40
0.3
100
AcDbArc
 50
257.541000000009
 51
338.0000000000101
  0
LINE
  5
21F46
330
2
100
AcDbEntity
  8
DISEGNO
100
AcDbLine
 10
2902.483994744753
 20
4224.843803742935
 30
0.0
 11
2902.758694744754
 21
4225.523703742935
 31
0.0
  0
ARC
  5
21F47
330
2
100
AcDbEntity
  8
DISEGNO
100
AcDbCircle
 10
2898.146894744754
 20
4224.920703742935
 30
0.0
 40
0.3
100
AcDbArc
 50
203.0000000000043
 51
283.4590000000024
  0
LINE
  5
21F48
330
2
100
AcDbEntity
  8
DISEGNO
100
AcDbLine
 10
2897.870694744753
 20
4224.803503742935
 30
0.0
 11
2897.584194744754
 21
4225.478503742936
 31
0.0
  0
ARC
  5
21F49
330
2
100
AcDbEntity
  8
DISEGNO
100
AcDbCircle
 10
2900.253294744753
 20
4216.119303742934
 30
0.0
 40
8.75
100
AcDbArc
 50
77.54059999999026
 51
103.4590000000024
  0
ARC
  5
21F4A
330
2
100
AcDbEntity
  8
DISEGNO
100
AcDbCircle
 10
2900.253294744753
 20
4216.119303742934
 30
0.0
 40
10.0
100
AcDbArc
 50
62.676300000034
 51
73.32380000001352
  0
ARC
  5
21F4B
330
2
100
AcDbEntity
  8
DISEGNO
100
AcDbCircle
 10
2900.253294744753
 20
4216.119303742934
 30
0.0
 40
8.75
100
AcDbArc
 50
33.54060000002019
 51
58.45949999999708
  0
ARC
  5
21F4C
330
2
100
AcDbEntity
  8
DISEGNO
100
AcDbCircle
 10
2900.253294744753
 20
4216.119303742934
 30
0.0
 40
10.0
100
AcDbArc
 50
107.6760000000152
 51
118.3240000000132
  0
ARC
  5
21F4D
330
2
100
AcDbEntity
  8
DISEGNO
100
AcDbCircle
 10
2895.385294744754
 20
4223.748503742935
 30
0.0
 40
0.3
100
AcDbArc
 50
302.5409999999914
 51
23.00000000000434
  0
LINE
  5
21F4E
330
2
100
AcDbEntity
  8
DISEGNO
100
AcDbLine
 10
2895.661494744754
 20
4223.865703742935
 30
0.0
 11
2895.374994744754
 21
4224.540803742935
 31
0.0
  0
ARC
  5
21F4F
330
2
100
AcDbEntity
  8
DISEGNO
100
AcDbCircle
 10
2895.651094744753
 20
4224.658003742936
 30
0.0
 40
0.3
100
AcDbArc
 50
118.3240000000132
 51
203.0000000000043
  0
ARC
  5
21F50
330
2
100
AcDbEntity
  8
DISEGNO
100
AcDbCircle
 10
2890.753294744753
 20
4226.619303742935
 30
0.0
 40
3.0
100
AcDbArc
 50
90.0
 51
180.0
  0
ARC
  5
21F51
330
2
100
AcDbEntity
  8
DISEGNO
100
AcDbCircle
 10
2892.540294744753
 20
4220.853403742936
 30
0.0
 40
0.3
100
AcDbArc
 50
247.9999999999716
 51
328.4590000000009
  0
ARC
  5
21F52
330
2
100
AcDbEntity
  8
DISEGNO
100
AcDbCircle
 10
2891.635594744754
 20
4220.571803742936
 30
0.0
 40
0.3
100
AcDbArc
 50
67.99999999997152
 51
152.6759999999813
  0
LINE
  5
21F53
330
2
100
AcDbEntity
  8
DISEGNO
100
AcDbLine
 10
2892.427894744755
 20
4220.575203742935
 30
0.0
 11
2891.747894744755
 21
4220.849903742935
 31
0.0
  0
LINE
  5
21F54
330
2
100
AcDbEntity
  8
DISEGNO
100
AcDbLine
 10
2887.753294744753
 20
4226.619303742935
 30
0.0
 11
2887.753294744753
 21
4221.869303742934
 31
0.0
  0
ARC
  5
21F55
330
2
100
AcDbEntity
  8
DISEGNO
100
AcDbCircle
 10
2900.253294744753
 20
4216.119303742934
 30
0.0
 40
8.75
100
AcDbArc
 50
122.5409999999913
 51
148.4590000000008
  0
ARC
  5
21F56
330
2
100
AcDbEntity
  8
DISEGNO
100
AcDbCircle
 10
2897.307994744753
 20
4225.361303742935
 30
0.0
 40
0.3
100
AcDbArc
 50
23.00000000000434
 51
107.6760000000152
  0
LINE
  5
21F57
330
2
100
AcDbEntity
  8
DISEGNO
100
AcDbLine
 10
2890.753294744753
 20
4229.619303742935
 30
0.0
 11
2905.053594744753
 21
4229.619303742935
 31
0.0
  0
LINE
  5
21F58
330
2
100
AcDbEntity
  8
DISEGNO
100
AcDbLine
 10
2935.253294744752
 20
4245.619403742936
 30
0.0
 11
2933.119294744754
 21
4245.619403742936
 31
0.0
  0
LINE
  5
21F59
330
2
100
AcDbEntity
  8
DISEGNO
100
AcDbLine
 10
2933.119294744754
 20
4245.619403742936
 30
0.0
 11
2926.753294744753
 21
4241.944003742935
 31
0.0
  0
LINE
  5
21F5A
330
2
100
AcDbEntity
  8
DISEGNO
100
AcDbLine
 10
2928.253294744753
 20
4222.369303742935
 30
0.0
 11
2928.253294744753
 21
4226.369303742934
 31
0.0
  0
LINE
  5
21F5B
330
2
100
AcDbEntity
  8
DISEGNO
100
AcDbLine
 10
2928.253294744753
 20
4222.369303742935
 30
0.0
 11
2935.253294744752
 21
4222.369303742935
 31
0.0
  0
LINE
  5
21F5C
330
2
100
AcDbEntity
  8
DISEGNO
100
AcDbLine
 10
2935.253294744752
 20
4222.369303742935
 30
0.0
 11
2935.253294744752
 21
4245.619403742936
 31
0.0
  0
LINE
  5
21F5D
330
2
100
AcDbEntity
  8
DISEGNO
100
AcDbLine
 10
2912.124594744753
 20
4232.548203742935
 30
0.0
 11
2915.824394744754
 21
4236.248003742935
 31
0.0
  0
ARC
  5
21F5E
330
2
100
AcDbEntity
  8
DISEGNO
100
AcDbCircle
 10
2916.935994744754
 20
4225.369303742935
 30
0.0
 40
1.0
100
AcDbArc
 50
90.0
 51
159.3799999999985
  0
ARC
  5
21F5F
330
2
100
AcDbEntity
  8
DISEGNO
100
AcDbCircle
 10
2908.710394744754
 20
4220.869803742934
 30
0.0
 40
0.3
100
AcDbArc
 50
29.3238000000027
 51
113.9999999999797
  0
LINE
  5
21F60
330
2
100
AcDbEntity
  8
DISEGNO
100
AcDbLine
 10
2907.918394744755
 20
4220.845603742935
 30
0.0
 11
2908.588394744753
 21
4221.143903742936
 31
0.0
  0
ARC
  5
21F61
330
2
100
AcDbEntity
  8
DISEGNO
100
AcDbCircle
 10
2908.753294744753
 20
4243.319003742936
 30
0.0
 40
10.0
100
AcDbArc
 50
315.0000000000184
 51
0.0000160916843101
  0
LINE
  5
21F62
330
2
100
AcDbEntity
  8
DISEGNO
100
AcDbLine
 10
2916.935994744754
 20
4226.369303742934
 30
0.0
 11
2928.253294744753
 21
4226.369303742934
 31
0.0
  0
ARC
  5
21F63
330
2
100
AcDbEntity
  8
DISEGNO
100
AcDbCircle
 10
2926.253294744753
 20
4242.810003742936
 30
0.0
 40
1.0
100
AcDbArc
 50
180.0
 51
299.9999999999973
  0
LINE
  5
21F64
330
2
100
AcDbEntity
  8
DISEGNO
100
AcDbLine
 10
2928.253294744754
 20
4225.349464176603
 30
0.0
 11
2928.253294744754
 21
4222.369303742935
 31
0.0
  0
ARC
  5
21F67
330
2
100
AcDbEntity
  8
DISEGNO
100
AcDbCircle
 10
2908.047794744753
 20
4211.520503742934
 30
0.0
 40
0.3
100
AcDbArc
 50
69.00000000000995
 51
149.4589999999985
  0
ARC
  5
21F68
330
2
100
AcDbEntity
  8
DISEGNO
100
AcDbCircle
 10
2900.253294744753
 20
4216.119303742934
 30
0.0
 40
8.75
100
AcDbArc
 50
303.5410000000114
 51
329.4589999999986
  0
ARC
  5
21F69
330
2
100
AcDbEntity
  8
DISEGNO
100
AcDbCircle
 10
2908.424894744754
 20
4196.774403742937
 30
0.0
 40
7.0
100
AcDbArc
 50
49.27999999998636
 51
112.8999999999875
  0
ARC
  5
21F6A
330
2
100
AcDbEntity
  8
DISEGNO
100
AcDbCircle
 10
2900.253294744753
 20
4216.119303742934
 30
0.0
 40
13.5
100
AcDbArc
 50
196.7309999999958
 51
252.3600000000234
  0
ARC
  5
21F6B
330
2
100
AcDbEntity
  8
DISEGNO
100
AcDbCircle
 10
2905.253294744753
 20
4199.871203742936
 30
0.0
 40
3.0
100
AcDbArc
 50
107.1049999999873
 51
180.0
  0
LINE
  5
21F6C
330
2
100
AcDbEntity
  8
DISEGNO
100
AcDbLine
 10
2898.253294744753
 20
4194.763103742936
 30
0.0
 11
2898.253294744753
 21
4200.395103742936
 31
0.0
  0
LINE
  5
21F6D
330
2
100
AcDbEntity
  8
DISEGNO
100
AcDbLine
 10
2902.253294744753
 20
4194.763103742936
 30
0.0
 11
2902.253294744753
 21
4199.871203742936
 31
0.0
  0
ARC
  5
21F6E
330
2
100
AcDbEntity
  8
DISEGNO
100
AcDbCircle
 10
2905.253294744753
 20
4194.763103742936
 30
0.0
 40
3.0
100
AcDbArc
 50
180.0
 51
261.849000000012
  0
ARC
  5
21F6F
330
2
100
AcDbEntity
  8
DISEGNO
100
AcDbCircle
 10
2900.253294744753
 20
4216.119303742934
 30
0.0
 40
14.0
100
AcDbArc
 50
287.1049999999872
 51
292.8999999999875
  0
ARC
  5
21F70
330
2
100
AcDbEntity
  8
DISEGNO
100
AcDbCircle
 10
2895.253294744753
 20
4194.763103742936
 30
0.0
 40
3.0
100
AcDbArc
 50
278.150999999988
 51
0.0
  0
ARC
  5
21F71
330
2
100
AcDbEntity
  8
DISEGNO
100
AcDbCircle
 10
2895.253294744753
 20
4200.395103742936
 30
0.0
 40
3.0
100
AcDbArc
 50
0.0
 51
72.36029999998837
  0
ARC
  5
21F72
330
2
100
AcDbEntity
  8
DISEGNO
100
AcDbCircle
 10
2905.003794744755
 20
4207.662203742935
 30
0.0
 40
0.3
100
AcDbArc
 50
299.3240000000181
 51
24.00000000000358
  0
LINE
  5
21F73
330
2
100
AcDbEntity
  8
DISEGNO
100
AcDbLine
 10
2904.979594744755
 20
4208.454103742935
 30
0.0
 11
2905.277894744753
 21
4207.784203742936
 31
0.0
  0
ARC
  5
21F74
330
2
100
AcDbEntity
  8
DISEGNO
100
AcDbCircle
 10
2905.253694744754
 20
4208.576103742936
 30
0.0
 40
0.3
100
AcDbArc
 50
123.5410000000114
 51
204.0000000000036
  0
LINE
  5
21F75
330
2
100
AcDbEntity
  8
DISEGNO
100
AcDbLine
 10
2902.787094744754
 20
4207.478003742935
 30
0.0
 11
2903.085394744754
 21
4206.808003742935
 31
0.0
  0
ARC
  5
21F76
330
2
100
AcDbEntity
  8
DISEGNO
100
AcDbCircle
 10
2902.512994744755
 20
4207.355903742935
 30
0.0
 40
0.3
100
AcDbArc
 50
24.00000000000358
 51
104.4589999999754
  0
ARC
  5
21F77
330
2
100
AcDbEntity
  8
DISEGNO
100
AcDbCircle
 10
2903.359394744754
 20
4206.930003742935
 30
0.0
 40
0.3
100
AcDbArc
 50
204.0000000000036
 51
288.6760000000252
  0
ARC
  5
21F78
330
2
100
AcDbEntity
  8
DISEGNO
100
AcDbCircle
 10
2897.632294744754
 20
4206.780103742936
 30
0.0
 40
0.3
100
AcDbArc
 50
254.3240000000082
 51
339.0000000000193
  0
LINE
  5
21F79
330
2
100
AcDbEntity
  8
DISEGNO
100
AcDbLine
 10
2897.912394744754
 20
4206.672603742936
 30
0.0
 11
2898.175194744754
 21
4207.357203742935
 31
0.0
  0
ARC
  5
21F7A
330
2
100
AcDbEntity
  8
DISEGNO
100
AcDbCircle
 10
2898.455294744754
 20
4207.249703742935
 30
0.0
 40
0.3
100
AcDbArc
 50
78.54060000001107
 51
159.0000000000193
  0
ARC
  5
21F7B
330
2
100
AcDbEntity
  8
DISEGNO
100
AcDbCircle
 10
2900.253294744753
 20
4216.119303742934
 30
0.0
 40
8.75
100
AcDbArc
 50
258.5409999999959
 51
284.4589999999754
  0
ARC
  5
21F7C
330
2
100
AcDbEntity
  8
DISEGNO
100
AcDbCircle
 10
2900.253294744753
 20
4216.119303742934
 30
0.0
 40
10.0
100
AcDbArc
 50
288.6760000000252
 51
299.3240000000181
  0
ARC
  5
21F7D
330
2
100
AcDbEntity
  8
DISEGNO
100
AcDbCircle
 10
2900.253294744753
 20
4216.119303742934
 30
0.0
 40
8.75
100
AcDbArc
 50
167.5409999999835
 51
193.4590000000024
  0
ARC
  5
21F7E
330
2
100
AcDbEntity
  8
DISEGNO
100
AcDbCircle
 10
2891.416394744754
 20
4218.071803742936
 30
0.0
 40
0.3
100
AcDbArc
 50
347.5409999999836
 51
67.99999999997152
  0
ARC
  5
21F7F
330
2
100
AcDbEntity
  8
DISEGNO
100
AcDbCircle
 10
2890.961294744755
 20
4218.902803742936
 30
0.0
 40
0.3
100
AcDbArc
 50
163.3240000000041
 51
247.9999999999716
  0
LINE
  5
21F80
330
2
100
AcDbEntity
  8
DISEGNO
100
AcDbLine
 10
2891.528794744753
 20
4218.350003742934
 30
0.0
 11
2890.848894744753
 21
4218.624703742935
 31
0.0
  0
ARC
  5
21F81
330
2
100
AcDbEntity
  8
DISEGNO
100
AcDbCircle
 10
2895.654594744754
 20
4208.324803742935
 30
0.0
 40
0.3
100
AcDbArc
 50
339.0000000000193
 51
59.45950000002035
  0
LINE
  5
21F82
330
2
100
AcDbEntity
  8
DISEGNO
100
AcDbLine
 10
2895.671794744752
 20
4207.532703742936
 30
0.0
 11
2895.934594744753
 21
4208.217303742936
 31
0.0
  0
ARC
  5
21F83
330
2
100
AcDbEntity
  8
DISEGNO
100
AcDbCircle
 10
2895.951894744753
 20
4207.425103742934
 30
0.0
 40
0.3
100
AcDbArc
 50
159.0000000000193
 51
243.6760000000216
  0
ARC
  5
21F84
330
2
100
AcDbEntity
  8
DISEGNO
100
AcDbCircle
 10
2892.624094744753
 20
4211.251303742936
 30
0.0
 40
0.3
100
AcDbArc
 50
32.54059999998503
 51
113.0000000000043
  0
ARC
  5
21F85
330
2
100
AcDbEntity
  8
DISEGNO
100
AcDbCircle
 10
2900.253294744753
 20
4216.119303742934
 30
0.0
 40
10.0
100
AcDbArc
 50
197.6759999999904
 51
208.3239999999903
  0
ARC
  5
21F86
330
2
100
AcDbEntity
  8
DISEGNO
100
AcDbCircle
 10
2891.714594744753
 20
4211.517103742935
 30
0.0
 40
0.3
100
AcDbArc
 50
208.3239999999903
 51
293.0000000000043
  0
LINE
  5
21F87
330
2
100
AcDbEntity
  8
DISEGNO
100
AcDbLine
 10
2891.831794744754
 20
4211.240903742935
 30
0.0
 11
2892.506794744754
 21
4211.527503742936
 31
0.0
  0
ARC
  5
21F88
330
2
100
AcDbEntity
  8
DISEGNO
100
AcDbCircle
 10
2891.011294744755
 20
4213.174003742935
 30
0.0
 40
0.3
100
AcDbArc
 50
113.0000000000043
 51
197.6759999999904
  0
LINE
  5
21F89
330
2
100
AcDbEntity
  8
DISEGNO
100
AcDbLine
 10
2890.893994744752
 20
4213.450103742936
 30
0.0
 11
2891.569094744753
 21
4213.736703742935
 31
0.0
  0
ARC
  5
21F8A
330
2
100
AcDbEntity
  8
DISEGNO
100
AcDbCircle
 10
2900.253294744753
 20
4216.119303742934
 30
0.0
 40
8.75
100
AcDbArc
 50
212.5409999999993
 51
239.4589999999853
  0
ARC
  5
21F8B
330
2
100
AcDbEntity
  8
DISEGNO
100
AcDbCircle
 10
2891.451894744752
 20
4214.012803742934
 30
0.0
 40
0.3
100
AcDbArc
 50
293.0000000000043
 51
13.45949999999408
  0
ARC
  5
21F8C
330
2
100
AcDbEntity
  8
DISEGNO
100
AcDbCircle
 10
2900.253294744753
 20
4216.119303742934
 30
0.0
 40
10.0
100
AcDbArc
 50
243.6760000000216
 51
254.3240000000082
  0
ARC
  5
21F8D
330
2
100
AcDbEntity
  8
DISEGNO
100
AcDbCircle
 10
2916.253294744753
 20
4205.869303742935
 30
0.0
 40
5.0
100
AcDbArc
 50
229.2799999999864
 51
270.0
  0
LINE
  5
21F8E
330
2
100
AcDbEntity
  8
DISEGNO
100
AcDbLine
 10
2924.253294744753
 20
4200.869303742934
 30
0.0
 11
2916.253294744753
 21
4200.869303742934
 31
0.0
  0
ARC
  5
21F8F
330
2
100
AcDbEntity
  8
DISEGNO
100
AcDbCircle
 10
2924.253294744753
 20
4195.869303742934
 30
0.0
 40
5.0
100
AcDbArc
 50
0.0
 51
90.0
  0
ARC
  5
21F90
330
2
100
AcDbEntity
  8
DISEGNO
100
AcDbCircle
 10
2916.935994744754
 20
4206.869303742934
 30
0.0
 40
1.0
100
AcDbArc
 50
200.6200000000014
 51
270.0
  0
LINE
  5
21F91
330
2
100
AcDbEntity
  8
DISEGNO
100
AcDbLine
 10
2928.253294744753
 20
4205.869303742935
 30
0.0
 11
2928.253294744753
 21
4209.869303742935
 31
0.0
  0
LINE
  5
21F92
330
2
100
AcDbEntity
  8
DISEGNO
100
AcDbLine
 10
2935.253294744752
 20
4209.869303742935
 30
0.0
 11
2928.253294744753
 21
4209.869303742935
 31
0.0
  0
ARC
  5
21F93
330
2
100
AcDbEntity
  8
DISEGNO
100
AcDbCircle
 10
2900.253294744753
 20
4216.119303742934
 30
0.0
 40
8.75
100
AcDbArc
 50
348.5409999999908
 51
14.45940000000466
  0
ARC
  5
21F94
330
2
100
AcDbEntity
  8
DISEGNO
100
AcDbCircle
 10
2909.122894744755
 20
4214.321303742936
 30
0.0
 40
0.3
100
AcDbArc
 50
168.5409999999907
 51
249.00000000001
  0
LINE
  5
21F95
330
2
100
AcDbEntity
  8
DISEGNO
100
AcDbLine
 10
2908.894594744754
 20
4218.653103742936
 30
0.0
 11
2909.564494744753
 21
4218.951403742936
 31
0.0
  0
ARC
  5
21F96
330
2
100
AcDbEntity
  8
DISEGNO
100
AcDbCircle
 10
2909.016594744755
 20
4218.379003742935
 30
0.0
 40
0.3
100
AcDbArc
 50
113.9999999999797
 51
194.4589999999941
  0
ARC
  5
21F97
330
2
100
AcDbEntity
  8
DISEGNO
100
AcDbCircle
 10
2909.442494744753
 20
4219.225403742935
 30
0.0
 40
0.3
100
AcDbArc
 50
293.9999999999798
 51
18.67630000000522
  0
LINE
  5
21F98
330
2
100
AcDbEntity
  8
DISEGNO
100
AcDbLine
 10
2908.155294744755
 20
4211.800603742935
 30
0.0
 11
2908.839894744755
 21
4211.537803742936
 31
0.0
  0
ARC
  5
21F99
330
2
100
AcDbEntity
  8
DISEGNO
100
AcDbCircle
 10
2908.947394744754
 20
4211.817903742936
 30
0.0
 40
0.3
100
AcDbArc
 50
249.00000000001
 51
333.6759999999868
  0
ARC
  5
21F9A
330
2
100
AcDbEntity
  8
DISEGNO
100
AcDbCircle
 10
2900.253294744753
 20
4216.119303742934
 30
0.0
 40
10.0
100
AcDbArc
 50
333.6759999999868
 51
344.3240000000011
  0
ARC
  5
21F9B
330
2
100
AcDbEntity
  8
DISEGNO
100
AcDbCircle
 10
2909.592494744755
 20
4213.498303742936
 30
0.0
 40
0.3
100
AcDbArc
 50
344.3240000000011
 51
69.00000000000995
  0
LINE
  5
21F9C
330
2
100
AcDbEntity
  8
DISEGNO
100
AcDbLine
 10
2909.015394744752
 20
4214.041203742936
 30
0.0
 11
2909.699994744753
 21
4213.778403742935
 31
0.0
  0
LINE
  5
21F9D
330
2
100
AcDbEntity
  8
DISEGNO
100
AcDbLine
 10
2928.253294744753
 20
4205.869303742935
 30
0.0
 11
2916.935994744754
 21
4205.869303742935
 31
0.0
  0
LINE
  5
21F9E
330
2
100
AcDbEntity
  8
DISEGNO
100
AcDbLine
 10
2928.253294744753
 20
4206.869503742935
 30
0.0
 11
2928.253294744753
 21
4209.869303742935
 31
0.0
  0
ARC
  5
21F9F
330
2
100
AcDbEntity
  8
DISEGNO
100
AcDbCircle
 10
2900.253294744753
 20
4216.119303742934
 30
0.0
 40
10.0
100
AcDbArc
 50
152.6759999999813
 51
163.3240000000041
  0
ARC
  5
21FA0
330
2
100
AcDbEntity
  8
DISEGNO
100
AcDbCircle
 10
2941.518894744753
 20
4216.119303742934
 30
0.0
 40
27.2656
100
AcDbArc
 50
159.3799999999985
 51
200.6200000000014
  0
ARC
  5
21FA1
330
2
100
AcDbEntity
  8
DISEGNO
100
AcDbCircle
 10
2900.253294744753
 20
4216.119303742934
 30
0.0
 40
10.0
100
AcDbArc
 50
18.67630000000522
 51
29.3238000000027
  0
LINE
  5
21FC8
330
2
100
AcDbEntity
  8
DISEGNO
100
AcDbLine
 10
2908.922994744755
 20
4321.103303742935
 30
0.0
 11
2907.762694744754
 21
4320.610803742935
 31
0.0
  0
ARC
  5
21FC9
330
2
100
AcDbEntity
  8
DISEGNO
100
AcDbCircle
 10
2900.253294744753
 20
4372.385403742935
 30
0.0
 40
32.2656
100
AcDbArc
 50
278.150999999988
 51
292.0820000000134
  0
ARC
  5
21FCA
330
2
100
AcDbEntity
  8
DISEGNO
100
AcDbCircle
 10
2900.253294744753
 20
4316.119603742936
 30
0.0
 40
8.75
100
AcDbArc
 50
30.88260000000849
 51
61.11749999999143
  0
ARC
  5
21FCB
330
2
100
AcDbEntity
  8
DISEGNO
100
AcDbCircle
 10
2900.253294744753
 20
4316.119603742936
 30
0.0
 40
8.75
100
AcDbArc
 50
300.8830000000014
 51
330.1169999999941
  0
ARC
  5
21FCC
330
2
100
AcDbEntity
  8
DISEGNO
100
AcDbCircle
 10
2908.424894744754
 20
4335.464503742936
 30
0.0
 40
7.0
100
AcDbArc
 50
247.1000000000125
 51
310.7200000000137
  0
ARC
  5
21FCD
330
2
100
AcDbEntity
  8
DISEGNO
100
AcDbCircle
 10
2900.253294744753
 20
4372.385403742935
 30
0.0
 40
27.2656
100
AcDbArc
 50
249.3799999999894
 51
290.6200000000106
  0
LINE
  5
21FCF
330
2
100
AcDbEntity
  8
DISEGNO
100
AcDbLine
 10
2891.583594744754
 20
4321.103303742935
 30
0.0
 11
2892.743894744754
 21
4320.610803742935
 31
0.0
  0
ARC
  5
21FD0
330
2
100
AcDbEntity
  8
DISEGNO
100
AcDbCircle
 10
2900.253294744753
 20
4316.119603742936
 30
0.0
 40
8.75
100
AcDbArc
 50
118.8830000000203
 51
149.1169999999986
  0
ARC
  5
21FD1
330
2
100
AcDbEntity
  8
DISEGNO
100
AcDbCircle
 10
2900.253294744753
 20
4316.119603742936
 30
0.0
 40
13.5
100
AcDbArc
 50
107.6399999999765
 51
163.2690000000042
  0
ARC
  5
21FD2
330
2
100
AcDbEntity
  8
DISEGNO
100
AcDbCircle
 10
2900.253294744753
 20
4316.119603742936
 30
0.0
 40
10.0
100
AcDbArc
 50
150.1080000000065
 51
163.8920000000043
  0
LINE
  5
21FD3
330
2
100
AcDbEntity
  8
DISEGNO
100
AcDbLine
 10
2904.744494744753
 20
4308.610103742936
 30
0.0
 11
2905.236994744754
 21
4307.449903742936
 31
0.0
  0
LINE
  5
21FD4
330
2
100
AcDbEntity
  8
DISEGNO
100
AcDbLine
 10
2902.535294744754
 20
4307.672403742936
 30
0.0
 11
2903.027794744754
 21
4306.512203742935
 31
0.0
  0
LINE
  5
21FD5
330
2
100
AcDbEntity
  8
DISEGNO
100
AcDbLine
 10
2897.971294744754
 20
4307.672403742936
 30
0.0
 11
2897.478794744753
 21
4306.512203742935
 31
0.0
  0
ARC
  5
21FD6
330
2
100
AcDbEntity
  8
DISEGNO
100
AcDbCircle
 10
2900.253294744753
 20
4316.119603742936
 30
0.0
 40
8.75
100
AcDbArc
 50
254.8830000000151
 51
285.1169999999848
  0
ARC
  5
21FD7
330
2
100
AcDbEntity
  8
DISEGNO
100
AcDbCircle
 10
2900.253294744753
 20
4316.119603742936
 30
0.0
 40
10.0
100
AcDbArc
 50
286.1079999999779
 51
299.8920000000031
  0
ARC
  5
21FD8
330
2
100
AcDbEntity
  8
DISEGNO
100
AcDbCircle
 10
2900.253294744753
 20
4316.119603742936
 30
0.0
 40
8.75
100
AcDbArc
 50
164.8830000000151
 51
194.116999999993
  0
LINE
  5
21FD9
330
2
100
AcDbEntity
  8
DISEGNO
100
AcDbLine
 10
2891.767594744754
 20
4313.985403742935
 30
0.0
 11
2890.598894744753
 21
4313.513203742935
 31
0.0
  0
LINE
  5
21FDA
330
2
100
AcDbEntity
  8
DISEGNO
100
AcDbLine
 10
2890.645894744754
 20
4318.894103742936
 30
0.0
 11
2891.806094744754
 21
4318.401603742936
 31
0.0
  0
LINE
  5
21FDB
330
2
100
AcDbEntity
  8
DISEGNO
100
AcDbLine
 10
2895.762094744754
 20
4308.610103742936
 30
0.0
 11
2895.269594744754
 21
4307.449903742936
 31
0.0
  0
LINE
  5
21FDC
330
2
100
AcDbEntity
  8
DISEGNO
100
AcDbLine
 10
2892.666594744753
 20
4311.760103742936
 30
0.0
 11
2891.497994744754
 21
4311.288003742935
 31
0.0
  0
ARC
  5
21FDD
330
2
100
AcDbEntity
  8
DISEGNO
100
AcDbCircle
 10
2900.253294744753
 20
4316.119603742936
 30
0.0
 40
8.75
100
AcDbArc
 50
209.8830000000059
 51
239.1169999999986
  0
ARC
  5
21FDE
330
2
100
AcDbEntity
  8
DISEGNO
100
AcDbCircle
 10
2900.253294744753
 20
4316.119603742936
 30
0.0
 40
10.0
100
AcDbArc
 50
195.1080000000054
 51
208.8919999999907
  0
ARC
  5
21FDF
330
2
100
AcDbEntity
  8
DISEGNO
100
AcDbCircle
 10
2900.253294744753
 20
4316.119603742936
 30
0.0
 40
10.0
100
AcDbArc
 50
240.107999999997
 51
253.8920000000221
  0
ARC
  5
21FE1
330
2
100
AcDbEntity
  8
DISEGNO
100
AcDbCircle
 10
2905.253294744753
 20
4337.475803742936
 30
0.0
 40
3.0
100
AcDbArc
 50
98.15089999998491
 51
180.0
  0
LINE
  5
21FE2
330
2
100
AcDbEntity
  8
DISEGNO
100
AcDbLine
 10
2904.931394744754
 20
4324.957903742935
 30
0.0
 11
2904.479694744754
 21
4323.781203742935
 31
0.0
  0
ARC
  5
21FE3
330
2
100
AcDbEntity
  8
DISEGNO
100
AcDbCircle
 10
2905.253294744753
 20
4332.367703742935
 30
0.0
 40
3.0
100
AcDbArc
 50
180.0
 51
252.8950000000127
  0
LINE
  5
21FE4
330
2
100
AcDbEntity
  8
DISEGNO
100
AcDbLine
 10
2902.690794744753
 20
4325.818003742935
 30
0.0
 11
2902.239094744755
 21
4324.641303742935
 31
0.0
  0
LINE
  5
21FE5
330
2
100
AcDbEntity
  8
DISEGNO
100
AcDbLine
 10
2897.815794744753
 20
4325.818003742935
 30
0.0
 11
2898.267494744754
 21
4324.641303742935
 31
0.0
  0
ARC
  5
21FE6
330
2
100
AcDbEntity
  8
DISEGNO
100
AcDbCircle
 10
2900.253294744753
 20
4316.119603742936
 30
0.0
 40
8.75
100
AcDbArc
 50
76.8825000000012
 51
103.1169999999975
  0
ARC
  5
21FE7
330
2
100
AcDbEntity
  8
DISEGNO
100
AcDbCircle
 10
2900.253294744753
 20
4316.119603742936
 30
0.0
 40
10.0
100
AcDbArc
 50
62.10790000001559
 51
75.89209999998513
  0
ARC
  5
21FE8
330
2
100
AcDbEntity
  8
DISEGNO
100
AcDbCircle
 10
2900.253294744753
 20
4316.119603742936
 30
0.0
 40
14.0
100
AcDbArc
 50
67.09989999997732
 51
72.89540000003147
  0
LINE
  5
21FE9
330
2
100
AcDbEntity
  8
DISEGNO
100
AcDbLine
 10
2898.253294744753
 20
4337.475803742936
 30
0.0
 11
2898.253294744753
 21
4331.843803742935
 31
0.0
  0
LINE
  5
21FEA
330
2
100
AcDbEntity
  8
DISEGNO
100
AcDbLine
 10
2902.253294744753
 20
4337.475803742936
 30
0.0
 11
2902.253294744753
 21
4332.367703742935
 31
0.0
  0
ARC
  5
21FEB
330
2
100
AcDbEntity
  8
DISEGNO
100
AcDbCircle
 10
2900.253294744753
 20
4372.385403742935
 30
0.0
 40
32.2656
100
AcDbArc
 50
247.9179999999867
 51
261.849000000012
  0
ARC
  5
21FEC
330
2
100
AcDbEntity
  8
DISEGNO
100
AcDbCircle
 10
2891.003294744752
 20
4347.802203742936
 30
0.0
 40
1.0
100
AcDbArc
 50
180.0
 51
249.3799999999894
  0
LINE
  5
21FED
330
2
100
AcDbEntity
  8
DISEGNO
100
AcDbLine
 10
2895.575194744754
 20
4324.957903742935
 30
0.0
 11
2896.026894744753
 21
4323.781203742935
 31
0.0
  0
ARC
  5
21FEE
330
2
100
AcDbEntity
  8
DISEGNO
100
AcDbCircle
 10
2895.253294744753
 20
4337.475803742936
 30
0.0
 40
3.0
100
AcDbArc
 50
0.0
 51
81.84910000001508
  0
ARC
  5
21FEF
330
2
100
AcDbEntity
  8
DISEGNO
100
AcDbCircle
 10
2900.253294744753
 20
4316.119603742936
 30
0.0
 40
10.0
100
AcDbArc
 50
104.1079999999652
 51
117.8920000000088
  0
ARC
  5
21FF0
330
2
100
AcDbEntity
  8
DISEGNO
100
AcDbCircle
 10
2895.253294744753
 20
4331.843803742935
 30
0.0
 40
3.0
100
AcDbArc
 50
287.6399999999766
 51
0.0
  0
ARC
  5
21FF5
330
2
100
AcDbEntity
  8
DISEGNO
100
AcDbCircle
 10
2941.518894744753
 20
4316.119603742936
 30
0.0
 40
27.2656
100
AcDbArc
 50
159.3799999999985
 51
200.6200000000014
  0
ARC
  5
21FF6
330
2
100
AcDbEntity
  8
DISEGNO
100
AcDbCircle
 10
2900.253294744753
 20
4316.119603742936
 30
0.0
 40
10.0
100
AcDbArc
 50
16.10790000001396
 51
29.89210000001184
  0
LINE
  5
21FFB
330
2
100
AcDbEntity
  8
DISEGNO
100
AcDbLine
 10
2933.253294744753
 20
4309.869353742935
 30
0.0
 11
2935.253294744752
 21
4309.869353742935
 31
0.0
  0
LINE
  5
21FFC
330
2
100
AcDbEntity
  8
DISEGNO
100
AcDbLine
 10
2935.253294744752
 20
4309.869353742935
 30
0.0
 11
2928.253294744753
 21
4309.869353742935
 31
0.0
  0
LINE
  5
22000
330
2
100
AcDbEntity
  8
DISEGNO
100
AcDbLine
 10
2928.253294744753
 20
4309.869603742936
 30
0.0
 11
2935.253294744752
 21
4309.869603742936
 31
0.0
  0
ARC
  5
22001
330
2
100
AcDbEntity
  8
DISEGNO
100
AcDbCircle
 10
2900.253294744753
 20
4316.119603742936
 30
0.0
 40
8.75
100
AcDbArc
 50
345.883000000007
 51
15.11750000000352
  0
LINE
  5
22002
330
2
100
AcDbEntity
  8
DISEGNO
100
AcDbLine
 10
2908.738994744754
 20
4313.985403742935
 30
0.0
 11
2909.907694744754
 21
4313.513203742935
 31
0.0
  0
LINE
  5
22003
330
2
100
AcDbEntity
  8
DISEGNO
100
AcDbLine
 10
2909.860694744754
 20
4318.894103742936
 30
0.0
 11
2908.700494744755
 21
4318.401603742936
 31
0.0
  0
LINE
  5
22004
330
2
100
AcDbEntity
  8
DISEGNO
100
AcDbLine
 10
2907.839994744753
 20
4311.760103742936
 30
0.0
 11
2909.008594744753
 21
4311.288003742935
 31
0.0
  0
ARC
  5
22005
330
2
100
AcDbEntity
  8
DISEGNO
100
AcDbCircle
 10
2900.253294744753
 20
4316.119603742936
 30
0.0
 40
10.0
100
AcDbArc
 50
331.1080000000092
 51
344.8919999999946
  0
LINE
  5
2200B
330
2
100
AcDbEntity
  8
DISEGNO
100
AcDbLine
 10
2935.253294744752
 20
4331.119503742935
 30
0.0
 11
2935.253294744752
 21
4310.619503742935
 31
0.0
  0
LINE
  5
2200C
330
2
100
AcDbEntity
  8
DISEGNO
100
AcDbLine
 10
2933.253294744753
 20
4322.369353742935
 30
0.0
 11
2935.253294744752
 21
4322.369353742935
 31
0.0
  0
LINE
  5
2200D
330
2
100
AcDbEntity
  8
DISEGNO
100
AcDbLine
 10
2928.253294744753
 20
4322.369353742935
 30
0.0
 11
2935.253294744752
 21
4322.369353742935
 31
0.0
  0
LINE
  5
2200E
330
2
100
AcDbEntity
  8
DISEGNO
100
AcDbLine
 10
2935.253294744752
 20
4340.119503742935
 30
0.0
 11
2935.253294744752
 21
4322.369503742935
 31
0.0
  0
ARC
  5
22010
330
2
100
AcDbEntity
  8
DISEGNO
100
AcDbCircle
 10
2910.503294744753
 20
4347.119503742935
 30
0.0
 40
5.0
100
AcDbArc
 50
292.0820000000134
 51
0.0
  0
ARC
  5
22011
330
2
100
AcDbEntity
  8
DISEGNO
100
AcDbCircle
 10
2909.503294744752
 20
4347.802203742936
 30
0.0
 40
1.0
100
AcDbArc
 50
290.6200000000106
 51
0.0
  0
LINE
  5
22012
330
2
100
AcDbEntity
  8
DISEGNO
100
AcDbLine
 10
2928.253294744753
 20
4326.369603742936
 30
0.0
 11
2928.253294744753
 21
4322.369603742936
 31
0.0
  0
LINE
  5
22013
330
2
100
AcDbEntity
  8
DISEGNO
100
AcDbLine
 10
2935.253294744752
 20
4322.369603742936
 30
0.0
 11
2928.253294744753
 21
4322.369603742936
 31
0.0
  0
ARC
  5
22014
330
2
100
AcDbEntity
  8
DISEGNO
100
AcDbCircle
 10
2916.253294744753
 20
4326.369603742936
 30
0.0
 40
5.0
100
AcDbArc
 50
90.0
 51
130.7200000000136
  0
ARC
  5
22015
330
2
100
AcDbEntity
  8
DISEGNO
100
AcDbCircle
 10
2916.935994744754
 20
4325.369603742936
 30
0.0
 40
1.0
100
AcDbArc
 50
90.0
 51
159.3799999999985
  0
LINE
  5
22016
330
2
100
AcDbEntity
  8
DISEGNO
100
AcDbLine
 10
2924.253294744753
 20
4331.369603742937
 30
0.0
 11
2916.253294744753
 21
4331.369603742937
 31
0.0
  0
LINE
  5
22017
330
2
100
AcDbEntity
  8
DISEGNO
100
AcDbLine
 10
2928.253294744753
 20
4326.369603742936
 30
0.0
 11
2916.935994744754
 21
4326.369603742936
 31
0.0
  0
ARC
  5
22018
330
2
100
AcDbEntity
  8
DISEGNO
100
AcDbCircle
 10
2924.253294744753
 20
4336.369603742936
 30
0.0
 40
5.0
100
AcDbArc
 50
270.0
 51
0.0
  0
LINE
  5
2201A
330
2
100
AcDbEntity
  8
DISEGNO
100
AcDbLine
 10
2935.253294744752
 20
4322.369503742935
 30
0.0
 11
2935.253294744752
 21
4339.119503742935
 31
0.0
  0
ARC
  5
22023
330
2
100
AcDbEntity
  8
DISEGNO
100
AcDbCircle
 10
2905.053594744753
 20
4292.619603742936
 30
0.0
 40
10.0
100
AcDbArc
 50
44.99999999998157
 51
90.0
  0
ARC
  5
22024
330
2
100
AcDbEntity
  8
DISEGNO
100
AcDbCircle
 10
2890.753294744753
 20
4305.619603742936
 30
0.0
 40
3.0
100
AcDbArc
 50
180.0
 51
270.0
  0
LINE
  5
22025
330
2
100
AcDbEntity
  8
DISEGNO
100
AcDbLine
 10
2890.753294744753
 20
4302.619603742936
 30
0.0
 11
2905.053594744753
 21
4302.619603742936
 31
0.0
  0
ARC
  5
22026
330
2
100
AcDbEntity
  8
DISEGNO
100
AcDbCircle
 10
2926.253294744753
 20
4289.428803742936
 30
0.0
 40
1.0
100
AcDbArc
 50
60.00010000000031
 51
180.0
  0
LINE
  5
22027
330
2
100
AcDbEntity
  8
DISEGNO
100
AcDbLine
 10
2935.253294744752
 20
4286.619403742935
 30
0.0
 11
2933.119294744754
 21
4286.619403742935
 31
0.0
  0
LINE
  5
22028
330
2
100
AcDbEntity
  8
DISEGNO
100
AcDbLine
 10
2933.119294744754
 20
4286.619403742935
 30
0.0
 11
2926.753294744753
 21
4290.294903742934
 31
0.0
  0
LINE
  5
22029
330
2
100
AcDbEntity
  8
DISEGNO
100
AcDbLine
 10
2912.124594744753
 20
4299.690703742935
 30
0.0
 11
2915.824394744754
 21
4295.990903742935
 31
0.0
  0
ARC
  5
2202A
330
2
100
AcDbEntity
  8
DISEGNO
100
AcDbCircle
 10
2908.753294744753
 20
4288.919803742936
 30
0.0
 40
10.0
100
AcDbArc
 50
0.0
 51
44.99999999998157
  0
LINE
  5
2202B
330
2
100
AcDbEntity
  8
DISEGNO
100
AcDbLine
 10
2916.935994744754
 20
4305.869603742936
 30
0.0
 11
2928.253294744753
 21
4305.869603742936
 31
0.0
  0
LINE
  5
22030
330
2
100
AcDbEntity
  8
DISEGNO
100
AcDbLine
 10
2887.753294744753
 20
4305.619603742936
 30
0.0
 11
2887.753294744753
 21
4310.369603742937
 31
0.0
  0
LINE
  5
22031
330
2
100
AcDbEntity
  8
DISEGNO
100
AcDbLine
 10
2935.253294744752
 20
4310.619503742935
 30
0.0
 11
2935.253294744752
 21
4295.119503742935
 31
0.0
  0
LINE
  5
22032
330
2
100
AcDbEntity
  8
DISEGNO
100
AcDbLine
 10
2935.253294744752
 20
4309.869353742935
 30
0.0
 11
2935.253294744752
 21
4300.119353742934
 31
0.0
  0
LINE
  5
22033
330
2
100
AcDbEntity
  8
DISEGNO
100
AcDbLine
 10
2935.253294744752
 20
4309.869353742935
 30
0.0
 11
2935.253294744752
 21
4300.119353742934
 31
0.0
  0
LINE
  5
22034
330
2
100
AcDbEntity
  8
DISEGNO
100
AcDbLine
 10
2928.253294744753
 20
4309.869603742936
 30
0.0
 11
2928.253294744753
 21
4305.869603742936
 31
0.0
  0
LINE
  5
22035
330
2
100
AcDbEntity
  8
DISEGNO
100
AcDbLine
 10
2935.253294744752
 20
4309.869603742936
 30
0.0
 11
2935.253294744752
 21
4286.619403742935
 31
0.0
  0
ARC
  5
22036
330
2
100
AcDbEntity
  8
DISEGNO
100
AcDbCircle
 10
2916.935994744754
 20
4306.869603742936
 30
0.0
 40
1.0
100
AcDbArc
 50
200.6200000000014
 51
270.0
  0
LINE
  5
22037
330
2
100
AcDbEntity
  8
DISEGNO
100
AcDbLine
 10
2935.253294744752
 20
4309.869503742935
 30
0.0
 11
2935.253294744752
 21
4300.119503742935
 31
0.0
  0
LINE
  5
221B9
330
2
100
AcDbEntity
  8
DISEGNO
100
AcDbLine
 10
2910.503294744753
 20
4359.155603742936
 30
0.0
 11
2906.503294744753
 21
4359.155603742936
 31
0.0
  0
LINE
  5
221BA
330
2
100
AcDbEntity
  8
DISEGNO
100
AcDbLine
 10
2934.253294744753
 20
4366.119403742936
 30
0.0
 11
2906.503294744753
 21
4366.119403742936
 31
0.0
  0
LINE
  5
221BD
330
2
100
AcDbEntity
  8
DISEGNO
100
AcDbLine
 10
2906.503294744753
 20
4366.119403742936
 30
0.0
 11
2906.503294744753
 21
4359.155603742936
 31
0.0
  0
LINE
  5
221BE
330
2
100
AcDbEntity
  8
DISEGNO
100
AcDbLine
 10
2894.003294744753
 20
4359.155603742936
 30
0.0
 11
2894.003294744753
 21
4366.119403742936
 31
0.0
  0
LINE
  5
221BF
330
2
100
AcDbEntity
  8
DISEGNO
100
AcDbLine
 10
2894.003294744753
 20
4359.155603742936
 30
0.0
 11
2890.003294744753
 21
4359.155603742936
 31
0.0
  0
LINE
  5
221C5
330
2
100
AcDbEntity
  8
DISEGNO
100
AcDbLine
 10
2927.753294744753
 20
4366.119403742936
 30
0.0
 11
2910.253294744753
 21
4366.119403742936
 31
0.0
  0
ARC
  5
221C7
330
2
100
AcDbEntity
  8
DISEGNO
100
AcDbCircle
 10
2934.253294744753
 20
4365.119503742935
 30
0.0
 40
1.0
100
AcDbArc
 50
0.0000053477579756
 51
90.0
  0
LINE
  5
221C8
330
2
100
AcDbEntity
  8
DISEGNO
100
AcDbLine
 10
2920.503294744753
 20
4360.119503742935
 30
0.0
 11
2924.253294744753
 21
4360.119503742935
 31
0.0
  0
ARC
  5
221C9
330
2
100
AcDbEntity
  8
DISEGNO
100
AcDbCircle
 10
2920.503294744753
 20
4355.119503742935
 30
0.0
 40
5.0
100
AcDbArc
 50
90.0
 51
180.0
  0
ARC
  5
221CA
330
2
100
AcDbEntity
  8
DISEGNO
100
AcDbCircle
 10
2924.253294744753
 20
4355.119503742935
 30
0.0
 40
5.0
100
AcDbArc
 50
0.0
 51
90.0
  0
LINE
  5
225E0
330
2
100
AcDbEntity
  8
ASSI
100
AcDbLine
 10
2850.253294744753
 20
4157.568646756772
 30
0.0
 11
2850.253294744753
 21
4375.669647262332
 31
0.0
  0
LINE
  5
225E1
330
2
100
AcDbEntity
  8
ASSI
100
AcDbLine
 10
2808.166550728273
 20
4316.119603742936
 30
0.0
 11
2940.634398908894
 21
4316.119603742936
 31
0.0
  0
ENDSEC
  0
SECTION
  2
OBJECTS
  0
DICTIONARY
  5
1A
330
0
100
AcDbDictionary
281
     1
  3
ACAD_COLOR
350
225A7
  3
ACAD_GROUP
350
18
  3
ACAD_LAYOUT
350
1780E
  3
ACAD_MATERIAL
350
22592
  3
ACAD_MLINESTYLE
350
19
  3
ACAD_PLOTSETTINGS
350
1780F
  3
ACAD_PLOTSTYLENAME
350
1780C
  3
ACAD_TABLESTYLE
350
225A8
  3
ACAD_VISUALSTYLE
350
22596
  3
AcAsAppObject
350
2089A
  3
ACASGREF_MASTER
350
208E2
  3
AcDbVariableDictionary
350
178C1
  3
AcmDictionary
350
17831
  3
AD_GREF_MODULE
350
208E3
  3
AD_MAPI_MODULE
350
208FC
  3
AMG
350
17817
  3
AMGSNAPSETTINGS
350
178F4
  3
ASE_INDEX_DICTIONARY
350
20850
  3
DWGPROPS
350
225FD
  3
MAPISURF_MODULE
350
208E4
  0
DICTIONARY
  5
1DB82
330
A
100
AcDbDictionary
280
     1
281
     1
  3
ACAD_LAYERFILTERS
360
1DB83
  0
DICTIONARY
  5
17864
330
2
100
AcDbDictionary
280
     1
281
     1
  3
ACAD_LAYOUTSELFREF
360
1884F
  0
DICTIONARY
  5
178A5
330
7
100
AcDbDictionary
280
     1
281
     1
  3
ACAD_LAYOUTSELFREF
360
18850
  0
DICTIONARY
  5
225A7
102
{ACAD_REACTORS
330
1A
102
}
330
1A
100
AcDbDictionary
281
     1
  0
DICTIONARY
  5
18
102
{ACAD_REACTORS
330
1A
102
}
330
1A
100
AcDbDictionary
281
     1
  0
DICTIONARY
  5
1780E
102
{ACAD_REACTORS
330
1A
102
}
330
1A
100
AcDbDictionary
281
     1
  3
Layout1
350
17811
  3
Model
350
17810
  0
DICTIONARY
  5
22592
102
{ACAD_REACTORS
330
1A
102
}
330
1A
100
AcDbDictionary
281
     1
  3
ByBlock
350
22594
  3
ByLayer
350
22593
  3
Global
350
22595
  0
DICTIONARY
  5
19
102
{ACAD_REACTORS
330
1A
102
}
330
1A
100
AcDbDictionary
281
     1
  3
STANDARD
350
1E
  0
DICTIONARY
  5
1780F
102
{ACAD_REACTORS
330
1A
102
}
330
1A
100
AcDbDictionary
281
     1
  0
ACDBDICTIONARYWDFLT
  5
1780C
102
{ACAD_REACTORS
330
1A
102
}
330
1A
100
AcDbDictionary
281
     1
  3
Normal
350
1780D
100
AcDbDictionaryWithDefault
340
1780D
  0
DICTIONARY
  5
225A8
102
{ACAD_REACTORS
330
1A
102
}
330
1A
100
AcDbDictionary
281
     1
  3
Standard
350
225A9
  0
DICTIONARY
  5
22596
102
{ACAD_REACTORS
330
1A
102
}
330
1A
100
AcDbDictionary
281
     1
  3
2dWireframe
350
2259C
  3
Basic
350
2259B
  3
Brighten
350
225A2
  3
ColorChange
350
225A6
  3
Dim
350
225A1
  3
Facepattern
350
225A5
  3
Flat
350
22597
  3
FlatWithEdges
350
22598
  3
Gouraud
350
22599
  3
GouraudWithEdges
350
2259A
  3
Linepattern
350
225A4
  3
Thicken
350
225A3
  0
ACAD_PROXY_OBJECT
  5
2089A
102
{ACAD_REACTORS
330
1A
102
}
330
1A
100
AcDbProxyObject
 90
      499
 91
      623
 95
       23
 70
     0
 93
       10
310
407F
 94
        0
1001
ACAD
1000
AcRTDxfName
1000
ASAPP
  0
ACAD_PROXY_OBJECT
  5
208E2
102
{ACAD_REACTORS
330
1A
102
}
330
1A
100
AcDbProxyObject
 90
      499
 91
      628
 95
       23
 70
     0
 93
       34
310
010000407F
 94
        0
1001
ACAD
1000
AcRTDxfName
1000
ACASGREFMASTER
  0
DICTIONARY
  5
178C1
102
{ACAD_REACTORS
330
1A
102
}
330
1A
100
AcDbDictionary
281
     1
  3
CTABLESTYLE
350
225FB
  3
DIMASSOC
350
178C3
  3
INDEXCTL
350
178C2
  3
SORTENTS
350
225FC
  0
DICTIONARY
  5
17831
102
{ACAD_REACTORS
330
1A
102
}
330
1A
100
AcDbDictionary
281
     1
  3
AcmStdDictionary
350
17837
  3
AMDTSECTSYM_ARROWCOLOR
350
225C8
  0
ACAD_PROXY_OBJECT
  5
208E3
102
{ACAD_REACTORS
330
1A
102
}
330
1A
100
AcDbProxyObject
 90
      499
 91
      629
 95
       23
 70
     0
 93
      114
310
00000043800000000000000000003F
 94
        0
1001
ACAD
1000
AcRTDxfName
1000
ACADGREFMODULE
  0
ACAD_PROXY_OBJECT
  5
208FC
102
{ACAD_REACTORS
330
1A
102
}
330
1A
100
AcDbProxyObject
 90
      499
 91
      639
 95
       23
 70
     0
 93
       34
310
05000044FF
 94
        0
1001
ACAD
1000
AcRTDxfName
1000
MAPIADMODULE
  0
DICTIONARY
  5
17817
102
{ACAD_REACTORS
330
1A
102
}
330
1A
100
AcDbDictionary
281
     1
  0
DICTIONARY
  5
178F4
102
{ACAD_REACTORS
330
1A
102
}
330
1A
100
AcDbDictionary
281
     1
  0
DICTIONARY
  5
20850
102
{ACAD_REACTORS
330
1A
102
}
330
1A
100
AcDbDictionary
281
     1
  3
ASEBlockHierarchyIndexRecord
350
20851
1001
DCO15
1040
1462006497.729
  0
XRECORD
  5
225FD
102
{ACAD_REACTORS
330
1A
102
}
330
1A
100
AcDbXrecord
280
     1
  1
DWGPROPS COOKIE
  2

  3

  4

  6

  7

  8
fcerrato
  9

300
AmdtFileType=84
301
=
302
=
303
=
304
=
305
=
306
=
307
=
308
=
309
=
 40
9.149038437499999
 41
2451487.429802894
 42
2454372.404413275
  1

 90
        1
  0
ACAD_PROXY_OBJECT
  5
208E4
102
{ACAD_REACTORS
330
1A
102
}
330
1A
100
AcDbProxyObject
 90
      499
 91
      630
 95
       23
 70
     0
 93
        8
310
047E
 94
        0
1001
ACAD
1000
AcRTDxfName
1000
AMDTMAPISURFMOUDULE
  0
DICTIONARY
  5
1DB83
102
{ACAD_REACTORS
330
1DB82
102
}
330
1DB82
100
AcDbDictionary
280
     1
281
     1
  3
PIPPO
360
1DB84
  0
XRECORD
  5
1884F
102
{ACAD_REACTORS
330
17864
102
}
330
17864
100
AcDbXrecord
280
     1
340
2
  0
XRECORD
  5
18850
102
{ACAD_REACTORS
330
178A5
102
}
330
178A5
100
AcDbXrecord
280
     1
340
7
  0
LAYOUT
  5
17811
102
{ACAD_XDICTIONARY
360
22600
102
}
102
{ACAD_REACTORS
330
1780E
102
}
330
1780E
100
AcDbPlotSettings
  1

  2
\\TECNOC00\EncadHP
  4

  6

 40
0.0
 41
0.0
 42
0.0
 43
0.0
 44
0.0
 45
0.0
 46
0.0
 47
0.0
 48
0.0
 49
0.0
140
0.0
141
0.0
142
1.0
143
1.0
 70
   688
 72
     0
 73
     0
 74
     5
  7
Tecno-stam.ctb
 75
    16
147
1.0
148
0.0
149
0.0
100
AcDbLayout
  1
Layout1
 70
     1
 71
     1
 10
0.0
 20
0.0
 11
420.0
 21
297.0
 12
0.0
 22
0.0
 32
0.0
 14
1.000000000000000E+20
 24
1.000000000000000E+20
 34
1.000000000000000E+20
 15
-1.000000000000000E+20
 25
-1.000000000000000E+20
 35
-1.000000000000000E+20
146
0.0
 13
0.0
 23
0.0
 33
0.0
 16
1.0
 26
0.0
 36
0.0
 17
0.0
 27
1.0
 37
0.0
 76
     0
330
7
  0
LAYOUT
  5
17810
102
{ACAD_XDICTIONARY
360
225FE
102
}
102
{ACAD_REACTORS
330
1780E
102
}
330
1780E
100
AcDbPlotSettings
  1

  2
\\bdc\OCE 6450
  4
A4
  6

 40
4.307416439056396
 41
4.349778175354003
 42
5.746734619140625
 43
5.027069091796875
 44
209.8886566162109
 45
297.0530090332031
 46
0.0
 47
0.0
 48
1143.077884353226
 49
456.7427253462124
140
2193.077884353226
141
1941.742725346218
142
1.0
143
5.254347826807991
 70
 11952
 72
     1
 73
     0
 74
     4
  7
Tecno-stam.ctb
 75
     0
147
0.190318576721918
148
-1143.077884353226
149
-456.7427253462124
100
AcDbLayout
  1
Model
 70
     1
 71
     0
 10
0.0
 20
0.0
 11
12.0
 21
9.0
 12
0.0
 22
0.0
 32
0.0
 14
0.0
 24
0.0
 34
0.0
 15
0.0
 25
0.0
 35
0.0
146
0.0
 13
0.0
 23
0.0
 33
0.0
 16
1.0
 26
0.0
 36
0.0
 17
0.0
 27
1.0
 37
0.0
 76
     0
330
2
331
22590
  0
MATERIAL
  5
22594
102
{ACAD_XDICTIONARY
360
22604
102
}
102
{ACAD_REACTORS
330
22592
102
}
330
22592
100
AcDbMaterial
  1
ByBlock
  0
MATERIAL
  5
22593
102
{ACAD_XDICTIONARY
360
22602
102
}
102
{ACAD_REACTORS
330
22592
102
}
330
22592
100
AcDbMaterial
  1
ByLayer
  0
MATERIAL
  5
22595
102
{ACAD_XDICTIONARY
360
22606
102
}
102
{ACAD_REACTORS
330
22592
102
}
330
22592
100
AcDbMaterial
  1
Global
  0
MLINESTYLE
  5
1E
102
{ACAD_REACTORS
330
19
102
}
330
19
100
AcDbMlineStyle
  2
STANDARD
 70
     0
  3

 62
   256
 51
90.0
 52
90.0
 71
     2
 49
0.5
 62
   256
  6
BYLAYER
 49
-0.5
 62
   256
  6
BYLAYER
  0
ACDBPLACEHOLDER
  5
1780D
102
{ACAD_REACTORS
330
1780C
102
}
330
1780C
  0
TABLESTYLE
  5
225A9
102
{ACAD_XDICTIONARY
360
22608
102
}
102
{ACAD_REACTORS
330
225A8
102
}
330
225A8
100
AcDbTableStyle
  3
Standard
 70
     0
 71
     0
 40
1.5
 41
1.5
280
     0
281
     0
  7
STANDARD
140
4.5
170
     2
 62
     0
 63
     7
283
     0
274
    -2
284
     1
 64
     0
275
    -2
285
     1
 65
     0
276
    -2
286
     1
 66
     0
277
    -2
287
     1
 67
     0
278
    -2
288
     1
 68
     0
279
    -2
289
     1
 69
     0
  7
STANDARD
140
6.0
170
     5
 62
     0
 63
     7
283
     0
274
    -2
284
     1
 64
     0
275
    -2
285
     1
 65
     0
276
    -2
286
     1
 66
     0
277
    -2
287
     1
 67
     0
278
    -2
288
     1
 68
     0
279
    -2
289
     1
 69
     0
  7
STANDARD
140
4.5
170
     5
 62
     0
 63
     7
283
     0
274
    -2
284
     1
 64
     0
275
    -2
285
     1
 65
     0
276
    -2
286
     1
 66
     0
277
    -2
287
     1
 67
     0
278
    -2
288
     1
 68
     0
279
    -2
289
     1
 69
     0
  0
VISUALSTYLE
  5
2259C
102
{ACAD_REACTORS
330
22596
102
}
330
22596
100
AcDbVisualStyle
  2
2dWireframe
 70
     4
 71
     0
 72
     2
 73
     0
 90
        0
 40
-0.6
 41
-30.0
 62
     5
 63
     7
 74
     1
 91
        4
 64
     7
 65
   257
 75
     1
175
     1
 42
1.0
 92
        0
 66
   257
 43
1.0
 76
     1
 77
     6
 78
     2
 67
     7
 79
     5
170
     0
171
     0
290
     0
174
     0
 93
        1
 44
0.0
173
     0
291
     0
 45
0.0
1001
ACAD
1000
AcDbSavedByObjectVersion
1070
     0
  0
VISUALSTYLE
  5
2259B
102
{ACAD_REACTORS
330
22596
102
}
330
22596
100
AcDbVisualStyle
  2
Basic
 70
     7
 71
     1
 72
     0
 73
     1
 90
        0
 40
-0.6
 41
-30.0
 62
     5
 63
     7
 74
     0
 91
        4
 64
     7
 65
   257
 75
     1
175
     1
 42
1.0
 92
        8
 66
     7
 43
1.0
 76
     1
 77
     6
 78
     2
 67
     7
 79
     5
170
     0
171
     0
290
     0
174
     0
 93
        1
 44
0.0
173
     0
291
     1
 45
0.0
1001
ACAD
1000
AcDbSavedByObjectVersion
1070
     0
  0
VISUALSTYLE
  5
225A2
102
{ACAD_REACTORS
330
22596
102
}
330
22596
100
AcDbVisualStyle
  2
Brighten
 70
    12
 71
     2
 72
     2
 73
     0
 90
        0
 40
-0.6
 41
-30.0
 62
     5
 63
     7
 74
     1
 91
        4
 64
     7
 65
   257
 75
     1
175
     1
 42
1.0
 92
        8
 66
     7
 43
1.0
 76
     1
 77
     6
 78
     2
 67
     7
 79
     5
170
     0
171
     0
290
     0
174
     0
 93
        1
 44
50.0
173
     0
291
     1
 45
0.0
1001
ACAD
1000
AcDbSavedByObjectVersion
1070
     0
  0
VISUALSTYLE
  5
225A6
102
{ACAD_REACTORS
330
22596
102
}
330
22596
100
AcDbVisualStyle
  2
ColorChange
 70
    16
 71
     2
 72
     2
 73
     3
 90
        0
 40
-0.6
 41
-30.0
 62
     5
 63
     8
 74
     1
 91
        4
 64
     7
 65
   257
 75
     1
175
     1
 42
1.0
 92
        8
 66
     8
 43
1.0
 76
     1
 77
     6
 78
     2
 67
     7
 79
     5
170
     0
171
     0
290
     0
174
     0
 93
        1
 44
0.0
173
     0
291
     1
 45
0.0
1001
ACAD
1000
AcDbSavedByObjectVersion
1070
     0
  0
VISUALSTYLE
  5
225A1
102
{ACAD_REACTORS
330
22596
102
}
330
22596
100
AcDbVisualStyle
  2
Dim
 70
    11
 71
     2
 72
     2
 73
     0
 90
        0
 40
-0.6
 41
-30.0
 62
     5
 63
     7
 74
     1
 91
        4
 64
     7
 65
   257
 75
     1
175
     1
 42
1.0
 92
        8
 66
     7
 43
1.0
 76
     1
 77
     6
 78
     2
 67
     7
 79
     5
170
     0
171
     0
290
     0
174
     0
 93
        1
 44
-50.0
173
     0
291
     1
 45
0.0
1001
ACAD
1000
AcDbSavedByObjectVersion
1070
     0
  0
VISUALSTYLE
  5
225A5
102
{ACAD_REACTORS
330
22596
102
}
330
22596
100
AcDbVisualStyle
  2
Facepattern
 70
    15
 71
     2
 72
     2
 73
     0
 90
        0
 40
-0.6
 41
-30.0
 62
     5
 63
     7
 74
     1
 91
        4
 64
     7
 65
   257
 75
     1
175
     1
 42
1.0
 92
        8
 66
     7
 43
1.0
 76
     1
 77
     6
 78
     2
 67
     7
 79
     5
170
     0
171
     0
290
     0
174
     0
 93
        1
 44
0.0
173
     0
291
     1
 45
0.0
1001
ACAD
1000
AcDbSavedByObjectVersion
1070
     0
  0
VISUALSTYLE
  5
22597
102
{ACAD_REACTORS
330
22596
102
}
330
22596
100
AcDbVisualStyle
  2
Flat
 70
     0
 71
     2
 72
     1
 73
     1
 90
        2
 40
-0.6
 41
30.0
 62
     5
 63
     7
 74
     0
 91
        4
 64
     7
 65
   257
 75
     1
175
     1
 42
1.0
 92
        8
 66
     7
 43
1.0
 76
     1
 77
     6
 78
     2
 67
     7
 79
     5
170
     0
171
     0
290
     0
174
     0
 93
       13
 44
0.0
173
     0
291
     1
 45
0.0
1001
ACAD
1000
AcDbSavedByObjectVersion
1070
     0
  0
VISUALSTYLE
  5
22598
102
{ACAD_REACTORS
330
22596
102
}
330
22596
100
AcDbVisualStyle
  2
FlatWithEdges
 70
     1
 71
     2
 72
     1
 73
     1
 90
        2
 40
-0.6
 41
30.0
 62
     5
 63
     7
 74
     1
 91
        4
 64
     7
 65
   257
 75
     1
175
     1
 42
1.0
 92
        0
 66
   257
 43
1.0
 76
     1
 77
     6
 78
     2
 67
     7
 79
     5
170
     0
171
     0
290
     0
174
     0
 93
       13
 44
0.0
173
     0
291
     1
 45
0.0
1001
ACAD
1000
AcDbSavedByObjectVersion
1070
     0
  0
VISUALSTYLE
  5
22599
102
{ACAD_REACTORS
330
22596
102
}
330
22596
100
AcDbVisualStyle
  2
Gouraud
 70
     2
 71
     2
 72
     2
 73
     1
 90
        2
 40
-0.6
 41
30.0
 62
     5
 63
     7
 74
     0
 91
        4
 64
     7
 65
   257
 75
     1
175
     1
 42
1.0
 92
        0
 66
     7
 43
1.0
 76
     1
 77
     6
 78
     2
 67
     7
 79
     5
170
     0
171
     0
290
     0
174
     0
 93
       13
 44
0.0
173
     0
291
     1
 45
0.0
1001
ACAD
1000
AcDbSavedByObjectVersion
1070
     0
  0
VISUALSTYLE
  5
2259A
102
{ACAD_REACTORS
330
22596
102
}
330
22596
100
AcDbVisualStyle
  2
GouraudWithEdges
 70
     3
 71
     2
 72
     2
 73
     1
 90
        2
 40
-0.6
 41
30.0
 62
     5
 63
     7
 74
     1
 91
        4
 64
     7
 65
   257
 75
     1
175
     1
 42
1.0
 92
        0
 66
   257
 43
1.0
 76
     1
 77
     6
 78
     2
 67
     7
 79
     5
170
     0
171
     0
290
     0
174
     0
 93
       13
 44
0.0
173
     0
291
     1
 45
0.0
1001
ACAD
1000
AcDbSavedByObjectVersion
1070
     0
  0
VISUALSTYLE
  5
225A4
102
{ACAD_REACTORS
330
22596
102
}
330
22596
100
AcDbVisualStyle
  2
Linepattern
 70
    14
 71
     2
 72
     2
 73
     0
 90
        0
 40
-0.6
 41
-30.0
 62
     5
 63
     7
 74
     1
 91
        4
 64
     7
 65
   257
 75
     7
175
     7
 42
1.0
 92
        8
 66
     7
 43
1.0
 76
     1
 77
     6
 78
     2
 67
     7
 79
     5
170
     0
171
     0
290
     0
174
     0
 93
        1
 44
0.0
173
     0
291
     1
 45
0.0
1001
ACAD
1000
AcDbSavedByObjectVersion
1070
     0
  0
VISUALSTYLE
  5
225A3
102
{ACAD_REACTORS
330
22596
102
}
330
22596
100
AcDbVisualStyle
  2
Thicken
 70
    13
 71
     2
 72
     2
 73
     0
 90
        0
 40
-0.6
 41
-30.0
 62
     5
 63
     7
 74
     1
 91
        4
 64
     7
 65
   257
 75
     1
175
     1
 42
1.0
 92
       12
 66
     7
 43
1.0
 76
     1
 77
     6
 78
     2
 67
     7
 79
     5
170
     0
171
     0
290
     0
174
     0
 93
        1
 44
0.0
173
     0
291
     1
 45
0.0
1001
ACAD
1000
AcDbSavedByObjectVersion
1070
     0
  0
DICTIONARYVAR
  5
225FB
102
{ACAD_REACTORS
330
178C1
102
}
330
178C1
100
DictionaryVariables
280
     0
  1
STANDARD
  0
DICTIONARYVAR
  5
178C3
102
{ACAD_REACTORS
330
178C1
102
}
330
178C1
100
DictionaryVariables
280
     0
  1
1
  0
DICTIONARYVAR
  5
178C2
102
{ACAD_REACTORS
330
178C1
102
}
330
178C1
100
DictionaryVariables
280
     0
  1
0
  0
DICTIONARYVAR
  5
225FC
102
{ACAD_REACTORS
330
178C1
102
}
330
178C1
100
DictionaryVariables
280
     0
  1
127
  0
DICTIONARY
  5
17837
102
{ACAD_REACTORS
330
17831
102
}
330
17831
100
AcDbDictionary
281
     1
  0
XRECORD
  5
225C8
102
{ACAD_REACTORS
330
17831
102
}
330
17831
100
AcDbXrecord
280
     1
 90
-1023410169
  0
XRECORD
  5
20851
102
{ACAD_REACTORS
330
20850
102
}
330
20850
100
AcDbXrecord
280
     1
330
0
330
0
  0
XRECORD
  5
1DB84
102
{ACAD_REACTORS
330
1DB83
102
}
330
1DB83
100
AcDbXrecord
280
     1
  1
PIPPO
  1
*
  1
7
  1
*
 70
     0
  1
*
  1
*
  0
DICTIONARY
  5
22600
330
17811
100
AcDbDictionary
280
     1
281
     1
  3
ACAD_XREC_ROUNDTRIP
360
22601
  0
DICTIONARY
  5
225FE
330
17810
100
AcDbDictionary
280
     1
281
     1
  3
ACAD_XREC_ROUNDTRIP
360
225FF
  0
DICTIONARY
  5
22604
330
22594
100
AcDbDictionary
280
     1
281
     1
  3
ACAD_XREC_ROUNDTRIP
360
22605
  0
DICTIONARY
  5
22602
330
22593
100
AcDbDictionary
280
     1
281
     1
  3
ACAD_XREC_ROUNDTRIP
360
22603
  0
DICTIONARY
  5
22606
330
22595
100
AcDbDictionary
280
     1
281
     1
  3
ACAD_XREC_ROUNDTRIP
360
22607
  0
DICTIONARY
  5
22608
330
225A9
100
AcDbDictionary
280
     1
281
     1
  3
ACAD_XREC_ROUNDTRIP
360
22609
  0
XRECORD
  5
22601
102
{ACAD_REACTORS
330
22600
102
}
330
22600
100
AcDbXrecord
280
     1
102
SHADEPLOT
 70
     0
102
SHADEPLOTRESLEVEL
 70
     2
102
SHADEPLOTCUSTOMDPI
 70
   300
  0
XRECORD
  5
225FF
102
{ACAD_REACTORS
330
225FE
102
}
330
225FE
100
AcDbXrecord
280
     1
102
SHADEPLOT
 70
     0
102
SHADEPLOTRESLEVEL
 70
     2
102
SHADEPLOTCUSTOMDPI
 70
   300
  0
XRECORD
  5
22605
102
{ACAD_REACTORS
330
22604
102
}
330
22604
100
AcDbXrecord
280
     1
102
MATERIAL
148
0.0
149
0.0
149
0.0
 93
        0
 94
       63
282
     0
 72
     1
 77
     1
171
     1
175
     1
179
     1
273
     0
  0
XRECORD
  5
22603
102
{ACAD_REACTORS
330
22602
102
}
330
22602
100
AcDbXrecord
280
     1
102
MATERIAL
148
0.0
149
0.0
149
0.0
 93
        0
 94
       63
282
     0
 72
     1
 77
     1
171
     1
175
     1
179
     1
273
     0
  0
XRECORD
  5
22607
102
{ACAD_REACTORS
330
22606
102
}
330
22606
100
AcDbXrecord
280
     1
102
MATERIAL
148
0.0
149
0.0
149
0.0
 93
        0
 94
       63
282
     0
 72
     1
 77
     1
171
     1
175
     1
179
     1
273
     0
  0
XRECORD
  5
22609
102
{ACAD_REACTORS
330
22608
102
}
330
22608
100
AcDbXrecord
280
     1
102
ACAD_ROUNDTRIP_PRE2007_TABLESTYLE
 90
      512
 91
        0
  1

 92
      512
 93
        0
  2

 94
      512
 95
        0
  3

  0
ENDSEC
  0
EOF
