  0
SECTION
  2
HEADER
  9
$ACADVER
  1
AC1015
  9
$ACADMAINTVER
 70
    20
  9
$DWGCODEPAGE
  3
ANSI_1252
  9
$INSBASE
 10
1885.123440949152
 20
1338.851690914256
 30
0.0
  9
$EXTMIN
 10
2416.843935624995
 20
1241.767824304705
 30
-0.000000000241158
  9
$EXTMAX
 10
2654.588315572029
 20
1664.302303767349
 30
0.0000000025276115
  9
$LIMMIN
 10
2397.829480798232
 20
1211.190255439262
  9
$LIMMAX
 10
2700.552775578812
 20
1657.866795409466
  9
$ORTHOMODE
 70
     1
  9
$REGENMODE
 70
     1
  9
$FILLMODE
 70
     1
  9
$QTEXTMODE
 70
     0
  9
$MIRRTEXT
 70
     0
  9
$LTSCALE
 40
10.0
  9
$ATTMODE
 70
     1
  9
$TEXTSIZE
 40
0.2
  9
$TRACEWID
 40
0.05
  9
$TEXTSTYLE
  7
Standard
  9
$CLAYER
  8
0
  9
$CELTYPE
  6
ByLayer
  9
$CECOLOR
 62
   256
  9
$CELTSCALE
 40
1.0
  9
$DISPSILH
 70
     0
  9
$DIMSCALE
 40
10.0
  9
$DIMASZ
 40
2.5
  9
$DIMEXO
 40
0.0
  9
$DIMDLI
 40
6.0
  9
$DIMRND
 40
0.00000001
  9
$DIMDLE
 40
10.0
  9
$DIMEXE
 40
3.174999999999999
  9
$DIMTP
 40
0.0
  9
$DIMTM
 40
0.0
  9
$DIMTXT
 40
3.5
  9
$DIMCEN
 40
0.09
  9
$DIMTSZ
 40
0.0
  9
$DIMTOL
 70
     0
  9
$DIMLIM
 70
     0
  9
$DIMTIH
 70
     0
  9
$DIMTOH
 70
     0
  9
$DIMSE1
 70
     0
  9
$DIMSE2
 70
     0
  9
$DIMTAD
 70
     1
  9
$DIMZIN
 70
     8
  9
$DIMBLK
  1

  9
$DIMASO
 70
     1
  9
$DIMSHO
 70
     1
  9
$DIMPOST
  1

  9
$DIMAPOST
  1

  9
$DIMALT
 70
     0
  9
$DIMALTD
 70
     3
  9
$DIMALTF
 40
0.03937
  9
$DIMLFAC
 40
1.0
  9
$DIMTOFL
 70
     0
  9
$DIMTVP
 40
0.0
  9
$DIMTIX
 70
     0
  9
$DIMSOXD
 70
     0
  9
$DIMSAH
 70
     0
  9
$DIMBLK1
  1

  9
$DIMBLK2
  1

  9
$DIMSTYLE
  2
DEFAULT-ISO - Metodo 1b
  9
$DIMCLRD
 70
     7
  9
$DIMCLRE
 70
     7
  9
$DIMCLRT
 70
     7
  9
$DIMTFAC
 40
0.7142857142857144
  9
$DIMGAP
 40
0.762
  9
$DIMJUST
 70
     0
  9
$DIMSD1
 70
     0
  9
$DIMSD2
 70
     0
  9
$DIMTOLJ
 70
     1
  9
$DIMTZIN
 70
     8
  9
$DIMALTZ
 70
     0
  9
$DIMALTTZ
 70
     8
  9
$DIMUPT
 70
     0
  9
$DIMDEC
 70
     2
  9
$DIMTDEC
 70
     2
  9
$DIMALTU
 70
     2
  9
$DIMALTTD
 70
     3
  9
$DIMTXSTY
  7
Corrente-BSI
  9
$DIMAUNIT
 70
     0
  9
$DIMADEC
 70
     2
  9
$DIMALTRND
 40
0.0
  9
$DIMAZIN
 70
     2
  9
$DIMDSEP
 70
    44
  9
$DIMATFIT
 70
     3
  9
$DIMFRAC
 70
     0
  9
$DIMLDRBLK
  1

  9
$DIMLUNIT
 70
     2
  9
$DIMLWD
 70
     0
  9
$DIMLWE
 70
     0
  9
$DIMTMOVE
 70
     0
  9
$LUNITS
 70
     2
  9
$LUPREC
 70
     2
  9
$SKETCHINC
 40
0.1
  9
$FILLETRAD
 40
0.0
  9
$AUNITS
 70
     0
  9
$AUPREC
 70
     0
  9
$MENU
  1
.
  9
$ELEVATION
 40
0.0
  9
$PELEVATION
 40
0.0
  9
$THICKNESS
 40
0.0
  9
$LIMCHECK
 70
     0
  9
$CHAMFERA
 40
0.0
  9
$CHAMFERB
 40
0.0
  9
$CHAMFERC
 40
0.0
  9
$CHAMFERD
 40
0.0
  9
$SKPOLY
 70
     0
  9
$TDCREATE
 40
2454125.607795822
  9
$TDUCREATE
 40
2454125.524462489
  9
$TDUPDATE
 40
2454372.496874630
  9
$TDUUPDATE
 40
2454372.413541296
  9
$TDINDWG
 40
0.0219674653
  9
$TDUSRTIMER
 40
0.0219674653
  9
$USRTIMER
 70
     1
  9
$ANGBASE
 50
0.0
  9
$ANGDIR
 70
     0
  9
$PDMODE
 70
     0
  9
$PDSIZE
 40
0.0
  9
$PLINEWID
 40
0.0
  9
$SPLFRAME
 70
     0
  9
$SPLINETYPE
 70
     6
  9
$SPLINESEGS
 70
     8
  9
$HANDSEED
  5
1BBF
  9
$SURFTAB1
 70
     6
  9
$SURFTAB2
 70
     6
  9
$SURFTYPE
 70
     6
  9
$SURFU
 70
     6
  9
$SURFV
 70
     6
  9
$UCSBASE
  2

  9
$UCSNAME
  2

  9
$UCSORG
 10
0.0
 20
0.0
 30
0.0
  9
$UCSXDIR
 10
1.0
 20
0.0
 30
0.0
  9
$UCSYDIR
 10
0.0
 20
1.0
 30
0.0
  9
$UCSORTHOREF
  2

  9
$UCSORTHOVIEW
 70
     0
  9
$UCSORGTOP
 10
0.0
 20
0.0
 30
0.0
  9
$UCSORGBOTTOM
 10
0.0
 20
0.0
 30
0.0
  9
$UCSORGLEFT
 10
0.0
 20
0.0
 30
0.0
  9
$UCSORGRIGHT
 10
0.0
 20
0.0
 30
0.0
  9
$UCSORGFRONT
 10
0.0
 20
0.0
 30
0.0
  9
$UCSORGBACK
 10
0.0
 20
0.0
 30
0.0
  9
$PUCSBASE
  2

  9
$PUCSNAME
  2

  9
$PUCSORG
 10
0.0
 20
0.0
 30
0.0
  9
$PUCSXDIR
 10
1.0
 20
0.0
 30
0.0
  9
$PUCSYDIR
 10
0.0
 20
1.0
 30
0.0
  9
$PUCSORTHOREF
  2

  9
$PUCSORTHOVIEW
 70
     0
  9
$PUCSORGTOP
 10
0.0
 20
0.0
 30
0.0
  9
$PUCSORGBOTTOM
 10
0.0
 20
0.0
 30
0.0
  9
$PUCSORGLEFT
 10
0.0
 20
0.0
 30
0.0
  9
$PUCSORGRIGHT
 10
0.0
 20
0.0
 30
0.0
  9
$PUCSORGFRONT
 10
0.0
 20
0.0
 30
0.0
  9
$PUCSORGBACK
 10
0.0
 20
0.0
 30
0.0
  9
$USERI1
 70
     0
  9
$USERI2
 70
     0
  9
$USERI3
 70
     0
  9
$USERI4
 70
     0
  9
$USERI5
 70
     0
  9
$USERR1
 40
0.0
  9
$USERR2
 40
0.0
  9
$USERR3
 40
0.0
  9
$USERR4
 40
0.0
  9
$USERR5
 40
0.0
  9
$WORLDVIEW
 70
     1
  9
$SHADEDGE
 70
     3
  9
$SHADEDIF
 70
    70
  9
$TILEMODE
 70
     1
  9
$MAXACTVP
 70
    64
  9
$PINSBASE
 10
0.0
 20
0.0
 30
0.0
  9
$PLIMCHECK
 70
     0
  9
$PEXTMIN
 10
0.0
 20
0.0
 30
0.0
  9
$PEXTMAX
 10
5940.0
 20
4200.0
 30
0.0
  9
$PLIMMIN
 10
0.0
 20
0.0
  9
$PLIMMAX
 10
5940.0
 20
4200.0
  9
$UNITMODE
 70
     0
  9
$VISRETAIN
 70
     1
  9
$PLINEGEN
 70
     0
  9
$PSLTSCALE
 70
     1
  9
$TREEDEPTH
 70
  3020
  9
$CMLSTYLE
  2
Standard
  9
$CMLJUST
 70
     0
  9
$CMLSCALE
 40
1.0
  9
$PROXYGRAPHICS
 70
     1
  9
$MEASUREMENT
 70
     1
  9
$CELWEIGHT
370
    -1
  9
$ENDCAPS
280
     0
  9
$JOINSTYLE
280
     0
  9
$LWDISPLAY
290
     0
  9
$INSUNITS
 70
     0
  9
$HYPERLINKBASE
  1

  9
$STYLESHEET
  1

  9
$XEDIT
290
     1
  9
$CEPSNTYPE
380
     0
  9
$PSTYLEMODE
290
     1
  9
$FINGERPRINTGUID
  2
{E0F50F72-09AF-49CC-A31A-FC0C0430B0FF}
  9
$VERSIONGUID
  2
{78436C81-325E-4532-AC8E-F89D91927521}
  9
$EXTNAMES
290
     1
  9
$PSVPSCALE
 40
0.0
  9
$OLESTARTUP
290
     0
  0
ENDSEC
  0
SECTION
  2
CLASSES
  0
CLASS
  1
ACDBDICTIONARYWDFLT
  2
AcDbDictionaryWithDefault
  3
ObjectDBX Classes
 90
        0
280
     0
281
     0
  0
CLASS
  1
TABLESTYLE
  2
AcDbTableStyle
  3
ObjectDBX Classes
 90
     4095
280
     0
281
     0
  0
CLASS
  1
DICTIONARYVAR
  2
AcDbDictionaryVar
  3
ObjectDBX Classes
 90
        0
280
     0
281
     0
  0
CLASS
  1
ACDBPLACEHOLDER
  2
AcDbPlaceHolder
  3
ObjectDBX Classes
 90
        0
280
     0
281
     0
  0
CLASS
  1
LAYOUT
  2
AcDbLayout
  3
ObjectDBX Classes
 90
        0
280
     0
281
     0
  0
CLASS
  1
ACME_DOCUMENT
  2
AcMeDbDoc
  3
AcMeServices
 90
        0
280
     0
281
     0
  0
CLASS
  1
ACMESCOPE
  2
AcMeScope
  3
AcMeServices
 90
        0
280
     0
281
     0
  0
CLASS
  1
ACMECOMMANDHISTORY
  2
AcMeCommandHistory
  3
AcMeServices
 90
        0
280
     0
281
     0
  0
CLASS
  1
ACIMSYSVARMAN
  2
AcImSysVarManager
  3
AcMeServices
 90
        0
280
     0
281
     0
  0
CLASS
  1
ACIMINTSYSVAR
  2
AcImIntSysVar
  3
AcMeServices
 90
        0
280
     0
281
     0
  0
CLASS
  1
ACMEDRAWINGMAN
  2
AcMeDrawingMan
  3
AcMeServices
 90
        0
280
     0
281
     0
  0
CLASS
  1
ACMEVIEW
  2
AcMeView
  3
AcMeServices
 90
        0
280
     0
281
     0
  0
CLASS
  1
ACDBENTITYCACHE
  2
AcMeEntityCache
  3
AcMeServices
 90
        0
280
     0
281
     0
  0
CLASS
  1
GSMANAGER
  2
AcMeGSManager
  3
AcMeServices
 90
        0
280
     0
281
     0
  0
CLASS
  1
AMDTINTERNALREACTOR
  2
AmdtInternalReactor
  3
AcMeServices
 90
        0
280
     0
281
     0
  0
CLASS
  1
ACMESTATEMGR
  2
AcMeStateMgr
  3
AcMeServices
 90
        0
280
     0
281
     0
  0
CLASS
  1
ACGREFMASTER
  2
AcGrefMaster
  3
AcAttribServices
 90
        0
280
     0
281
     0
  0
CLASS
  1
AM_DRAWING_MGR
  2
AcDmDwgMgr
  3
AcMechDwgViewMgmt
 90
        0
280
     0
281
     0
  0
CLASS
  1
AM_DWG_DOCUMENT
  2
AcDmDwgDocument
  3
AcMechDwgViewMgmt
 90
        0
280
     0
281
     0
  0
CLASS
  1
AM_DWG_SHEET
  2
AcDmSheet
  3
AcMechDwgViewMgmt
 90
        0
280
     0
281
     0
  0
CLASS
  1
AM_VIEWDIMPARMAP
  2
AcDmViewDimParMap
  3
AcMechDwgViewMgmt
 90
        0
280
     0
281
     0
  0
CLASS
  1
ACIMREALSYSVAR
  2
AcImRealSysVar
  3
AcMeServices
 90
        0
280
     0
281
     0
  0
CLASS
  1
AM_DWGMGR_NAME
  2
AcDmDwgMgrName
  3
AcMechDwgViewMgmt
 90
        0
280
     0
281
     0
  0
CLASS
  1
ACME_DATABASE
  2
AcMeDbDatabase
  3
AcMeServices
 90
        0
280
     0
281
     0
  0
CLASS
  1
ACRFINSADJUSTERMGR
  2
AcRfInsAdjusterMgr
  3
AcMeServices
 90
        0
280
     0
281
     0
  0
CLASS
  1
ACGREFACADMASTER
  2
AcGrefacadMaster
  3
AcGrefServices
 90
        0
280
     0
281
     0
  0
CLASS
  1
AMDTMENUSTATEMGR
  2
AmdtMenuStateMgr
  3
McadcomServices
 90
        0
280
     0
281
     0
  0
CLASS
  1
AMDTMCOMMENUSTATE
  2
AmdtMcomMenuState
  3
McadcomServices
 90
        0
280
     0
281
     0
  0
CLASS
  1
AMIMASTER
  2
AmiMaster
  3
AmiServices
 90
        0
280
     0
281
     0
  0
CLASS
  1
AMGSETTINGSOBJ
  2
AmgSettingsObj
  3
"AcadM|Product Description: AutoCAD Mechanical|Company: Autodesk"
 90
        0
280
     0
281
     0
  0
CLASS
  1
MAPIAMMOUDLE
  2
MApiAmModule
  3
MApiAmServices
 90
        0
280
     0
281
     0
  0
CLASS
  1
ACIMSTRSYSVAR
  2
AcImStrSysVar
  3
AcMeServices
 90
        0
280
     0
281
     0
  0
CLASS
  1
AMDTADMENUSTATE
  2
AmdtAdMenuState
  3
DesignerServices
 90
        0
280
     0
281
     0
  0
CLASS
  1
ADAPPL
  2
AcAdAppl
  3
DesignerServices
 90
        0
280
     0
281
     0
  0
CLASS
  1
DEPMGR
  2
AcAdDepMgr
  3
DesignerServices
 90
        0
280
     0
281
     0
  0
CLASS
  1
PARAMMGR
  2
AcAdParamMgr
  3
DesignerServices
 90
        0
280
     0
281
     0
  0
CLASS
  1
PARAMSCOPE
  2
AcAdParamScope
  3
DesignerServices
 90
        0
280
     0
281
     0
  0
CLASS
  1
NAMEDAPPL
  2
AcAdNamedAppl
  3
DesignerServices
 90
        0
280
     0
281
     0
  0
CLASS
  1
AMDTDMMENUSTATE
  2
AmdtDmMenuState
  3
AcMechDwgViewMgmt
 90
        0
280
     0
281
     0
  0
CLASS
  1
AMDTAMMENUSTATE
  2
AmdtAmMenuState
  3
DesignerAssemblies
 90
        0
280
     0
281
     0
  0
CLASS
  1
ACAMPROJECT
  2
AcAmProject
  3
DesignerAssemblies
 90
        0
280
     0
281
     0
  0
CLASS
  1
ACAMGRCOMPDEF
  2
AcAmGrCompDef
  3
DesignerAssemblies
 90
        0
280
     0
281
     0
  0
CLASS
  1
ACCMCONTEXT
  2
AcCmContext
  3
DesignerAssemblies
 90
        0
280
     0
281
     0
  0
CLASS
  1
ACAMCOMPDEF
  2
AcAmCompDef
  3
DesignerAssemblies
 90
        0
280
     0
281
     0
  0
CLASS
  1
ACAMCOMPDEFMGR
  2
AcAmCompDefMgr
  3
DesignerAssemblies
 90
        0
280
     0
281
     0
  0
CLASS
  1
AMCONTEXTMGR
  2
AcAmContextMgr
  3
DesignerAssemblies
 90
        0
280
     0
281
     0
  0
CLASS
  1
ACAMCONTEXTMODELER
  2
AcAmContextModeler
  3
DesignerAssemblies
 90
        0
280
     0
281
     0
  0
CLASS
  1
ACMDATADICTIONARY
  2
AcmDataDictionary
  3
"AcmSymBB|Product Description: AutoCAD Mechanical|Company: Autodesk"
 90
        0
280
     0
281
     0
  0
CLASS
  1
CATALOGSTATE
  2
AcAmCatalogState
  3
DesignerAssemblies
 90
        0
280
     0
281
     0
  0
CLASS
  1
ACAMGRCOMPDEFSET
  2
AcAmGrCompDefSet
  3
DesignerAssemblies
 90
        0
280
     0
281
     0
  0
CLASS
  1
AMDTBROWSERDBTAB
  2
AmdtBrowserDbTab
  3
McadcomServices
 90
        0
280
     0
281
     0
  0
CLASS
  1
CBROWSERAPPOBJECT
  2
CBrowserAppObject
  3
McadcomServices
 90
        0
280
     0
281
     0
  0
CLASS
  1
DM_PLACEHOLDER
  2
AcDmSelsetPlaceholder
  3
AcMechDwgViewMgmt
 90
        0
280
     0
281
     0
  0
CLASS
  1
ACMSTANDARDISO
  2
AcmStandardISO
  3
"Amdt_StdImp|Product Description: AutoCAD Mechanical|Company: Autodesk"
 90
        0
280
     0
281
     0
  0
CLASS
  1
AMGOBJPROPCFG
  2
AmgObjPropCfg
  3
"AmgLay|Product Description: AutoCAD Mechanical|Company: Autodesk"
 90
        1
280
     0
281
     0
  0
CLASS
  1
AMDTEDGESTANDARDISO13715
  2
AmdtEdgeStdISO13715
  3
"Amdt_StdImp|Product Description: AutoCAD Mechanical|Company: Autodesk"
 90
        0
280
     0
281
     0
  0
CLASS
  1
ACMSURFSTANDARDISO
  2
AcmSurfTextStdISO
  3
"Amdt_StdImp|Product Description: AutoCAD Mechanical|Company: Autodesk"
 90
        0
280
     0
281
     0
  0
CLASS
  1
ACMFCFSTANDARDISO
  2
AcmFCFStdISO
  3
"Amdt_StdImp|Product Description: AutoCAD Mechanical|Company: Autodesk"
 90
        0
280
     0
281
     0
  0
CLASS
  1
ACMWELDSTANDARDISO
  2
AcmWeldingStdISO
  3
"Amdt_StdImp|Product Description: AutoCAD Mechanical|Company: Autodesk"
 90
        0
280
     0
281
     0
  0
CLASS
  1
ACMIDSTANDARDISO
  2
AcmIdStdISO
  3
"Amdt_StdImp|Product Description: AutoCAD Mechanical|Company: Autodesk"
 90
        0
280
     0
281
     0
  0
CLASS
  1
ACMDATUMSTANDARDISO
  2
AcmDatumStdISO
  3
"Amdt_StdImp|Product Description: AutoCAD Mechanical|Company: Autodesk"
 90
        0
280
     0
281
     0
  0
CLASS
  1
ACMBOMSTANDARDISO
  2
AcmBOMStdISO
  3
"Amdt_StdImp|Product Description: AutoCAD Mechanical|Company: Autodesk"
 90
        0
280
     0
281
     0
  0
CLASS
  1
ACMDETAILSTANDARDISO
  2
AmdtDetailSymStdISO
  3
"Amdt_StdImp|Product Description: AutoCAD Mechanical|Company: Autodesk"
 90
        0
280
     0
281
     0
  0
CLASS
  1
ACMSECTIONSTANDARDISO
  2
AmdtSectionSymStdISO
  3
"Amdt_StdImp|Product Description: AutoCAD Mechanical|Company: Autodesk"
 90
        0
280
     0
281
     0
  0
CLASS
  1
ACMCENTERLINESTANDARDISO
  2
AmdtCenterLineStdISO
  3
"Amdt_StdImp|Product Description: AutoCAD Mechanical|Company: Autodesk"
 90
        0
280
     0
281
     0
  0
CLASS
  1
ACMTHREADLINESTANDARDISO
  2
AmdtThreadLineStdISO
  3
"Amdt_StdImp|Product Description: AutoCAD Mechanical|Company: Autodesk"
 90
        0
280
     0
281
     0
  0
CLASS
  1
ACMNOTESTANDARDISO
  2
AmdtNoteStdISO
  3
"Amdt_StdImp|Product Description: AutoCAD Mechanical|Company: Autodesk"
 90
        0
280
     0
281
     0
  0
CLASS
  1
AMDTNOTETEMPLATEDB
  2
AmdtNoteTemplateDB
  3
AMDT_STDIMP_MODULE_NAME
 90
        0
280
     0
281
     0
  0
CLASS
  1
ACAMGLAYSTD
  2
AcAmgLayStd
  3
"AmgLay|Product Description: AutoCAD Mechanical|Company: Autodesk"
 90
        0
280
     0
281
     0
  0
CLASS
  1
ACAMGDIMSTD
  2
AcAmgDimStd
  3
"AmgDim|Product Description: AutoCAD Mechanical|Company: Autodesk"
 90
        0
280
     0
281
     0
  0
CLASS
  1
ACAMGHOLECHARTSTDISO
  2
AcAmgHoleChartStdISO
  3
ACMSYMBB_MODULE_NAME
 90
        0
280
     0
281
     0
  0
CLASS
  1
ACAMGTITLESTD
  2
AcAmgTitleStd
  3
"AmgTitle|Product Description: AutoCAD Mechanical|Company: Autodesk"
 90
        0
280
     0
281
     0
  0
CLASS
  1
EXACXREFPANELOBJECT
  2
ExAcXREFPanelObject
  3
EXAC_ESW
 90
    32768
280
     1
281
     0
  0
CLASS
  1
ACAMGFILTERDAT
  2
AcAmgFilterDat
  3
"AcadM|Product Description: AutoCAD Mechanical|Company: Autodesk"
 90
    32768
280
     0
281
     0
  0
CLASS
  1
MATERIAL
  2
AcDbMaterial
  3
ObjectDBX Classes
 90
     1024
280
     0
281
     0
  0
CLASS
  1
VISUALSTYLE
  2
AcDbVisualStyle
  3
ObjectDBX Classes
 90
     4095
280
     0
281
     0
  0
CLASS
  1
ACMTAPERSTANDARDISO
  2
AcmTaperStdISO
  3
"Amdt_StdImp|Product Description: AutoCAD Mechanical|Company: Autodesk"
 90
        0
280
     0
281
     0
  0
CLASS
  1
ACMSTANDARDANSI
  2
AcmStandardANSI
  3
"Amdt_StdImp|Product Description: AutoCAD Mechanical|Company: Autodesk"
 90
    32768
280
     0
281
     0
  0
CLASS
  1
ACMSURFSTANDARDANSI
  2
AcmSurfTextStdANSI
  3
"Amdt_StdImp|Product Description: AutoCAD Mechanical|Company: Autodesk"
 90
    32768
280
     0
281
     0
  0
CLASS
  1
ACMFCFSTANDARDANSI
  2
AcmFCFStdANSI
  3
"Amdt_StdImp|Product Description: AutoCAD Mechanical|Company: Autodesk"
 90
    32768
280
     0
281
     0
  0
CLASS
  1
ACMWELDSTANDARDANSI
  2
AcmWeldingStdANSI
  3
"Amdt_StdImp|Product Description: AutoCAD Mechanical|Company: Autodesk"
 90
    32768
280
     0
281
     0
  0
CLASS
  1
ACMIDSTANDARDANSI
  2
AcmIdStdANSI
  3
"Amdt_StdImp|Product Description: AutoCAD Mechanical|Company: Autodesk"
 90
    32768
280
     0
281
     0
  0
CLASS
  1
ACMDATUMSTANDARDANSI
  2
AcmDatumStdANSI
  3
"Amdt_StdImp|Product Description: AutoCAD Mechanical|Company: Autodesk"
 90
    32768
280
     0
281
     0
  0
CLASS
  1
ACMBOMSTANDARDANSI
  2
AcmBOMStdANSI
  3
"Amdt_StdImp|Product Description: AutoCAD Mechanical|Company: Autodesk"
 90
    32768
280
     0
281
     0
  0
CLASS
  1
ACMDETAILSTANDARDANSI
  2
AmdtDetailSymStdANSI
  3
"Amdt_StdImp|Product Description: AutoCAD Mechanical|Company: Autodesk"
 90
    32768
280
     0
281
     0
  0
CLASS
  1
ACMSECTIONSTANDARDANSI
  2
AmdtSectionSymStdANSI
  3
"Amdt_StdImp|Product Description: AutoCAD Mechanical|Company: Autodesk"
 90
    32768
280
     0
281
     0
  0
CLASS
  1
ACMCENTERLINESTANDARDANSI
  2
AmdtCenterLineStdANSI
  3
"Amdt_StdImp|Product Description: AutoCAD Mechanical|Company: Autodesk"
 90
    32768
280
     0
281
     0
  0
CLASS
  1
ACMTHREADLINESTANDARDANSI
  2
AmdtThreadLineStdANSI
  3
"Amdt_StdImp|Product Description: AutoCAD Mechanical|Company: Autodesk"
 90
    32768
280
     0
281
     0
  0
CLASS
  1
ACMNOTESTANDARDANSI
  2
AmdtNoteStdANSI
  3
"Amdt_StdImp|Product Description: AutoCAD Mechanical|Company: Autodesk"
 90
    32768
280
     0
281
     0
  0
CLASS
  1
ACMTAPERSTANDARDANSI
  2
AcmTaperStdANSI
  3
"Amdt_StdImp|Product Description: AutoCAD Mechanical|Company: Autodesk"
 90
    32768
280
     0
281
     0
  0
CLASS
  1
ACAMGHOLECHARTSTDANSI
  2
AcAmgHoleChartStdANSI
  3
ACMSYMBB_MODULE_NAME
 90
    32768
280
     0
281
     0
  0
CLASS
  1
SORTENTSTABLE
  2
AcDbSortentsTable
  3
ObjectDBX Classes
 90
        0
280
     0
281
     0
  0
CLASS
  1
STDPART2D
  2
AmgStdPart
  3
"g3vace|Class: AmgStdPart|Product Description: AutoCAD Mechanical|Company: Autodesk"
 90
    35839
280
     0
281
     1
  0
CLASS
  1
ACMDATAENTRYPART
  2
AcmDataEntryPart
  3
"AcmSymBB|Product Description: AutoCAD Mechanical|Company: Autodesk"
 90
    32768
280
     0
281
     0
  0
CLASS
  1
ACMPARTREF
  2
AcmPartRef
  3
"AcmSymBB|Product Description: AutoCAD Mechanical|Company: Autodesk"
 90
    35839
280
     0
281
     1
  0
CLASS
  1
ACDBSTDPARTRES_LINE
  2
AcDbStdPartRes_Line
  3
"g3vace|Class: AcDbStdPartRes_Line|Product Description: AutoCAD Mechanical|Company: Autodesk"
 90
    32768
280
     0
281
     0
  0
ENDSEC
  0
SECTION
  2
TABLES
  0
TABLE
  2
VPORT
  5
1C
102
{ACAD_XDICTIONARY
360
1A8A
102
}
330
0
100
AcDbSymbolTable
 70
     1
  0
VPORT
  5
1D
330
1C
100
AcDbSymbolTableRecord
100
AcDbViewportTableRecord
  2
*Active
 70
     0
 10
0.0
 20
0.0
 11
1.0
 21
1.0
 12
2549.191128188522
 22
1437.746279603306
 13
0.0
 23
0.0
 14
1.0
 24
1.0
 15
0.0
 25
0.0
 16
0.0
 26
0.0
 36
1.0
 17
0.0
 27
0.0
 37
0.0
 40
456.022832364456
 41
1.978563772775991
 42
50.0
 43
0.0
 44
0.0
 50
0.0
 51
0.0
 71
     0
 72
   100
 73
     1
 74
     1
 75
     0
 76
     0
 77
     0
 78
     0
281
     0
 65
     0
110
0.0
120
0.0
130
0.0
111
1.0
121
0.0
131
0.0
112
0.0
122
1.0
132
0.0
 79
     0
146
0.0
  0
ENDTAB
  0
TABLE
  2
LTYPE
  5
17
330
0
100
AcDbSymbolTable
 70
    21
  0
LTYPE
  5
18
330
17
100
AcDbSymbolTableRecord
100
AcDbLinetypeTableRecord
  2
ByBlock
 70
     0
  3

 72
    65
 73
     0
 40
0.0
  0
LTYPE
  5
19
330
17
100
AcDbSymbolTableRecord
100
AcDbLinetypeTableRecord
  2
ByLayer
 70
     0
  3

 72
    65
 73
     0
 40
0.0
  0
LTYPE
  5
A
330
17
100
AcDbSymbolTableRecord
100
AcDbLinetypeTableRecord
  2
Continuous
 70
     0
  3
Solid line
 72
    65
 73
     0
 40
0.0
  0
LTYPE
  5
A09
330
17
100
AcDbSymbolTableRecord
100
AcDbLinetypeTableRecord
  2
AM_ISO02W050
 70
     0
  3
__ __ __ __ __ __ __ __ __ __ __ __ __ __ __
 72
    65
 73
     2
 40
7.5
 49
6.0
 74
     0
 49
-1.5
 74
     0
  0
LTYPE
  5
A0A
330
17
100
AcDbSymbolTableRecord
100
AcDbLinetypeTableRecord
  2
AM_ISO08W050
 70
     0
  3
____ . ____ . ____ . ____ . ____ . ____ . ____
 72
    65
 73
     4
 40
18.0
 49
12.0
 74
     0
 49
-1.5
 74
     0
 49
3.0
 74
     0
 49
-1.5
 74
     0
  0
LTYPE
  5
A0B
330
17
100
AcDbSymbolTableRecord
100
AcDbLinetypeTableRecord
  2
AM_ISO09W050
 70
     0
  3
_____ . . _____ . . _____ . . ____ .. ____
 72
    65
 73
     6
 40
22.5
 49
12.0
 74
     0
 49
-1.5
 74
     0
 49
3.0
 74
     0
 49
-1.5
 74
     0
 49
3.0
 74
     0
 49
-1.5
 74
     0
  0
LTYPE
  5
A0C
330
17
100
AcDbSymbolTableRecord
100
AcDbLinetypeTableRecord
  2
Amconstr
 70
     0
  3
_______________________
 72
    65
 73
     2
 40
9999.0
 49
9999.0
 74
     0
 49
0.0
 74
     0
  0
LTYPE
  5
A0D
330
17
100
AcDbSymbolTableRecord
100
AcDbLinetypeTableRecord
  2
AM_ISO08W050x2
 70
     0
  3
__ . __ . __ . __ . __ . __
 72
    65
 73
     4
 40
9.0
 49
6.0
 74
     0
 49
-0.75
 74
     0
 49
1.5
 74
     0
 49
-0.75
 74
     0
  0
LTYPE
  5
A0E
330
17
100
AcDbSymbolTableRecord
100
AcDbLinetypeTableRecord
  2
AM_ISO02W050x2
 70
     0
  3
 _ _ _ _ _ _ _ _ _ _ _ _
 72
    65
 73
     2
 40
3.75
 49
3.0
 74
     0
 49
-0.75
 74
     0
  0
LTYPE
  5
A0F
330
17
100
AcDbSymbolTableRecord
100
AcDbLinetypeTableRecord
  2
Amzigzag
 70
     0
  3
/\/-/\/-/\/-/\/-/\/-/\/
 72
    65
 73
     2
 40
11.0001
 49
0.0001
 74
     4
 75
   136
340
A10
 46
0.04
 50
0.0
 44
0.0
 45
0.0
 49
-11.0
 74
     0
  0
LTYPE
  5
A20
330
17
100
AcDbSymbolTableRecord
100
AcDbLinetypeTableRecord
  2
ACISOWELD
 70
     0
  3
_ _ _ _ _
 72
    65
 73
     2
 40
2.0
 49
2.0
 74
     0
 49
-1.0
 74
     0
  0
LTYPE
  5
A23
330
17
100
AcDbSymbolTableRecord
100
AcDbLinetypeTableRecord
  2
ACISOTGB
 70
     0
  3
__ . . __ . .
 72
    65
 73
     6
 40
9.0
 49
4.0
 74
     0
 49
-1.0
 74
     0
 49
1.0
 74
     0
 49
-1.0
 74
     0
 49
1.0
 74
     0
 49
-1.0
 74
     0
  0
LTYPE
  5
A24
330
17
100
AcDbSymbolTableRecord
100
AcDbLinetypeTableRecord
  2
ACISOTGL
 70
     0
  3
_ _ _ _ _
 72
    65
 73
     2
 40
3.0
 49
2.0
 74
     0
 49
-1.0
 74
     0
  0
LTYPE
  5
A69
330
17
100
AcDbSymbolTableRecord
100
AcDbLinetypeTableRecord
  2
HIDDEN
 70
     0
  3
Nascosta __ __ __ __ __ __ __ __ __ __ __ __ __ __
 72
    65
 73
     2
 40
9.525
 49
6.349999999999999
 74
     0
 49
-3.174999999999999
 74
     0
  0
LTYPE
  5
A6A
330
17
100
AcDbSymbolTableRecord
100
AcDbLinetypeTableRecord
  2
PHANTOM2
 70
     0
  3
Linea-Lineette (.5x) ___ _ _ ___ _ _ ___ _ _ ___ _ _
 72
    65
 73
     6
 40
31.75
 49
15.875
 74
     0
 49
-3.174999999999999
 74
     0
 49
3.174999999999999
 74
     0
 49
-3.174999999999999
 74
     0
 49
3.174999999999999
 74
     0
 49
-3.174999999999999
 74
     0
  0
LTYPE
  5
A6B
330
17
100
AcDbSymbolTableRecord
100
AcDbLinetypeTableRecord
  2
CENTER
 70
     0
  3
Linea-Lineetta ____ _ ____ _ ____ _ ____ _ ____ _ ____
 72
    65
 73
     4
 40
50.8
 49
31.75
 74
     0
 49
-6.349999999999999
 74
     0
 49
6.349999999999999
 74
     0
 49
-6.349999999999999
 74
     0
  0
ENDTAB
  0
TABLE
  2
LAYER
  5
12
330
0
100
AcDbSymbolTable
 70
    18
  0
LAYER
  5
4
330
12
100
AcDbSymbolTableRecord
100
AcDbLayerTableRecord
  2
0
 70
     0
 62
     7
  6
Continuous
370
    -3
390
5
  0
LAYER
  5
15E6
330
12
100
AcDbSymbolTableRecord
100
AcDbLayerTableRecord
  2
KAN_PROF
 70
     0
 62
     7
  6
Continuous
370
    -3
390
5
  0
LAYER
  5
1792
330
12
100
AcDbSymbolTableRecord
100
AcDbLayerTableRecord
  2
AM_INV
 70
     0
 62
  -253
  6
Continuous
370
     0
390
5
1001
AcAecLayerStandard
1000

1000

  0
LAYER
  5
1B79
330
12
100
AcDbSymbolTableRecord
100
AcDbLayerTableRecord
  2
ASSI
 70
     0
 62
     2
  6
CENTER
370
    -3
390
5
  0
ENDTAB
  0
TABLE
  2
STYLE
  5
13
330
0
100
AcDbSymbolTable
 70
     8
  0
STYLE
  5
14
330
13
100
AcDbSymbolTableRecord
100
AcDbTextStyleTableRecord
  2
Standard
 70
     0
 40
0.0
 41
1.0
 50
0.0
 71
     0
 42
0.2
  3
simplex_.ttf
  4

1001
ACAD
1000
SIMPLEX
1071
      256
  0
STYLE
  5
23
330
13
100
AcDbSymbolTableRecord
100
AcDbTextStyleTableRecord
  2
Corrente-BSI
 70
     0
 40
0.0
 41
1.0
 50
0.0
 71
     0
 42
0.2
  3
ARIAL.TTF
  4

1001
ACAD
1000
Arial
1071
      256
  0
STYLE
  5
A10
330
13
100
AcDbSymbolTableRecord
100
AcDbTextStyleTableRecord
  2

 70
     1
 40
0.0
 41
1.0
 50
0.0
 71
     0
 42
0.2
  3
genltshp.shx
  4

  0
STYLE
  5
A1A
330
13
100
AcDbSymbolTableRecord
100
AcDbTextStyleTableRecord
  2
ACISOTS
 70
     0
 40
1.0
 41
1.0
 50
0.0
 71
     0
 42
0.2
  3
isocp.shx
  4

  0
STYLE
  5
A1E
330
13
100
AcDbSymbolTableRecord
100
AcDbTextStyleTableRecord
  2
ACISOGDT
 70
     0
 40
0.0
 41
1.0
 50
0.0
 71
     0
 42
0.2
  3
amgdt.shx
  4

  0
ENDTAB
  0
TABLE
  2
VIEW
  5
1A
330
0
100
AcDbSymbolTable
 70
     0
  0
ENDTAB
  0
TABLE
  2
UCS
  5
1B
330
0
100
AcDbSymbolTable
 70
     0
  0
ENDTAB
  0
TABLE
  2
APPID
  5
20
330
0
100
AcDbSymbolTable
 70
    24
  0
APPID
  5
15
330
20
100
AcDbSymbolTableRecord
100
AcDbRegAppTableRecord
  2
ACAD
 70
     0
  0
APPID
  5
A35
330
20
100
AcDbSymbolTableRecord
100
AcDbRegAppTableRecord
  2
ACAD_DSTYLE_DIMJOGGED_JOGANGLE_SYMBOL
 70
     0
  0
APPID
  5
A48
330
20
100
AcDbSymbolTableRecord
100
AcDbRegAppTableRecord
  2
ACATTRIBSERVICES
 70
     0
  0
APPID
  5
A81
330
20
100
AcDbSymbolTableRecord
100
AcDbRegAppTableRecord
  2
ACAD_DSTYLE_DIMARC_LENGTH_SYMBOL
 70
     0
  0
APPID
  5
A9E
330
20
100
AcDbSymbolTableRecord
100
AcDbRegAppTableRecord
  2
MCAD_NO_VIS
 70
     0
  0
APPID
  5
A9F
330
20
100
AcDbSymbolTableRecord
100
AcDbRegAppTableRecord
  2
ACAD_TEMP_GRAPHIC
 70
     0
  0
APPID
  5
ACB
330
20
100
AcDbSymbolTableRecord
100
AcDbRegAppTableRecord
  2
AD_DRAW
 70
     0
  0
APPID
  5
AEE
330
20
100
AcDbSymbolTableRecord
100
AcDbRegAppTableRecord
  2
DESIGNERASSEMBLIES
 70
     0
  0
APPID
  5
AF3
330
20
100
AcDbSymbolTableRecord
100
AcDbRegAppTableRecord
  2
ACADM_DIM_EDIT
 70
     0
  0
APPID
  5
AF4
330
20
100
AcDbSymbolTableRecord
100
AcDbRegAppTableRecord
  2
AMDT_DM_ADJ
 70
     0
  0
APPID
  5
1639
330
20
100
AcDbSymbolTableRecord
100
AcDbRegAppTableRecord
  2
ACAD_EXEMPT_FROM_CAD_STANDARDS
 70
     0
  0
APPID
  5
178B
330
20
100
AcDbSymbolTableRecord
100
AcDbRegAppTableRecord
  2
GEVID1175086701
 70
     0
  0
APPID
  5
178C
330
20
100
AcDbSymbolTableRecord
100
AcDbRegAppTableRecord
  2
GEVDC
 70
     0
  0
APPID
  5
1790
330
20
100
AcDbSymbolTableRecord
100
AcDbRegAppTableRecord
  2
AcAecLayerStandard
 70
     0
  0
APPID
  5
1791
330
20
100
AcDbSymbolTableRecord
100
AcDbRegAppTableRecord
  2
GENIUS_GENBH_13
 70
     0
  0
APPID
  5
179D
330
20
100
AcDbSymbolTableRecord
100
AcDbRegAppTableRecord
  2
GENIUS_GENOBJ-NBEHI-BHF_13
 70
     0
  0
APPID
  5
179E
330
20
100
AcDbSymbolTableRecord
100
AcDbRegAppTableRecord
  2
GENIUS_GENODEF_13
 70
     0
  0
APPID
  5
179F
330
20
100
AcDbSymbolTableRecord
100
AcDbRegAppTableRecord
  2
GENIUS_GENOLIS_13
 70
     0
  0
APPID
  5
17A0
330
20
100
AcDbSymbolTableRecord
100
AcDbRegAppTableRecord
  2
GENIUS_GENOENT_13
 70
     0
  0
APPID
  5
17A1
330
20
100
AcDbSymbolTableRecord
100
AcDbRegAppTableRecord
  2
GENIUS_GENOREF_13
 70
     0
  0
APPID
  5
17A3
330
20
100
AcDbSymbolTableRecord
100
AcDbRegAppTableRecord
  2
GENIUS_GENOBJ-NBEHI-BHB_13
 70
     0
  0
APPID
  5
17AC
330
20
100
AcDbSymbolTableRecord
100
AcDbRegAppTableRecord
  2
GEVID1175086702
 70
     0
  0
APPID
  5
17B9
330
20
100
AcDbSymbolTableRecord
100
AcDbRegAppTableRecord
  2
GEVID1175086703
 70
     0
  0
APPID
  5
1800
330
20
100
AcDbSymbolTableRecord
100
AcDbRegAppTableRecord
  2
ACAD_PSEXT
 70
     0
  0
ENDTAB
  0
TABLE
  2
DIMSTYLE
  5
21
330
0
100
AcDbSymbolTable
 70
    17
100
AcDbDimStyleTable
 71
     1
340
22
  0
DIMSTYLE
105
22
330
21
100
AcDbSymbolTableRecord
100
AcDbDimStyleTableRecord
  2
DEFAULT-ISO - Metodo 1b
 70
     0
 40
10.0
 41
2.5
 42
0.0
 43
6.0
 44
3.174999999999999
 45
0.00000001
 46
10.0
 73
     0
 74
     0
 77
     1
 78
     8
 79
     2
140
3.5
143
0.03937
146
0.7142857142857144
147
0.762
171
     3
176
     7
177
     7
178
     7
179
     2
271
     2
272
     2
274
     3
278
    44
284
     8
286
     8
340
23
371
     0
372
     0
  0
DIMSTYLE
105
A34
330
21
100
AcDbSymbolTableRecord
100
AcDbDimStyleTableRecord
  2
AM_ISO
 70
     0
  4
"
 41
2.5
 42
1.0
 43
10.0
 44
1.0
 47
0.1
 48
0.1
 73
     0
 74
     0
 77
     1
 78
     8
 79
     2
140
3.5
141
0.0
143
0.0393701
146
0.71
147
1.5
172
     1
176
   256
177
   256
178
     2
271
     2
272
     3
274
     4
283
     0
284
     8
340
14
371
    -1
372
    -1
1001
ACAD_DSTYLE_DIMJOGGED_JOGANGLE_SYMBOL
1070
   384
1040
0.7853981633974483
1001
ACAD_DSTYLE_DIMARC_LENGTH_SYMBOL
1070
   379
1070
     1
  0
DIMSTYLE
105
A36
330
21
100
AcDbSymbolTableRecord
100
AcDbDimStyleTableRecord
  2
AM_ISO$3
 70
     0
  4
"
 41
2.5
 42
1.0
 43
10.0
 44
1.0
 47
0.1
 48
0.1
 73
     0
 77
     1
 78
     8
 79
     2
140
3.5
141
0.0
143
0.0393701
146
0.71
147
1.5
176
   256
177
   256
178
     2
271
     2
272
     3
274
     4
283
     0
284
     8
288
     1
289
     0
340
14
371
    -1
372
    -1
1001
ACAD_DSTYLE_DIMJOGGED_JOGANGLE_SYMBOL
1070
   384
1040
0.7853981633974483
1001
ACAD_DSTYLE_DIMARC_LENGTH_SYMBOL
1070
   379
1070
     1
  0
DIMSTYLE
105
A37
330
21
100
AcDbSymbolTableRecord
100
AcDbDimStyleTableRecord
  2
AM_ISO$4
 70
     0
  4
"
 41
2.5
 42
1.0
 43
10.0
 44
1.0
 47
0.1
 48
0.1
 73
     0
 77
     1
 78
     8
 79
     2
140
3.5
141
0.0
143
0.0393701
146
0.71
147
1.5
176
   256
177
   256
178
     2
271
     2
272
     3
274
     4
283
     0
284
     8
288
     1
289
     0
340
14
371
    -1
372
    -1
1001
ACAD_DSTYLE_DIMJOGGED_JOGANGLE_SYMBOL
1070
   384
1040
0.7853981633974483
1001
ACAD_DSTYLE_DIMARC_LENGTH_SYMBOL
1070
   379
1070
     1
  0
DIMSTYLE
105
A38
330
21
100
AcDbSymbolTableRecord
100
AcDbDimStyleTableRecord
  2
AM_ISO$6
 70
     0
  4
"
 41
2.5
 42
1.0
 43
10.0
 44
1.0
 47
0.1
 48
0.1
 73
     0
 74
     0
 78
     8
 79
     2
140
3.5
141
0.0
143
0.0393701
146
0.71
147
1.5
172
     1
176
   256
177
   256
178
     2
271
     2
272
     3
274
     4
283
     0
284
     8
340
14
371
    -1
372
    -1
1001
ACAD_DSTYLE_DIMJOGGED_JOGANGLE_SYMBOL
1070
   384
1040
0.7853981633974483
1001
ACAD_DSTYLE_DIMARC_LENGTH_SYMBOL
1070
   379
1070
     1
  0
DIMSTYLE
105
A39
330
21
100
AcDbSymbolTableRecord
100
AcDbDimStyleTableRecord
  2
AM_ISO$7
 70
     0
  4
"
 41
2.5
 42
1.0
 43
10.0
 44
1.0
 47
0.1
 48
0.1
 73
     0
 74
     0
 77
     1
 78
     8
 79
     2
140
5.0
141
0.0
143
0.0393701
146
0.71
147
1.5
172
     1
176
   256
177
   256
178
     2
271
     2
272
     3
274
     4
283
     0
284
     8
340
14
371
    -1
372
    -1
1001
ACAD_DSTYLE_DIMJOGGED_JOGANGLE_SYMBOL
1070
   384
1040
0.7853981633974483
1001
ACAD_DSTYLE_DIMARC_LENGTH_SYMBOL
1070
   379
1070
     1
  0
DIMSTYLE
105
A3A
330
21
100
AcDbSymbolTableRecord
100
AcDbDimStyleTableRecord
  2
AM_ISO$SF
 70
     0
  4
"
 41
2.5
 42
1.0
 43
10.0
 44
1.0
 47
0.1
 48
0.1
 73
     0
 74
     0
 75
     1
 76
     1
 77
     1
 78
     8
 79
     2
140
3.5
141
0.0
143
0.0393701
146
0.71
147
1.5
172
     1
176
   256
177
   256
178
     2
271
     2
272
     3
274
     4
283
     0
284
     8
340
14
371
    -1
372
    -1
1001
ACAD_DSTYLE_DIMJOGGED_JOGANGLE_SYMBOL
1070
   384
1040
0.7853981633974483
1001
ACAD_DSTYLE_DIMARC_LENGTH_SYMBOL
1070
   379
1070
     1
  0
DIMSTYLE
105
A3B
330
21
100
AcDbSymbolTableRecord
100
AcDbDimStyleTableRecord
  2
AM_ISO$SH
 70
     0
  4
"
 41
2.5
 42
1.0
 43
10.0
 44
1.0
 47
0.1
 48
0.1
 73
     0
 74
     0
 75
     1
 76
     1
 77
     1
 78
     8
 79
     2
140
3.5
141
0.0
143
0.0393701
144
2.0
146
0.71
147
1.5
172
     1
173
     1
176
   256
177
   256
178
     2
271
     2
272
     3
274
     4
283
     0
284
     8
340
14
343
A3C
371
    -1
372
    -1
1001
ACAD_DSTYLE_DIMJOGGED_JOGANGLE_SYMBOL
1070
   384
1040
0.7853981633974483
1001
ACAD_DSTYLE_DIMARC_LENGTH_SYMBOL
1070
   379
1070
     1
  0
ENDTAB
  0
TABLE
  2
BLOCK_RECORD
  5
1
330
0
100
AcDbSymbolTable
 70
    26
  0
BLOCK_RECORD
  5
2
102
{ACAD_XDICTIONARY
360
175E
102
}
330
1
100
AcDbSymbolTableRecord
100
AcDbBlockTableRecord
  2
*Model_Space
340
C
  0
BLOCK_RECORD
  5
E
330
1
100
AcDbSymbolTableRecord
100
AcDbBlockTableRecord
  2
*Paper_Space
340
11
  0
BLOCK_RECORD
  5
A3C
330
1
100
AcDbSymbolTableRecord
100
AcDbBlockTableRecord
  2
GENAXEH
340
0
  0
ENDTAB
  0
ENDSEC
  0
SECTION
  2
BLOCKS
  0
BLOCK
  5
3
330
2
100
AcDbEntity
  8
0
100
AcDbBlockBegin
  2
*Model_Space
 70
     0
 10
0.0
 20
0.0
 30
0.0
  3
*Model_Space
  1

  0
ENDBLK
  5
B
330
2
100
AcDbEntity
  8
0
100
AcDbBlockEnd
  0
BLOCK
  5
F
330
E
100
AcDbEntity
 67
     1
  8
0
100
AcDbBlockBegin
  2
*Paper_Space
 70
     0
 10
0.0
 20
0.0
 30
0.0
  3
*Paper_Space
  1

  0
ENDBLK
  5
10
330
E
100
AcDbEntity
 67
     1
  8
0
100
AcDbBlockEnd
  0
BLOCK
  5
A3D
330
A3C
100
AcDbEntity
  8
0
100
AcDbBlockBegin
  2
GENAXEH
 70
     0
 10
0.0
 20
0.0
 30
0.0
  3
GENAXEH
  1

  0
LINE
  5
A3E
330
A3C
100
AcDbEntity
  8
0
100
AcDbLine
 10
-1.0
 20
0.0
 30
0.0
 11
1.0
 21
0.0
 31
0.0
  0
ENDBLK
  5
A3F
330
A3C
100
AcDbEntity
  8
0
100
AcDbBlockEnd
  0
ENDSEC
  0
SECTION
  2
ENTITIES
  0
LINE
  5
164E
330
2
100
AcDbEntity
  8
AM_INV
100
AcDbLine
 10
2418.546009866733
 20
1657.790952077209
 30
0.0
 11
2419.547443842475
 21
1657.790952077209
 31
0.0
1001
GENIUS_GENBH_13
1002
{
1000
OA
1000
Spigoli visibili(ISO)
1070
   256
1000
ByLayer
1005
32
1005
19
1071
       -1
1002
}
  0
POLYLINE
  5
1650
330
2
100
AcDbEntity
  8
KAN_PROF
100
AcDb2dPolyline
 66
     1
 10
0.0
 20
0.0
 30
0.0
 70
     1
  0
VERTEX
  5
1651
330
1650
100
AcDbEntity
  8
KAN_PROF
100
AcDbVertex
100
AcDb2dVertex
 10
2610.547443842476
 20
1508.790952077209
 30
0.0
 42
0.4142135623730951
  0
VERTEX
  5
1652
330
1650
100
AcDbEntity
  8
KAN_PROF
100
AcDbVertex
100
AcDb2dVertex
 10
2618.547443842476
 20
1516.790952077209
 30
0.0
  0
VERTEX
  5
1653
330
1650
100
AcDbEntity
  8
KAN_PROF
100
AcDbVertex
100
AcDb2dVertex
 10
2618.547443842476
 20
1565.29095207721
 30
0.0
 42
0.4142135623730951
  0
VERTEX
  5
1654
330
1650
100
AcDbEntity
  8
KAN_PROF
100
AcDbVertex
100
AcDb2dVertex
 10
2610.547443842476
 20
1573.29095207721
 30
0.0
  0
VERTEX
  5
1655
330
1650
100
AcDbEntity
  8
KAN_PROF
100
AcDbVertex
100
AcDb2dVertex
 10
2555.447443842476
 20
1573.29095207721
 30
0.0
 42
-0.4142135623730955
  0
VERTEX
  5
1656
330
1650
100
AcDbEntity
  8
KAN_PROF
100
AcDbVertex
100
AcDb2dVertex
 10
2550.447443842476
 20
1578.290952077209
 30
0.0
  0
VERTEX
  5
1657
330
1650
100
AcDbEntity
  8
KAN_PROF
100
AcDbVertex
100
AcDb2dVertex
 10
2550.447443842476
 20
1587.290952077209
 30
0.0
 42
0.4142135623730943
  0
VERTEX
  5
1658
330
1650
100
AcDbEntity
  8
KAN_PROF
100
AcDbVertex
100
AcDb2dVertex
 10
2545.447443842476
 20
1592.290952077209
 30
0.0
  0
VERTEX
  5
1659
330
1650
100
AcDbEntity
  8
KAN_PROF
100
AcDbVertex
100
AcDb2dVertex
 10
2506.518006590954
 20
1592.290952077209
 30
0.0
 42
0.3970778019315238
  0
VERTEX
  5
165A
330
1650
100
AcDbEntity
  8
KAN_PROF
100
AcDbVertex
100
AcDb2dVertex
 10
2501.526664606107
 20
1587.585069724269
 30
0.0
 42
-0.4116277297608119
  0
VERTEX
  5
165B
330
1650
100
AcDbEntity
  8
KAN_PROF
100
AcDbVertex
100
AcDb2dVertex
 10
2488.947443842476
 20
1576.305961463946
 30
0.0
 42
0.4289413874733686
  0
VERTEX
  5
165C
330
1650
100
AcDbEntity
  8
KAN_PROF
100
AcDbVertex
100
AcDb2dVertex
 10
2480.547443842476
 20
1568.315967721771
 30
0.0
  0
VERTEX
  5
165D
330
1650
100
AcDbEntity
  8
KAN_PROF
100
AcDbVertex
100
AcDb2dVertex
 10
2480.547443842476
 20
1516.790952077209
 30
0.0
 42
0.4142135623730951
  0
VERTEX
  5
165E
330
1650
100
AcDbEntity
  8
KAN_PROF
100
AcDbVertex
100
AcDb2dVertex
 10
2488.547443842476
 20
1508.790952077209
 30
0.0
  0
SEQEND
  5
165F
330
1650
100
AcDbEntity
  8
KAN_PROF
  0
POLYLINE
  5
1669
330
2
100
AcDbEntity
  8
KAN_PROF
100
AcDb2dPolyline
 66
     1
 10
0.0
 20
0.0
 30
0.0
 70
     1
  0
VERTEX
  5
166A
330
1669
100
AcDbEntity
  8
KAN_PROF
100
AcDbVertex
100
AcDb2dVertex
 10
2488.547443842476
 20
1339.790952077209
 30
0.0
 42
0.4142135623730955
  0
VERTEX
  5
166B
330
1669
100
AcDbEntity
  8
KAN_PROF
100
AcDbVertex
100
AcDb2dVertex
 10
2480.547443842476
 20
1331.790952077209
 30
0.0
  0
VERTEX
  5
166C
330
1669
100
AcDbEntity
  8
KAN_PROF
100
AcDbVertex
100
AcDb2dVertex
 10
2480.547443842475
 20
1280.265936432648
 30
0.0
 42
0.428941387473375
  0
VERTEX
  5
166D
330
1669
100
AcDbEntity
  8
KAN_PROF
100
AcDbVertex
100
AcDb2dVertex
 10
2488.947443842476
 20
1272.275942690473
 30
0.0
 42
-0.4116277297608132
  0
VERTEX
  5
166E
330
1669
100
AcDbEntity
  8
KAN_PROF
100
AcDbVertex
100
AcDb2dVertex
 10
2501.526664606107
 20
1260.996834430151
 30
0.0
 42
0.3970778019315064
  0
VERTEX
  5
166F
330
1669
100
AcDbEntity
  8
KAN_PROF
100
AcDbVertex
100
AcDb2dVertex
 10
2506.518006590953
 20
1256.290952077209
 30
0.0
  0
VERTEX
  5
1670
330
1669
100
AcDbEntity
  8
KAN_PROF
100
AcDbVertex
100
AcDb2dVertex
 10
2545.447443842476
 20
1256.290952077209
 30
0.0
 42
0.4142135623730951
  0
VERTEX
  5
1671
330
1669
100
AcDbEntity
  8
KAN_PROF
100
AcDbVertex
100
AcDb2dVertex
 10
2550.447443842476
 20
1261.290952077209
 30
0.0
  0
VERTEX
  5
1672
330
1669
100
AcDbEntity
  8
KAN_PROF
100
AcDbVertex
100
AcDb2dVertex
 10
2550.447443842476
 20
1270.290952077209
 30
0.0
 42
-0.4142135623730948
  0
VERTEX
  5
1673
330
1669
100
AcDbEntity
  8
KAN_PROF
100
AcDbVertex
100
AcDb2dVertex
 10
2555.447443842476
 20
1275.290952077209
 30
0.0
  0
VERTEX
  5
1674
330
1669
100
AcDbEntity
  8
KAN_PROF
100
AcDbVertex
100
AcDb2dVertex
 10
2610.547443842476
 20
1275.29095207721
 30
0.0
 42
0.4142135623730951
  0
VERTEX
  5
1675
330
1669
100
AcDbEntity
  8
KAN_PROF
100
AcDbVertex
100
AcDb2dVertex
 10
2618.547443842476
 20
1283.29095207721
 30
0.0
  0
VERTEX
  5
1676
330
1669
100
AcDbEntity
  8
KAN_PROF
100
AcDbVertex
100
AcDb2dVertex
 10
2618.547443842476
 20
1331.790952077209
 30
0.0
 42
0.4142135623730951
  0
VERTEX
  5
1677
330
1669
100
AcDbEntity
  8
KAN_PROF
100
AcDbVertex
100
AcDb2dVertex
 10
2610.547443842476
 20
1339.790952077209
 30
0.0
  0
SEQEND
  5
1678
330
1669
100
AcDbEntity
  8
KAN_PROF
  0
POLYLINE
  5
1679
330
2
100
AcDbEntity
  8
KAN_PROF
100
AcDb2dPolyline
 66
     1
 10
0.0
 20
0.0
 30
0.0
 70
     1
  0
VERTEX
  5
167A
330
1679
100
AcDbEntity
  8
KAN_PROF
100
AcDbVertex
100
AcDb2dVertex
 10
2618.547443842476
 20
1489.790952077209
 30
0.0
 42
0.4142135623730951
  0
VERTEX
  5
167B
330
1679
100
AcDbEntity
  8
KAN_PROF
100
AcDbVertex
100
AcDb2dVertex
 10
2606.547443842476
 20
1501.790952077209
 30
0.0
  0
VERTEX
  5
167C
330
1679
100
AcDbEntity
  8
KAN_PROF
100
AcDbVertex
100
AcDb2dVertex
 10
2475.547443842476
 20
1501.790952077209
 30
0.0
 42
0.4142135623730952
  0
VERTEX
  5
167D
330
1679
100
AcDbEntity
  8
KAN_PROF
100
AcDbVertex
100
AcDb2dVertex
 10
2463.547443842476
 20
1489.790952077209
 30
0.0
  0
VERTEX
  5
167E
330
1679
100
AcDbEntity
  8
KAN_PROF
100
AcDbVertex
100
AcDb2dVertex
 10
2463.547443842476
 20
1358.790952077209
 30
0.0
 42
0.4142135623730952
  0
VERTEX
  5
167F
330
1679
100
AcDbEntity
  8
KAN_PROF
100
AcDbVertex
100
AcDb2dVertex
 10
2475.547443842476
 20
1346.790952077209
 30
0.0
  0
VERTEX
  5
1680
330
1679
100
AcDbEntity
  8
KAN_PROF
100
AcDbVertex
100
AcDb2dVertex
 10
2606.547443842476
 20
1346.790952077209
 30
0.0
 42
0.4142135623730951
  0
VERTEX
  5
1681
330
1679
100
AcDbEntity
  8
KAN_PROF
100
AcDbVertex
100
AcDb2dVertex
 10
2618.547443842476
 20
1358.790952077209
 30
0.0
  0
SEQEND
  5
1682
330
1679
100
AcDbEntity
  8
KAN_PROF
  0
POLYLINE
  5
1683
330
2
100
AcDbEntity
  8
KAN_PROF
100
AcDb2dPolyline
 66
     1
 10
0.0
 20
0.0
 30
0.0
 70
     1
  0
VERTEX
  5
1684
330
1683
100
AcDbEntity
  8
KAN_PROF
100
AcDbVertex
100
AcDb2dVertex
 10
2492.547443842476
 20
1247.290952077209
 30
0.0
  0
VERTEX
  5
1685
330
1683
100
AcDbEntity
  8
KAN_PROF
100
AcDbVertex
100
AcDb2dVertex
 10
2492.547443842476
 20
1244.290952077209
 30
0.0
  0
VERTEX
  5
1686
330
1683
100
AcDbEntity
  8
KAN_PROF
100
AcDbVertex
100
AcDb2dVertex
 10
2503.047443842476
 20
1244.290952077209
 30
0.0
  0
VERTEX
  5
1687
330
1683
100
AcDbEntity
  8
KAN_PROF
100
AcDbVertex
100
AcDb2dVertex
 10
2503.047443842476
 20
1244.390952077209
 30
0.0
  0
VERTEX
  5
1688
330
1683
100
AcDbEntity
  8
KAN_PROF
100
AcDbVertex
100
AcDb2dVertex
 10
2508.047443842476
 20
1244.390952077209
 30
0.0
  0
VERTEX
  5
1689
330
1683
100
AcDbEntity
  8
KAN_PROF
100
AcDbVertex
100
AcDb2dVertex
 10
2538.047443842476
 20
1244.290952077209
 30
0.0
  0
VERTEX
  5
168A
330
1683
100
AcDbEntity
  8
KAN_PROF
100
AcDbVertex
100
AcDb2dVertex
 10
2538.047443842476
 20
1244.390952077209
 30
0.0
  0
VERTEX
  5
168B
330
1683
100
AcDbEntity
  8
KAN_PROF
100
AcDbVertex
100
AcDb2dVertex
 10
2543.047443842475
 20
1244.390952077209
 30
0.0
  0
VERTEX
  5
168C
330
1683
100
AcDbEntity
  8
KAN_PROF
100
AcDbVertex
100
AcDb2dVertex
 10
2543.047443842475
 20
1244.290952077209
 30
0.0
  0
VERTEX
  5
168D
330
1683
100
AcDbEntity
  8
KAN_PROF
100
AcDbVertex
100
AcDb2dVertex
 10
2566.297443842476
 20
1244.290952077209
 30
0.0
  0
VERTEX
  5
168E
330
1683
100
AcDbEntity
  8
KAN_PROF
100
AcDbVertex
100
AcDb2dVertex
 10
2566.297443842476
 20
1251.290952077209
 30
0.0
  0
VERTEX
  5
168F
330
1683
100
AcDbEntity
  8
KAN_PROF
100
AcDbVertex
100
AcDb2dVertex
 10
2562.447443842476
 20
1251.290952077209
 30
0.0
  0
VERTEX
  5
1690
330
1683
100
AcDbEntity
  8
KAN_PROF
100
AcDbVertex
100
AcDb2dVertex
 10
2562.447443842476
 20
1262.290952077209
 30
0.0
 42
-0.4142135623730951
  0
VERTEX
  5
1691
330
1683
100
AcDbEntity
  8
KAN_PROF
100
AcDbVertex
100
AcDb2dVertex
 10
2563.447443842476
 20
1263.290952077209
 30
0.0
  0
VERTEX
  5
1692
330
1683
100
AcDbEntity
  8
KAN_PROF
100
AcDbVertex
100
AcDb2dVertex
 10
2581.647443842476
 20
1263.290952077209
 30
0.0
 42
-0.4142135623730951
  0
VERTEX
  5
1693
330
1683
100
AcDbEntity
  8
KAN_PROF
100
AcDbVertex
100
AcDb2dVertex
 10
2582.647443842476
 20
1262.290952077209
 30
0.0
  0
VERTEX
  5
1694
330
1683
100
AcDbEntity
  8
KAN_PROF
100
AcDbVertex
100
AcDb2dVertex
 10
2582.647443842476
 20
1251.290952077209
 30
0.0
  0
VERTEX
  5
1695
330
1683
100
AcDbEntity
  8
KAN_PROF
100
AcDbVertex
100
AcDb2dVertex
 10
2578.797443842475
 20
1251.290952077209
 30
0.0
  0
VERTEX
  5
1696
330
1683
100
AcDbEntity
  8
KAN_PROF
100
AcDbVertex
100
AcDb2dVertex
 10
2578.797443842475
 20
1244.290952077209
 30
0.0
  0
VERTEX
  5
1697
330
1683
100
AcDbEntity
  8
KAN_PROF
100
AcDbVertex
100
AcDb2dVertex
 10
2600.297443842475
 20
1244.290952077209
 30
0.0
  0
VERTEX
  5
1698
330
1683
100
AcDbEntity
  8
KAN_PROF
100
AcDbVertex
100
AcDb2dVertex
 10
2600.297443842475
 20
1251.290952077209
 30
0.0
  0
VERTEX
  5
1699
330
1683
100
AcDbEntity
  8
KAN_PROF
100
AcDbVertex
100
AcDb2dVertex
 10
2596.447443842476
 20
1251.290952077209
 30
0.0
  0
VERTEX
  5
169A
330
1683
100
AcDbEntity
  8
KAN_PROF
100
AcDbVertex
100
AcDb2dVertex
 10
2596.447443842476
 20
1262.290952077209
 30
0.0
 42
-0.4142135623730951
  0
VERTEX
  5
169B
330
1683
100
AcDbEntity
  8
KAN_PROF
100
AcDbVertex
100
AcDb2dVertex
 10
2597.447443842476
 20
1263.290952077209
 30
0.0
  0
VERTEX
  5
169C
330
1683
100
AcDbEntity
  8
KAN_PROF
100
AcDbVertex
100
AcDb2dVertex
 10
2615.647443842476
 20
1263.290952077209
 30
0.0
 42
-0.4142135623730951
  0
VERTEX
  5
169D
330
1683
100
AcDbEntity
  8
KAN_PROF
100
AcDbVertex
100
AcDb2dVertex
 10
2616.647443842476
 20
1262.290952077209
 30
0.0
  0
VERTEX
  5
169E
330
1683
100
AcDbEntity
  8
KAN_PROF
100
AcDbVertex
100
AcDb2dVertex
 10
2616.647443842476
 20
1251.290952077209
 30
0.0
  0
VERTEX
  5
169F
330
1683
100
AcDbEntity
  8
KAN_PROF
100
AcDbVertex
100
AcDb2dVertex
 10
2612.797443842476
 20
1251.290952077209
 30
0.0
  0
VERTEX
  5
16A0
330
1683
100
AcDbEntity
  8
KAN_PROF
100
AcDbVertex
100
AcDb2dVertex
 10
2612.797443842476
 20
1244.290952077209
 30
0.0
  0
VERTEX
  5
16A1
330
1683
100
AcDbEntity
  8
KAN_PROF
100
AcDbVertex
100
AcDb2dVertex
 10
2648.547443842475
 20
1244.290952077209
 30
0.0
 42
0.4142135623730951
  0
VERTEX
  5
16A2
330
1683
100
AcDbEntity
  8
KAN_PROF
100
AcDbVertex
100
AcDb2dVertex
 10
2649.547443842476
 20
1245.290952077209
 30
0.0
  0
VERTEX
  5
16A3
330
1683
100
AcDbEntity
  8
KAN_PROF
100
AcDbVertex
100
AcDb2dVertex
 10
2649.547443842476
 20
1258.040952077209
 30
0.0
  0
VERTEX
  5
16A4
330
1683
100
AcDbEntity
  8
KAN_PROF
100
AcDbVertex
100
AcDb2dVertex
 10
2642.547443842476
 20
1258.040952077209
 30
0.0
  0
VERTEX
  5
16A5
330
1683
100
AcDbEntity
  8
KAN_PROF
100
AcDbVertex
100
AcDb2dVertex
 10
2642.547443842476
 20
1254.190952077209
 30
0.0
  0
VERTEX
  5
16A6
330
1683
100
AcDbEntity
  8
KAN_PROF
100
AcDbVertex
100
AcDb2dVertex
 10
2631.547443842475
 20
1254.190952077209
 30
0.0
 42
-0.4142135623730951
  0
VERTEX
  5
16A7
330
1683
100
AcDbEntity
  8
KAN_PROF
100
AcDbVertex
100
AcDb2dVertex
 10
2630.547443842476
 20
1255.190952077209
 30
0.0
  0
VERTEX
  5
16A8
330
1683
100
AcDbEntity
  8
KAN_PROF
100
AcDbVertex
100
AcDb2dVertex
 10
2630.547443842476
 20
1273.390952077209
 30
0.0
 42
-0.4142135623730951
  0
VERTEX
  5
16A9
330
1683
100
AcDbEntity
  8
KAN_PROF
100
AcDbVertex
100
AcDb2dVertex
 10
2631.547443842475
 20
1274.390952077209
 30
0.0
  0
VERTEX
  5
16AA
330
1683
100
AcDbEntity
  8
KAN_PROF
100
AcDbVertex
100
AcDb2dVertex
 10
2642.547443842476
 20
1274.390952077209
 30
0.0
  0
VERTEX
  5
16AB
330
1683
100
AcDbEntity
  8
KAN_PROF
100
AcDbVertex
100
AcDb2dVertex
 10
2642.547443842476
 20
1270.540952077209
 30
0.0
  0
VERTEX
  5
16AC
330
1683
100
AcDbEntity
  8
KAN_PROF
100
AcDbVertex
100
AcDb2dVertex
 10
2649.547443842476
 20
1270.540952077209
 30
0.0
  0
VERTEX
  5
16AD
330
1683
100
AcDbEntity
  8
KAN_PROF
100
AcDbVertex
100
AcDb2dVertex
 10
2649.547443842476
 20
1284.290952077209
 30
0.0
  0
VERTEX
  5
16AE
330
1683
100
AcDbEntity
  8
KAN_PROF
100
AcDbVertex
100
AcDb2dVertex
 10
2643.547443842475
 20
1284.290952077209
 30
0.0
  0
VERTEX
  5
16AF
330
1683
100
AcDbEntity
  8
KAN_PROF
100
AcDbVertex
100
AcDb2dVertex
 10
2643.547443842475
 20
1298.290952077209
 30
0.0
  0
VERTEX
  5
16B0
330
1683
100
AcDbEntity
  8
KAN_PROF
100
AcDbVertex
100
AcDb2dVertex
 10
2649.547443842476
 20
1298.290952077209
 30
0.0
  0
VERTEX
  5
16B1
330
1683
100
AcDbEntity
  8
KAN_PROF
100
AcDbVertex
100
AcDb2dVertex
 10
2649.547443842476
 20
1303.898647231796
 30
0.0
 42
0.267949192431123
  0
VERTEX
  5
16B2
330
1683
100
AcDbEntity
  8
KAN_PROF
100
AcDbVertex
100
AcDb2dVertex
 10
2649.047443842476
 20
1304.76467263558
 30
0.0
  0
VERTEX
  5
16B3
330
1683
100
AcDbEntity
  8
KAN_PROF
100
AcDbVertex
100
AcDb2dVertex
 10
2636.547443842476
 20
1311.981551000451
 30
0.0
 42
-0.2679491924311227
  0
VERTEX
  5
16B4
330
1683
100
AcDbEntity
  8
KAN_PROF
100
AcDbVertex
100
AcDb2dVertex
 10
2632.547443842475
 20
1318.909754230727
 30
0.0
  0
VERTEX
  5
16B5
330
1683
100
AcDbEntity
  8
KAN_PROF
100
AcDbVertex
100
AcDb2dVertex
 10
2632.547443842475
 20
1334.290952077209
 30
0.0
  0
VERTEX
  5
16B6
330
1683
100
AcDbEntity
  8
KAN_PROF
100
AcDbVertex
100
AcDb2dVertex
 10
2632.447443842476
 20
1334.290952077209
 30
0.0
  0
VERTEX
  5
16B7
330
1683
100
AcDbEntity
  8
KAN_PROF
100
AcDbVertex
100
AcDb2dVertex
 10
2632.447443842476
 20
1339.290952077209
 30
0.0
  0
VERTEX
  5
16B8
330
1683
100
AcDbEntity
  8
KAN_PROF
100
AcDbVertex
100
AcDb2dVertex
 10
2632.547443842475
 20
1369.290952077209
 30
0.0
  0
VERTEX
  5
16B9
330
1683
100
AcDbEntity
  8
KAN_PROF
100
AcDbVertex
100
AcDb2dVertex
 10
2632.447443842476
 20
1369.290952077209
 30
0.0
  0
VERTEX
  5
16BA
330
1683
100
AcDbEntity
  8
KAN_PROF
100
AcDbVertex
100
AcDb2dVertex
 10
2632.447443842476
 20
1374.290952077209
 30
0.0
  0
VERTEX
  5
16BB
330
1683
100
AcDbEntity
  8
KAN_PROF
100
AcDbVertex
100
AcDb2dVertex
 10
2632.547443842475
 20
1404.290952077209
 30
0.0
  0
VERTEX
  5
16BC
330
1683
100
AcDbEntity
  8
KAN_PROF
100
AcDbVertex
100
AcDb2dVertex
 10
2632.447443842476
 20
1404.290952077209
 30
0.0
  0
VERTEX
  5
16BD
330
1683
100
AcDbEntity
  8
KAN_PROF
100
AcDbVertex
100
AcDb2dVertex
 10
2632.447443842476
 20
1409.290952077209
 30
0.0
  0
VERTEX
  5
16BE
330
1683
100
AcDbEntity
  8
KAN_PROF
100
AcDbVertex
100
AcDb2dVertex
 10
2632.547443842475
 20
1439.290952077209
 30
0.0
  0
VERTEX
  5
16BF
330
1683
100
AcDbEntity
  8
KAN_PROF
100
AcDbVertex
100
AcDb2dVertex
 10
2632.447443842476
 20
1439.290952077209
 30
0.0
  0
VERTEX
  5
16C0
330
1683
100
AcDbEntity
  8
KAN_PROF
100
AcDbVertex
100
AcDb2dVertex
 10
2632.447443842476
 20
1444.290952077209
 30
0.0
  0
VERTEX
  5
16C1
330
1683
100
AcDbEntity
  8
KAN_PROF
100
AcDbVertex
100
AcDb2dVertex
 10
2632.547443842476
 20
1474.29095207721
 30
0.0
  0
VERTEX
  5
16C2
330
1683
100
AcDbEntity
  8
KAN_PROF
100
AcDbVertex
100
AcDb2dVertex
 10
2632.447443842476
 20
1474.29095207721
 30
0.0
  0
VERTEX
  5
16C3
330
1683
100
AcDbEntity
  8
KAN_PROF
100
AcDbVertex
100
AcDb2dVertex
 10
2632.447443842476
 20
1479.290952077209
 30
0.0
  0
VERTEX
  5
16C4
330
1683
100
AcDbEntity
  8
KAN_PROF
100
AcDbVertex
100
AcDb2dVertex
 10
2632.547443842476
 20
1479.290952077209
 30
0.0
  0
VERTEX
  5
16C5
330
1683
100
AcDbEntity
  8
KAN_PROF
100
AcDbVertex
100
AcDb2dVertex
 10
2632.547443842476
 20
1509.290952077209
 30
0.0
  0
VERTEX
  5
16C6
330
1683
100
AcDbEntity
  8
KAN_PROF
100
AcDbVertex
100
AcDb2dVertex
 10
2632.447443842476
 20
1509.290952077209
 30
0.0
  0
VERTEX
  5
16C7
330
1683
100
AcDbEntity
  8
KAN_PROF
100
AcDbVertex
100
AcDb2dVertex
 10
2632.447443842476
 20
1514.290952077209
 30
0.0
  0
VERTEX
  5
16C8
330
1683
100
AcDbEntity
  8
KAN_PROF
100
AcDbVertex
100
AcDb2dVertex
 10
2632.547443842476
 20
1514.290952077209
 30
0.0
  0
VERTEX
  5
16C9
330
1683
100
AcDbEntity
  8
KAN_PROF
100
AcDbVertex
100
AcDb2dVertex
 10
2632.547443842476
 20
1529.672149923693
 30
0.0
 42
-0.2679491924311228
  0
VERTEX
  5
16CA
330
1683
100
AcDbEntity
  8
KAN_PROF
100
AcDbVertex
100
AcDb2dVertex
 10
2636.547443842476
 20
1536.600353153968
 30
0.0
  0
VERTEX
  5
16CB
330
1683
100
AcDbEntity
  8
KAN_PROF
100
AcDbVertex
100
AcDb2dVertex
 10
2649.047443842476
 20
1543.817231518838
 30
0.0
 42
0.2679491924311228
  0
VERTEX
  5
16CC
330
1683
100
AcDbEntity
  8
KAN_PROF
100
AcDbVertex
100
AcDb2dVertex
 10
2649.547443842476
 20
1544.683256922623
 30
0.0
  0
VERTEX
  5
16CD
330
1683
100
AcDbEntity
  8
KAN_PROF
100
AcDbVertex
100
AcDb2dVertex
 10
2649.547443842476
 20
1550.290952077209
 30
0.0
  0
VERTEX
  5
16CE
330
1683
100
AcDbEntity
  8
KAN_PROF
100
AcDbVertex
100
AcDb2dVertex
 10
2643.547443842475
 20
1550.290952077209
 30
0.0
  0
VERTEX
  5
16CF
330
1683
100
AcDbEntity
  8
KAN_PROF
100
AcDbVertex
100
AcDb2dVertex
 10
2643.547443842475
 20
1564.290952077209
 30
0.0
  0
VERTEX
  5
16D0
330
1683
100
AcDbEntity
  8
KAN_PROF
100
AcDbVertex
100
AcDb2dVertex
 10
2649.547443842476
 20
1564.290952077209
 30
0.0
  0
VERTEX
  5
16D1
330
1683
100
AcDbEntity
  8
KAN_PROF
100
AcDbVertex
100
AcDb2dVertex
 10
2649.547443842476
 20
1578.040952077209
 30
0.0
  0
VERTEX
  5
16D2
330
1683
100
AcDbEntity
  8
KAN_PROF
100
AcDbVertex
100
AcDb2dVertex
 10
2642.547443842476
 20
1578.040952077209
 30
0.0
  0
VERTEX
  5
16D3
330
1683
100
AcDbEntity
  8
KAN_PROF
100
AcDbVertex
100
AcDb2dVertex
 10
2642.547443842476
 20
1574.190952077209
 30
0.0
  0
VERTEX
  5
16D4
330
1683
100
AcDbEntity
  8
KAN_PROF
100
AcDbVertex
100
AcDb2dVertex
 10
2631.547443842476
 20
1574.190952077209
 30
0.0
 42
-0.4142135623730951
  0
VERTEX
  5
16D5
330
1683
100
AcDbEntity
  8
KAN_PROF
100
AcDbVertex
100
AcDb2dVertex
 10
2630.547443842476
 20
1575.19095207721
 30
0.0
  0
VERTEX
  5
16D6
330
1683
100
AcDbEntity
  8
KAN_PROF
100
AcDbVertex
100
AcDb2dVertex
 10
2630.547443842476
 20
1593.390952077209
 30
0.0
 42
-0.4142135623730951
  0
VERTEX
  5
16D7
330
1683
100
AcDbEntity
  8
KAN_PROF
100
AcDbVertex
100
AcDb2dVertex
 10
2631.547443842476
 20
1594.390952077209
 30
0.0
  0
VERTEX
  5
16D8
330
1683
100
AcDbEntity
  8
KAN_PROF
100
AcDbVertex
100
AcDb2dVertex
 10
2642.547443842476
 20
1594.390952077209
 30
0.0
  0
VERTEX
  5
16D9
330
1683
100
AcDbEntity
  8
KAN_PROF
100
AcDbVertex
100
AcDb2dVertex
 10
2642.547443842476
 20
1590.540952077209
 30
0.0
  0
VERTEX
  5
16DA
330
1683
100
AcDbEntity
  8
KAN_PROF
100
AcDbVertex
100
AcDb2dVertex
 10
2649.547443842476
 20
1590.540952077209
 30
0.0
  0
VERTEX
  5
16DB
330
1683
100
AcDbEntity
  8
KAN_PROF
100
AcDbVertex
100
AcDb2dVertex
 10
2649.547443842476
 20
1603.29095207721
 30
0.0
 42
0.4142135623730951
  0
VERTEX
  5
16DC
330
1683
100
AcDbEntity
  8
KAN_PROF
100
AcDbVertex
100
AcDb2dVertex
 10
2648.547443842475
 20
1604.290952077209
 30
0.0
  0
VERTEX
  5
16DD
330
1683
100
AcDbEntity
  8
KAN_PROF
100
AcDbVertex
100
AcDb2dVertex
 10
2612.797443842476
 20
1604.290952077209
 30
0.0
  0
VERTEX
  5
16DE
330
1683
100
AcDbEntity
  8
KAN_PROF
100
AcDbVertex
100
AcDb2dVertex
 10
2612.797443842476
 20
1597.290952077209
 30
0.0
  0
VERTEX
  5
16DF
330
1683
100
AcDbEntity
  8
KAN_PROF
100
AcDbVertex
100
AcDb2dVertex
 10
2616.647443842476
 20
1597.290952077209
 30
0.0
  0
VERTEX
  5
16E0
330
1683
100
AcDbEntity
  8
KAN_PROF
100
AcDbVertex
100
AcDb2dVertex
 10
2616.647443842476
 20
1586.290952077209
 30
0.0
 42
-0.4142135623730951
  0
VERTEX
  5
16E1
330
1683
100
AcDbEntity
  8
KAN_PROF
100
AcDbVertex
100
AcDb2dVertex
 10
2615.647443842476
 20
1585.290952077209
 30
0.0
  0
VERTEX
  5
16E2
330
1683
100
AcDbEntity
  8
KAN_PROF
100
AcDbVertex
100
AcDb2dVertex
 10
2597.447443842476
 20
1585.290952077209
 30
0.0
 42
-0.4142135623730951
  0
VERTEX
  5
16E3
330
1683
100
AcDbEntity
  8
KAN_PROF
100
AcDbVertex
100
AcDb2dVertex
 10
2596.447443842476
 20
1586.290952077209
 30
0.0
  0
VERTEX
  5
16E4
330
1683
100
AcDbEntity
  8
KAN_PROF
100
AcDbVertex
100
AcDb2dVertex
 10
2596.447443842476
 20
1597.290952077209
 30
0.0
  0
VERTEX
  5
16E5
330
1683
100
AcDbEntity
  8
KAN_PROF
100
AcDbVertex
100
AcDb2dVertex
 10
2600.297443842475
 20
1597.290952077209
 30
0.0
  0
VERTEX
  5
16E6
330
1683
100
AcDbEntity
  8
KAN_PROF
100
AcDbVertex
100
AcDb2dVertex
 10
2600.297443842476
 20
1604.290952077209
 30
0.0
  0
VERTEX
  5
16E7
330
1683
100
AcDbEntity
  8
KAN_PROF
100
AcDbVertex
100
AcDb2dVertex
 10
2578.797443842476
 20
1604.290952077209
 30
0.0
  0
VERTEX
  5
16E8
330
1683
100
AcDbEntity
  8
KAN_PROF
100
AcDbVertex
100
AcDb2dVertex
 10
2578.797443842476
 20
1597.290952077209
 30
0.0
  0
VERTEX
  5
16E9
330
1683
100
AcDbEntity
  8
KAN_PROF
100
AcDbVertex
100
AcDb2dVertex
 10
2582.647443842476
 20
1597.290952077209
 30
0.0
  0
VERTEX
  5
16EA
330
1683
100
AcDbEntity
  8
KAN_PROF
100
AcDbVertex
100
AcDb2dVertex
 10
2582.647443842476
 20
1586.290952077209
 30
0.0
 42
-0.4142135623730951
  0
VERTEX
  5
16EB
330
1683
100
AcDbEntity
  8
KAN_PROF
100
AcDbVertex
100
AcDb2dVertex
 10
2581.647443842476
 20
1585.290952077209
 30
0.0
  0
VERTEX
  5
16EC
330
1683
100
AcDbEntity
  8
KAN_PROF
100
AcDbVertex
100
AcDb2dVertex
 10
2563.447443842476
 20
1585.290952077209
 30
0.0
 42
-0.4142135623730951
  0
VERTEX
  5
16ED
330
1683
100
AcDbEntity
  8
KAN_PROF
100
AcDbVertex
100
AcDb2dVertex
 10
2562.447443842476
 20
1586.290952077209
 30
0.0
  0
VERTEX
  5
16EE
330
1683
100
AcDbEntity
  8
KAN_PROF
100
AcDbVertex
100
AcDb2dVertex
 10
2562.447443842476
 20
1597.290952077209
 30
0.0
  0
VERTEX
  5
16EF
330
1683
100
AcDbEntity
  8
KAN_PROF
100
AcDbVertex
100
AcDb2dVertex
 10
2566.297443842476
 20
1597.290952077209
 30
0.0
  0
VERTEX
  5
16F0
330
1683
100
AcDbEntity
  8
KAN_PROF
100
AcDbVertex
100
AcDb2dVertex
 10
2566.297443842476
 20
1604.290952077209
 30
0.0
  0
VERTEX
  5
16F1
330
1683
100
AcDbEntity
  8
KAN_PROF
100
AcDbVertex
100
AcDb2dVertex
 10
2543.047443842476
 20
1604.290952077209
 30
0.0
  0
VERTEX
  5
16F2
330
1683
100
AcDbEntity
  8
KAN_PROF
100
AcDbVertex
100
AcDb2dVertex
 10
2543.047443842476
 20
1604.19095207721
 30
0.0
  0
VERTEX
  5
16F3
330
1683
100
AcDbEntity
  8
KAN_PROF
100
AcDbVertex
100
AcDb2dVertex
 10
2538.047443842476
 20
1604.19095207721
 30
0.0
  0
VERTEX
  5
16F4
330
1683
100
AcDbEntity
  8
KAN_PROF
100
AcDbVertex
100
AcDb2dVertex
 10
2508.047443842476
 20
1604.290952077209
 30
0.0
  0
VERTEX
  5
16F5
330
1683
100
AcDbEntity
  8
KAN_PROF
100
AcDbVertex
100
AcDb2dVertex
 10
2508.047443842476
 20
1604.19095207721
 30
0.0
  0
VERTEX
  5
16F6
330
1683
100
AcDbEntity
  8
KAN_PROF
100
AcDbVertex
100
AcDb2dVertex
 10
2503.047443842476
 20
1604.19095207721
 30
0.0
  0
VERTEX
  5
16F7
330
1683
100
AcDbEntity
  8
KAN_PROF
100
AcDbVertex
100
AcDb2dVertex
 10
2492.547443842476
 20
1604.290952077209
 30
0.0
  0
VERTEX
  5
16F8
330
1683
100
AcDbEntity
  8
KAN_PROF
100
AcDbVertex
100
AcDb2dVertex
 10
2492.547443842476
 20
1601.290952077209
 30
0.0
  0
VERTEX
  5
16F9
330
1683
100
AcDbEntity
  8
KAN_PROF
100
AcDbVertex
100
AcDb2dVertex
 10
2480.547443842476
 20
1601.290952077209
 30
0.0
  0
VERTEX
  5
16FA
330
1683
100
AcDbEntity
  8
KAN_PROF
100
AcDbVertex
100
AcDb2dVertex
 10
2480.547443842476
 20
1604.290952077209
 30
0.0
  0
VERTEX
  5
16FB
330
1683
100
AcDbEntity
  8
KAN_PROF
100
AcDbVertex
100
AcDb2dVertex
 10
2473.797443842476
 20
1604.290952077209
 30
0.0
  0
VERTEX
  5
16FC
330
1683
100
AcDbEntity
  8
KAN_PROF
100
AcDbVertex
100
AcDb2dVertex
 10
2473.797443842476
 20
1597.290952077209
 30
0.0
  0
VERTEX
  5
16FD
330
1683
100
AcDbEntity
  8
KAN_PROF
100
AcDbVertex
100
AcDb2dVertex
 10
2477.647443842476
 20
1597.290952077209
 30
0.0
  0
VERTEX
  5
16FE
330
1683
100
AcDbEntity
  8
KAN_PROF
100
AcDbVertex
100
AcDb2dVertex
 10
2477.647443842476
 20
1586.290952077209
 30
0.0
 42
-0.4142135623730951
  0
VERTEX
  5
16FF
330
1683
100
AcDbEntity
  8
KAN_PROF
100
AcDbVertex
100
AcDb2dVertex
 10
2476.647443842476
 20
1585.290952077209
 30
0.0
  0
VERTEX
  5
1700
330
1683
100
AcDbEntity
  8
KAN_PROF
100
AcDbVertex
100
AcDb2dVertex
 10
2458.447443842476
 20
1585.290952077209
 30
0.0
 42
-0.4142135623730951
  0
VERTEX
  5
1701
330
1683
100
AcDbEntity
  8
KAN_PROF
100
AcDbVertex
100
AcDb2dVertex
 10
2457.447443842476
 20
1586.290952077209
 30
0.0
  0
VERTEX
  5
1702
330
1683
100
AcDbEntity
  8
KAN_PROF
100
AcDbVertex
100
AcDb2dVertex
 10
2457.447443842476
 20
1597.290952077209
 30
0.0
  0
VERTEX
  5
1703
330
1683
100
AcDbEntity
  8
KAN_PROF
100
AcDbVertex
100
AcDb2dVertex
 10
2461.297443842476
 20
1597.290952077209
 30
0.0
  0
VERTEX
  5
1704
330
1683
100
AcDbEntity
  8
KAN_PROF
100
AcDbVertex
100
AcDb2dVertex
 10
2461.297443842476
 20
1604.290952077209
 30
0.0
  0
VERTEX
  5
1705
330
1683
100
AcDbEntity
  8
KAN_PROF
100
AcDbVertex
100
AcDb2dVertex
 10
2450.547443842476
 20
1604.290952077209
 30
0.0
 42
0.4142135623730951
  0
VERTEX
  5
1706
330
1683
100
AcDbEntity
  8
KAN_PROF
100
AcDbVertex
100
AcDb2dVertex
 10
2449.547443842476
 20
1603.29095207721
 30
0.0
  0
VERTEX
  5
1707
330
1683
100
AcDbEntity
  8
KAN_PROF
100
AcDbVertex
100
AcDb2dVertex
 10
2449.547443842476
 20
1565.540952077209
 30
0.0
  0
VERTEX
  5
1708
330
1683
100
AcDbEntity
  8
KAN_PROF
100
AcDbVertex
100
AcDb2dVertex
 10
2456.547443842476
 20
1565.540952077209
 30
0.0
  0
VERTEX
  5
1709
330
1683
100
AcDbEntity
  8
KAN_PROF
100
AcDbVertex
100
AcDb2dVertex
 10
2456.547443842476
 20
1569.390952077209
 30
0.0
  0
VERTEX
  5
170A
330
1683
100
AcDbEntity
  8
KAN_PROF
100
AcDbVertex
100
AcDb2dVertex
 10
2467.547443842476
 20
1569.390952077209
 30
0.0
 42
-0.4142135623730951
  0
VERTEX
  5
170B
330
1683
100
AcDbEntity
  8
KAN_PROF
100
AcDbVertex
100
AcDb2dVertex
 10
2468.547443842477
 20
1568.390952077209
 30
0.0
  0
VERTEX
  5
170C
330
1683
100
AcDbEntity
  8
KAN_PROF
100
AcDbVertex
100
AcDb2dVertex
 10
2468.547443842477
 20
1550.190952077209
 30
0.0
 42
-0.4142135623730951
  0
VERTEX
  5
170D
330
1683
100
AcDbEntity
  8
KAN_PROF
100
AcDbVertex
100
AcDb2dVertex
 10
2467.547443842476
 20
1549.19095207721
 30
0.0
  0
VERTEX
  5
170E
330
1683
100
AcDbEntity
  8
KAN_PROF
100
AcDbVertex
100
AcDb2dVertex
 10
2456.547443842476
 20
1549.19095207721
 30
0.0
  0
VERTEX
  5
170F
330
1683
100
AcDbEntity
  8
KAN_PROF
100
AcDbVertex
100
AcDb2dVertex
 10
2456.547443842476
 20
1553.040952077209
 30
0.0
  0
VERTEX
  5
1710
330
1683
100
AcDbEntity
  8
KAN_PROF
100
AcDbVertex
100
AcDb2dVertex
 10
2449.547443842476
 20
1553.040952077209
 30
0.0
  0
VERTEX
  5
1711
330
1683
100
AcDbEntity
  8
KAN_PROF
100
AcDbVertex
100
AcDb2dVertex
 10
2449.547443842476
 20
1530.54095207721
 30
0.0
  0
VERTEX
  5
1712
330
1683
100
AcDbEntity
  8
KAN_PROF
100
AcDbVertex
100
AcDb2dVertex
 10
2456.547443842476
 20
1530.54095207721
 30
0.0
  0
VERTEX
  5
1713
330
1683
100
AcDbEntity
  8
KAN_PROF
100
AcDbVertex
100
AcDb2dVertex
 10
2456.547443842476
 20
1534.390952077209
 30
0.0
  0
VERTEX
  5
1714
330
1683
100
AcDbEntity
  8
KAN_PROF
100
AcDbVertex
100
AcDb2dVertex
 10
2467.547443842476
 20
1534.390952077209
 30
0.0
 42
-0.4142135623730951
  0
VERTEX
  5
1715
330
1683
100
AcDbEntity
  8
KAN_PROF
100
AcDbVertex
100
AcDb2dVertex
 10
2468.547443842477
 20
1533.390952077209
 30
0.0
  0
VERTEX
  5
1716
330
1683
100
AcDbEntity
  8
KAN_PROF
100
AcDbVertex
100
AcDb2dVertex
 10
2468.547443842477
 20
1515.190952077209
 30
0.0
 42
-0.4142135623730951
  0
VERTEX
  5
1717
330
1683
100
AcDbEntity
  8
KAN_PROF
100
AcDbVertex
100
AcDb2dVertex
 10
2467.547443842476
 20
1514.19095207721
 30
0.0
  0
VERTEX
  5
1718
330
1683
100
AcDbEntity
  8
KAN_PROF
100
AcDbVertex
100
AcDb2dVertex
 10
2456.547443842476
 20
1514.19095207721
 30
0.0
  0
VERTEX
  5
1719
330
1683
100
AcDbEntity
  8
KAN_PROF
100
AcDbVertex
100
AcDb2dVertex
 10
2456.547443842476
 20
1518.04095207721
 30
0.0
  0
VERTEX
  5
171A
330
1683
100
AcDbEntity
  8
KAN_PROF
100
AcDbVertex
100
AcDb2dVertex
 10
2449.547443842476
 20
1518.04095207721
 30
0.0
  0
VERTEX
  5
171B
330
1683
100
AcDbEntity
  8
KAN_PROF
100
AcDbVertex
100
AcDb2dVertex
 10
2449.547443842476
 20
1496.790952077209
 30
0.0
  0
VERTEX
  5
171C
330
1683
100
AcDbEntity
  8
KAN_PROF
100
AcDbVertex
100
AcDb2dVertex
 10
2449.647443842476
 20
1496.790952077209
 30
0.0
  0
VERTEX
  5
171D
330
1683
100
AcDbEntity
  8
KAN_PROF
100
AcDbVertex
100
AcDb2dVertex
 10
2449.647443842476
 20
1491.790952077209
 30
0.0
  0
VERTEX
  5
171E
330
1683
100
AcDbEntity
  8
KAN_PROF
100
AcDbVertex
100
AcDb2dVertex
 10
2449.547443842476
 20
1461.790952077209
 30
0.0
  0
VERTEX
  5
171F
330
1683
100
AcDbEntity
  8
KAN_PROF
100
AcDbVertex
100
AcDb2dVertex
 10
2449.647443842476
 20
1461.790952077209
 30
0.0
  0
VERTEX
  5
1720
330
1683
100
AcDbEntity
  8
KAN_PROF
100
AcDbVertex
100
AcDb2dVertex
 10
2449.647443842476
 20
1456.790952077209
 30
0.0
  0
VERTEX
  5
1721
330
1683
100
AcDbEntity
  8
KAN_PROF
100
AcDbVertex
100
AcDb2dVertex
 10
2449.547443842476
 20
1426.790952077209
 30
0.0
  0
VERTEX
  5
1722
330
1683
100
AcDbEntity
  8
KAN_PROF
100
AcDbVertex
100
AcDb2dVertex
 10
2449.647443842476
 20
1426.790952077209
 30
0.0
  0
VERTEX
  5
1723
330
1683
100
AcDbEntity
  8
KAN_PROF
100
AcDbVertex
100
AcDb2dVertex
 10
2449.647443842476
 20
1421.790952077209
 30
0.0
  0
VERTEX
  5
1724
330
1683
100
AcDbEntity
  8
KAN_PROF
100
AcDbVertex
100
AcDb2dVertex
 10
2449.547443842476
 20
1421.790952077209
 30
0.0
  0
VERTEX
  5
1725
330
1683
100
AcDbEntity
  8
KAN_PROF
100
AcDbVertex
100
AcDb2dVertex
 10
2449.547443842476
 20
1391.790952077209
 30
0.0
  0
VERTEX
  5
1726
330
1683
100
AcDbEntity
  8
KAN_PROF
100
AcDbVertex
100
AcDb2dVertex
 10
2449.647443842476
 20
1391.790952077209
 30
0.0
  0
VERTEX
  5
1727
330
1683
100
AcDbEntity
  8
KAN_PROF
100
AcDbVertex
100
AcDb2dVertex
 10
2449.647443842476
 20
1386.790952077209
 30
0.0
  0
VERTEX
  5
1728
330
1683
100
AcDbEntity
  8
KAN_PROF
100
AcDbVertex
100
AcDb2dVertex
 10
2449.547443842476
 20
1386.790952077209
 30
0.0
  0
VERTEX
  5
1729
330
1683
100
AcDbEntity
  8
KAN_PROF
100
AcDbVertex
100
AcDb2dVertex
 10
2449.547443842476
 20
1356.790952077209
 30
0.0
  0
VERTEX
  5
172A
330
1683
100
AcDbEntity
  8
KAN_PROF
100
AcDbVertex
100
AcDb2dVertex
 10
2449.647443842476
 20
1356.790952077209
 30
0.0
  0
VERTEX
  5
172B
330
1683
100
AcDbEntity
  8
KAN_PROF
100
AcDbVertex
100
AcDb2dVertex
 10
2449.647443842476
 20
1351.790952077209
 30
0.0
  0
VERTEX
  5
172C
330
1683
100
AcDbEntity
  8
KAN_PROF
100
AcDbVertex
100
AcDb2dVertex
 10
2449.547443842476
 20
1351.790952077209
 30
0.0
  0
VERTEX
  5
172D
330
1683
100
AcDbEntity
  8
KAN_PROF
100
AcDbVertex
100
AcDb2dVertex
 10
2449.547443842476
 20
1330.54095207721
 30
0.0
  0
VERTEX
  5
172E
330
1683
100
AcDbEntity
  8
KAN_PROF
100
AcDbVertex
100
AcDb2dVertex
 10
2456.547443842476
 20
1330.54095207721
 30
0.0
  0
VERTEX
  5
172F
330
1683
100
AcDbEntity
  8
KAN_PROF
100
AcDbVertex
100
AcDb2dVertex
 10
2456.547443842476
 20
1334.390952077209
 30
0.0
  0
VERTEX
  5
1730
330
1683
100
AcDbEntity
  8
KAN_PROF
100
AcDbVertex
100
AcDb2dVertex
 10
2467.547443842476
 20
1334.390952077209
 30
0.0
 42
-0.4142135623730951
  0
VERTEX
  5
1731
330
1683
100
AcDbEntity
  8
KAN_PROF
100
AcDbVertex
100
AcDb2dVertex
 10
2468.547443842477
 20
1333.390952077209
 30
0.0
  0
VERTEX
  5
1732
330
1683
100
AcDbEntity
  8
KAN_PROF
100
AcDbVertex
100
AcDb2dVertex
 10
2468.547443842477
 20
1315.19095207721
 30
0.0
 42
-0.4142135623730951
  0
VERTEX
  5
1733
330
1683
100
AcDbEntity
  8
KAN_PROF
100
AcDbVertex
100
AcDb2dVertex
 10
2467.547443842476
 20
1314.19095207721
 30
0.0
  0
VERTEX
  5
1734
330
1683
100
AcDbEntity
  8
KAN_PROF
100
AcDbVertex
100
AcDb2dVertex
 10
2456.547443842476
 20
1314.19095207721
 30
0.0
  0
VERTEX
  5
1735
330
1683
100
AcDbEntity
  8
KAN_PROF
100
AcDbVertex
100
AcDb2dVertex
 10
2456.547443842476
 20
1318.04095207721
 30
0.0
  0
VERTEX
  5
1736
330
1683
100
AcDbEntity
  8
KAN_PROF
100
AcDbVertex
100
AcDb2dVertex
 10
2449.547443842476
 20
1318.04095207721
 30
0.0
  0
VERTEX
  5
1737
330
1683
100
AcDbEntity
  8
KAN_PROF
100
AcDbVertex
100
AcDb2dVertex
 10
2449.547443842476
 20
1295.540952077209
 30
0.0
  0
VERTEX
  5
1738
330
1683
100
AcDbEntity
  8
KAN_PROF
100
AcDbVertex
100
AcDb2dVertex
 10
2456.547443842476
 20
1295.540952077209
 30
0.0
  0
VERTEX
  5
1739
330
1683
100
AcDbEntity
  8
KAN_PROF
100
AcDbVertex
100
AcDb2dVertex
 10
2456.547443842476
 20
1299.390952077209
 30
0.0
  0
VERTEX
  5
173A
330
1683
100
AcDbEntity
  8
KAN_PROF
100
AcDbVertex
100
AcDb2dVertex
 10
2467.547443842476
 20
1299.390952077209
 30
0.0
 42
-0.4142135623730951
  0
VERTEX
  5
173B
330
1683
100
AcDbEntity
  8
KAN_PROF
100
AcDbVertex
100
AcDb2dVertex
 10
2468.547443842477
 20
1298.390952077209
 30
0.0
  0
VERTEX
  5
173C
330
1683
100
AcDbEntity
  8
KAN_PROF
100
AcDbVertex
100
AcDb2dVertex
 10
2468.547443842477
 20
1280.19095207721
 30
0.0
 42
-0.4142135623730951
  0
VERTEX
  5
173D
330
1683
100
AcDbEntity
  8
KAN_PROF
100
AcDbVertex
100
AcDb2dVertex
 10
2467.547443842476
 20
1279.19095207721
 30
0.0
  0
VERTEX
  5
173E
330
1683
100
AcDbEntity
  8
KAN_PROF
100
AcDbVertex
100
AcDb2dVertex
 10
2456.547443842476
 20
1279.19095207721
 30
0.0
  0
VERTEX
  5
173F
330
1683
100
AcDbEntity
  8
KAN_PROF
100
AcDbVertex
100
AcDb2dVertex
 10
2456.547443842476
 20
1283.040952077209
 30
0.0
  0
VERTEX
  5
1740
330
1683
100
AcDbEntity
  8
KAN_PROF
100
AcDbVertex
100
AcDb2dVertex
 10
2449.547443842476
 20
1283.040952077209
 30
0.0
  0
VERTEX
  5
1741
330
1683
100
AcDbEntity
  8
KAN_PROF
100
AcDbVertex
100
AcDb2dVertex
 10
2449.547443842476
 20
1245.290952077209
 30
0.0
 42
0.4142135623730951
  0
VERTEX
  5
1742
330
1683
100
AcDbEntity
  8
KAN_PROF
100
AcDbVertex
100
AcDb2dVertex
 10
2450.547443842476
 20
1244.290952077209
 30
0.0
  0
VERTEX
  5
1743
330
1683
100
AcDbEntity
  8
KAN_PROF
100
AcDbVertex
100
AcDb2dVertex
 10
2461.297443842476
 20
1244.290952077209
 30
0.0
  0
VERTEX
  5
1744
330
1683
100
AcDbEntity
  8
KAN_PROF
100
AcDbVertex
100
AcDb2dVertex
 10
2461.297443842476
 20
1251.290952077209
 30
0.0
  0
VERTEX
  5
1745
330
1683
100
AcDbEntity
  8
KAN_PROF
100
AcDbVertex
100
AcDb2dVertex
 10
2457.447443842476
 20
1251.290952077209
 30
0.0
  0
VERTEX
  5
1746
330
1683
100
AcDbEntity
  8
KAN_PROF
100
AcDbVertex
100
AcDb2dVertex
 10
2457.447443842476
 20
1262.290952077209
 30
0.0
 42
-0.4142135623730951
  0
VERTEX
  5
1747
330
1683
100
AcDbEntity
  8
KAN_PROF
100
AcDbVertex
100
AcDb2dVertex
 10
2458.447443842476
 20
1263.290952077209
 30
0.0
  0
VERTEX
  5
1748
330
1683
100
AcDbEntity
  8
KAN_PROF
100
AcDbVertex
100
AcDb2dVertex
 10
2476.647443842476
 20
1263.290952077209
 30
0.0
 42
-0.4142135623730951
  0
VERTEX
  5
1749
330
1683
100
AcDbEntity
  8
KAN_PROF
100
AcDbVertex
100
AcDb2dVertex
 10
2477.647443842476
 20
1262.290952077209
 30
0.0
  0
VERTEX
  5
174A
330
1683
100
AcDbEntity
  8
KAN_PROF
100
AcDbVertex
100
AcDb2dVertex
 10
2477.647443842476
 20
1251.290952077209
 30
0.0
  0
VERTEX
  5
174B
330
1683
100
AcDbEntity
  8
KAN_PROF
100
AcDbVertex
100
AcDb2dVertex
 10
2473.797443842475
 20
1251.290952077209
 30
0.0
  0
VERTEX
  5
174C
330
1683
100
AcDbEntity
  8
KAN_PROF
100
AcDbVertex
100
AcDb2dVertex
 10
2473.797443842475
 20
1244.290952077209
 30
0.0
  0
VERTEX
  5
174D
330
1683
100
AcDbEntity
  8
KAN_PROF
100
AcDbVertex
100
AcDb2dVertex
 10
2480.547443842475
 20
1244.290952077209
 30
0.0
  0
VERTEX
  5
174E
330
1683
100
AcDbEntity
  8
KAN_PROF
100
AcDbVertex
100
AcDb2dVertex
 10
2480.547443842475
 20
1247.290952077209
 30
0.0
  0
SEQEND
  5
174F
330
1683
100
AcDbEntity
  8
KAN_PROF
  0
LINE
  5
1753
330
2
100
AcDbEntity
  8
ASSI
100
AcDbLine
 10
2467.547443842476
 20
1270.795920970018
 30
0.0
 11
2467.547443842475
 21
1241.795920970018
 31
0.0
  0
LINE
  5
1756
330
2
100
AcDbEntity
  8
ASSI
100
AcDbLine
 10
2473.547443842476
 20
1559.290952077209
 30
0.0
 11
2443.558162589312
 21
1559.290952077209
 31
0.0
  0
LINE
  5
1757
330
2
100
AcDbEntity
  8
ASSI
100
AcDbLine
 10
2467.547443842476
 20
1577.785983184401
 30
0.0
 11
2467.547443842476
 21
1606.785983184401
 31
0.0
  0
LINE
  5
1758
330
2
100
AcDbEntity
  8
ASSI
100
AcDbLine
 10
2572.547443842476
 20
1270.795920970018
 30
0.0
 11
2572.547443842476
 21
1241.795920970018
 31
0.0
  0
LINE
  5
1759
330
2
100
AcDbEntity
  8
ASSI
100
AcDbLine
 10
2606.547443842476
 20
1270.795920970018
 30
0.0
 11
2606.547443842476
 21
1241.795920970018
 31
0.0
  0
LINE
  5
175A
330
2
100
AcDbEntity
  8
ASSI
100
AcDbLine
 10
2625.547443842476
 20
1264.290952077209
 30
0.0
 11
2654.547443842476
 21
1264.290952077209
 31
0.0
  0
LINE
  5
175B
330
2
100
AcDbEntity
  8
ASSI
100
AcDbLine
 10
2572.547443842476
 20
1577.785983184401
 30
0.0
 11
2572.547443842476
 21
1606.785983184401
 31
0.0
  0
LINE
  5
175C
330
2
100
AcDbEntity
  8
ASSI
100
AcDbLine
 10
2606.547443842476
 20
1577.785983184401
 30
0.0
 11
2606.547443842476
 21
1606.785983184401
 31
0.0
  0
LINE
  5
175D
330
2
100
AcDbEntity
  8
ASSI
100
AcDbLine
 10
2625.547443842476
 20
1584.290952077209
 30
0.0
 11
2654.547443842476
 21
1584.290952077209
 31
0.0
  0
LINE
  5
1793
330
2
100
AcDbEntity
  8
AM_INV
100
AcDbLine
 10
2419.547443842475
 20
1657.790952077209
 30
0.0
 11
2452.957173787126
 21
1657.790952077209
 31
0.0
1001
GENIUS_GENBH_13
1002
{
1000
OA
1000
Spigoli visibili(ISO)
1070
   256
1000
ByLayer
1005
32
1005
19
1071
       -1
1002
}
  0
LINE
  5
1794
330
2
100
AcDbEntity
  8
AM_INV
100
AcDbLine
 10
2429.547443842476
 20
1661.790952077209
 30
0.0
 11
2429.547443842476
 21
1653.790952077209
 31
0.0
1001
GENIUS_GENBH_13
1002
{
1000
OA
1000
0
1070
   256
1000
ByLayer
1005
4
1005
19
1071
       -1
1002
}
  0
LINE
  5
1796
330
2
100
AcDbEntity
  8
AM_INV
100
AcDbLine
 10
2449.547443842476
 20
1664.290952077209
 30
0.0
 11
2449.547443842476
 21
1651.290952077209
 31
0.0
1001
GENIUS_GENBH_13
1002
{
1000
OA
1000
0
1070
   256
1000
ByLayer
1005
4
1005
19
1071
       -1
1002
}
  0
LINE
  5
17AE
330
2
100
AcDbEntity
  8
AM_INV
100
AcDbLine
 10
2416.847443842476
 20
1661.790952077209
 30
0.0
 11
2416.847443842476
 21
1653.790952077209
 31
0.0
1001
GENIUS_GENBH_13
1002
{
1000
OA
1000
Spigoli visibili(ISO)
1070
   256
1000
ByLayer
1005
32
1005
19
1071
       -1
1002
}
  0
LINE
  5
17BC
330
2
100
AcDbEntity
  8
AM_INV
100
AcDbLine
 10
2449.547443842476
 20
1565.29095207721
 30
0.0
 11
2449.547443842476
 21
1553.290952077209
 31
0.0
1001
GENIUS_GENBH_13
1002
{
1000
OA
1000
0
1070
   256
1000
ByLayer
1005
4
1005
19
1071
       -1
1002
}
  0
LINE
  5
17BE
330
2
100
AcDbEntity
  8
AM_INV
100
AcDbLine
 10
2429.547443842476
 20
1568.290952077209
 30
0.0
 11
2429.547443842476
 21
1550.290952077209
 31
0.0
1001
GENIUS_GENBH_13
1002
{
1000
OA
1000
0
1070
   256
1000
ByLayer
1005
4
1005
19
1071
       -1
1002
}
  0
LINE
  5
17C0
330
2
100
AcDbEntity
  8
AM_INV
100
AcDbLine
 10
2464.547443842475
 20
1559.290952077209
 30
0.0
 11
2417.547443842475
 21
1559.290952077209
 31
0.0
1001
GENIUS_GENBH_13
1002
{
1000
OA
1000
KAN_AXIS
1070
   256
1000
ByLayer
1005
15E4
1005
19
1071
       -1
1002
}
  0
LINE
  5
1B8E
330
2
100
AcDbEntity
  8
ASSI
100
AcDbLine
 10
2473.547443842476
 20
1524.290952077209
 30
0.0
 11
2443.558162589312
 21
1524.290952077209
 31
0.0
  0
LINE
  5
1B8F
330
2
100
AcDbEntity
  8
AM_INV
100
AcDbLine
 10
2464.547443842475
 20
1524.290952077209
 30
0.0
 11
2417.547443842475
 21
1524.290952077209
 31
0.0
1001
GENIUS_GENBH_13
1002
{
1000
OA
1000
KAN_AXIS
1070
   256
1000
ByLayer
1005
15E4
1005
19
1071
       -1
1002
}
  0
LINE
  5
1B90
330
2
100
AcDbEntity
  8
ASSI
100
AcDbLine
 10
2473.547443842476
 20
1324.290952077209
 30
0.0
 11
2443.558162589312
 21
1324.290952077209
 31
0.0
  0
LINE
  5
1B91
330
2
100
AcDbEntity
  8
AM_INV
100
AcDbLine
 10
2464.547443842475
 20
1324.290952077209
 30
0.0
 11
2417.547443842475
 21
1324.290952077209
 31
0.0
1001
GENIUS_GENBH_13
1002
{
1000
OA
1000
KAN_AXIS
1070
   256
1000
ByLayer
1005
15E4
1005
19
1071
       -1
1002
}
  0
LINE
  5
1B93
330
2
100
AcDbEntity
  8
AM_INV
100
AcDbLine
 10
2464.547443842475
 20
1281.299590493499
 30
0.0
 11
2417.547443842475
 21
1281.299590493499
 31
0.0
1001
GENIUS_GENBH_13
1002
{
1000
OA
1000
KAN_AXIS
1070
   256
1000
ByLayer
1005
15E4
1005
19
1071
       -1
1002
}
  0
LINE
  5
1B94
330
2
100
AcDbEntity
  8
ASSI
100
AcDbLine
 10
2473.547443842476
 20
1289.290952077209
 30
0.0
 11
2443.558162589312
 21
1289.290952077209
 31
0.0
  0
LINE
  5
1B95
330
2
100
AcDbEntity
  8
AM_INV
100
AcDbLine
 10
2464.547443842475
 20
1289.290952077209
 30
0.0
 11
2417.547443842475
 21
1289.290952077209
 31
0.0
1001
GENIUS_GENBH_13
1002
{
1000
OA
1000
KAN_AXIS
1070
   256
1000
ByLayer
1005
15E4
1005
19
1071
       -1
1002
}
  0
ENDSEC
  0
SECTION
  2
OBJECTS
  0
DICTIONARY
  5
7
330
0
100
AcDbDictionary
281
     1
  3
ACAD_2007HEADERVARS_RT
350
1BB0
  3
ACAD_COLOR
350
2B
  3
ACAD_GROUP
350
26
  3
ACAD_LAYOUT
350
D
  3
ACAD_MATERIAL
350
9
  3
ACAD_MLINESTYLE
350
27
  3
ACAD_PLOTSETTINGS
350
28
  3
ACAD_PLOTSTYLENAME
350
6
  3
ACAD_TABLESTYLE
350
2C
  3
ACAD_VISUALSTYLE
350
1F
  3
AcDbVariableDictionary
350
A82
  3
AcmDictionary
350
A17
  3
AMG
350
A08
  3
AMGSNAPSETTINGS
350
B13
  3
DWGPROPS
350
1BAF
  0
DICTIONARY
  5
1A8A
330
1C
100
AcDbDictionary
280
     1
281
     1
  0
DICTIONARY
  5
175E
330
2
100
AcDbDictionary
280
     1
281
     1
  3
ACAD_SORTENTS
360
175F
  0
DICTIONARY
  5
1BB0
102
{ACAD_REACTORS
330
7
102
}
330
7
100
AcDbDictionary
281
     1
  3
DIMARCSYM
350
1BB1
  0
DICTIONARY
  5
2B
102
{ACAD_REACTORS
330
7
102
}
330
7
100
AcDbDictionary
281
     1
  0
DICTIONARY
  5
26
102
{ACAD_REACTORS
330
7
102
}
330
7
100
AcDbDictionary
281
     1
  0
DICTIONARY
  5
D
102
{ACAD_REACTORS
330
7
102
}
330
7
100
AcDbDictionary
281
     1
  3
Layout1
350
11
  3
Model
350
C
  0
DICTIONARY
  5
9
102
{ACAD_REACTORS
330
7
102
}
330
7
100
AcDbDictionary
281
     1
  3
ByBlock
350
2A
  3
ByLayer
350
29
  3
Global
350
8
  0
DICTIONARY
  5
27
102
{ACAD_REACTORS
330
7
102
}
330
7
100
AcDbDictionary
281
     1
  3
Standard
350
2D
  0
DICTIONARY
  5
28
102
{ACAD_REACTORS
330
7
102
}
330
7
100
AcDbDictionary
281
     1
  0
ACDBDICTIONARYWDFLT
  5
6
102
{ACAD_REACTORS
330
7
102
}
330
7
100
AcDbDictionary
281
     1
  3
Normal
350
5
100
AcDbDictionaryWithDefault
340
5
  0
DICTIONARY
  5
2C
102
{ACAD_REACTORS
330
7
102
}
330
7
100
AcDbDictionary
281
     1
  3
Standard
350
2E
  0
DICTIONARY
  5
1F
102
{ACAD_REACTORS
330
7
102
}
330
7
100
AcDbDictionary
281
     1
  3
2dWireframe
350
1E
  3
Basic
350
A8D
  3
Brighten
350
A91
  3
ColorChange
350
A95
  3
Dim
350
A90
  3
Facepattern
350
A94
  3
Flat
350
A89
  3
FlatWithEdges
350
A8A
  3
Gouraud
350
A8B
  3
GouraudWithEdges
350
A8C
  3
Linepattern
350
A93
  3
Thicken
350
A92
  0
DICTIONARY
  5
A82
102
{ACAD_REACTORS
330
7
102
}
330
7
100
AcDbDictionary
281
     1
  3
CTABLESTYLE
350
A83
  3
DIMASSOC
350
A87
  3
HIDETEXT
350
A86
  3
INDEXCTL
350
A85
  3
SORTENTS
350
A84
  0
DICTIONARY
  5
A17
102
{ACAD_REACTORS
330
7
102
}
330
7
100
AcDbDictionary
281
     1
  3
AcmStdDictionary
350
A18
  3
AMDTSECTSYM_ARROWCOLOR
350
B08
  0
DICTIONARY
  5
A08
102
{ACAD_REACTORS
330
7
102
}
330
7
100
AcDbDictionary
281
     1
  0
DICTIONARY
  5
B13
102
{ACAD_REACTORS
330
7
102
}
330
7
100
AcDbDictionary
281
     1
  0
XRECORD
  5
1BAF
102
{ACAD_REACTORS
330
7
102
}
330
7
100
AcDbXrecord
280
     1
  1
DWGPROPS COOKIE
  2

  3

  4

  6

  7

  8
fcerrato
  9

300
=
301
=
302
=
303
=
304
=
305
=
306
=
307
=
308
=
309
=
 40
0.0219672800925926
 41
2454125.607795822
 42
2454372.49687463
  1

 90
        0
  0
SORTENTSTABLE
  5
175F
102
{ACAD_REACTORS
330
175E
102
}
330
175E
100
AcDbSortentsTable
330
2
331
1669
  5
164E
331
1753
  5
1669
331
1756
  5
1750
331
1757
  5
1751
331
1758
  5
1752
331
1759
  5
1753
331
175A
  5
1754
331
175B
  5
1755
331
175C
  5
1756
331
175D
  5
1757
331
1650
  5
160E
331
1679
  5
164F
331
1683
  5
1650
331
164E
  5
175C
  0
XRECORD
  5
1BB1
102
{ACAD_REACTORS
330
1BB0
102
}
330
1BB0
100
AcDbXrecord
280
     1
 70
     1
  0
LAYOUT
  5
11
102
{ACAD_XDICTIONARY
360
1BB6
102
}
102
{ACAD_REACTORS
330
D
102
}
330
D
100
AcDbPlotSettings
  1

  2

  4

  6

 40
0.0
 41
0.0
 42
0.0
 43
0.0
 44
0.0
 45
0.0
 46
0.0
 47
0.0
 48
0.0
 49
0.0
140
0.0
141
0.0
142
1.0
143
1.0
 70
   688
 72
     0
 73
     0
 74
     5
  7

 75
    16
147
1.0
148
0.0
149
0.0
100
AcDbLayout
  1
Layout1
 70
     1
 71
     1
 10
0.0
 20
0.0
 11
5940.0
 21
4200.0
 12
0.0
 22
0.0
 32
0.0
 14
0.0
 24
0.0
 34
0.0
 15
5940.0
 25
4200.0
 35
0.0
146
0.0
 13
0.0
 23
0.0
 33
0.0
 16
1.0
 26
0.0
 36
0.0
 17
0.0
 27
1.0
 37
0.0
 76
     0
330
E
  0
LAYOUT
  5
C
102
{ACAD_XDICTIONARY
360
1BB4
102
}
102
{ACAD_REACTORS
330
D
102
}
330
D
100
AcDbPlotSettings
  1

  2
PDF Complete
  4
A4
  6

 40
3.174999952316284
 41
3.174999952316284
 42
3.175003051757812
 43
3.17498779296875
 44
209.9733276367187
 45
297.0106506347656
 46
0.0
 47
0.0
 48
0.0
 49
0.0
140
0.0
141
0.0
142
1.0
143
5.469504674799727
 70
 11952
 72
     1
 73
     1
 74
     0
  7

 75
     0
147
0.182831912477818
148
-1636.133860599407
149
-1056.121783570363
100
AcDbLayout
  1
Model
 70
     1
 71
     0
 10
0.0
 20
0.0
 11
12.0
 21
9.0
 12
0.0
 22
0.0
 32
0.0
 14
0.0
 24
0.0
 34
0.0
 15
0.0
 25
0.0
 35
0.0
146
0.0
 13
0.0
 23
0.0
 33
0.0
 16
1.0
 26
0.0
 36
0.0
 17
0.0
 27
1.0
 37
0.0
 76
     0
330
2
331
1D
1001
ACAD_PSEXT
1000
PDF Complete
1000
PDF Complete Converter
1000
PDFC
1000
PDF Document Creator
1070
     0
  0
MATERIAL
  5
2A
102
{ACAD_XDICTIONARY
360
1BBA
102
}
102
{ACAD_REACTORS
330
9
102
}
330
9
100
AcDbMaterial
  1
ByBlock
  0
MATERIAL
  5
29
102
{ACAD_XDICTIONARY
360
1BB8
102
}
102
{ACAD_REACTORS
330
9
102
}
330
9
100
AcDbMaterial
  1
ByLayer
  0
MATERIAL
  5
8
102
{ACAD_XDICTIONARY
360
1BB2
102
}
102
{ACAD_REACTORS
330
9
102
}
330
9
100
AcDbMaterial
  1
Global
  0
MLINESTYLE
  5
2D
102
{ACAD_REACTORS
330
27
102
}
330
27
100
AcDbMlineStyle
  2
STANDARD
 70
     0
  3

 62
   256
 51
90.0
 52
90.0
 71
     2
 49
0.5
 62
   256
  6
BYLAYER
 49
-0.5
 62
   256
  6
BYLAYER
  0
ACDBPLACEHOLDER
  5
5
102
{ACAD_REACTORS
330
6
102
}
330
6
  0
TABLESTYLE
  5
2E
102
{ACAD_XDICTIONARY
360
1BBC
102
}
102
{ACAD_REACTORS
330
2C
102
}
330
2C
100
AcDbTableStyle
  3
Standard
 70
     0
 71
     0
 40
0.06
 41
0.06
280
     0
281
     0
  7
Standard
140
0.18
170
     2
 62
     0
 63
     7
283
     0
274
    -2
284
     1
 64
     0
275
    -2
285
     1
 65
     0
276
    -2
286
     1
 66
     0
277
    -2
287
     1
 67
     0
278
    -2
288
     1
 68
     0
279
    -2
289
     1
 69
     0
  7
Standard
140
0.25
170
     5
 62
     0
 63
     7
283
     0
274
    -2
284
     1
 64
     0
275
    -2
285
     1
 65
     0
276
    -2
286
     1
 66
     0
277
    -2
287
     1
 67
     0
278
    -2
288
     1
 68
     0
279
    -2
289
     1
 69
     0
  7
Standard
140
0.18
170
     5
 62
     0
 63
     7
283
     0
274
    -2
284
     1
 64
     0
275
    -2
285
     1
 65
     0
276
    -2
286
     1
 66
     0
277
    -2
287
     1
 67
     0
278
    -2
288
     1
 68
     0
279
    -2
289
     1
 69
     0
  0
VISUALSTYLE
  5
1E
102
{ACAD_REACTORS
330
1F
102
}
330
1F
100
AcDbVisualStyle
  2
2dWireframe
 70
     4
 71
     0
 72
     2
 73
     0
 90
        0
 40
-0.6
 41
-30.0
 62
     5
 63
     7
 74
     1
 91
        4
 64
     7
 65
   257
 75
     1
175
     1
 42
1.0
 92
        0
 66
   257
 43
1.0
 76
     1
 77
     6
 78
     2
 67
     7
 79
     5
170
     0
171
     0
290
     0
174
     0
 93
        1
 44
0.0
173
     0
291
     0
 45
0.0
1001
ACAD
1000
AcDbSavedByObjectVersion
1070
     0
  0
VISUALSTYLE
  5
A8D
102
{ACAD_REACTORS
330
1F
102
}
330
1F
100
AcDbVisualStyle
  2
Basic
 70
     7
 71
     1
 72
     0
 73
     1
 90
        0
 40
-0.6
 41
-30.0
 62
     5
 63
     7
 74
     0
 91
        4
 64
     7
 65
   257
 75
     1
175
     1
 42
1.0
 92
        8
 66
     7
 43
1.0
 76
     1
 77
     6
 78
     2
 67
     7
 79
     5
170
     0
171
     0
290
     0
174
     0
 93
        1
 44
0.0
173
     0
291
     1
 45
0.0
1001
ACAD
1000
AcDbSavedByObjectVersion
1070
     0
  0
VISUALSTYLE
  5
A91
102
{ACAD_REACTORS
330
1F
102
}
330
1F
100
AcDbVisualStyle
  2
Brighten
 70
    12
 71
     2
 72
     2
 73
     0
 90
        0
 40
-0.6
 41
-30.0
 62
     5
 63
     7
 74
     1
 91
        4
 64
     7
 65
   257
 75
     1
175
     1
 42
1.0
 92
        8
 66
     7
 43
1.0
 76
     1
 77
     6
 78
     2
 67
     7
 79
     5
170
     0
171
     0
290
     0
174
     0
 93
        1
 44
50.0
173
     0
291
     1
 45
0.0
1001
ACAD
1000
AcDbSavedByObjectVersion
1070
     0
  0
VISUALSTYLE
  5
A95
102
{ACAD_REACTORS
330
1F
102
}
330
1F
100
AcDbVisualStyle
  2
ColorChange
 70
    16
 71
     2
 72
     2
 73
     3
 90
        0
 40
-0.6
 41
-30.0
 62
     5
 63
     8
 74
     1
 91
        4
 64
     7
 65
   257
 75
     1
175
     1
 42
1.0
 92
        8
 66
     8
 43
1.0
 76
     1
 77
     6
 78
     2
 67
     7
 79
     5
170
     0
171
     0
290
     0
174
     0
 93
        1
 44
0.0
173
     0
291
     1
 45
0.0
1001
ACAD
1000
AcDbSavedByObjectVersion
1070
     0
  0
VISUALSTYLE
  5
A90
102
{ACAD_REACTORS
330
1F
102
}
330
1F
100
AcDbVisualStyle
  2
Dim
 70
    11
 71
     2
 72
     2
 73
     0
 90
        0
 40
-0.6
 41
-30.0
 62
     5
 63
     7
 74
     1
 91
        4
 64
     7
 65
   257
 75
     1
175
     1
 42
1.0
 92
        8
 66
     7
 43
1.0
 76
     1
 77
     6
 78
     2
 67
     7
 79
     5
170
     0
171
     0
290
     0
174
     0
 93
        1
 44
-50.0
173
     0
291
     1
 45
0.0
1001
ACAD
1000
AcDbSavedByObjectVersion
1070
     0
  0
VISUALSTYLE
  5
A94
102
{ACAD_REACTORS
330
1F
102
}
330
1F
100
AcDbVisualStyle
  2
Facepattern
 70
    15
 71
     2
 72
     2
 73
     0
 90
        0
 40
-0.6
 41
-30.0
 62
     5
 63
     7
 74
     1
 91
        4
 64
     7
 65
   257
 75
     1
175
     1
 42
1.0
 92
        8
 66
     7
 43
1.0
 76
     1
 77
     6
 78
     2
 67
     7
 79
     5
170
     0
171
     0
290
     0
174
     0
 93
        1
 44
0.0
173
     0
291
     1
 45
0.0
1001
ACAD
1000
AcDbSavedByObjectVersion
1070
     0
  0
VISUALSTYLE
  5
A89
102
{ACAD_REACTORS
330
1F
102
}
330
1F
100
AcDbVisualStyle
  2
Flat
 70
     0
 71
     2
 72
     1
 73
     1
 90
        2
 40
-0.6
 41
30.0
 62
     5
 63
     7
 74
     0
 91
        4
 64
     7
 65
   257
 75
     1
175
     1
 42
1.0
 92
        8
 66
     7
 43
1.0
 76
     1
 77
     6
 78
     2
 67
     7
 79
     5
170
     0
171
     0
290
     0
174
     0
 93
       13
 44
0.0
173
     0
291
     1
 45
0.0
1001
ACAD
1000
AcDbSavedByObjectVersion
1070
     0
  0
VISUALSTYLE
  5
A8A
102
{ACAD_REACTORS
330
1F
102
}
330
1F
100
AcDbVisualStyle
  2
FlatWithEdges
 70
     1
 71
     2
 72
     1
 73
     1
 90
        2
 40
-0.6
 41
30.0
 62
     5
 63
     7
 74
     1
 91
        4
 64
     7
 65
   257
 75
     1
175
     1
 42
1.0
 92
        0
 66
   257
 43
1.0
 76
     1
 77
     6
 78
     2
 67
     7
 79
     5
170
     0
171
     0
290
     0
174
     0
 93
       13
 44
0.0
173
     0
291
     1
 45
0.0
1001
ACAD
1000
AcDbSavedByObjectVersion
1070
     0
  0
VISUALSTYLE
  5
A8B
102
{ACAD_REACTORS
330
1F
102
}
330
1F
100
AcDbVisualStyle
  2
Gouraud
 70
     2
 71
     2
 72
     2
 73
     1
 90
        2
 40
-0.6
 41
30.0
 62
     5
 63
     7
 74
     0
 91
        4
 64
     7
 65
   257
 75
     1
175
     1
 42
1.0
 92
        0
 66
     7
 43
1.0
 76
     1
 77
     6
 78
     2
 67
     7
 79
     5
170
     0
171
     0
290
     0
174
     0
 93
       13
 44
0.0
173
     0
291
     1
 45
0.0
1001
ACAD
1000
AcDbSavedByObjectVersion
1070
     0
  0
VISUALSTYLE
  5
A8C
102
{ACAD_REACTORS
330
1F
102
}
330
1F
100
AcDbVisualStyle
  2
GouraudWithEdges
 70
     3
 71
     2
 72
     2
 73
     1
 90
        2
 40
-0.6
 41
30.0
 62
     5
 63
     7
 74
     1
 91
        4
 64
     7
 65
   257
 75
     1
175
     1
 42
1.0
 92
        0
 66
   257
 43
1.0
 76
     1
 77
     6
 78
     2
 67
     7
 79
     5
170
     0
171
     0
290
     0
174
     0
 93
       13
 44
0.0
173
     0
291
     1
 45
0.0
1001
ACAD
1000
AcDbSavedByObjectVersion
1070
     0
  0
VISUALSTYLE
  5
A93
102
{ACAD_REACTORS
330
1F
102
}
330
1F
100
AcDbVisualStyle
  2
Linepattern
 70
    14
 71
     2
 72
     2
 73
     0
 90
        0
 40
-0.6
 41
-30.0
 62
     5
 63
     7
 74
     1
 91
        4
 64
     7
 65
   257
 75
     7
175
     7
 42
1.0
 92
        8
 66
     7
 43
1.0
 76
     1
 77
     6
 78
     2
 67
     7
 79
     5
170
     0
171
     0
290
     0
174
     0
 93
        1
 44
0.0
173
     0
291
     1
 45
0.0
1001
ACAD
1000
AcDbSavedByObjectVersion
1070
     0
  0
VISUALSTYLE
  5
A92
102
{ACAD_REACTORS
330
1F
102
}
330
1F
100
AcDbVisualStyle
  2
Thicken
 70
    13
 71
     2
 72
     2
 73
     0
 90
        0
 40
-0.6
 41
-30.0
 62
     5
 63
     7
 74
     1
 91
        4
 64
     7
 65
   257
 75
     1
175
     1
 42
1.0
 92
       12
 66
     7
 43
1.0
 76
     1
 77
     6
 78
     2
 67
     7
 79
     5
170
     0
171
     0
290
     0
174
     0
 93
        1
 44
0.0
173
     0
291
     1
 45
0.0
1001
ACAD
1000
AcDbSavedByObjectVersion
1070
     0
  0
DICTIONARYVAR
  5
A83
102
{ACAD_REACTORS
330
A82
102
}
330
A82
100
DictionaryVariables
280
     0
  1
STANDARD
  0
DICTIONARYVAR
  5
A87
102
{ACAD_REACTORS
330
A82
102
}
330
A82
100
DictionaryVariables
280
     0
  1
1
  0
DICTIONARYVAR
  5
A86
102
{ACAD_REACTORS
330
A82
102
}
330
A82
100
DictionaryVariables
280
     0
  1
1
  0
DICTIONARYVAR
  5
A85
102
{ACAD_REACTORS
330
A82
102
}
330
A82
100
DictionaryVariables
280
     0
  1
0
  0
DICTIONARYVAR
  5
A84
102
{ACAD_REACTORS
330
A82
102
}
330
A82
100
DictionaryVariables
280
     0
  1
127
  0
DICTIONARY
  5
A18
102
{ACAD_REACTORS
330
A17
102
}
330
A17
100
AcDbDictionary
281
     1
  0
XRECORD
  5
B08
102
{ACAD_REACTORS
330
A17
102
}
330
A17
100
AcDbXrecord
280
     1
 90
-1023410169
  0
DICTIONARY
  5
1BB6
330
11
100
AcDbDictionary
280
     1
281
     1
  3
ACAD_XREC_ROUNDTRIP
360
1BB7
  0
DICTIONARY
  5
1BB4
330
C
100
AcDbDictionary
280
     1
281
     1
  3
ACAD_XREC_ROUNDTRIP
360
1BB5
  0
DICTIONARY
  5
1BBA
330
2A
100
AcDbDictionary
280
     1
281
     1
  3
ACAD_XREC_ROUNDTRIP
360
1BBB
  0
DICTIONARY
  5
1BB8
330
29
100
AcDbDictionary
280
     1
281
     1
  3
ACAD_XREC_ROUNDTRIP
360
1BB9
  0
DICTIONARY
  5
1BB2
330
8
100
AcDbDictionary
280
     1
281
     1
  3
ACAD_XREC_ROUNDTRIP
360
1BB3
  0
DICTIONARY
  5
1BBC
330
2E
100
AcDbDictionary
280
     1
281
     1
  3
ACAD_XREC_ROUNDTRIP
360
1BBD
  0
XRECORD
  5
1BB7
102
{ACAD_REACTORS
330
1BB6
102
}
330
1BB6
100
AcDbXrecord
280
     1
102
SHADEPLOT
 70
     0
102
SHADEPLOTRESLEVEL
 70
     2
102
SHADEPLOTCUSTOMDPI
 70
   300
  0
XRECORD
  5
1BB5
102
{ACAD_REACTORS
330
1BB4
102
}
330
1BB4
100
AcDbXrecord
280
     1
102
SHADEPLOT
 70
     0
102
SHADEPLOTRESLEVEL
 70
     2
102
SHADEPLOTCUSTOMDPI
 70
   300
  0
XRECORD
  5
1BBB
102
{ACAD_REACTORS
330
1BBA
102
}
330
1BBA
100
AcDbXrecord
280
     1
102
MATERIAL
148
0.0
149
0.0
149
0.0
 93
        0
 94
       63
282
     0
 72
     1
 77
     1
171
     1
175
     1
179
     1
273
     0
  0
XRECORD
  5
1BB9
102
{ACAD_REACTORS
330
1BB8
102
}
330
1BB8
100
AcDbXrecord
280
     1
102
MATERIAL
148
0.0
149
0.0
149
0.0
 93
        0
 94
       63
282
     0
 72
     1
 77
     1
171
     1
175
     1
179
     1
273
     0
  0
XRECORD
  5
1BB3
102
{ACAD_REACTORS
330
1BB2
102
}
330
1BB2
100
AcDbXrecord
280
     1
102
MATERIAL
148
0.0
149
0.0
149
0.0
 93
        0
 94
       63
282
     0
 72
     1
 77
     1
171
     1
175
     1
179
     1
273
     0
  0
XRECORD
  5
1BBD
102
{ACAD_REACTORS
330
1BBC
102
}
330
1BBC
100
AcDbXrecord
280
     1
102
ACAD_ROUNDTRIP_PRE2007_TABLESTYLE
 90
        4
 91
        0
  1

 92
        4
 93
        0
  2

 94
        4
 95
        0
  3

  0
ENDSEC
  0
EOF
