  0
SECTION
  2
HEADER
  9
$ACADVER
  1
AC1012
  9
$DWGCODEPAGE
  3
ansi_1252
  9
$INSBASE
 10
0.0
 20
0.0
 30
0.0
  9
$EXTMIN
 10
-3.62132
 20
-180.207207
 30
0.0
  9
$EXTMAX
 10
219.509
 20
3.62132
 30
0.0
  9
$LIMMIN
 10
0.0
 20
0.0
  9
$LIMMAX
 10
10.0
 20
10.0
  9
$ORTHOMODE
 70
     1
  9
$REGENMODE
 70
     1
  9
$FILLMODE
 70
     1
  9
$QTEXTMODE
 70
     0
  9
$MIRRTEXT
 70
     1
  9
$DRAGMODE
 70
     2
  9
$LTSCALE
 40
6.0
  9
$OSMODE
 70
     0
  9
$ATTMODE
 70
     1
  9
$TEXTSIZE
 40
0.2
  9
$TRACEWID
 40
0.05
  9
$TEXTSTYLE
  7
STANDARD
  9
$CLAYER
  8
0
  9
$CELTYPE
  6
CONTINUOUS
  9
$CECOLOR
 62
   256
  9
$CELTSCALE
 40
1.0
  9
$DELOBJ
 70
     1
  9
$DISPSILH
 70
     0
  9
$DIMSCALE
 40
1.0
  9
$DIMASZ
 40
0.18
  9
$DIMEXO
 40
0.0625
  9
$DIMDLI
 40
0.38
  9
$DIMRND
 40
0.0
  9
$DIMDLE
 40
0.0
  9
$DIMEXE
 40
0.18
  9
$DIMTP
 40
0.0
  9
$DIMTM
 40
0.0
  9
$DIMTXT
 40
0.18
  9
$DIMCEN
 40
0.09
  9
$DIMTSZ
 40
0.0
  9
$DIMTOL
 70
     0
  9
$DIMLIM
 70
     0
  9
$DIMTIH
 70
     1
  9
$DIMTOH
 70
     1
  9
$DIMSE1
 70
     0
  9
$DIMSE2
 70
     0
  9
$DIMTAD
 70
     0
  9
$DIMZIN
 70
     0
  9
$DIMBLK
  1

  9
$DIMASO
 70
     1
  9
$DIMSHO
 70
     1
  9
$DIMPOST
  1

  9
$DIMAPOST
  1

  9
$DIMALT
 70
     0
  9
$DIMALTD
 70
     2
  9
$DIMALTF
 40
25.4
  9
$DIMLFAC
 40
1.0
  9
$DIMTOFL
 70
     0
  9
$DIMTVP
 40
0.0
  9
$DIMTIX
 70
     0
  9
$DIMSOXD
 70
     0
  9
$DIMSAH
 70
     0
  9
$DIMBLK1
  1

  9
$DIMBLK2
  1

  9
$DIMSTYLE
  2
STANDARD
  9
$DIMCLRD
 70
     0
  9
$DIMCLRE
 70
     0
  9
$DIMCLRT
 70
     0
  9
$DIMTFAC
 40
1.0
  9
$DIMGAP
 40
0.09
  9
$DIMJUST
 70
     0
  9
$DIMSD1
 70
     0
  9
$DIMSD2
 70
     0
  9
$DIMTOLJ
 70
     1
  9
$DIMTZIN
 70
     0
  9
$DIMALTZ
 70
     0
  9
$DIMALTTZ
 70
     0
  9
$DIMFIT
 70
     3
  9
$DIMUPT
 70
     0
  9
$DIMUNIT
 70
     2
  9
$DIMDEC
 70
     4
  9
$DIMTDEC
 70
     4
  9
$DIMALTU
 70
     2
  9
$DIMALTTD
 70
     2
  9
$DIMTXSTY
  7
STANDARD
  9
$DIMAUNIT
 70
     0
  9
$LUNITS
 70
     2
  9
$LUPREC
 70
     4
  9
$SKETCHINC
 40
0.1
  9
$FILLETRAD
 40
0.0
  9
$AUNITS
 70
     0
  9
$AUPREC
 70
     0
  9
$MENU
  1
.
  9
$ELEVATION
 40
0.0
  9
$PELEVATION
 40
0.0
  9
$THICKNESS
 40
0.0
  9
$LIMCHECK
 70
     0
  9
$BLIPMODE
 70
     1
  9
$CHAMFERA
 40
0.0
  9
$CHAMFERB
 40
0.0
  9
$CHAMFERC
 40
0.0
  9
$CHAMFERD
 40
0.0
  9
$SKPOLY
 70
     0
  9
$TDCREATE
 40
2450751.469781365
  9
$TDUPDATE
 40
2450752.434737152
  9
$TDINDWG
 40
0.0107627315
  9
$TDUSRTIMER
 40
0.0107627315
  9
$USRTIMER
 70
     1
  9
$ANGBASE
 50
0.0
  9
$ANGDIR
 70
     0
  9
$PDMODE
 70
     0
  9
$PDSIZE
 40
0.0
  9
$PLINEWID
 40
0.0
  9
$COORDS
 70
     1
  9
$SPLFRAME
 70
     0
  9
$SPLINETYPE
 70
     6
  9
$SPLINESEGS
 70
     8
  9
$ATTDIA
 70
     0
  9
$ATTREQ
 70
     1
  9
$HANDLING
 70
     1
  9
$HANDSEED
  5
A67
  9
$SURFTAB1
 70
     6
  9
$SURFTAB2
 70
     6
  9
$SURFTYPE
 70
     6
  9
$SURFU
 70
     6
  9
$SURFV
 70
     6
  9
$UCSNAME
  2

  9
$UCSORG
 10
0.0
 20
0.0
 30
0.0
  9
$UCSXDIR
 10
1.0
 20
0.0
 30
0.0
  9
$UCSYDIR
 10
0.0
 20
1.0
 30
0.0
  9
$PUCSNAME
  2

  9
$PUCSORG
 10
0.0
 20
0.0
 30
0.0
  9
$PUCSXDIR
 10
1.0
 20
0.0
 30
0.0
  9
$PUCSYDIR
 10
0.0
 20
1.0
 30
0.0
  9
$USERI1
 70
     0
  9
$USERI2
 70
     0
  9
$USERI3
 70
     0
  9
$USERI4
 70
     0
  9
$USERI5
 70
     0
  9
$USERR1
 40
0.0
  9
$USERR2
 40
0.0
  9
$USERR3
 40
0.0
  9
$USERR4
 40
0.0
  9
$USERR5
 40
0.0
  9
$WORLDVIEW
 70
     1
  9
$SHADEDGE
 70
     3
  9
$SHADEDIF
 70
    70
  9
$TILEMODE
 70
     1
  9
$MAXACTVP
 70
    16
  9
$PINSBASE
 10
0.0
 20
0.0
 30
0.0
  9
$PLIMCHECK
 70
     0
  9
$PEXTMIN
 10
1.000000E+20
 20
1.000000E+20
 30
1.000000E+20
  9
$PEXTMAX
 10
-1.000000E+20
 20
-1.000000E+20
 30
-1.000000E+20
  9
$PLIMMIN
 10
0.0
 20
0.0
  9
$PLIMMAX
 10
12.0
 20
9.0
  9
$UNITMODE
 70
     0
  9
$VISRETAIN
 70
     0
  9
$PLINEGEN
 70
     0
  9
$PSLTSCALE
 70
     1
  9
$TREEDEPTH
 70
  3020
  9
$PICKSTYLE
 70
     1
  9
$CMLSTYLE
  2
STANDARD
  9
$CMLJUST
 70
     0
  9
$CMLSCALE
 40
1.0
  9
$SAVEIMAGES
 70
     0
  0
ENDSEC
  0
SECTION
  2
CLASSES
  0
ENDSEC
  0
SECTION
  2
TABLES
  0
TABLE
  2
VPORT
  5
8
100
AcDbSymbolTable
 70
     2
  0
VPORT
  5
A66
100
AcDbSymbolTableRecord
100
AcDbViewportTableRecord
  2
*ACTIVE
 70
     0
 10
0.0
 20
0.0
 11
1.0
 21
1.0
 12
165.983991
 22
-85.0001
 13
0.0
 23
0.0
 14
1.0
 24
1.0
 15
0.0
 25
0.0
 16
0.0
 26
0.0
 36
1.0
 17
0.0
 27
0.0
 37
0.0
 40
190.0002
 41
1.778777
 42
50.0
 43
0.0
 44
0.0
 50
0.0
 51
0.0
 71
     0
 72
   100
 73
     1
 74
     1
 75
     0
 76
     0
 77
     0
 78
     0
  0
ENDTAB
  0
TABLE
  2
LTYPE
  5
5
100
AcDbSymbolTable
 70
     3
  0
LTYPE
  5
13
100
AcDbSymbolTableRecord
100
AcDbLinetypeTableRecord
  2
BYBLOCK
 70
     0
  3

 72
    65
 73
     0
 40
0.0
  0
LTYPE
  5
14
100
AcDbSymbolTableRecord
100
AcDbLinetypeTableRecord
  2
BYLAYER
 70
     0
  3

 72
    65
 73
     0
 40
0.0
  0
LTYPE
  5
15
100
AcDbSymbolTableRecord
100
AcDbLinetypeTableRecord
  2
CONTINUOUS
 70
    64
  3

 72
    65
 73
     0
 40
0.0
  0
LTYPE
  5
1E
100
AcDbSymbolTableRecord
100
AcDbLinetypeTableRecord
  2
DASHED
 70
    64
  3

 72
    65
 73
     2
 40
0.75
 49
0.5
 74
     0
 49
-0.25
 74
     0
  0
LTYPE
  5
20
100
AcDbSymbolTableRecord
100
AcDbLinetypeTableRecord
  2
CENTER
 70
    64
  3

 72
    65
 73
     4
 40
2.0
 49
1.25
 74
     0
 49
-0.25
 74
     0
 49
0.25
 74
     0
 49
-0.25
 74
     0
  0
ENDTAB
  0
TABLE
  2
LAYER
  5
2
100
AcDbSymbolTable
 70
     1
  0
LAYER
  5
F
100
AcDbSymbolTableRecord
100
AcDbLayerTableRecord
  2
0
 70
     0
 62
     7
  6
CONTINUOUS
  0
ENDTAB
  0
TABLE
  2
STYLE
  5
3
100
AcDbSymbolTable
 70
     1
  0
STYLE
  5
10
100
AcDbSymbolTableRecord
100
AcDbTextStyleTableRecord
  2
STANDARD
 70
     0
 40
0.0
 41
1.0
 50
0.0
 71
     0
 42
0.2
  3
TXT
  4

  0
ENDTAB
  0
TABLE
  2
VIEW
  5
6
100
AcDbSymbolTable
 70
     0
  0
ENDTAB
  0
TABLE
  2
UCS
  5
7
100
AcDbSymbolTable
 70
     0
  0
ENDTAB
  0
TABLE
  2
APPID
  5
9
100
AcDbSymbolTable
 70
     1
  0
APPID
  5
11
100
AcDbSymbolTableRecord
100
AcDbRegAppTableRecord
  2
ACAD
 70
     0
  0
ENDTAB
  0
TABLE
  2
DIMSTYLE
  5
A
100
AcDbSymbolTable
 70
     1
  0
DIMSTYLE
105
35E
100
AcDbSymbolTableRecord
100
AcDbDimStyleTableRecord
  2
STANDARD
 70
     0
  3

  4

  5

  6

  7

 40
1.0
 41
0.18
 42
0.0625
 43
0.38
 44
0.18
 45
0.0
 46
0.0
 47
0.0
 48
0.0
140
0.18
141
0.09
142
0.0
143
25.4
144
1.0
145
0.0
146
1.0
147
0.09
 71
     0
 72
     0
 73
     1
 74
     1
 75
     0
 76
     0
 77
     0
 78
     0
170
     0
171
     2
172
     0
173
     0
174
     0
175
     0
176
     0
177
     0
178
     0
270
     2
271
     4
272
     4
273
     2
274
     2
340
10
275
     0
280
     0
281
     0
282
     0
283
     1
284
     0
285
     0
286
     0
287
     3
288
     0
  0
ENDTAB
  0
TABLE
  2
BLOCK_RECORD
  5
1
100
AcDbSymbolTable
 70
     3
  0
BLOCK_RECORD
  5
19
100
AcDbSymbolTableRecord
100
AcDbBlockTableRecord
  2
*MODEL_SPACE
  0
BLOCK_RECORD
  5
16
100
AcDbSymbolTableRecord
100
AcDbBlockTableRecord
  2
*PAPER_SPACE
  0
BLOCK_RECORD
  5
48B
100
AcDbSymbolTableRecord
100
AcDbBlockTableRecord
  2
A$CC221
  0
BLOCK_RECORD
  5
86F
100
AcDbSymbolTableRecord
100
AcDbBlockTableRecord
  2
A$C8282
  0
BLOCK_RECORD
  5
890
100
AcDbSymbolTableRecord
100
AcDbBlockTableRecord
  2
A$C9041
  0
ENDTAB
  0
ENDSEC
  0
SECTION
  2
BLOCKS
  0
BLOCK
  5
1A
100
AcDbEntity
  8
0
100
AcDbBlockBegin
  2
*MODEL_SPACE
 70
     0
 10
0.0
 20
0.0
 30
0.0
  3
*MODEL_SPACE
  1

  0
ENDBLK
  5
1B
100
AcDbEntity
  8
0
100
AcDbBlockEnd
  0
BLOCK
  5
17
100
AcDbEntity
 67
     1
  8
0
100
AcDbBlockBegin
  2
*PAPER_SPACE
 70
     0
 10
0.0
 20
0.0
 30
0.0
  3
*PAPER_SPACE
  1

  0
ENDBLK
  5
18
100
AcDbEntity
 67
     1
  8
0
100
AcDbBlockEnd
  0
BLOCK
  5
679
100
AcDbEntity
  8
0
  6
CONTINUOUS
100
AcDbBlockBegin
  2
A$CC221
 70
     0
 10
0.0
 20
0.0
 30
0.0
  3
A$CC221
  1

  0
LINE
  5
48C
100
AcDbEntity
  8
0
  6
CONTINUOUS
 62
     7
100
AcDbLine
 10
123.341381
 20
137.193997
 30
0.0
 11
3.341381
 21
137.193997
 31
0.0
  0
LINE
  5
48D
100
AcDbEntity
  8
0
  6
CENTER
 62
     1
100
AcDbLine
 10
3.341381
 20
141.193997
 30
0.0
 11
123.341381
 21
141.193997
 31
0.0
  0
LINE
  5
48E
100
AcDbEntity
  8
0
  6
CONTINUOUS
 62
     7
100
AcDbLine
 10
123.341381
 20
145.193997
 30
0.0
 11
3.341381
 21
145.193997
 31
0.0
  0
LINE
  5
48F
100
AcDbEntity
  8
0
  6
DASHED
 62
     1
100
AcDbLine
 10
123.341381
 20
156.718397
 30
0.0
 11
3.341381
 21
156.718397
 31
0.0
  0
LINE
  5
490
100
AcDbEntity
  8
0
  6
CONTINUOUS
 62
     7
100
AcDbLine
 10
123.341381
 20
112.193997
 30
0.0
 11
3.341381
 21
112.193997
 31
0.0
  0
LINE
  5
491
100
AcDbEntity
  8
0
  6
CONTINUOUS
 62
     7
100
AcDbLine
 10
123.341381
 20
120.193997
 30
0.0
 11
3.341381
 21
120.193997
 31
0.0
  0
LINE
  5
492
100
AcDbEntity
  8
0
  6
CONTINUOUS
 62
     7
100
AcDbLine
 10
123.341381
 20
181.194097
 30
0.0
 11
3.341381
 21
181.194097
 31
0.0
  0
LINE
  5
493
100
AcDbEntity
  8
0
  6
CENTER
 62
     1
100
AcDbLine
 10
3.341381
 20
116.193997
 30
0.0
 11
123.341381
 21
116.193997
 31
0.0
  0
LINE
  5
494
100
AcDbEntity
  8
0
  6
CONTINUOUS
 62
     7
100
AcDbLine
 10
123.341381
 20
101.243897
 30
0.0
 11
3.341381
 21
101.243897
 31
0.0
  0
LINE
  5
495
100
AcDbEntity
  8
0
  6
CONTINUOUS
 62
     7
100
AcDbLine
 10
123.341381
 20
81.144097
 30
0.0
 11
3.341381
 21
81.144097
 31
0.0
  0
LINE
  5
496
100
AcDbEntity
  8
0
  6
CENTER
 62
     1
100
AcDbLine
 10
222.850381
 20
91.19399
 30
0.0
 11
3.341381
 21
91.19399
 31
0.0
  0
LINE
  5
497
100
AcDbEntity
  8
0
  6
CONTINUOUS
 62
     7
100
AcDbLine
 10
123.341381
 20
45.193997
 30
0.0
 11
3.341381
 21
45.193997
 31
0.0
  0
LINE
  5
498
100
AcDbEntity
  8
0
  6
CENTER
 62
     1
100
AcDbLine
 10
3.341381
 20
41.193997
 30
0.0
 11
123.341381
 21
41.193997
 31
0.0
  0
LINE
  5
499
100
AcDbEntity
  8
0
  6
CONTINUOUS
 62
     7
100
AcDbLine
 10
123.341381
 20
37.193997
 30
0.0
 11
3.341381
 21
37.193997
 31
0.0
  0
LINE
  5
49A
100
AcDbEntity
  8
0
  6
DASHED
 62
     1
100
AcDbLine
 10
123.341381
 20
25.669597
 30
0.0
 11
3.341381
 21
25.669597
 31
0.0
  0
LINE
  5
49B
100
AcDbEntity
  8
0
  6
CONTINUOUS
 62
     7
100
AcDbLine
 10
123.341381
 20
70.193997
 30
0.0
 11
3.341381
 21
70.193997
 31
0.0
  0
LINE
  5
49C
100
AcDbEntity
  8
0
  6
CONTINUOUS
 62
     7
100
AcDbLine
 10
123.341381
 20
62.193997
 30
0.0
 11
3.341381
 21
62.193997
 31
0.0
  0
LINE
  5
49D
100
AcDbEntity
  8
0
  6
CONTINUOUS
 62
     7
100
AcDbLine
 10
123.341381
 20
1.193897
 30
0.0
 11
3.341381
 21
1.193897
 31
0.0
  0
LINE
  5
49E
100
AcDbEntity
  8
0
  6
CENTER
 62
     1
100
AcDbLine
 10
3.341381
 20
66.193997
 30
0.0
 11
123.341381
 21
66.193997
 31
0.0
  0
LINE
  5
49F
100
AcDbEntity
  8
0
  6
CONTINUOUS
 62
     7
100
AcDbLine
 10
3.341381
 20
181.194097
 30
0.0
 11
3.341381
 21
1.193897
 31
0.0
  0
POLYLINE
  5
4A0
100
AcDbEntity
  8
0
100
AcDb2dPolyline
 66
     1
 10
0.0
 20
0.0
 30
0.0
 40
3.0
 41
3.0
  0
VERTEX
  5
4A1
100
AcDbEntity
  8
0
100
AcDbVertex
100
AcDb2dVertex
 10
3.341381
 20
179.694097
 30
0.0
 42
0.414214
  0
VERTEX
  5
4A2
100
AcDbEntity
  8
0
100
AcDbVertex
100
AcDb2dVertex
 10
4.841381
 20
181.194097
 30
0.0
 42
1.0
  0
SEQEND
  5
4A3
100
AcDbEntity
  8
0
  0
POLYLINE
  5
4A4
100
AcDbEntity
  8
0
100
AcDb2dPolyline
 66
     1
 10
0.0
 20
0.0
 30
0.0
 40
3.0
 41
3.0
  0
VERTEX
  5
4A5
100
AcDbEntity
  8
0
100
AcDbVertex
100
AcDb2dVertex
 10
3.341381
 20
182.694097
 30
0.0
 42
0.414214
  0
VERTEX
  5
4A6
100
AcDbEntity
  8
0
100
AcDbVertex
100
AcDb2dVertex
 10
1.841381
 20
181.194097
 30
0.0
 42
1.0
  0
SEQEND
  5
4A7
100
AcDbEntity
  8
0
  0
CIRCLE
  5
4A8
100
AcDbEntity
  8
0
100
AcDbCircle
 10
3.341381
 20
181.194097
 30
0.0
 40
3.0
  0
LINE
  5
4A9
100
AcDbEntity
  8
0
  6
CONTINUOUS
 62
     7
100
AcDbLine
 10
200.341381
 20
91.193997
 30
0.0
 11
200.341381
 21
105.235397
 31
0.0
  0
LINE
  5
4AA
100
AcDbEntity
  8
0
  6
CONTINUOUS
 62
     7
100
AcDbLine
 10
195.341381
 20
91.193997
 30
0.0
 11
195.341381
 21
114.409397
 31
0.0
  0
LINE
  5
4AB
100
AcDbEntity
  8
0
  6
CONTINUOUS
 62
     7
100
AcDbLine
 10
166.341381
 20
91.193997
 30
0.0
 11
166.341381
 21
105.235397
 31
0.0
  0
LINE
  5
4AC
100
AcDbEntity
  8
0
  6
CONTINUOUS
 62
     7
100
AcDbLine
 10
171.341381
 20
91.193997
 30
0.0
 11
171.341381
 21
114.409397
 31
0.0
  0
LINE
  5
4AD
100
AcDbEntity
  8
0
  6
CENTER
 62
     1
100
AcDbLine
 10
183.341381
 20
5.982697
 30
0.0
 11
183.341381
 21
182.548897
 31
0.0
  0
LINE
  5
4AE
100
AcDbEntity
  8
0
  6
CONTINUOUS
 62
     7
100
AcDbLine
 10
123.341381
 20
181.194097
 30
0.0
 11
123.341381
 21
1.193897
 31
0.0
  0
LINE
  5
4AF
100
AcDbEntity
  8
0
  6
CONTINUOUS
 62
     7
100
AcDbLine
 10
185.650881
 20
52.193997
 30
0.0
 11
181.031981
 21
52.193997
 31
0.0
  0
ARC
  5
4B0
100
AcDbEntity
  8
0
  6
CONTINUOUS
 62
     7
100
AcDbCircle
 10
180.662581
 20
47.661197
 30
0.0
 40
1.0
100
AcDbArc
 50
30.7131
 51
194.287
  0
ARC
  5
4B1
100
AcDbEntity
  8
0
  6
CONTINUOUS
 62
     7
100
AcDbCircle
 10
180.662581
 20
34.726797
 30
0.0
 40
1.0
100
AcDbArc
 50
165.713
 51
329.287
  0
LINE
  5
4B2
100
AcDbEntity
  8
0
  6
CONTINUOUS
 62
     7
100
AcDbLine
 10
181.424881
 20
24.741697
 30
0.0
 11
160.877081
 21
4.193997
 31
0.0
  0
LINE
  5
4B3
100
AcDbEntity
  8
0
  6
CENTER
 62
     1
100
AcDbLine
 10
222.850381
 20
91.193997
 30
0.0
 11
155.200181
 21
91.193997
 31
0.0
  0
LINE
  5
4B4
100
AcDbEntity
  8
0
  6
CENTER
 62
     1
100
AcDbLine
 10
213.341381
 20
41.193997
 30
0.0
 11
166.276181
 21
41.193997
 31
0.0
  0
LINE
  5
4B5
100
AcDbEntity
  8
0
  6
CENTER
 62
     1
100
AcDbLine
 10
151.273381
 20
66.193997
 30
0.0
 11
215.409381
 21
66.193997
 31
0.0
  0
ARC
  5
4B6
100
AcDbEntity
  8
0
  6
CONTINUOUS
 62
     7
100
AcDbCircle
 10
183.341381
 20
41.193997
 30
0.0
 40
7.0
100
AcDbArc
 50
212.652
 51
237.348
  0
LINE
  5
4B7
100
AcDbEntity
  8
0
  6
CONTINUOUS
 62
     7
100
AcDbLine
 10
155.341381
 20
36.193997
 30
0.0
 11
155.341381
 21
37.193997
 31
0.0
  0
LINE
  5
4B8
100
AcDbEntity
  8
0
  6
CONTINUOUS
 62
     7
100
AcDbLine
 10
154.341381
 20
36.193997
 30
0.0
 11
154.341381
 21
37.193997
 31
0.0
  0
LINE
  5
4B9
100
AcDbEntity
  8
0
  6
CONTINUOUS
 62
     7
100
AcDbLine
 10
157.341381
 20
37.193997
 30
0.0
 11
157.341381
 21
30.693997
 31
0.0
  0
ARC
  5
4BA
100
AcDbEntity
  8
0
  6
CONTINUOUS
 62
     7
100
AcDbCircle
 10
161.192981
 20
40.359197
 30
0.0
 40
8.0
100
AcDbArc
 50
315.0
 51
0.0
  0
LINE
  5
4BB
100
AcDbEntity
  8
0
  6
CONTINUOUS
 62
     7
100
AcDbLine
 10
153.341381
 20
37.193997
 30
0.0
 11
153.341381
 21
25.443997
 31
0.0
  0
LINE
  5
4BC
100
AcDbEntity
  8
0
  6
CONTINUOUS
 62
     7
100
AcDbLine
 10
153.341381
 20
7.693997
 30
0.0
 11
153.341381
 21
2.193997
 31
0.0
  0
LINE
  5
4BD
100
AcDbEntity
  8
0
  6
CONTINUOUS
 62
     7
100
AcDbLine
 10
156.841381
 20
1.193997
 30
0.0
 11
154.341381
 21
1.193997
 31
0.0
  0
ARC
  5
4BE
100
AcDbEntity
  8
0
  6
CONTINUOUS
 62
     7
100
AcDbCircle
 10
154.341381
 20
2.193997
 30
0.0
 40
1.0
100
AcDbArc
 50
180.0
 51
270.0
  0
LINE
  5
4BF
100
AcDbEntity
  8
0
  6
CONTINUOUS
 62
     7
100
AcDbLine
 10
157.841381
 20
4.193997
 30
0.0
 11
160.877281
 21
4.193997
 31
0.0
  0
LINE
  5
4C0
100
AcDbEntity
  8
0
  6
CONTINUOUS
 62
     7
100
AcDbLine
 10
157.341381
 20
3.693997
 30
0.0
 11
157.341381
 21
1.693997
 31
0.0
  0
ARC
  5
4C1
100
AcDbEntity
  8
0
  6
CONTINUOUS
 62
     7
100
AcDbCircle
 10
156.841381
 20
1.693997
 30
0.0
 40
0.5
100
AcDbArc
 50
270.0
 51
0.0
  0
ARC
  5
4C2
100
AcDbEntity
  8
0
  6
CONTINUOUS
 62
     7
100
AcDbCircle
 10
157.841381
 20
3.693997
 30
0.0
 40
0.5
100
AcDbArc
 50
90.0
 51
180.0
  0
LINE
  5
4C3
100
AcDbEntity
  8
0
  6
CONTINUOUS
 62
     7
100
AcDbLine
 10
164.512981
 20
33.193897
 30
0.0
 11
163.341381
 21
33.193897
 31
0.0
  0
ARC
  5
4C4
100
AcDbEntity
  8
0
  6
CONTINUOUS
 62
     7
100
AcDbCircle
 10
163.341481
 20
22.794497
 30
0.0
 40
2.0
100
AcDbArc
 50
0.0
 51
135.0
  0
LINE
  5
4C5
100
AcDbEntity
  8
0
  6
CONTINUOUS
 62
     7
100
AcDbLine
 10
164.755681
 20
14.436297
 30
0.0
 11
162.554581
 21
12.235197
 31
0.0
  0
ARC
  5
4C6
100
AcDbEntity
  8
0
  6
CONTINUOUS
 62
     7
100
AcDbCircle
 10
165.841381
 20
17.516297
 30
0.0
 40
7.5
100
AcDbArc
 50
135.0
 51
180.0
  0
LINE
  5
4C7
100
AcDbEntity
  8
0
  6
CONTINUOUS
 62
     7
100
AcDbLine
 10
153.341381
 20
22.943997
 30
0.0
 11
153.341381
 21
11.193997
 31
0.0
  0
ARC
  5
4C8
100
AcDbEntity
  8
0
  6
CONTINUOUS
 62
     7
100
AcDbCircle
 10
154.041381
 20
10.394097
 30
0.0
 40
0.8
100
AcDbArc
 50
0.0
 51
90.0
  0
LINE
  5
4C9
100
AcDbEntity
  8
0
  6
CONTINUOUS
 62
     7
100
AcDbLine
 10
154.841381
 20
8.493997
 30
0.0
 11
154.841381
 21
10.394097
 31
0.0
  0
LINE
  5
4CA
100
AcDbEntity
  8
0
  6
CONTINUOUS
 62
     7
100
AcDbLine
 10
153.341381
 20
7.693997
 30
0.0
 11
154.041381
 21
7.693997
 31
0.0
  0
ARC
  5
4CB
100
AcDbEntity
  8
0
  6
CONTINUOUS
 62
     7
100
AcDbCircle
 10
154.041381
 20
8.493997
 30
0.0
 40
0.8
100
AcDbArc
 50
270.0
 51
0.0
  0
LINE
  5
4CC
100
AcDbEntity
  8
0
  6
CONTINUOUS
 62
     7
100
AcDbLine
 10
154.041381
 20
11.193997
 30
0.0
 11
153.341381
 21
11.193997
 31
0.0
  0
LINE
  5
4CD
100
AcDbEntity
  8
0
  6
CONTINUOUS
 62
     7
100
AcDbLine
 10
158.341381
 20
13.980297
 30
0.0
 11
158.341381
 21
17.516297
 31
0.0
  0
ARC
  5
4CE
100
AcDbEntity
  8
0
  6
CONTINUOUS
 62
     7
100
AcDbCircle
 10
160.809381
 20
13.980297
 30
0.0
 40
2.46797
100
AcDbArc
 50
180.0
 51
315.0
  0
LINE
  5
4CF
100
AcDbEntity
  8
0
  6
CONTINUOUS
 62
     7
100
AcDbLine
 10
155.341381
 20
36.193997
 30
0.0
 11
154.341381
 21
36.193997
 31
0.0
  0
LINE
  5
4D0
100
AcDbEntity
  8
0
  6
CONTINUOUS
 62
     7
100
AcDbLine
 10
153.541381
 20
22.943997
 30
0.0
 11
153.341381
 21
22.943997
 31
0.0
  0
LINE
  5
4D1
100
AcDbEntity
  8
0
  6
CONTINUOUS
 62
     7
100
AcDbLine
 10
153.541381
 20
25.443997
 30
0.0
 11
153.341381
 21
25.443997
 31
0.0
  0
LINE
  5
4D2
100
AcDbEntity
  8
0
  6
CONTINUOUS
 62
     7
100
AcDbLine
 10
153.541381
 20
25.443997
 30
0.0
 11
153.541381
 21
22.943997
 31
0.0
  0
LINE
  5
4D3
100
AcDbEntity
  8
0
  6
CONTINUOUS
 62
     7
100
AcDbLine
 10
161.927181
 20
24.208697
 30
0.0
 11
160.538081
 21
22.819597
 31
0.0
  0
LINE
  5
4D4
100
AcDbEntity
  8
0
  6
CONTINUOUS
 62
     7
100
AcDbLine
 10
161.341381
 20
29.693997
 30
0.0
 11
158.341381
 21
29.693997
 31
0.0
  0
ARC
  5
4D5
100
AcDbEntity
  8
0
  6
CONTINUOUS
 62
     7
100
AcDbCircle
 10
158.341381
 20
30.693997
 30
0.0
 40
1.0
100
AcDbArc
 50
180.0
 51
270.0
  0
ARC
  5
4D6
100
AcDbEntity
  8
0
  6
CONTINUOUS
 62
     7
100
AcDbCircle
 10
163.341381
 20
32.193897
 30
0.0
 40
1.0
100
AcDbArc
 50
90.0
 51
180.0
  0
ARC
  5
4D7
100
AcDbEntity
  8
0
  6
CONTINUOUS
 62
     7
100
AcDbCircle
 10
161.341381
 20
30.693997
 30
0.0
 40
1.0
100
AcDbArc
 50
270.0
 51
0.0
  0
LINE
  5
4D8
100
AcDbEntity
  8
0
  6
CONTINUOUS
 62
     7
100
AcDbLine
 10
162.341381
 20
32.193897
 30
0.0
 11
162.341381
 21
30.693897
 31
0.0
  0
LINE
  5
4D9
100
AcDbEntity
  8
0
  6
CONTINUOUS
 62
     7
100
AcDbLine
 10
165.341481
 20
22.794497
 30
0.0
 11
165.341481
 21
15.850497
 31
0.0
  0
LINE
  5
4DA
100
AcDbEntity
  8
0
  6
CONTINUOUS
 62
     7
100
AcDbLine
 10
173.754581
 20
23.435297
 30
0.0
 11
170.755681
 21
20.436397
 31
0.0
  0
LINE
  5
4DB
100
AcDbEntity
  8
0
  6
CONTINUOUS
 62
     7
100
AcDbLine
 10
167.341481
 20
21.850597
 30
0.0
 11
167.341481
 21
28.173097
 31
0.0
  0
ARC
  5
4DC
100
AcDbEntity
  8
0
  6
CONTINUOUS
 62
     7
100
AcDbCircle
 10
163.341481
 20
15.850497
 30
0.0
 40
2.0
100
AcDbArc
 50
315.0
 51
0.0
  0
ARC
  5
4DD
100
AcDbEntity
  8
0
  6
CONTINUOUS
 62
     7
100
AcDbCircle
 10
169.341481
 20
21.850597
 30
0.0
 40
2.0
100
AcDbArc
 50
180.0
 51
315.0
  0
ARC
  5
4DE
100
AcDbEntity
  8
0
  6
CONTINUOUS
 62
     7
100
AcDbCircle
 10
172.281681
 20
33.148997
 30
0.0
 40
1.0
100
AcDbArc
 50
54.7198
 51
134.999
  0
ARC
  5
4DF
100
AcDbEntity
  8
0
  6
CONTINUOUS
 62
     7
100
AcDbCircle
 10
170.841481
 20
28.173097
 30
0.0
 40
3.5
100
AcDbArc
 50
135.0
 51
180.0
  0
ARC
  5
4E0
100
AcDbEntity
  8
0
  6
CONTINUOUS
 62
     7
100
AcDbCircle
 10
164.512981
 20
35.193897
 30
0.0
 40
2.0
100
AcDbArc
 50
270.0
 51
315.0
  0
LINE
  5
4E1
100
AcDbEntity
  8
0
  6
CONTINUOUS
 62
     7
100
AcDbLine
 10
166.849781
 20
34.702297
 30
0.0
 11
165.927181
 21
33.779697
 31
0.0
  0
LINE
  5
4E2
100
AcDbEntity
  8
0
  6
CONTINUOUS
 62
     7
100
AcDbLine
 10
171.574581
 20
33.855997
 30
0.0
 11
168.366581
 21
30.647997
 31
0.0
  0
ARC
  5
4E3
100
AcDbEntity
  8
0
  6
CONTINUOUS
 62
     7
100
AcDbCircle
 10
168.866981
 20
28.322797
 30
0.0
 40
6.91202
100
AcDbArc
 50
315.0
 51
54.7192
  0
ARC
  5
4E4
100
AcDbEntity
  8
0
  6
CONTINUOUS
 62
     7
100
AcDbCircle
 10
179.402781
 20
35.047597
 30
0.0
 40
0.3
100
AcDbArc
 50
345.712
 51
57.347
  0
ARC
  5
4E5
100
AcDbEntity
  8
0
  6
CONTINUOUS
 62
     7
100
AcDbCircle
 10
167.324081
 20
64.936797
 30
0.0
 40
2.0
100
AcDbArc
 50
30.0003
 51
164.036
  0
LINE
  5
4E6
100
AcDbEntity
  8
0
  6
CONTINUOUS
 62
     7
100
AcDbLine
 10
180.165881
 20
52.693997
 30
0.0
 11
171.341381
 21
67.978597
 31
0.0
  0
ARC
  5
4E7
100
AcDbEntity
  8
0
  6
CONTINUOUS
 62
     7
100
AcDbCircle
 10
151.273381
 20
66.193997
 30
0.0
 40
10.0
100
AcDbArc
 50
301.788
 51
58.2117
  0
ARC
  5
4E8
100
AcDbEntity
  8
0
  6
CONTINUOUS
 62
     7
100
AcDbCircle
 10
166.737281
 20
57.431497
 30
0.0
 40
3.5
100
AcDbArc
 50
164.036
 51
228.346
  0
LINE
  5
4E9
100
AcDbEntity
  8
0
  6
CONTINUOUS
 62
     7
100
AcDbLine
 10
163.372181
 20
58.394197
 30
0.0
 11
165.401181
 21
65.486797
 31
0.0
  0
LINE
  5
4EA
100
AcDbEntity
  8
0
  6
CONTINUOUS
 62
     7
100
AcDbLine
 10
164.512981
 20
49.194097
 30
0.0
 11
163.341381
 21
49.194097
 31
0.0
  0
LINE
  5
4EB
100
AcDbEntity
  8
0
  6
CONTINUOUS
 62
     7
100
AcDbLine
 10
162.341381
 20
50.194097
 30
0.0
 11
162.341381
 21
51.693997
 31
0.0
  0
LINE
  5
4EC
100
AcDbEntity
  8
0
  6
CONTINUOUS
 62
     7
100
AcDbLine
 10
157.341381
 20
45.193997
 30
0.0
 11
157.341381
 21
51.693997
 31
0.0
  0
LINE
  5
4ED
100
AcDbEntity
  8
0
  6
CONTINUOUS
 62
     7
100
AcDbLine
 10
153.341381
 20
45.193997
 30
0.0
 11
153.341381
 21
52.443997
 31
0.0
  0
LINE
  5
4EE
100
AcDbEntity
  8
0
  6
CONTINUOUS
 62
     7
100
AcDbLine
 10
155.341381
 20
46.193997
 30
0.0
 11
154.341381
 21
46.193997
 31
0.0
  0
LINE
  5
4EF
100
AcDbEntity
  8
0
  6
CONTINUOUS
 62
     7
100
AcDbLine
 10
154.341381
 20
37.193997
 30
0.0
 11
153.341381
 21
37.193997
 31
0.0
  0
LINE
  5
4F0
100
AcDbEntity
  8
0
  6
CONTINUOUS
 62
     7
100
AcDbLine
 10
154.341381
 20
46.193997
 30
0.0
 11
154.341381
 21
45.193997
 31
0.0
  0
LINE
  5
4F1
100
AcDbEntity
  8
0
  6
CONTINUOUS
 62
     7
100
AcDbLine
 10
154.341381
 20
45.193997
 30
0.0
 11
153.341381
 21
45.193997
 31
0.0
  0
LINE
  5
4F2
100
AcDbEntity
  8
0
  6
CONTINUOUS
 62
     7
100
AcDbLine
 10
157.341381
 20
37.193997
 30
0.0
 11
155.341381
 21
37.193997
 31
0.0
  0
LINE
  5
4F3
100
AcDbEntity
  8
0
  6
CONTINUOUS
 62
     7
100
AcDbLine
 10
157.341381
 20
45.193997
 30
0.0
 11
155.341381
 21
45.193997
 31
0.0
  0
LINE
  5
4F4
100
AcDbEntity
  8
0
  6
CONTINUOUS
 62
     7
100
AcDbLine
 10
155.341381
 20
46.193997
 30
0.0
 11
155.341381
 21
45.193997
 31
0.0
  0
ARC
  5
4F5
100
AcDbEntity
  8
0
  6
CONTINUOUS
 62
     7
100
AcDbCircle
 10
163.341381
 20
50.194097
 30
0.0
 40
1.0
100
AcDbArc
 50
180.0
 51
270.0
  0
LINE
  5
4F6
100
AcDbEntity
  8
0
  6
CONTINUOUS
 62
     7
100
AcDbLine
 10
153.341381
 20
62.143997
 30
0.0
 11
155.341381
 21
62.143997
 31
0.0
  0
LINE
  5
4F7
100
AcDbEntity
  8
0
  6
CONTINUOUS
 62
     7
100
AcDbLine
 10
153.341381
 20
62.143997
 30
0.0
 11
153.341381
 21
54.943997
 31
0.0
  0
LINE
  5
4F8
100
AcDbEntity
  8
0
  6
CONTINUOUS
 62
     7
100
AcDbLine
 10
153.541381
 20
52.443997
 30
0.0
 11
153.541381
 21
54.943997
 31
0.0
  0
LINE
  5
4F9
100
AcDbEntity
  8
0
  6
CONTINUOUS
 62
     7
100
AcDbLine
 10
153.341381
 20
52.443997
 30
0.0
 11
153.541381
 21
52.443997
 31
0.0
  0
LINE
  5
4FA
100
AcDbEntity
  8
0
  6
CONTINUOUS
 62
     7
100
AcDbLine
 10
153.541381
 20
54.943997
 30
0.0
 11
153.341381
 21
54.943997
 31
0.0
  0
LINE
  5
4FB
100
AcDbEntity
  8
0
  6
CONTINUOUS
 62
     7
100
AcDbLine
 10
155.341381
 20
59.103797
 30
0.0
 11
155.341381
 21
58.193997
 31
0.0
  0
LINE
  5
4FC
100
AcDbEntity
  8
0
  6
CONTINUOUS
 62
     7
100
AcDbLine
 10
155.341381
 20
62.143997
 30
0.0
 11
155.341381
 21
58.193997
 31
0.0
  0
LINE
  5
4FD
100
AcDbEntity
  8
0
  6
CONTINUOUS
 62
     7
100
AcDbLine
 10
161.341381
 20
52.693997
 30
0.0
 11
158.341381
 21
52.693997
 31
0.0
  0
ARC
  5
4FE
100
AcDbEntity
  8
0
  6
CONTINUOUS
 62
     7
100
AcDbCircle
 10
158.341381
 20
51.693997
 30
0.0
 40
1.0
100
AcDbArc
 50
90.0
 51
180.0
  0
LINE
  5
4FF
100
AcDbEntity
  8
0
  6
CONTINUOUS
 62
     7
100
AcDbLine
 10
155.841381
 20
57.693997
 30
0.0
 11
156.541181
 21
57.693997
 31
0.0
  0
ARC
  5
500
100
AcDbEntity
  8
0
  6
CONTINUOUS
 62
     7
100
AcDbCircle
 10
155.841381
 20
58.193997
 30
0.0
 40
0.5
100
AcDbArc
 50
180.0
 51
270.0
  0
ARC
  5
501
100
AcDbEntity
  8
0
  6
CONTINUOUS
 62
     7
100
AcDbCircle
 10
161.341381
 20
51.693997
 30
0.0
 40
1.0
100
AcDbArc
 50
0.0
 51
90.0
  0
ARC
  5
502
100
AcDbEntity
  8
0
  6
CONTINUOUS
 62
     7
100
AcDbCircle
 10
175.186781
 20
51.318297
 30
0.0
 40
2.0
100
AcDbArc
 50
308.85
 51
29.9999
  0
LINE
  5
503
100
AcDbEntity
  8
0
  6
CONTINUOUS
 62
     7
100
AcDbLine
 10
171.579081
 20
47.648497
 30
0.0
 11
164.410981
 21
54.816397
 31
0.0
  0
ARC
  5
504
100
AcDbEntity
  8
0
  6
CONTINUOUS
 62
     7
100
AcDbCircle
 10
172.993281
 20
49.062697
 30
0.0
 40
2.0
100
AcDbArc
 50
225.001
 51
322.75
  0
ARC
  5
505
100
AcDbEntity
  8
0
  6
CONTINUOUS
 62
     7
100
AcDbCircle
 10
161.192981
 20
42.028797
 30
0.0
 40
8.0
100
AcDbArc
 50
0.0
 51
45.0003
  0
LINE
  5
506
100
AcDbEntity
  8
0
  6
CONTINUOUS
 62
     7
100
AcDbLine
 10
169.192981
 20
40.359197
 30
0.0
 11
169.192981
 21
41.193997
 31
0.0
  0
LINE
  5
507
100
AcDbEntity
  8
0
  6
CONTINUOUS
 62
     7
100
AcDbLine
 10
169.192981
 20
42.028797
 30
0.0
 11
169.192981
 21
41.193997
 31
0.0
  0
LINE
  5
508
100
AcDbEntity
  8
0
  6
CONTINUOUS
 62
     7
100
AcDbLine
 10
166.849781
 20
47.685697
 30
0.0
 11
165.927181
 21
48.608297
 31
0.0
  0
ARC
  5
509
100
AcDbEntity
  8
0
  6
CONTINUOUS
 62
     7
100
AcDbCircle
 10
164.512981
 20
47.194097
 30
0.0
 40
2.0
100
AcDbArc
 50
45.0
 51
90.0
  0
ARC
  5
50A
100
AcDbEntity
  8
0
  6
CONTINUOUS
 62
     7
100
AcDbCircle
 10
176.874281
 20
43.872797
 30
0.0
 40
1.0
100
AcDbArc
 50
75.7139
 51
239.287
  0
ARC
  5
50B
100
AcDbEntity
  8
0
  6
CONTINUOUS
 62
     7
100
AcDbCircle
 10
176.874281
 20
38.515197
 30
0.0
 40
1.0
100
AcDbArc
 50
120.713
 51
284.286
  0
ARC
  5
50C
100
AcDbEntity
  8
0
  6
CONTINUOUS
 62
     7
100
AcDbCircle
 10
183.341381
 20
41.193997
 30
0.0
 40
7.0
100
AcDbArc
 50
167.652
 51
192.348
  0
ARC
  5
50D
100
AcDbEntity
  8
0
  6
CONTINUOUS
 62
     7
100
AcDbCircle
 10
176.210281
 20
39.632797
 30
0.0
 40
0.3
100
AcDbArc
 50
300.714
 51
12.3467
  0
ARC
  5
50E
100
AcDbEntity
  8
0
  6
CONTINUOUS
 62
     7
100
AcDbCircle
 10
176.210281
 20
42.755097
 30
0.0
 40
0.3
100
AcDbArc
 50
347.653
 51
59.2856
  0
ARC
  5
50F
100
AcDbEntity
  8
0
  6
CONTINUOUS
 62
     7
100
AcDbCircle
 10
177.195081
 20
37.255397
 30
0.0
 40
0.3
100
AcDbArc
 50
32.6522
 51
104.287
  0
ARC
  5
510
100
AcDbEntity
  8
0
  6
CONTINUOUS
 62
     7
100
AcDbCircle
 10
183.341381
 20
41.193997
 30
0.0
 40
11.0
100
AcDbArc
 50
128.85
 51
142.75
  0
ARC
  5
511
100
AcDbEntity
  8
0
  6
CONTINUOUS
 62
     7
100
AcDbCircle
 10
183.341381
 20
41.193997
 30
0.0
 40
7.0
100
AcDbArc
 50
122.652
 51
147.348
  0
ARC
  5
512
100
AcDbEntity
  8
0
  6
CONTINUOUS
 62
     7
100
AcDbCircle
 10
177.195081
 20
45.132597
 30
0.0
 40
0.3
100
AcDbArc
 50
255.712
 51
327.348
  0
ARC
  5
513
100
AcDbEntity
  8
0
  6
CONTINUOUS
 62
     7
100
AcDbCircle
 10
179.402781
 20
47.340397
 30
0.0
 40
0.3
100
AcDbArc
 50
302.653
 51
14.2879
  0
LINE
  5
514
100
AcDbEntity
  8
0
  6
CONTINUOUS
 62
     7
100
AcDbLine
 10
176.918781
 20
52.318297
 30
0.0
 11
169.056081
 21
65.936797
 31
0.0
  0
ARC
  5
515
100
AcDbEntity
  8
0
  6
CONTINUOUS
 62
     7
100
AcDbCircle
 10
181.031981
 20
53.193997
 30
0.0
 40
1.0
100
AcDbArc
 50
210.001
 51
270.0
  0
LINE
  5
516
100
AcDbEntity
  8
0
  6
CONTINUOUS
 62
     7
100
AcDbLine
 10
164.841381
 20
76.286497
 30
0.0
 11
156.341381
 21
81.193997
 31
0.0
  0
LINE
  5
517
100
AcDbEntity
  8
0
  6
CONTINUOUS
 62
     7
100
AcDbLine
 10
156.341381
 20
81.193997
 30
0.0
 11
153.341381
 21
81.193997
 31
0.0
  0
LINE
  5
518
100
AcDbEntity
  8
0
  6
CONTINUOUS
 62
     7
100
AcDbLine
 10
155.341381
 20
70.243997
 30
0.0
 11
153.341381
 21
70.243997
 31
0.0
  0
LINE
  5
519
100
AcDbEntity
  8
0
  6
CONTINUOUS
 62
     7
100
AcDbLine
 10
153.341381
 20
81.193997
 30
0.0
 11
153.341381
 21
70.243997
 31
0.0
  0
LINE
  5
51A
100
AcDbEntity
  8
0
  6
CONTINUOUS
 62
     7
100
AcDbLine
 10
155.341381
 20
73.284197
 30
0.0
 11
155.341381
 21
74.193997
 31
0.0
  0
LINE
  5
51B
100
AcDbEntity
  8
0
  6
CONTINUOUS
 62
     7
100
AcDbLine
 10
155.341381
 20
70.243997
 30
0.0
 11
155.341381
 21
74.193997
 31
0.0
  0
LINE
  5
51C
100
AcDbEntity
  8
0
  6
CONTINUOUS
 62
     7
100
AcDbLine
 10
155.841381
 20
74.693997
 30
0.0
 11
156.541181
 21
74.693997
 31
0.0
  0
ARC
  5
51D
100
AcDbEntity
  8
0
  6
CONTINUOUS
 62
     7
100
AcDbCircle
 10
155.841381
 20
74.193997
 30
0.0
 40
0.5
100
AcDbArc
 50
90.0
 51
180.0
  0
LINE
  5
51E
100
AcDbEntity
  8
0
  6
CONTINUOUS
 62
     7
100
AcDbLine
 10
166.341381
 20
91.193997
 30
0.0
 11
166.341381
 21
77.152597
 31
0.0
  0
LINE
  5
51F
100
AcDbEntity
  8
0
  6
CONTINUOUS
 62
     7
100
AcDbLine
 10
171.341381
 20
91.193997
 30
0.0
 11
171.341381
 21
67.978597
 31
0.0
  0
ARC
  5
520
100
AcDbEntity
  8
0
  6
CONTINUOUS
 62
     7
100
AcDbCircle
 10
165.341381
 20
77.152597
 30
0.0
 40
1.0
100
AcDbArc
 50
240.0
 51
0.0
  0
LINE
  5
521
100
AcDbEntity
  8
0
  6
CONTINUOUS
 62
     7
100
AcDbLine
 10
211.341381
 20
36.193997
 30
0.0
 11
211.341381
 21
37.193997
 31
0.0
  0
LINE
  5
522
100
AcDbEntity
  8
0
  6
CONTINUOUS
 62
     7
100
AcDbLine
 10
212.341381
 20
36.193997
 30
0.0
 11
212.341381
 21
37.193997
 31
0.0
  0
LINE
  5
523
100
AcDbEntity
  8
0
  6
CONTINUOUS
 62
     7
100
AcDbLine
 10
209.341381
 20
37.193997
 30
0.0
 11
209.341381
 21
30.693997
 31
0.0
  0
ARC
  5
524
100
AcDbEntity
  8
0
  6
CONTINUOUS
 62
     7
100
AcDbCircle
 10
205.489881
 20
40.359197
 30
0.0
 40
8.0
100
AcDbArc
 50
180.0
 51
225.0
  0
LINE
  5
525
100
AcDbEntity
  8
0
  6
CONTINUOUS
 62
     7
100
AcDbLine
 10
213.341381
 20
37.193997
 30
0.0
 11
213.341381
 21
25.443997
 31
0.0
  0
ARC
  5
526
100
AcDbEntity
  8
0
  6
CONTINUOUS
 62
     7
100
AcDbCircle
 10
183.341381
 20
41.193997
 30
0.0
 40
7.0
100
AcDbArc
 50
302.652
 51
327.348
  0
LINE
  5
527
100
AcDbEntity
  8
0
  6
CONTINUOUS
 62
     7
100
AcDbLine
 10
213.341381
 20
7.693997
 30
0.0
 11
213.341381
 21
2.193997
 31
0.0
  0
LINE
  5
528
100
AcDbEntity
  8
0
  6
CONTINUOUS
 62
     7
100
AcDbLine
 10
185.257881
 20
24.741597
 30
0.0
 11
205.805781
 21
4.193997
 31
0.0
  0
LINE
  5
529
100
AcDbEntity
  8
0
  6
CONTINUOUS
 62
     7
100
AcDbLine
 10
208.841381
 20
4.193997
 30
0.0
 11
205.805481
 21
4.193997
 31
0.0
  0
LINE
  5
52A
100
AcDbEntity
  8
0
  6
CONTINUOUS
 62
     7
100
AcDbLine
 10
209.841381
 20
1.193997
 30
0.0
 11
212.341381
 21
1.193997
 31
0.0
  0
LINE
  5
52B
100
AcDbEntity
  8
0
  6
CONTINUOUS
 62
     7
100
AcDbLine
 10
209.341381
 20
3.693997
 30
0.0
 11
209.341381
 21
1.693997
 31
0.0
  0
ARC
  5
52C
100
AcDbEntity
  8
0
  6
CONTINUOUS
 62
     7
100
AcDbCircle
 10
209.841381
 20
1.693997
 30
0.0
 40
0.5
100
AcDbArc
 50
180.0
 51
270.0
  0
ARC
  5
52D
100
AcDbEntity
  8
0
  6
CONTINUOUS
 62
     7
100
AcDbCircle
 10
208.841381
 20
3.693997
 30
0.0
 40
0.5
100
AcDbArc
 50
0.0
 51
90.0
  0
ARC
  5
52E
100
AcDbEntity
  8
0
  6
CONTINUOUS
 62
     7
100
AcDbCircle
 10
212.341381
 20
2.193997
 30
0.0
 40
1.0
100
AcDbArc
 50
270.0
 51
0.0
  0
ARC
  5
52F
100
AcDbEntity
  8
0
  6
CONTINUOUS
 62
     7
100
AcDbCircle
 10
195.841381
 20
28.173097
 30
0.0
 40
3.5
100
AcDbArc
 50
0.0
 51
45.0004
  0
ARC
  5
530
100
AcDbEntity
  8
0
  6
CONTINUOUS
 62
     7
100
AcDbCircle
 10
197.341381
 20
21.850597
 30
0.0
 40
2.0
100
AcDbArc
 50
225.0
 51
0.0
  0
LINE
  5
531
100
AcDbEntity
  8
0
  6
CONTINUOUS
 62
     7
100
AcDbLine
 10
192.928281
 20
23.435297
 30
0.0
 11
195.927181
 21
20.436397
 31
0.0
  0
ARC
  5
532
100
AcDbEntity
  8
0
  6
CONTINUOUS
 62
     7
100
AcDbCircle
 10
183.341381
 20
24.169697
 30
0.0
 40
2.0
100
AcDbArc
 50
16.6174
 51
163.382
  0
ARC
  5
533
100
AcDbEntity
  8
0
  6
CONTINUOUS
 62
     7
100
AcDbCircle
 10
186.020181
 20
34.726797
 30
0.0
 40
1.0
100
AcDbArc
 50
210.713
 51
14.2869
  0
ARC
  5
534
100
AcDbEntity
  8
0
  6
CONTINUOUS
 62
     7
100
AcDbCircle
 10
183.341381
 20
41.193997
 30
0.0
 40
7.0
100
AcDbArc
 50
257.652
 51
282.348
  0
ARC
  5
535
100
AcDbEntity
  8
0
  6
CONTINUOUS
 62
     7
100
AcDbCircle
 10
181.780281
 20
34.062897
 30
0.0
 40
0.3
100
AcDbArc
 50
77.6533
 51
149.288
  0
ARC
  5
536
100
AcDbEntity
  8
0
  6
CONTINUOUS
 62
     7
100
AcDbCircle
 10
184.902581
 20
34.062897
 30
0.0
 40
0.3
100
AcDbArc
 50
30.7104
 51
102.347
  0
ARC
  5
537
100
AcDbEntity
  8
0
  6
CONTINUOUS
 62
     7
100
AcDbCircle
 10
187.279981
 20
35.047597
 30
0.0
 40
0.3
100
AcDbArc
 50
122.653
 51
194.288
  0
ARC
  5
538
100
AcDbEntity
  8
0
  6
CONTINUOUS
 62
     7
100
AcDbCircle
 10
197.815881
 20
28.322797
 30
0.0
 40
6.91202
100
AcDbArc
 50
125.281
 51
225.0
  0
ARC
  5
539
100
AcDbEntity
  8
0
  6
CONTINUOUS
 62
     7
100
AcDbCircle
 10
194.401181
 20
33.148997
 30
0.0
 40
1.0
100
AcDbArc
 50
45.0006
 51
125.28
  0
LINE
  5
53A
100
AcDbEntity
  8
0
  6
CONTINUOUS
 62
     7
100
AcDbLine
 10
195.108281
 20
33.855997
 30
0.0
 11
198.316281
 21
30.647997
 31
0.0
  0
LINE
  5
53B
100
AcDbEntity
  8
0
  6
CONTINUOUS
 62
     7
100
AcDbLine
 10
213.341381
 20
22.943997
 30
0.0
 11
213.341381
 21
11.193997
 31
0.0
  0
ARC
  5
53C
100
AcDbEntity
  8
0
  6
CONTINUOUS
 62
     7
100
AcDbCircle
 10
200.841481
 20
17.516297
 30
0.0
 40
7.5
100
AcDbArc
 50
0.000031
 51
45.0002
  0
LINE
  5
53D
100
AcDbEntity
  8
0
  6
CONTINUOUS
 62
     7
100
AcDbLine
 10
201.341381
 20
22.794497
 30
0.0
 11
201.341381
 21
15.850497
 31
0.0
  0
LINE
  5
53E
100
AcDbEntity
  8
0
  6
CONTINUOUS
 62
     7
100
AcDbLine
 10
199.341381
 20
21.850597
 30
0.0
 11
199.341381
 21
28.173097
 31
0.0
  0
ARC
  5
53F
100
AcDbEntity
  8
0
  6
CONTINUOUS
 62
     7
100
AcDbCircle
 10
205.873481
 20
13.980297
 30
0.0
 40
2.46797
100
AcDbArc
 50
225.0
 51
0.0
  0
ARC
  5
540
100
AcDbEntity
  8
0
  6
CONTINUOUS
 62
     7
100
AcDbCircle
 10
203.341381
 20
15.850497
 30
0.0
 40
2.0
100
AcDbArc
 50
180.0
 51
225.0
  0
LINE
  5
541
100
AcDbEntity
  8
0
  6
CONTINUOUS
 62
     7
100
AcDbLine
 10
201.927181
 20
14.436297
 30
0.0
 11
204.128281
 21
12.235197
 31
0.0
  0
LINE
  5
542
100
AcDbEntity
  8
0
  6
CONTINUOUS
 62
     7
100
AcDbLine
 10
208.341481
 20
13.980297
 30
0.0
 11
208.341481
 21
17.516297
 31
0.0
  0
ARC
  5
543
100
AcDbEntity
  8
0
  6
CONTINUOUS
 62
     7
100
AcDbCircle
 10
212.641381
 20
10.394097
 30
0.0
 40
0.8
100
AcDbArc
 50
90.0
 51
180.0
  0
LINE
  5
544
100
AcDbEntity
  8
0
  6
CONTINUOUS
 62
     7
100
AcDbLine
 10
211.841381
 20
8.493997
 30
0.0
 11
211.841381
 21
10.394097
 31
0.0
  0
ARC
  5
545
100
AcDbEntity
  8
0
  6
CONTINUOUS
 62
     7
100
AcDbCircle
 10
212.641381
 20
8.493997
 30
0.0
 40
0.8
100
AcDbArc
 50
180.0
 51
270.0
  0
LINE
  5
546
100
AcDbEntity
  8
0
  6
CONTINUOUS
 62
     7
100
AcDbLine
 10
213.341381
 20
7.693997
 30
0.0
 11
212.641381
 21
7.693997
 31
0.0
  0
LINE
  5
547
100
AcDbEntity
  8
0
  6
CONTINUOUS
 62
     7
100
AcDbLine
 10
212.641381
 20
11.193997
 30
0.0
 11
213.341381
 21
11.193997
 31
0.0
  0
LINE
  5
548
100
AcDbEntity
  8
0
  6
CONTINUOUS
 62
     7
100
AcDbLine
 10
205.341381
 20
29.693997
 30
0.0
 11
208.341381
 21
29.693997
 31
0.0
  0
ARC
  5
549
100
AcDbEntity
  8
0
  6
CONTINUOUS
 62
     7
100
AcDbCircle
 10
203.341381
 20
22.794497
 30
0.0
 40
2.0
100
AcDbArc
 50
45.0
 51
180.0
  0
LINE
  5
54A
100
AcDbEntity
  8
0
  6
CONTINUOUS
 62
     7
100
AcDbLine
 10
204.755581
 20
24.208697
 30
0.0
 11
206.144781
 21
22.819597
 31
0.0
  0
LINE
  5
54B
100
AcDbEntity
  8
0
  6
CONTINUOUS
 62
     7
100
AcDbLine
 10
202.169781
 20
33.193897
 30
0.0
 11
203.341381
 21
33.193897
 31
0.0
  0
ARC
  5
54C
100
AcDbEntity
  8
0
  6
CONTINUOUS
 62
     7
100
AcDbCircle
 10
202.169781
 20
35.193897
 30
0.0
 40
2.0
100
AcDbArc
 50
225.0
 51
270.0
  0
LINE
  5
54D
100
AcDbEntity
  8
0
  6
CONTINUOUS
 62
     7
100
AcDbLine
 10
199.832981
 20
34.702297
 30
0.0
 11
200.755581
 21
33.779697
 31
0.0
  0
ARC
  5
54E
100
AcDbEntity
  8
0
  6
CONTINUOUS
 62
     7
100
AcDbCircle
 10
203.341381
 20
32.193897
 30
0.0
 40
1.0
100
AcDbArc
 50
0.0
 51
90.0
  0
ARC
  5
54F
100
AcDbEntity
  8
0
  6
CONTINUOUS
 62
     7
100
AcDbCircle
 10
205.341381
 20
30.693997
 30
0.0
 40
1.0
100
AcDbArc
 50
180.0
 51
270.0
  0
LINE
  5
550
100
AcDbEntity
  8
0
  6
CONTINUOUS
 62
     7
100
AcDbLine
 10
204.341381
 20
32.193897
 30
0.0
 11
204.341381
 21
30.693897
 31
0.0
  0
LINE
  5
551
100
AcDbEntity
  8
0
  6
CONTINUOUS
 62
     7
100
AcDbLine
 10
213.141381
 20
22.943997
 30
0.0
 11
213.341381
 21
22.943997
 31
0.0
  0
LINE
  5
552
100
AcDbEntity
  8
0
  6
CONTINUOUS
 62
     7
100
AcDbLine
 10
213.141381
 20
25.443997
 30
0.0
 11
213.341381
 21
25.443997
 31
0.0
  0
LINE
  5
553
100
AcDbEntity
  8
0
  6
CONTINUOUS
 62
     7
100
AcDbLine
 10
213.141381
 20
25.443997
 30
0.0
 11
213.141381
 21
22.943997
 31
0.0
  0
LINE
  5
554
100
AcDbEntity
  8
0
  6
CONTINUOUS
 62
     7
100
AcDbLine
 10
211.341381
 20
36.193997
 30
0.0
 11
212.341381
 21
36.193997
 31
0.0
  0
ARC
  5
555
100
AcDbEntity
  8
0
  6
CONTINUOUS
 62
     7
100
AcDbCircle
 10
208.341381
 20
30.693997
 30
0.0
 40
1.0
100
AcDbArc
 50
270.0
 51
0.0
  0
ARC
  5
556
100
AcDbEntity
  8
0
  6
CONTINUOUS
 62
     7
100
AcDbCircle
 10
199.358781
 20
64.936797
 30
0.0
 40
2.0
100
AcDbArc
 50
15.9638
 51
150.0
  0
ARC
  5
557
100
AcDbEntity
  8
0
  6
CONTINUOUS
 62
     7
100
AcDbCircle
 10
215.409381
 20
66.193997
 30
0.0
 40
10.0
100
AcDbArc
 50
121.788
 51
238.212
  0
LINE
  5
558
100
AcDbEntity
  8
0
  6
CONTINUOUS
 62
     7
100
AcDbLine
 10
186.516881
 20
52.693997
 30
0.0
 11
195.341381
 21
67.978597
 31
0.0
  0
ARC
  5
559
100
AcDbEntity
  8
0
  6
CONTINUOUS
 62
     7
100
AcDbCircle
 10
205.489881
 20
42.028797
 30
0.0
 40
8.0
100
AcDbArc
 50
135.0
 51
180.0
  0
LINE
  5
55A
100
AcDbEntity
  8
0
  6
CONTINUOUS
 62
     7
100
AcDbLine
 10
195.103681
 20
47.648497
 30
0.0
 11
202.271781
 21
54.816397
 31
0.0
  0
ARC
  5
55B
100
AcDbEntity
  8
0
  6
CONTINUOUS
 62
     7
100
AcDbCircle
 10
191.496081
 20
51.318297
 30
0.0
 40
2.0
100
AcDbArc
 50
150.0
 51
231.15
  0
ARC
  5
55C
100
AcDbEntity
  8
0
  6
CONTINUOUS
 62
     7
100
AcDbCircle
 10
189.808581
 20
43.872797
 30
0.0
 40
1.0
100
AcDbArc
 50
300.713
 51
104.286
  0
ARC
  5
55D
100
AcDbEntity
  8
0
  6
CONTINUOUS
 62
     7
100
AcDbCircle
 10
189.808581
 20
38.515197
 30
0.0
 40
1.0
100
AcDbArc
 50
255.714
 51
59.2869
  0
ARC
  5
55E
100
AcDbEntity
  8
0
  6
CONTINUOUS
 62
     7
100
AcDbCircle
 10
189.487781
 20
37.255397
 30
0.0
 40
0.3
100
AcDbArc
 50
75.7125
 51
147.348
  0
ARC
  5
55F
100
AcDbEntity
  8
0
  6
CONTINUOUS
 62
     7
100
AcDbCircle
 10
186.020181
 20
47.661197
 30
0.0
 40
1.0
100
AcDbArc
 50
345.713
 51
149.287
  0
ARC
  5
560
100
AcDbEntity
  8
0
  6
CONTINUOUS
 62
     7
100
AcDbCircle
 10
183.341381
 20
41.193997
 30
0.0
 40
7.0
100
AcDbArc
 50
77.6519
 51
102.348
  0
ARC
  5
561
100
AcDbEntity
  8
0
  6
CONTINUOUS
 62
     7
100
AcDbCircle
 10
181.780281
 20
48.325197
 30
0.0
 40
0.3
100
AcDbArc
 50
210.712
 51
282.347
  0
ARC
  5
562
100
AcDbEntity
  8
0
  6
CONTINUOUS
 62
     7
100
AcDbCircle
 10
184.902581
 20
48.325197
 30
0.0
 40
0.3
100
AcDbArc
 50
257.653
 51
329.29
  0
ARC
  5
563
100
AcDbEntity
  8
0
  6
CONTINUOUS
 62
     7
100
AcDbCircle
 10
183.341381
 20
41.193997
 30
0.0
 40
7.0
100
AcDbArc
 50
32.6517
 51
57.3481
  0
ARC
  5
564
100
AcDbEntity
  8
0
  6
CONTINUOUS
 62
     7
100
AcDbCircle
 10
187.279981
 20
47.340397
 30
0.0
 40
0.3
100
AcDbArc
 50
165.712
 51
237.347
  0
ARC
  5
565
100
AcDbEntity
  8
0
  6
CONTINUOUS
 62
     7
100
AcDbCircle
 10
189.487781
 20
45.132597
 30
0.0
 40
0.3
100
AcDbArc
 50
212.652
 51
284.287
  0
ARC
  5
566
100
AcDbEntity
  8
0
  6
CONTINUOUS
 62
     7
100
AcDbCircle
 10
183.341381
 20
41.193997
 30
0.0
 40
7.0
100
AcDbArc
 50
347.652
 51
12.3482
  0
ARC
  5
567
100
AcDbEntity
  8
0
  6
CONTINUOUS
 62
     7
100
AcDbCircle
 10
190.472481
 20
39.632797
 30
0.0
 40
0.3
100
AcDbArc
 50
167.653
 51
239.286
  0
ARC
  5
568
100
AcDbEntity
  8
0
  6
CONTINUOUS
 62
     7
100
AcDbCircle
 10
190.472481
 20
42.755097
 30
0.0
 40
0.3
100
AcDbArc
 50
120.714
 51
192.347
  0
LINE
  5
569
100
AcDbEntity
  8
0
  6
CONTINUOUS
 62
     7
100
AcDbLine
 10
197.489881
 20
40.359197
 30
0.0
 11
197.489881
 21
41.193997
 31
0.0
  0
LINE
  5
56A
100
AcDbEntity
  8
0
  6
CONTINUOUS
 62
     7
100
AcDbLine
 10
197.489881
 20
42.028797
 30
0.0
 11
197.489881
 21
41.193997
 31
0.0
  0
ARC
  5
56B
100
AcDbEntity
  8
0
  6
CONTINUOUS
 62
     7
100
AcDbCircle
 10
193.689581
 20
49.062697
 30
0.0
 40
2.0
100
AcDbArc
 50
217.25
 51
314.999
  0
ARC
  5
56C
100
AcDbEntity
  8
0
  6
CONTINUOUS
 62
     7
100
AcDbCircle
 10
183.341381
 20
41.193997
 30
0.0
 40
11.0
100
AcDbArc
 50
37.2495
 51
51.1502
  0
LINE
  5
56D
100
AcDbEntity
  8
0
  6
CONTINUOUS
 62
     7
100
AcDbLine
 10
189.763981
 20
52.318297
 30
0.0
 11
197.626681
 21
65.936797
 31
0.0
  0
ARC
  5
56E
100
AcDbEntity
  8
0
  6
CONTINUOUS
 62
     7
100
AcDbCircle
 10
185.650881
 20
53.193997
 30
0.0
 40
1.0
100
AcDbArc
 50
270.0
 51
330.0
  0
LINE
  5
56F
100
AcDbEntity
  8
0
  6
CONTINUOUS
 62
     7
100
AcDbLine
 10
204.341381
 20
50.194097
 30
0.0
 11
204.341381
 21
51.693997
 31
0.0
  0
LINE
  5
570
100
AcDbEntity
  8
0
  6
CONTINUOUS
 62
     7
100
AcDbLine
 10
209.341381
 20
45.193997
 30
0.0
 11
209.341381
 21
51.693997
 31
0.0
  0
LINE
  5
571
100
AcDbEntity
  8
0
  6
CONTINUOUS
 62
     7
100
AcDbLine
 10
213.341381
 20
45.193997
 30
0.0
 11
213.341381
 21
52.443997
 31
0.0
  0
LINE
  5
572
100
AcDbEntity
  8
0
  6
CONTINUOUS
 62
     7
100
AcDbLine
 10
202.169781
 20
49.194097
 30
0.0
 11
203.341381
 21
49.194097
 31
0.0
  0
LINE
  5
573
100
AcDbEntity
  8
0
  6
CONTINUOUS
 62
     7
100
AcDbLine
 10
199.832981
 20
47.685697
 30
0.0
 11
200.755581
 21
48.608297
 31
0.0
  0
ARC
  5
574
100
AcDbEntity
  8
0
  6
CONTINUOUS
 62
     7
100
AcDbCircle
 10
202.169781
 20
47.194097
 30
0.0
 40
2.0
100
AcDbArc
 50
90.0
 51
135.0
  0
ARC
  5
575
100
AcDbEntity
  8
0
  6
CONTINUOUS
 62
     7
100
AcDbCircle
 10
203.341381
 20
50.194097
 30
0.0
 40
1.0
100
AcDbArc
 50
270.0
 51
0.0
  0
LINE
  5
576
100
AcDbEntity
  8
0
  6
CONTINUOUS
 62
     7
100
AcDbLine
 10
209.341381
 20
37.193997
 30
0.0
 11
211.341381
 21
37.193997
 31
0.0
  0
LINE
  5
577
100
AcDbEntity
  8
0
  6
CONTINUOUS
 62
     7
100
AcDbLine
 10
212.341381
 20
37.193997
 30
0.0
 11
213.341381
 21
37.193997
 31
0.0
  0
LINE
  5
578
100
AcDbEntity
  8
0
  6
CONTINUOUS
 62
     7
100
AcDbLine
 10
211.341381
 20
46.193997
 30
0.0
 11
212.341381
 21
46.193997
 31
0.0
  0
LINE
  5
579
100
AcDbEntity
  8
0
  6
CONTINUOUS
 62
     7
100
AcDbLine
 10
209.341381
 20
45.193997
 30
0.0
 11
211.341381
 21
45.193997
 31
0.0
  0
LINE
  5
57A
100
AcDbEntity
  8
0
  6
CONTINUOUS
 62
     7
100
AcDbLine
 10
211.341381
 20
46.193997
 30
0.0
 11
211.341381
 21
45.193997
 31
0.0
  0
LINE
  5
57B
100
AcDbEntity
  8
0
  6
CONTINUOUS
 62
     7
100
AcDbLine
 10
212.341381
 20
46.193997
 30
0.0
 11
212.341381
 21
45.193997
 31
0.0
  0
LINE
  5
57C
100
AcDbEntity
  8
0
  6
CONTINUOUS
 62
     7
100
AcDbLine
 10
212.341381
 20
45.193997
 30
0.0
 11
213.341381
 21
45.193997
 31
0.0
  0
LINE
  5
57D
100
AcDbEntity
  8
0
  6
CONTINUOUS
 62
     7
100
AcDbLine
 10
205.341381
 20
52.693997
 30
0.0
 11
208.341381
 21
52.693997
 31
0.0
  0
LINE
  5
57E
100
AcDbEntity
  8
0
  6
CONTINUOUS
 62
     7
100
AcDbLine
 10
203.310581
 20
58.394197
 30
0.0
 11
201.281581
 21
65.486797
 31
0.0
  0
ARC
  5
57F
100
AcDbEntity
  8
0
  6
CONTINUOUS
 62
     7
100
AcDbCircle
 10
199.945481
 20
57.431497
 30
0.0
 40
3.5
100
AcDbArc
 50
311.654
 51
15.964
  0
ARC
  5
580
100
AcDbEntity
  8
0
  6
CONTINUOUS
 62
     7
100
AcDbCircle
 10
205.341381
 20
51.693997
 30
0.0
 40
1.0
100
AcDbArc
 50
90.0
 51
180.0
  0
LINE
  5
581
100
AcDbEntity
  8
0
  6
CONTINUOUS
 62
     7
100
AcDbLine
 10
211.341381
 20
59.103797
 30
0.0
 11
211.341381
 21
58.193997
 31
0.0
  0
LINE
  5
582
100
AcDbEntity
  8
0
  6
CONTINUOUS
 62
     7
100
AcDbLine
 10
211.341381
 20
62.193997
 30
0.0
 11
211.341381
 21
58.193997
 31
0.0
  0
LINE
  5
583
100
AcDbEntity
  8
0
  6
CONTINUOUS
 62
     7
100
AcDbLine
 10
213.341381
 20
62.193997
 30
0.0
 11
213.341381
 21
54.943997
 31
0.0
  0
ARC
  5
584
100
AcDbEntity
  8
0
  6
CONTINUOUS
 62
     7
100
AcDbCircle
 10
208.341381
 20
51.693997
 30
0.0
 40
1.0
100
AcDbArc
 50
0.0
 51
90.0
  0
LINE
  5
585
100
AcDbEntity
  8
0
  6
CONTINUOUS
 62
     7
100
AcDbLine
 10
210.841381
 20
57.693997
 30
0.0
 11
210.141581
 21
57.693997
 31
0.0
  0
ARC
  5
586
100
AcDbEntity
  8
0
  6
CONTINUOUS
 62
     7
100
AcDbCircle
 10
210.841381
 20
58.193997
 30
0.0
 40
0.5
100
AcDbArc
 50
270.0
 51
0.0
  0
LINE
  5
587
100
AcDbEntity
  8
0
  6
CONTINUOUS
 62
     7
100
AcDbLine
 10
213.141381
 20
52.443997
 30
0.0
 11
213.141381
 21
54.943997
 31
0.0
  0
LINE
  5
588
100
AcDbEntity
  8
0
  6
CONTINUOUS
 62
     7
100
AcDbLine
 10
213.341381
 20
52.443997
 30
0.0
 11
213.141381
 21
52.443997
 31
0.0
  0
LINE
  5
589
100
AcDbEntity
  8
0
  6
CONTINUOUS
 62
     7
100
AcDbLine
 10
213.141381
 20
54.943997
 30
0.0
 11
213.341381
 21
54.943997
 31
0.0
  0
LINE
  5
58A
100
AcDbEntity
  8
0
  6
CONTINUOUS
 62
     7
100
AcDbLine
 10
213.341381
 20
62.193997
 30
0.0
 11
211.341381
 21
62.193997
 31
0.0
  0
LINE
  5
58B
100
AcDbEntity
  8
0
  6
CONTINUOUS
 62
     7
100
AcDbLine
 10
195.341381
 20
91.193997
 30
0.0
 11
195.341381
 21
67.978597
 31
0.0
  0
LINE
  5
58C
100
AcDbEntity
  8
0
  6
CONTINUOUS
 62
     7
100
AcDbLine
 10
200.341381
 20
91.193997
 30
0.0
 11
200.341381
 21
77.152597
 31
0.0
  0
LINE
  5
58D
100
AcDbEntity
  8
0
  6
CONTINUOUS
 62
     7
100
AcDbLine
 10
201.841381
 20
76.286497
 30
0.0
 11
210.341381
 21
81.143997
 31
0.0
  0
ARC
  5
58E
100
AcDbEntity
  8
0
  6
CONTINUOUS
 62
     7
100
AcDbCircle
 10
201.341381
 20
77.152597
 30
0.0
 40
1.0
100
AcDbArc
 50
180.0
 51
300.0
  0
LINE
  5
58F
100
AcDbEntity
  8
0
  6
CONTINUOUS
 62
     7
100
AcDbLine
 10
211.341381
 20
73.284197
 30
0.0
 11
211.341381
 21
74.193997
 31
0.0
  0
LINE
  5
590
100
AcDbEntity
  8
0
  6
CONTINUOUS
 62
     7
100
AcDbLine
 10
211.341381
 20
70.193997
 30
0.0
 11
211.341381
 21
74.193997
 31
0.0
  0
LINE
  5
591
100
AcDbEntity
  8
0
  6
CONTINUOUS
 62
     7
100
AcDbLine
 10
213.341381
 20
81.143997
 30
0.0
 11
213.341381
 21
70.193997
 31
0.0
  0
LINE
  5
592
100
AcDbEntity
  8
0
  6
CONTINUOUS
 62
     7
100
AcDbLine
 10
211.341381
 20
70.193997
 30
0.0
 11
213.341381
 21
70.193997
 31
0.0
  0
LINE
  5
593
100
AcDbEntity
  8
0
  6
CONTINUOUS
 62
     7
100
AcDbLine
 10
210.341381
 20
81.143997
 30
0.0
 11
213.341381
 21
81.143997
 31
0.0
  0
LINE
  5
594
100
AcDbEntity
  8
0
  6
CONTINUOUS
 62
     7
100
AcDbLine
 10
210.841381
 20
74.693997
 30
0.0
 11
210.141581
 21
74.693997
 31
0.0
  0
ARC
  5
595
100
AcDbEntity
  8
0
  6
CONTINUOUS
 62
     7
100
AcDbCircle
 10
210.841381
 20
74.193997
 30
0.0
 40
0.5
100
AcDbArc
 50
0.0
 51
90.0
  0
ARC
  5
596
100
AcDbEntity
  8
0
  6
CONTINUOUS
 62
     7
100
AcDbCircle
 10
180.662581
 20
147.661197
 30
0.0
 40
1.0
100
AcDbArc
 50
30.7131
 51
194.287
  0
ARC
  5
597
100
AcDbEntity
  8
0
  6
CONTINUOUS
 62
     7
100
AcDbCircle
 10
180.662581
 20
134.726797
 30
0.0
 40
1.0
100
AcDbArc
 50
165.713
 51
329.287
  0
LINE
  5
598
100
AcDbEntity
  8
0
  6
CONTINUOUS
 62
     7
100
AcDbLine
 10
181.031981
 20
130.193997
 30
0.0
 11
185.650781
 21
130.193997
 31
0.0
  0
LINE
  5
599
100
AcDbEntity
  8
0
  6
CENTER
 62
     1
100
AcDbLine
 10
209.341381
 20
141.193997
 30
0.0
 11
155.341381
 21
141.193997
 31
0.0
  0
LINE
  5
59A
100
AcDbEntity
  8
0
  6
CENTER
 62
     1
100
AcDbLine
 10
151.273381
 20
116.193997
 30
0.0
 11
215.409381
 21
116.193997
 31
0.0
  0
LINE
  5
59B
100
AcDbEntity
  8
0
  6
CONTINUOUS
 62
     7
100
AcDbLine
 10
181.424881
 20
157.646297
 30
0.0
 11
160.877081
 21
178.193997
 31
0.0
  0
ARC
  5
59C
100
AcDbEntity
  8
0
  6
CONTINUOUS
 62
     7
100
AcDbCircle
 10
168.866981
 20
154.065197
 30
0.0
 40
6.91202
100
AcDbArc
 50
305.281
 51
44.9996
  0
LINE
  5
59D
100
AcDbEntity
  8
0
  6
CONTINUOUS
 62
     7
100
AcDbLine
 10
167.341481
 20
160.537397
 30
0.0
 11
167.341481
 21
154.214897
 31
0.0
  0
LINE
  5
59E
100
AcDbEntity
  8
0
  6
CONTINUOUS
 62
     7
100
AcDbLine
 10
153.341381
 20
145.243997
 30
0.0
 11
153.341381
 21
156.993997
 31
0.0
  0
ARC
  5
59F
100
AcDbEntity
  8
0
  6
CONTINUOUS
 62
     7
100
AcDbCircle
 10
166.737281
 20
124.956397
 30
0.0
 40
3.5
100
AcDbArc
 50
131.654
 51
195.964
  0
LINE
  5
5A0
100
AcDbEntity
  8
0
  6
CONTINUOUS
 62
     7
100
AcDbLine
 10
153.341381
 20
120.193997
 30
0.0
 11
153.341381
 21
127.443997
 31
0.0
  0
LINE
  5
5A1
100
AcDbEntity
  8
0
  6
CONTINUOUS
 62
     7
100
AcDbLine
 10
180.165981
 20
129.693997
 30
0.0
 11
171.341381
 21
114.409397
 31
0.0
  0
LINE
  5
5A2
100
AcDbEntity
  8
0
  6
CONTINUOUS
 62
     7
100
AcDbLine
 10
176.918781
 20
130.069697
 30
0.0
 11
169.056081
 21
116.451197
 31
0.0
  0
LINE
  5
5A3
100
AcDbEntity
  8
0
  6
CONTINUOUS
 62
     7
100
AcDbLine
 10
164.841381
 20
106.101497
 30
0.0
 11
156.341381
 21
101.193997
 31
0.0
  0
LINE
  5
5A4
100
AcDbEntity
  8
0
  6
CONTINUOUS
 62
     7
100
AcDbLine
 10
163.372181
 20
123.993797
 30
0.0
 11
165.401181
 21
116.901197
 31
0.0
  0
LINE
  5
5A5
100
AcDbEntity
  8
0
  6
CONTINUOUS
 62
     7
100
AcDbLine
 10
155.341381
 20
112.193997
 30
0.0
 11
155.341381
 21
108.193997
 31
0.0
  0
LINE
  5
5A6
100
AcDbEntity
  8
0
  6
CONTINUOUS
 62
     7
100
AcDbLine
 10
153.341381
 20
101.193997
 30
0.0
 11
153.341381
 21
112.193997
 31
0.0
  0
ARC
  5
5A7
100
AcDbEntity
  8
0
  6
CONTINUOUS
 62
     7
100
AcDbCircle
 10
151.273381
 20
116.193997
 30
0.0
 40
10.0
100
AcDbArc
 50
301.788
 51
58.2117
  0
LINE
  5
5A8
100
AcDbEntity
  8
0
  6
CONTINUOUS
 62
     7
100
AcDbLine
 10
156.341381
 20
101.193997
 30
0.0
 11
153.341381
 21
101.193997
 31
0.0
  0
LINE
  5
5A9
100
AcDbEntity
  8
0
  6
CONTINUOUS
 62
     7
100
AcDbLine
 10
155.341381
 20
109.103797
 30
0.0
 11
155.341381
 21
108.193997
 31
0.0
  0
LINE
  5
5AA
100
AcDbEntity
  8
0
  6
CONTINUOUS
 62
     7
100
AcDbLine
 10
155.841381
 20
107.693997
 30
0.0
 11
156.541181
 21
107.693997
 31
0.0
  0
ARC
  5
5AB
100
AcDbEntity
  8
0
  6
CONTINUOUS
 62
     7
100
AcDbCircle
 10
155.841381
 20
108.193997
 30
0.0
 40
0.5
100
AcDbArc
 50
180.0
 51
270.0
  0
LINE
  5
5AC
100
AcDbEntity
  8
0
  6
CONTINUOUS
 62
     7
100
AcDbLine
 10
153.341381
 20
120.193997
 30
0.0
 11
155.341381
 21
120.193997
 31
0.0
  0
LINE
  5
5AD
100
AcDbEntity
  8
0
  6
CONTINUOUS
 62
     7
100
AcDbLine
 10
155.341381
 20
112.193997
 30
0.0
 11
153.341381
 21
112.193997
 31
0.0
  0
LINE
  5
5AE
100
AcDbEntity
  8
0
  6
CONTINUOUS
 62
     7
100
AcDbLine
 10
155.341381
 20
120.193997
 30
0.0
 11
155.341381
 21
124.193997
 31
0.0
  0
LINE
  5
5AF
100
AcDbEntity
  8
0
  6
CONTINUOUS
 62
     7
100
AcDbLine
 10
155.841381
 20
124.693997
 30
0.0
 11
156.541181
 21
124.693997
 31
0.0
  0
LINE
  5
5B0
100
AcDbEntity
  8
0
  6
CONTINUOUS
 62
     7
100
AcDbLine
 10
155.341381
 20
123.284197
 30
0.0
 11
155.341381
 21
124.193997
 31
0.0
  0
ARC
  5
5B1
100
AcDbEntity
  8
0
  6
CONTINUOUS
 62
     7
100
AcDbCircle
 10
155.841381
 20
124.193997
 30
0.0
 40
0.5
100
AcDbArc
 50
90.0
 51
180.0
  0
ARC
  5
5B2
100
AcDbEntity
  8
0
  6
CONTINUOUS
 62
     7
100
AcDbCircle
 10
165.341381
 20
105.235397
 30
0.0
 40
1.0
100
AcDbArc
 50
0.0
 51
120.0
  0
ARC
  5
5B3
100
AcDbEntity
  8
0
  6
CONTINUOUS
 62
     7
100
AcDbCircle
 10
167.324081
 20
117.451197
 30
0.0
 40
2.0
100
AcDbArc
 50
195.964
 51
330.0
  0
LINE
  5
5B4
100
AcDbEntity
  8
0
  6
CONTINUOUS
 62
     7
100
AcDbLine
 10
164.512981
 20
149.194097
 30
0.0
 11
163.341381
 21
149.194097
 31
0.0
  0
LINE
  5
5B5
100
AcDbEntity
  8
0
  6
CONTINUOUS
 62
     7
100
AcDbLine
 10
164.512981
 20
133.193897
 30
0.0
 11
163.341381
 21
133.193897
 31
0.0
  0
LINE
  5
5B6
100
AcDbEntity
  8
0
  6
CONTINUOUS
 62
     7
100
AcDbLine
 10
155.341381
 20
136.143997
 30
0.0
 11
154.341381
 21
136.143997
 31
0.0
  0
LINE
  5
5B7
100
AcDbEntity
  8
0
  6
CONTINUOUS
 62
     7
100
AcDbLine
 10
153.341381
 20
137.143997
 30
0.0
 11
153.341381
 21
129.943997
 31
0.0
  0
LINE
  5
5B8
100
AcDbEntity
  8
0
  6
CONTINUOUS
 62
     7
100
AcDbLine
 10
153.541381
 20
129.943997
 30
0.0
 11
153.541381
 21
127.443997
 31
0.0
  0
LINE
  5
5B9
100
AcDbEntity
  8
0
  6
CONTINUOUS
 62
     7
100
AcDbLine
 10
153.541381
 20
127.443997
 30
0.0
 11
153.341381
 21
127.443997
 31
0.0
  0
LINE
  5
5BA
100
AcDbEntity
  8
0
  6
CONTINUOUS
 62
     7
100
AcDbLine
 10
153.341381
 20
129.943997
 30
0.0
 11
153.541381
 21
129.943997
 31
0.0
  0
LINE
  5
5BB
100
AcDbEntity
  8
0
  6
CONTINUOUS
 62
     7
100
AcDbLine
 10
154.341381
 20
136.143997
 30
0.0
 11
154.341381
 21
137.143997
 31
0.0
  0
LINE
  5
5BC
100
AcDbEntity
  8
0
  6
CONTINUOUS
 62
     7
100
AcDbLine
 10
154.341381
 20
137.143997
 30
0.0
 11
153.341381
 21
137.143997
 31
0.0
  0
ARC
  5
5BD
100
AcDbEntity
  8
0
  6
CONTINUOUS
 62
     7
100
AcDbCircle
 10
163.341381
 20
132.193897
 30
0.0
 40
1.0
100
AcDbArc
 50
90.0
 51
180.0
  0
LINE
  5
5BE
100
AcDbEntity
  8
0
  6
CONTINUOUS
 62
     7
100
AcDbLine
 10
157.341381
 20
137.143997
 30
0.0
 11
157.341381
 21
130.693997
 31
0.0
  0
LINE
  5
5BF
100
AcDbEntity
  8
0
  6
CONTINUOUS
 62
     7
100
AcDbLine
 10
161.341381
 20
129.693997
 30
0.0
 11
158.341381
 21
129.693997
 31
0.0
  0
ARC
  5
5C0
100
AcDbEntity
  8
0
  6
CONTINUOUS
 62
     7
100
AcDbCircle
 10
158.341381
 20
130.693997
 30
0.0
 40
1.0
100
AcDbArc
 50
180.0
 51
270.0
  0
ARC
  5
5C1
100
AcDbEntity
  8
0
  6
CONTINUOUS
 62
     7
100
AcDbCircle
 10
161.341381
 20
130.693997
 30
0.0
 40
1.0
100
AcDbArc
 50
270.0
 51
0.0
  0
LINE
  5
5C2
100
AcDbEntity
  8
0
  6
CONTINUOUS
 62
     7
100
AcDbLine
 10
162.341381
 20
132.193897
 30
0.0
 11
162.341381
 21
130.693997
 31
0.0
  0
LINE
  5
5C3
100
AcDbEntity
  8
0
  6
CONTINUOUS
 62
     7
100
AcDbLine
 10
155.341381
 20
136.143997
 30
0.0
 11
155.341381
 21
137.143997
 31
0.0
  0
LINE
  5
5C4
100
AcDbEntity
  8
0
  6
CONTINUOUS
 62
     7
100
AcDbLine
 10
157.341381
 20
137.143997
 30
0.0
 11
155.341381
 21
137.143997
 31
0.0
  0
LINE
  5
5C5
100
AcDbEntity
  8
0
  6
CONTINUOUS
 62
     7
100
AcDbLine
 10
155.341381
 20
146.243997
 30
0.0
 11
154.341381
 21
146.243997
 31
0.0
  0
LINE
  5
5C6
100
AcDbEntity
  8
0
  6
CONTINUOUS
 62
     7
100
AcDbLine
 10
154.341381
 20
146.243997
 30
0.0
 11
154.341381
 21
145.243997
 31
0.0
  0
LINE
  5
5C7
100
AcDbEntity
  8
0
  6
CONTINUOUS
 62
     7
100
AcDbLine
 10
154.341381
 20
145.243997
 30
0.0
 11
153.341381
 21
145.243997
 31
0.0
  0
LINE
  5
5C8
100
AcDbEntity
  8
0
  6
CONTINUOUS
 62
     7
100
AcDbLine
 10
157.341381
 20
145.243997
 30
0.0
 11
157.341381
 21
151.693997
 31
0.0
  0
LINE
  5
5C9
100
AcDbEntity
  8
0
  6
CONTINUOUS
 62
     7
100
AcDbLine
 10
157.341381
 20
145.243997
 30
0.0
 11
155.341381
 21
145.243997
 31
0.0
  0
LINE
  5
5CA
100
AcDbEntity
  8
0
  6
CONTINUOUS
 62
     7
100
AcDbLine
 10
155.341381
 20
146.243997
 30
0.0
 11
155.341381
 21
145.243997
 31
0.0
  0
LINE
  5
5CB
100
AcDbEntity
  8
0
  6
CONTINUOUS
 62
     7
100
AcDbLine
 10
161.341381
 20
152.693997
 30
0.0
 11
158.341381
 21
152.693997
 31
0.0
  0
ARC
  5
5CC
100
AcDbEntity
  8
0
  6
CONTINUOUS
 62
     7
100
AcDbCircle
 10
158.341381
 20
151.693997
 30
0.0
 40
1.0
100
AcDbArc
 50
90.0
 51
180.0
  0
ARC
  5
5CD
100
AcDbEntity
  8
0
  6
CONTINUOUS
 62
     7
100
AcDbCircle
 10
161.341381
 20
151.693997
 30
0.0
 40
1.0
100
AcDbArc
 50
0.0
 51
90.0
  0
LINE
  5
5CE
100
AcDbEntity
  8
0
  6
CONTINUOUS
 62
     7
100
AcDbLine
 10
162.341381
 20
150.194097
 30
0.0
 11
162.341381
 21
151.694097
 31
0.0
  0
ARC
  5
5CF
100
AcDbEntity
  8
0
  6
CONTINUOUS
 62
     7
100
AcDbCircle
 10
163.341381
 20
150.194097
 30
0.0
 40
1.0
100
AcDbArc
 50
180.0
 51
270.0
  0
LINE
  5
5D0
100
AcDbEntity
  8
0
  6
CONTINUOUS
 62
     7
100
AcDbLine
 10
169.192981
 20
140.359197
 30
0.0
 11
169.192981
 21
141.193997
 31
0.0
  0
ARC
  5
5D1
100
AcDbEntity
  8
0
  6
CONTINUOUS
 62
     7
100
AcDbCircle
 10
183.341381
 20
141.193997
 30
0.0
 40
7.0
100
AcDbArc
 50
167.652
 51
192.348
  0
ARC
  5
5D2
100
AcDbEntity
  8
0
  6
CONTINUOUS
 62
     7
100
AcDbCircle
 10
172.993281
 20
133.325197
 30
0.0
 40
2.0
100
AcDbArc
 50
37.2494
 51
134.999
  0
ARC
  5
5D3
100
AcDbEntity
  8
0
  6
CONTINUOUS
 62
     7
100
AcDbCircle
 10
164.512981
 20
135.193897
 30
0.0
 40
2.0
100
AcDbArc
 50
270.0
 51
315.0
  0
LINE
  5
5D4
100
AcDbEntity
  8
0
  6
CONTINUOUS
 62
     7
100
AcDbLine
 10
171.579081
 20
134.739497
 30
0.0
 11
164.410981
 21
127.571497
 31
0.0
  0
ARC
  5
5D5
100
AcDbEntity
  8
0
  6
CONTINUOUS
 62
     7
100
AcDbCircle
 10
161.192981
 20
140.359197
 30
0.0
 40
8.0
100
AcDbArc
 50
315.0
 51
0.0
  0
LINE
  5
5D6
100
AcDbEntity
  8
0
  6
CONTINUOUS
 62
     7
100
AcDbLine
 10
166.849781
 20
134.702297
 30
0.0
 11
165.927181
 21
133.779697
 31
0.0
  0
ARC
  5
5D7
100
AcDbEntity
  8
0
  6
CONTINUOUS
 62
     7
100
AcDbCircle
 10
183.341381
 20
141.193997
 30
0.0
 40
11.0
100
AcDbArc
 50
217.25
 51
231.15
  0
ARC
  5
5D8
100
AcDbEntity
  8
0
  6
CONTINUOUS
 62
     7
100
AcDbCircle
 10
175.186781
 20
131.069697
 30
0.0
 40
2.0
100
AcDbArc
 50
330.0
 51
51.1497
  0
ARC
  5
5D9
100
AcDbEntity
  8
0
  6
CONTINUOUS
 62
     7
100
AcDbCircle
 10
181.031981
 20
129.193997
 30
0.0
 40
1.0
100
AcDbArc
 50
90.0
 51
150.0
  0
ARC
  5
5DA
100
AcDbEntity
  8
0
  6
CONTINUOUS
 62
     7
100
AcDbCircle
 10
176.874281
 20
138.515197
 30
0.0
 40
1.0
100
AcDbArc
 50
120.713
 51
284.287
  0
ARC
  5
5DB
100
AcDbEntity
  8
0
  6
CONTINUOUS
 62
     7
100
AcDbCircle
 10
176.210281
 20
139.632797
 30
0.0
 40
0.3
100
AcDbArc
 50
300.713
 51
12.3467
  0
ARC
  5
5DC
100
AcDbEntity
  8
0
  6
CONTINUOUS
 62
     7
100
AcDbCircle
 10
183.341381
 20
141.193997
 30
0.0
 40
7.0
100
AcDbArc
 50
212.652
 51
237.348
  0
ARC
  5
5DD
100
AcDbEntity
  8
0
  6
CONTINUOUS
 62
     7
100
AcDbCircle
 10
179.402781
 20
135.047597
 30
0.0
 40
0.3
100
AcDbArc
 50
345.713
 51
57.3467
  0
ARC
  5
5DE
100
AcDbEntity
  8
0
  6
CONTINUOUS
 62
     7
100
AcDbCircle
 10
177.195081
 20
137.255397
 30
0.0
 40
0.3
100
AcDbArc
 50
32.6538
 51
104.288
  0
ARC
  5
5DF
100
AcDbEntity
  8
0
  6
CONTINUOUS
 62
     7
100
AcDbCircle
 10
172.281681
 20
149.238997
 30
0.0
 40
1.0
100
AcDbArc
 50
225.001
 51
305.28
  0
LINE
  5
5E0
100
AcDbEntity
  8
0
  6
CONTINUOUS
 62
     7
100
AcDbLine
 10
166.849781
 20
147.685697
 30
0.0
 11
165.927181
 21
148.608297
 31
0.0
  0
ARC
  5
5E1
100
AcDbEntity
  8
0
  6
CONTINUOUS
 62
     7
100
AcDbCircle
 10
161.192981
 20
142.028797
 30
0.0
 40
8.0
100
AcDbArc
 50
0.0
 51
45.0003
  0
LINE
  5
5E2
100
AcDbEntity
  8
0
  6
CONTINUOUS
 62
     7
100
AcDbLine
 10
169.192981
 20
142.028797
 30
0.0
 11
169.192981
 21
141.193997
 31
0.0
  0
ARC
  5
5E3
100
AcDbEntity
  8
0
  6
CONTINUOUS
 62
     7
100
AcDbCircle
 10
170.841481
 20
154.214897
 30
0.0
 40
3.5
100
AcDbArc
 50
180.0
 51
225.0
  0
ARC
  5
5E4
100
AcDbEntity
  8
0
  6
CONTINUOUS
 62
     7
100
AcDbCircle
 10
164.512981
 20
147.194097
 30
0.0
 40
2.0
100
AcDbArc
 50
45.0
 51
90.0
  0
LINE
  5
5E5
100
AcDbEntity
  8
0
  6
CONTINUOUS
 62
     7
100
AcDbLine
 10
171.574581
 20
148.531997
 30
0.0
 11
168.366581
 21
151.739897
 31
0.0
  0
ARC
  5
5E6
100
AcDbEntity
  8
0
  6
CONTINUOUS
 62
     7
100
AcDbCircle
 10
176.874281
 20
143.872797
 30
0.0
 40
1.0
100
AcDbArc
 50
75.7131
 51
239.287
  0
ARC
  5
5E7
100
AcDbEntity
  8
0
  6
CONTINUOUS
 62
     7
100
AcDbCircle
 10
176.210281
 20
142.755197
 30
0.0
 40
0.3
100
AcDbArc
 50
347.654
 51
59.2879
  0
ARC
  5
5E8
100
AcDbEntity
  8
0
  6
CONTINUOUS
 62
     7
100
AcDbCircle
 10
183.341381
 20
141.193997
 30
0.0
 40
7.0
100
AcDbArc
 50
122.652
 51
147.348
  0
ARC
  5
5E9
100
AcDbEntity
  8
0
  6
CONTINUOUS
 62
     7
100
AcDbCircle
 10
177.195081
 20
145.132597
 30
0.0
 40
0.3
100
AcDbArc
 50
255.713
 51
327.347
  0
ARC
  5
5EA
100
AcDbEntity
  8
0
  6
CONTINUOUS
 62
     7
100
AcDbCircle
 10
179.402781
 20
147.340397
 30
0.0
 40
0.3
100
AcDbArc
 50
302.654
 51
14.2879
  0
LINE
  5
5EB
100
AcDbEntity
  8
0
  6
CONTINUOUS
 62
     7
100
AcDbLine
 10
164.755681
 20
167.951697
 30
0.0
 11
162.535981
 21
170.171397
 31
0.0
  0
ARC
  5
5EC
100
AcDbEntity
  8
0
  6
CONTINUOUS
 62
     7
100
AcDbCircle
 10
163.341481
 20
158.866097
 30
0.0
 40
2.0
100
AcDbArc
 50
221.912
 51
0.0
  0
ARC
  5
5ED
100
AcDbEntity
  8
0
  6
CONTINUOUS
 62
     7
100
AcDbCircle
 10
160.591381
 20
168.226797
 30
0.0
 40
2.75
100
AcDbArc
 50
44.9992
 51
180.0
  0
LINE
  5
5EE
100
AcDbEntity
  8
0
  6
CONTINUOUS
 62
     7
100
AcDbLine
 10
153.341381
 20
159.493997
 30
0.0
 11
153.341381
 21
171.193897
 31
0.0
  0
LINE
  5
5EF
100
AcDbEntity
  8
0
  6
CONTINUOUS
 62
     7
100
AcDbLine
 10
153.541381
 20
156.993997
 30
0.0
 11
153.541381
 21
159.493997
 31
0.0
  0
LINE
  5
5F0
100
AcDbEntity
  8
0
  6
CONTINUOUS
 62
     7
100
AcDbLine
 10
153.541381
 20
156.993997
 30
0.0
 11
153.341381
 21
156.993997
 31
0.0
  0
LINE
  5
5F1
100
AcDbEntity
  8
0
  6
CONTINUOUS
 62
     7
100
AcDbLine
 10
153.541381
 20
159.493997
 30
0.0
 11
153.341381
 21
159.493997
 31
0.0
  0
ARC
  5
5F2
100
AcDbEntity
  8
0
  6
CONTINUOUS
 62
     7
100
AcDbCircle
 10
165.341381
 20
164.871697
 30
0.0
 40
7.5
100
AcDbArc
 50
180.0
 51
221.912
  0
LINE
  5
5F3
100
AcDbEntity
  8
0
  6
CONTINUOUS
 62
     7
100
AcDbLine
 10
159.760081
 20
159.861797
 30
0.0
 11
161.853081
 21
157.530097
 31
0.0
  0
LINE
  5
5F4
100
AcDbEntity
  8
0
  6
CONTINUOUS
 62
     7
100
AcDbLine
 10
157.841381
 20
168.226797
 30
0.0
 11
157.841381
 21
164.871697
 31
0.0
  0
LINE
  5
5F5
100
AcDbEntity
  8
0
  6
CONTINUOUS
 62
     7
100
AcDbLine
 10
156.841381
 20
181.193997
 30
0.0
 11
154.341381
 21
181.193997
 31
0.0
  0
LINE
  5
5F6
100
AcDbEntity
  8
0
  6
CONTINUOUS
 62
     7
100
AcDbLine
 10
153.341381
 20
174.693897
 30
0.0
 11
153.341381
 21
180.193997
 31
0.0
  0
ARC
  5
5F7
100
AcDbEntity
  8
0
  6
CONTINUOUS
 62
     7
100
AcDbCircle
 10
154.041381
 20
173.893997
 30
0.0
 40
0.8
100
AcDbArc
 50
0.0
 51
90.0
  0
LINE
  5
5F8
100
AcDbEntity
  8
0
  6
CONTINUOUS
 62
     7
100
AcDbLine
 10
154.841381
 20
173.893997
 30
0.0
 11
154.841381
 21
171.993897
 31
0.0
  0
LINE
  5
5F9
100
AcDbEntity
  8
0
  6
CONTINUOUS
 62
     7
100
AcDbLine
 10
154.041381
 20
171.193897
 30
0.0
 11
153.341381
 21
171.193897
 31
0.0
  0
ARC
  5
5FA
100
AcDbEntity
  8
0
  6
CONTINUOUS
 62
     7
100
AcDbCircle
 10
154.041381
 20
171.993897
 30
0.0
 40
0.8
100
AcDbArc
 50
270.0
 51
0.0
  0
LINE
  5
5FB
100
AcDbEntity
  8
0
  6
CONTINUOUS
 62
     7
100
AcDbLine
 10
153.341381
 20
174.693897
 30
0.0
 11
154.041381
 21
174.693897
 31
0.0
  0
ARC
  5
5FC
100
AcDbEntity
  8
0
  6
CONTINUOUS
 62
     7
100
AcDbCircle
 10
154.341381
 20
180.193997
 30
0.0
 40
1.0
100
AcDbArc
 50
90.0
 51
180.0
  0
LINE
  5
5FD
100
AcDbEntity
  8
0
  6
CONTINUOUS
 62
     7
100
AcDbLine
 10
157.841381
 20
178.193997
 30
0.0
 11
160.877081
 21
178.193997
 31
0.0
  0
ARC
  5
5FE
100
AcDbEntity
  8
0
  6
CONTINUOUS
 62
     7
100
AcDbCircle
 10
156.841381
 20
180.693997
 30
0.0
 40
0.5
100
AcDbArc
 50
0.0
 51
90.0
  0
LINE
  5
5FF
100
AcDbEntity
  8
0
  6
CONTINUOUS
 62
     7
100
AcDbLine
 10
157.341381
 20
178.693997
 30
0.0
 11
157.341381
 21
180.693997
 31
0.0
  0
ARC
  5
600
100
AcDbEntity
  8
0
  6
CONTINUOUS
 62
     7
100
AcDbCircle
 10
157.841381
 20
178.693997
 30
0.0
 40
0.5
100
AcDbArc
 50
180.0
 51
270.0
  0
LINE
  5
601
100
AcDbEntity
  8
0
  6
CONTINUOUS
 62
     7
100
AcDbLine
 10
173.754581
 20
158.952697
 30
0.0
 11
170.755681
 21
161.951597
 31
0.0
  0
ARC
  5
602
100
AcDbEntity
  8
0
  6
CONTINUOUS
 62
     7
100
AcDbCircle
 10
169.341481
 20
160.537397
 30
0.0
 40
2.0
100
AcDbArc
 50
44.9998
 51
180.0
  0
LINE
  5
603
100
AcDbEntity
  8
0
  6
CONTINUOUS
 62
     7
100
AcDbLine
 10
165.341481
 20
158.866097
 30
0.0
 11
165.341481
 21
166.537397
 31
0.0
  0
ARC
  5
604
100
AcDbEntity
  8
0
  6
CONTINUOUS
 62
     7
100
AcDbCircle
 10
163.341481
 20
166.537397
 30
0.0
 40
2.0
100
AcDbArc
 50
0.0
 51
44.9997
  0
LINE
  5
605
100
AcDbEntity
  8
0
  6
CONTINUOUS
 62
     7
100
AcDbLine
 10
213.341381
 20
145.193997
 30
0.0
 11
213.341381
 21
156.943997
 31
0.0
  0
LINE
  5
606
100
AcDbEntity
  8
0
  6
CONTINUOUS
 62
     7
100
AcDbLine
 10
199.341381
 20
160.537397
 30
0.0
 11
199.341381
 21
154.214897
 31
0.0
  0
ARC
  5
607
100
AcDbEntity
  8
0
  6
CONTINUOUS
 62
     7
100
AcDbCircle
 10
197.815881
 20
154.065197
 30
0.0
 40
6.91202
100
AcDbArc
 50
135.0
 51
234.719
  0
LINE
  5
608
100
AcDbEntity
  8
0
  6
CONTINUOUS
 62
     7
100
AcDbLine
 10
213.341381
 20
120.193997
 30
0.0
 11
213.341381
 21
127.443997
 31
0.0
  0
ARC
  5
609
100
AcDbEntity
  8
0
  6
CONTINUOUS
 62
     7
100
AcDbCircle
 10
199.945481
 20
124.956397
 30
0.0
 40
3.5
100
AcDbArc
 50
344.036
 51
48.346
  0
LINE
  5
60A
100
AcDbEntity
  8
0
  6
CONTINUOUS
 62
     7
100
AcDbLine
 10
189.763981
 20
130.069697
 30
0.0
 11
197.626681
 21
116.451197
 31
0.0
  0
LINE
  5
60B
100
AcDbEntity
  8
0
  6
CONTINUOUS
 62
     7
100
AcDbLine
 10
186.516781
 20
129.693997
 30
0.0
 11
195.341381
 21
114.409397
 31
0.0
  0
ARC
  5
60C
100
AcDbEntity
  8
0
  6
CONTINUOUS
 62
     7
100
AcDbCircle
 10
199.358781
 20
117.451197
 30
0.0
 40
2.0
100
AcDbArc
 50
210.0
 51
344.036
  0
LINE
  5
60D
100
AcDbEntity
  8
0
  6
CONTINUOUS
 62
     7
100
AcDbLine
 10
211.341381
 20
112.193997
 30
0.0
 11
211.341381
 21
108.193997
 31
0.0
  0
LINE
  5
60E
100
AcDbEntity
  8
0
  6
CONTINUOUS
 62
     7
100
AcDbLine
 10
213.341381
 20
101.243997
 30
0.0
 11
213.341381
 21
112.193997
 31
0.0
  0
ARC
  5
60F
100
AcDbEntity
  8
0
  6
CONTINUOUS
 62
     7
100
AcDbCircle
 10
215.409381
 20
116.193997
 30
0.0
 40
10.0
100
AcDbArc
 50
121.788
 51
238.212
  0
LINE
  5
610
100
AcDbEntity
  8
0
  6
CONTINUOUS
 62
     7
100
AcDbLine
 10
201.841381
 20
106.101497
 30
0.0
 11
210.341381
 21
101.243997
 31
0.0
  0
ARC
  5
611
100
AcDbEntity
  8
0
  6
CONTINUOUS
 62
     7
100
AcDbCircle
 10
201.341381
 20
105.235397
 30
0.0
 40
1.0
100
AcDbArc
 50
60.0
 51
180.0
  0
LINE
  5
612
100
AcDbEntity
  8
0
  6
CONTINUOUS
 62
     7
100
AcDbLine
 10
210.341381
 20
101.243997
 30
0.0
 11
213.341381
 21
101.243997
 31
0.0
  0
LINE
  5
613
100
AcDbEntity
  8
0
  6
CONTINUOUS
 62
     7
100
AcDbLine
 10
211.341381
 20
109.103797
 30
0.0
 11
211.341381
 21
108.193997
 31
0.0
  0
LINE
  5
614
100
AcDbEntity
  8
0
  6
CONTINUOUS
 62
     7
100
AcDbLine
 10
210.841381
 20
107.693997
 30
0.0
 11
210.141581
 21
107.693997
 31
0.0
  0
ARC
  5
615
100
AcDbEntity
  8
0
  6
CONTINUOUS
 62
     7
100
AcDbCircle
 10
210.841381
 20
108.193997
 30
0.0
 40
0.5
100
AcDbArc
 50
270.0
 51
0.0
  0
LINE
  5
616
100
AcDbEntity
  8
0
  6
CONTINUOUS
 62
     7
100
AcDbLine
 10
203.310581
 20
123.993797
 30
0.0
 11
201.281581
 21
116.901097
 31
0.0
  0
LINE
  5
617
100
AcDbEntity
  8
0
  6
CONTINUOUS
 62
     7
100
AcDbLine
 10
211.341381
 20
112.193997
 30
0.0
 11
213.341381
 21
112.193997
 31
0.0
  0
LINE
  5
618
100
AcDbEntity
  8
0
  6
CONTINUOUS
 62
     7
100
AcDbLine
 10
213.341381
 20
120.193997
 30
0.0
 11
211.341381
 21
120.193997
 31
0.0
  0
LINE
  5
619
100
AcDbEntity
  8
0
  6
CONTINUOUS
 62
     7
100
AcDbLine
 10
211.341381
 20
120.193997
 30
0.0
 11
211.341381
 21
124.193997
 31
0.0
  0
LINE
  5
61A
100
AcDbEntity
  8
0
  6
CONTINUOUS
 62
     7
100
AcDbLine
 10
211.341381
 20
123.284197
 30
0.0
 11
211.341381
 21
124.193997
 31
0.0
  0
LINE
  5
61B
100
AcDbEntity
  8
0
  6
CONTINUOUS
 62
     7
100
AcDbLine
 10
210.841381
 20
124.693997
 30
0.0
 11
210.141581
 21
124.693997
 31
0.0
  0
ARC
  5
61C
100
AcDbEntity
  8
0
  6
CONTINUOUS
 62
     7
100
AcDbCircle
 10
210.841381
 20
124.193997
 30
0.0
 40
0.5
100
AcDbArc
 50
0.0
 51
90.0
  0
ARC
  5
61D
100
AcDbEntity
  8
0
  6
CONTINUOUS
 62
     7
100
AcDbCircle
 10
195.841381
 20
154.214897
 30
0.0
 40
3.5
100
AcDbArc
 50
315.0
 51
0.0
  0
ARC
  5
61E
100
AcDbEntity
  8
0
  6
CONTINUOUS
 62
     7
100
AcDbCircle
 10
205.489881
 20
140.359197
 30
0.0
 40
8.0
100
AcDbArc
 50
180.0
 51
225.0
  0
LINE
  5
61F
100
AcDbEntity
  8
0
  6
CONTINUOUS
 62
     7
100
AcDbLine
 10
195.103681
 20
134.739497
 30
0.0
 11
202.271781
 21
127.571497
 31
0.0
  0
ARC
  5
620
100
AcDbEntity
  8
0
  6
CONTINUOUS
 62
     7
100
AcDbCircle
 10
205.489881
 20
142.028797
 30
0.0
 40
8.0
100
AcDbArc
 50
135.0
 51
180.0
  0
LINE
  5
621
100
AcDbEntity
  8
0
  6
CONTINUOUS
 62
     7
100
AcDbLine
 10
197.489881
 20
140.359197
 30
0.0
 11
197.489881
 21
141.193997
 31
0.0
  0
ARC
  5
622
100
AcDbEntity
  8
0
  6
CONTINUOUS
 62
     7
100
AcDbCircle
 10
183.341381
 20
141.193997
 30
0.0
 40
7.0
100
AcDbArc
 50
347.652
 51
12.3482
  0
ARC
  5
623
100
AcDbEntity
  8
0
  6
CONTINUOUS
 62
     7
100
AcDbCircle
 10
189.808581
 20
138.515197
 30
0.0
 40
1.0
100
AcDbArc
 50
255.714
 51
59.2869
  0
ARC
  5
624
100
AcDbEntity
  8
0
  6
CONTINUOUS
 62
     7
100
AcDbCircle
 10
191.496081
 20
131.069697
 30
0.0
 40
2.0
100
AcDbArc
 50
128.85
 51
210.0
  0
ARC
  5
625
100
AcDbEntity
  8
0
  6
CONTINUOUS
 62
     7
100
AcDbCircle
 10
185.650781
 20
129.193997
 30
0.0
 40
1.0
100
AcDbArc
 50
29.9991
 51
90.0
  0
ARC
  5
626
100
AcDbEntity
  8
0
  6
CONTINUOUS
 62
     7
100
AcDbCircle
 10
186.020181
 20
134.726797
 30
0.0
 40
1.0
100
AcDbArc
 50
210.713
 51
14.2869
  0
ARC
  5
627
100
AcDbEntity
  8
0
  6
CONTINUOUS
 62
     7
100
AcDbCircle
 10
183.341381
 20
141.193997
 30
0.0
 40
7.0
100
AcDbArc
 50
257.652
 51
282.348
  0
ARC
  5
628
100
AcDbEntity
  8
0
  6
CONTINUOUS
 62
     7
100
AcDbCircle
 10
181.780281
 20
134.062797
 30
0.0
 40
0.3
100
AcDbArc
 50
77.6538
 51
149.288
  0
ARC
  5
629
100
AcDbEntity
  8
0
  6
CONTINUOUS
 62
     7
100
AcDbCircle
 10
184.902581
 20
134.062797
 30
0.0
 40
0.3
100
AcDbArc
 50
30.7116
 51
102.347
  0
ARC
  5
62A
100
AcDbEntity
  8
0
  6
CONTINUOUS
 62
     7
100
AcDbCircle
 10
183.341381
 20
141.193997
 30
0.0
 40
7.0
100
AcDbArc
 50
302.652
 51
327.348
  0
ARC
  5
62B
100
AcDbEntity
  8
0
  6
CONTINUOUS
 62
     7
100
AcDbCircle
 10
187.279981
 20
135.047597
 30
0.0
 40
0.3
100
AcDbArc
 50
122.653
 51
194.288
  0
ARC
  5
62C
100
AcDbEntity
  8
0
  6
CONTINUOUS
 62
     7
100
AcDbCircle
 10
189.487781
 20
137.255397
 30
0.0
 40
0.3
100
AcDbArc
 50
75.7125
 51
147.348
  0
ARC
  5
62D
100
AcDbEntity
  8
0
  6
CONTINUOUS
 62
     7
100
AcDbCircle
 10
183.341381
 20
141.193997
 30
0.0
 40
11.0
100
AcDbArc
 50
308.85
 51
322.75
  0
ARC
  5
62E
100
AcDbEntity
  8
0
  6
CONTINUOUS
 62
     7
100
AcDbCircle
 10
193.689581
 20
133.325197
 30
0.0
 40
2.0
100
AcDbArc
 50
45.0009
 51
142.75
  0
ARC
  5
62F
100
AcDbEntity
  8
0
  6
CONTINUOUS
 62
     7
100
AcDbCircle
 10
190.472481
 20
139.632797
 30
0.0
 40
0.3
100
AcDbArc
 50
167.653
 51
239.286
  0
ARC
  5
630
100
AcDbEntity
  8
0
  6
CONTINUOUS
 62
     7
100
AcDbCircle
 10
189.808581
 20
143.872797
 30
0.0
 40
1.0
100
AcDbArc
 50
300.713
 51
104.286
  0
ARC
  5
631
100
AcDbEntity
  8
0
  6
CONTINUOUS
 62
     7
100
AcDbCircle
 10
183.341381
 20
141.193997
 30
0.0
 40
7.0
100
AcDbArc
 50
77.6517
 51
102.348
  0
ARC
  5
632
100
AcDbEntity
  8
0
  6
CONTINUOUS
 62
     7
100
AcDbCircle
 10
186.020181
 20
147.661197
 30
0.0
 40
1.0
100
AcDbArc
 50
345.713
 51
149.287
  0
ARC
  5
633
100
AcDbEntity
  8
0
  6
CONTINUOUS
 62
     7
100
AcDbCircle
 10
184.902581
 20
148.325097
 30
0.0
 40
0.3
100
AcDbArc
 50
257.653
 51
329.288
  0
ARC
  5
634
100
AcDbEntity
  8
0
  6
CONTINUOUS
 62
     7
100
AcDbCircle
 10
181.780281
 20
148.325097
 30
0.0
 40
0.3
100
AcDbArc
 50
210.713
 51
282.347
  0
ARC
  5
635
100
AcDbEntity
  8
0
  6
CONTINUOUS
 62
     7
100
AcDbCircle
 10
183.341381
 20
141.193997
 30
0.0
 40
7.0
100
AcDbArc
 50
32.652
 51
57.3484
  0
ARC
  5
636
100
AcDbEntity
  8
0
  6
CONTINUOUS
 62
     7
100
AcDbCircle
 10
187.279981
 20
147.340397
 30
0.0
 40
0.3
100
AcDbArc
 50
165.712
 51
237.347
  0
ARC
  5
637
100
AcDbEntity
  8
0
  6
CONTINUOUS
 62
     7
100
AcDbCircle
 10
189.487781
 20
145.132597
 30
0.0
 40
0.3
100
AcDbArc
 50
212.652
 51
284.287
  0
ARC
  5
638
100
AcDbEntity
  8
0
  6
CONTINUOUS
 62
     7
100
AcDbCircle
 10
190.472481
 20
142.755197
 30
0.0
 40
0.3
100
AcDbArc
 50
120.714
 51
192.347
  0
LINE
  5
639
100
AcDbEntity
  8
0
  6
CONTINUOUS
 62
     7
100
AcDbLine
 10
197.489881
 20
142.028797
 30
0.0
 11
197.489881
 21
141.193997
 31
0.0
  0
ARC
  5
63A
100
AcDbEntity
  8
0
  6
CONTINUOUS
 62
     7
100
AcDbCircle
 10
194.401181
 20
149.238997
 30
0.0
 40
1.0
100
AcDbArc
 50
234.719
 51
315.0
  0
LINE
  5
63B
100
AcDbEntity
  8
0
  6
CONTINUOUS
 62
     7
100
AcDbLine
 10
195.108281
 20
148.531997
 30
0.0
 11
198.316281
 21
151.739897
 31
0.0
  0
LINE
  5
63C
100
AcDbEntity
  8
0
  6
CONTINUOUS
 62
     7
100
AcDbLine
 10
205.341381
 20
129.693997
 30
0.0
 11
208.341381
 21
129.693997
 31
0.0
  0
ARC
  5
63D
100
AcDbEntity
  8
0
  6
CONTINUOUS
 62
     7
100
AcDbCircle
 10
203.341381
 20
132.193897
 30
0.0
 40
1.0
100
AcDbArc
 50
0.0
 51
90.0
  0
ARC
  5
63E
100
AcDbEntity
  8
0
  6
CONTINUOUS
 62
     7
100
AcDbCircle
 10
202.169781
 20
135.193897
 30
0.0
 40
2.0
100
AcDbArc
 50
225.0
 51
270.0
  0
LINE
  5
63F
100
AcDbEntity
  8
0
  6
CONTINUOUS
 62
     7
100
AcDbLine
 10
202.169781
 20
133.193897
 30
0.0
 11
203.341381
 21
133.193897
 31
0.0
  0
ARC
  5
640
100
AcDbEntity
  8
0
  6
CONTINUOUS
 62
     7
100
AcDbCircle
 10
205.341381
 20
130.693997
 30
0.0
 40
1.0
100
AcDbArc
 50
180.0
 51
270.0
  0
LINE
  5
641
100
AcDbEntity
  8
0
  6
CONTINUOUS
 62
     7
100
AcDbLine
 10
204.341381
 20
132.193897
 30
0.0
 11
204.341381
 21
130.693997
 31
0.0
  0
LINE
  5
642
100
AcDbEntity
  8
0
  6
CONTINUOUS
 62
     7
100
AcDbLine
 10
199.832981
 20
134.702297
 30
0.0
 11
200.755581
 21
133.779697
 31
0.0
  0
LINE
  5
643
100
AcDbEntity
  8
0
  6
CONTINUOUS
 62
     7
100
AcDbLine
 10
213.341381
 20
137.193997
 30
0.0
 11
213.341381
 21
129.943997
 31
0.0
  0
LINE
  5
644
100
AcDbEntity
  8
0
  6
CONTINUOUS
 62
     7
100
AcDbLine
 10
209.341381
 20
137.193997
 30
0.0
 11
209.341381
 21
130.693997
 31
0.0
  0
ARC
  5
645
100
AcDbEntity
  8
0
  6
CONTINUOUS
 62
     7
100
AcDbCircle
 10
208.341381
 20
130.693997
 30
0.0
 40
1.0
100
AcDbArc
 50
270.0
 51
0.0
  0
LINE
  5
646
100
AcDbEntity
  8
0
  6
CONTINUOUS
 62
     7
100
AcDbLine
 10
213.141381
 20
129.943997
 30
0.0
 11
213.141381
 21
127.443997
 31
0.0
  0
LINE
  5
647
100
AcDbEntity
  8
0
  6
CONTINUOUS
 62
     7
100
AcDbLine
 10
213.141381
 20
127.443997
 30
0.0
 11
213.341381
 21
127.443997
 31
0.0
  0
LINE
  5
648
100
AcDbEntity
  8
0
  6
CONTINUOUS
 62
     7
100
AcDbLine
 10
213.341381
 20
129.943997
 30
0.0
 11
213.141381
 21
129.943997
 31
0.0
  0
LINE
  5
649
100
AcDbEntity
  8
0
  6
CONTINUOUS
 62
     7
100
AcDbLine
 10
211.341381
 20
136.193997
 30
0.0
 11
212.341381
 21
136.193997
 31
0.0
  0
LINE
  5
64A
100
AcDbEntity
  8
0
  6
CONTINUOUS
 62
     7
100
AcDbLine
 10
211.341381
 20
136.193997
 30
0.0
 11
211.341381
 21
137.193997
 31
0.0
  0
LINE
  5
64B
100
AcDbEntity
  8
0
  6
CONTINUOUS
 62
     7
100
AcDbLine
 10
209.341381
 20
137.193997
 30
0.0
 11
211.341381
 21
137.193997
 31
0.0
  0
LINE
  5
64C
100
AcDbEntity
  8
0
  6
CONTINUOUS
 62
     7
100
AcDbLine
 10
212.341381
 20
136.193997
 30
0.0
 11
212.341381
 21
137.193997
 31
0.0
  0
LINE
  5
64D
100
AcDbEntity
  8
0
  6
CONTINUOUS
 62
     7
100
AcDbLine
 10
212.341381
 20
137.193997
 30
0.0
 11
213.341381
 21
137.193997
 31
0.0
  0
LINE
  5
64E
100
AcDbEntity
  8
0
  6
CONTINUOUS
 62
     7
100
AcDbLine
 10
205.341381
 20
152.693997
 30
0.0
 11
208.341381
 21
152.693997
 31
0.0
  0
LINE
  5
64F
100
AcDbEntity
  8
0
  6
CONTINUOUS
 62
     7
100
AcDbLine
 10
199.832981
 20
147.685697
 30
0.0
 11
200.755581
 21
148.608297
 31
0.0
  0
LINE
  5
650
100
AcDbEntity
  8
0
  6
CONTINUOUS
 62
     7
100
AcDbLine
 10
202.169781
 20
149.194097
 30
0.0
 11
203.341381
 21
149.194097
 31
0.0
  0
ARC
  5
651
100
AcDbEntity
  8
0
  6
CONTINUOUS
 62
     7
100
AcDbCircle
 10
202.169781
 20
147.194097
 30
0.0
 40
2.0
100
AcDbArc
 50
90.0
 51
135.0
  0
ARC
  5
652
100
AcDbEntity
  8
0
  6
CONTINUOUS
 62
     7
100
AcDbCircle
 10
205.341381
 20
151.693997
 30
0.0
 40
1.0
100
AcDbArc
 50
90.0
 51
180.0
  0
LINE
  5
653
100
AcDbEntity
  8
0
  6
CONTINUOUS
 62
     7
100
AcDbLine
 10
204.341381
 20
150.194097
 30
0.0
 11
204.341381
 21
151.694097
 31
0.0
  0
ARC
  5
654
100
AcDbEntity
  8
0
  6
CONTINUOUS
 62
     7
100
AcDbCircle
 10
203.341381
 20
150.194097
 30
0.0
 40
1.0
100
AcDbArc
 50
270.0
 51
0.0
  0
LINE
  5
655
100
AcDbEntity
  8
0
  6
CONTINUOUS
 62
     7
100
AcDbLine
 10
209.341381
 20
145.193997
 30
0.0
 11
209.341381
 21
151.693997
 31
0.0
  0
LINE
  5
656
100
AcDbEntity
  8
0
  6
CONTINUOUS
 62
     7
100
AcDbLine
 10
211.341381
 20
146.193997
 30
0.0
 11
212.341381
 21
146.193997
 31
0.0
  0
LINE
  5
657
100
AcDbEntity
  8
0
  6
CONTINUOUS
 62
     7
100
AcDbLine
 10
209.341381
 20
145.193997
 30
0.0
 11
211.341381
 21
145.193997
 31
0.0
  0
LINE
  5
658
100
AcDbEntity
  8
0
  6
CONTINUOUS
 62
     7
100
AcDbLine
 10
211.341381
 20
146.193997
 30
0.0
 11
211.341381
 21
145.193997
 31
0.0
  0
LINE
  5
659
100
AcDbEntity
  8
0
  6
CONTINUOUS
 62
     7
100
AcDbLine
 10
212.341381
 20
146.193997
 30
0.0
 11
212.341381
 21
145.193997
 31
0.0
  0
LINE
  5
65A
100
AcDbEntity
  8
0
  6
CONTINUOUS
 62
     7
100
AcDbLine
 10
212.341381
 20
145.193997
 30
0.0
 11
213.341381
 21
145.193997
 31
0.0
  0
ARC
  5
65B
100
AcDbEntity
  8
0
  6
CONTINUOUS
 62
     7
100
AcDbCircle
 10
208.341381
 20
151.693997
 30
0.0
 40
1.0
100
AcDbArc
 50
0.0
 51
90.0
  0
ARC
  5
65C
100
AcDbEntity
  8
0
  6
CONTINUOUS
 62
     7
100
AcDbCircle
 10
197.341381
 20
160.537397
 30
0.0
 40
2.0
100
AcDbArc
 50
0.0
 51
135.0
  0
LINE
  5
65D
100
AcDbEntity
  8
0
  6
CONTINUOUS
 62
     7
100
AcDbLine
 10
185.257881
 20
157.646397
 30
0.0
 11
205.805781
 21
178.193997
 31
0.0
  0
ARC
  5
65E
100
AcDbEntity
  8
0
  6
CONTINUOUS
 62
     7
100
AcDbCircle
 10
183.341381
 20
158.218297
 30
0.0
 40
2.0
100
AcDbArc
 50
196.618
 51
343.382
  0
LINE
  5
65F
100
AcDbEntity
  8
0
  6
CONTINUOUS
 62
     7
100
AcDbLine
 10
192.928281
 20
158.952697
 30
0.0
 11
195.927181
 21
161.951597
 31
0.0
  0
ARC
  5
660
100
AcDbEntity
  8
0
  6
CONTINUOUS
 62
     7
100
AcDbCircle
 10
206.091481
 20
168.226797
 30
0.0
 40
2.75
100
AcDbArc
 50
0.0
 51
135.001
  0
LINE
  5
661
100
AcDbEntity
  8
0
  6
CONTINUOUS
 62
     7
100
AcDbLine
 10
213.341381
 20
159.443997
 30
0.0
 11
213.341381
 21
171.193897
 31
0.0
  0
ARC
  5
662
100
AcDbEntity
  8
0
  6
CONTINUOUS
 62
     7
100
AcDbCircle
 10
201.341481
 20
164.871697
 30
0.0
 40
7.5
100
AcDbArc
 50
318.088
 51
0.0
  0
LINE
  5
663
100
AcDbEntity
  8
0
  6
CONTINUOUS
 62
     7
100
AcDbLine
 10
201.341481
 20
159.593497
 30
0.0
 11
201.341481
 21
166.537397
 31
0.0
  0
LINE
  5
664
100
AcDbEntity
  8
0
  6
CONTINUOUS
 62
     7
100
AcDbLine
 10
201.341381
 20
158.866097
 30
0.0
 11
201.341381
 21
166.537397
 31
0.0
  0
ARC
  5
665
100
AcDbEntity
  8
0
  6
CONTINUOUS
 62
     7
100
AcDbCircle
 10
203.341381
 20
158.866097
 30
0.0
 40
2.0
100
AcDbArc
 50
180.0
 51
318.088
  0
LINE
  5
666
100
AcDbEntity
  8
0
  6
CONTINUOUS
 62
     7
100
AcDbLine
 10
206.922681
 20
159.861797
 30
0.0
 11
204.829781
 21
157.530097
 31
0.0
  0
LINE
  5
667
100
AcDbEntity
  8
0
  6
CONTINUOUS
 62
     7
100
AcDbLine
 10
201.927181
 20
167.951697
 30
0.0
 11
204.146881
 21
170.171397
 31
0.0
  0
ARC
  5
668
100
AcDbEntity
  8
0
  6
CONTINUOUS
 62
     7
100
AcDbCircle
 10
203.341381
 20
166.537397
 30
0.0
 40
2.0
100
AcDbArc
 50
135.0
 51
180.0
  0
LINE
  5
669
100
AcDbEntity
  8
0
  6
CONTINUOUS
 62
     7
100
AcDbLine
 10
213.141381
 20
156.943997
 30
0.0
 11
213.141381
 21
159.443997
 31
0.0
  0
LINE
  5
66A
100
AcDbEntity
  8
0
  6
CONTINUOUS
 62
     7
100
AcDbLine
 10
213.141381
 20
156.943997
 30
0.0
 11
213.341381
 21
156.943997
 31
0.0
  0
LINE
  5
66B
100
AcDbEntity
  8
0
  6
CONTINUOUS
 62
     7
100
AcDbLine
 10
213.141381
 20
159.443997
 30
0.0
 11
213.341381
 21
159.443997
 31
0.0
  0
LINE
  5
66C
100
AcDbEntity
  8
0
  6
CONTINUOUS
 62
     7
100
AcDbLine
 10
208.841481
 20
168.226797
 30
0.0
 11
208.841481
 21
164.871697
 31
0.0
  0
LINE
  5
66D
100
AcDbEntity
  8
0
  6
CONTINUOUS
 62
     7
100
AcDbLine
 10
208.841381
 20
178.193997
 30
0.0
 11
205.805781
 21
178.193997
 31
0.0
  0
LINE
  5
66E
100
AcDbEntity
  8
0
  6
CONTINUOUS
 62
     7
100
AcDbLine
 10
213.341381
 20
174.693897
 30
0.0
 11
213.341381
 21
180.193997
 31
0.0
  0
ARC
  5
66F
100
AcDbEntity
  8
0
  6
CONTINUOUS
 62
     7
100
AcDbCircle
 10
212.641381
 20
173.893997
 30
0.0
 40
0.8
100
AcDbArc
 50
90.0
 51
180.0
  0
LINE
  5
670
100
AcDbEntity
  8
0
  6
CONTINUOUS
 62
     7
100
AcDbLine
 10
211.841381
 20
173.893997
 30
0.0
 11
211.841381
 21
171.993897
 31
0.0
  0
LINE
  5
671
100
AcDbEntity
  8
0
  6
CONTINUOUS
 62
     7
100
AcDbLine
 10
212.641381
 20
171.193897
 30
0.0
 11
213.341381
 21
171.193897
 31
0.0
  0
ARC
  5
672
100
AcDbEntity
  8
0
  6
CONTINUOUS
 62
     7
100
AcDbCircle
 10
212.641381
 20
171.993897
 30
0.0
 40
0.8
100
AcDbArc
 50
180.0
 51
270.0
  0
LINE
  5
673
100
AcDbEntity
  8
0
  6
CONTINUOUS
 62
     7
100
AcDbLine
 10
213.341381
 20
174.693897
 30
0.0
 11
212.641381
 21
174.693897
 31
0.0
  0
LINE
  5
674
100
AcDbEntity
  8
0
  6
CONTINUOUS
 62
     7
100
AcDbLine
 10
209.841381
 20
181.193997
 30
0.0
 11
212.341381
 21
181.193997
 31
0.0
  0
ARC
  5
675
100
AcDbEntity
  8
0
  6
CONTINUOUS
 62
     7
100
AcDbCircle
 10
208.841381
 20
178.693997
 30
0.0
 40
0.5
100
AcDbArc
 50
270.0
 51
0.0
  0
ARC
  5
676
100
AcDbEntity
  8
0
  6
CONTINUOUS
 62
     7
100
AcDbCircle
 10
209.841381
 20
180.693997
 30
0.0
 40
0.5
100
AcDbArc
 50
90.0
 51
180.0
  0
LINE
  5
677
100
AcDbEntity
  8
0
  6
CONTINUOUS
 62
     7
100
AcDbLine
 10
209.341381
 20
178.693997
 30
0.0
 11
209.341381
 21
180.693997
 31
0.0
  0
ARC
  5
678
100
AcDbEntity
  8
0
  6
CONTINUOUS
 62
     7
100
AcDbCircle
 10
212.341381
 20
180.193997
 30
0.0
 40
1.0
100
AcDbArc
 50
0.0
 51
90.0
  0
ENDBLK
  5
67A
100
AcDbEntity
  8
0
  6
CONTINUOUS
100
AcDbBlockEnd
  0
BLOCK
  5
88D
100
AcDbEntity
  8
0
  6
CONTINUOUS
100
AcDbBlockBegin
  2
A$C8282
 70
     0
 10
0.0
 20
0.0
 30
0.0
  3
A$C8282
  1

  0
LINE
  5
870
100
AcDbEntity
  8
0
  6
CENTER
 62
     1
100
AcDbLine
 10
3.341382
 20
65.170657
 30
0.0
 11
123.341382
 21
65.170657
 31
0.0
  0
LINE
  5
871
100
AcDbEntity
  8
0
  6
CONTINUOUS
 62
     7
100
AcDbLine
 10
123.341382
 20
0.170557
 30
0.0
 11
3.341382
 21
0.170557
 31
0.0
  0
LINE
  5
872
100
AcDbEntity
  8
0
  6
CONTINUOUS
 62
     7
100
AcDbLine
 10
123.341382
 20
61.170657
 30
0.0
 11
3.341382
 21
61.170657
 31
0.0
  0
LINE
  5
873
100
AcDbEntity
  8
0
  6
CONTINUOUS
 62
     7
100
AcDbLine
 10
123.341382
 20
69.170657
 30
0.0
 11
3.341382
 21
69.170657
 31
0.0
  0
LINE
  5
874
100
AcDbEntity
  8
0
  6
DASHED
 62
     1
100
AcDbLine
 10
123.341382
 20
24.646257
 30
0.0
 11
3.341382
 21
24.646257
 31
0.0
  0
LINE
  5
875
100
AcDbEntity
  8
0
  6
CONTINUOUS
 62
     7
100
AcDbLine
 10
123.341382
 20
36.170657
 30
0.0
 11
3.341382
 21
36.170657
 31
0.0
  0
LINE
  5
876
100
AcDbEntity
  8
0
  6
CENTER
 62
     1
100
AcDbLine
 10
3.341382
 20
40.170657
 30
0.0
 11
123.341382
 21
40.170657
 31
0.0
  0
LINE
  5
877
100
AcDbEntity
  8
0
  6
CONTINUOUS
 62
     7
100
AcDbLine
 10
123.341382
 20
44.170657
 30
0.0
 11
3.341382
 21
44.170657
 31
0.0
  0
LINE
  5
878
100
AcDbEntity
  8
0
  6
CONTINUOUS
 62
     7
100
AcDbLine
 10
123.341382
 20
80.120757
 30
0.0
 11
3.341382
 21
80.120757
 31
0.0
  0
LINE
  5
879
100
AcDbEntity
  8
0
  6
CONTINUOUS
 62
     7
100
AcDbLine
 10
123.341382
 20
100.220557
 30
0.0
 11
3.341382
 21
100.220557
 31
0.0
  0
LINE
  5
87A
100
AcDbEntity
  8
0
  6
CENTER
 62
     1
100
AcDbLine
 10
3.341382
 20
115.170657
 30
0.0
 11
123.341382
 21
115.170657
 31
0.0
  0
LINE
  5
87B
100
AcDbEntity
  8
0
  6
CONTINUOUS
 62
     7
100
AcDbLine
 10
123.341382
 20
180.170757
 30
0.0
 11
3.341382
 21
180.170757
 31
0.0
  0
LINE
  5
87C
100
AcDbEntity
  8
0
  6
CONTINUOUS
 62
     7
100
AcDbLine
 10
123.341382
 20
119.170657
 30
0.0
 11
3.341382
 21
119.170657
 31
0.0
  0
LINE
  5
87D
100
AcDbEntity
  8
0
  6
CONTINUOUS
 62
     7
100
AcDbLine
 10
123.341382
 20
111.170657
 30
0.0
 11
3.341382
 21
111.170657
 31
0.0
  0
LINE
  5
87E
100
AcDbEntity
  8
0
  6
DASHED
 62
     1
100
AcDbLine
 10
123.341382
 20
155.695057
 30
0.0
 11
3.341382
 21
155.695057
 31
0.0
  0
LINE
  5
87F
100
AcDbEntity
  8
0
  6
CONTINUOUS
 62
     7
100
AcDbLine
 10
123.341382
 20
144.170657
 30
0.0
 11
3.341382
 21
144.170657
 31
0.0
  0
LINE
  5
880
100
AcDbEntity
  8
0
  6
CENTER
 62
     1
100
AcDbLine
 10
3.341382
 20
140.170657
 30
0.0
 11
123.341382
 21
140.170657
 31
0.0
  0
LINE
  5
881
100
AcDbEntity
  8
0
  6
CONTINUOUS
 62
     7
100
AcDbLine
 10
123.341382
 20
136.170657
 30
0.0
 11
3.341382
 21
136.170657
 31
0.0
  0
LINE
  5
882
100
AcDbEntity
  8
0
  6
CONTINUOUS
 62
     7
100
AcDbLine
 10
3.341382
 20
180.170757
 30
0.0
 11
3.341382
 21
0.170557
 31
0.0
  0
POLYLINE
  5
883
100
AcDbEntity
  8
0
100
AcDb2dPolyline
 66
     1
 10
0.0
 20
0.0
 30
0.0
 40
3.0
 41
3.0
  0
VERTEX
  5
884
100
AcDbEntity
  8
0
100
AcDbVertex
100
AcDb2dVertex
 10
3.341382
 20
178.670757
 30
0.0
 42
0.414214
  0
VERTEX
  5
885
100
AcDbEntity
  8
0
100
AcDbVertex
100
AcDb2dVertex
 10
4.841382
 20
180.170757
 30
0.0
 42
1.0
  0
SEQEND
  5
886
100
AcDbEntity
  8
0
  0
CIRCLE
  5
887
100
AcDbEntity
  8
0
100
AcDbCircle
 10
3.341382
 20
180.170757
 30
0.0
 40
3.0
  0
POLYLINE
  5
888
100
AcDbEntity
  8
0
100
AcDb2dPolyline
 66
     1
 10
0.0
 20
0.0
 30
0.0
 40
3.0
 41
3.0
  0
VERTEX
  5
889
100
AcDbEntity
  8
0
100
AcDbVertex
100
AcDb2dVertex
 10
3.341382
 20
181.670757
 30
0.0
 42
0.414214
  0
VERTEX
  5
88A
100
AcDbEntity
  8
0
100
AcDbVertex
100
AcDb2dVertex
 10
1.841382
 20
180.170757
 30
0.0
 42
1.0
  0
SEQEND
  5
88B
100
AcDbEntity
  8
0
  0
LINE
  5
88C
100
AcDbEntity
  8
0
  6
CONTINUOUS
 62
     7
100
AcDbLine
 10
123.341382
 20
180.170757
 30
0.0
 11
123.341382
 21
0.170557
 31
0.0
  0
ENDBLK
  5
88E
100
AcDbEntity
  8
0
  6
CONTINUOUS
100
AcDbBlockEnd
  0
BLOCK
  5
A60
100
AcDbEntity
  8
0
  6
CONTINUOUS
100
AcDbBlockBegin
  2
A$C9041
 70
     0
 10
0.0
 20
0.0
 30
0.0
  3
A$C9041
  1

  0
LINE
  5
891
100
AcDbEntity
  8
0
  6
CENTER
 62
     1
100
AcDbLine
 10
32.450626
 20
4.959357
 30
0.0
 11
32.450626
 21
181.525557
 31
0.0
  0
LINE
  5
892
100
AcDbEntity
  8
0
  6
CONTINUOUS
 62
     7
100
AcDbLine
 10
20.450626
 20
90.170657
 30
0.0
 11
20.450626
 21
113.386057
 31
0.0
  0
LINE
  5
893
100
AcDbEntity
  8
0
  6
CONTINUOUS
 62
     7
100
AcDbLine
 10
15.450626
 20
90.170657
 30
0.0
 11
15.450626
 21
104.212057
 31
0.0
  0
LINE
  5
894
100
AcDbEntity
  8
0
  6
CONTINUOUS
 62
     7
100
AcDbLine
 10
44.450626
 20
90.170657
 30
0.0
 11
44.450626
 21
113.386057
 31
0.0
  0
LINE
  5
895
100
AcDbEntity
  8
0
  6
CONTINUOUS
 62
     7
100
AcDbLine
 10
49.450626
 20
90.170657
 30
0.0
 11
49.450626
 21
104.212057
 31
0.0
  0
ARC
  5
896
100
AcDbEntity
  8
0
  6
CONTINUOUS
 62
     7
100
AcDbCircle
 10
30.141226
 20
52.170657
 30
0.0
 40
1.0
100
AcDbArc
 50
210.001
 51
270.0
  0
LINE
  5
897
100
AcDbEntity
  8
0
  6
CENTER
 62
     1
100
AcDbLine
 10
0.382626
 20
65.170657
 30
0.0
 11
64.518626
 21
65.170657
 31
0.0
  0
LINE
  5
898
100
AcDbEntity
  8
0
  6
CENTER
 62
     1
100
AcDbLine
 10
62.450626
 20
40.170657
 30
0.0
 11
15.385426
 21
40.170657
 31
0.0
  0
LINE
  5
899
100
AcDbEntity
  8
0
  6
CENTER
 62
     1
100
AcDbLine
 10
71.959626
 20
90.170657
 30
0.0
 11
4.309426
 21
90.170657
 31
0.0
  0
LINE
  5
89A
100
AcDbEntity
  8
0
  6
CONTINUOUS
 62
     7
100
AcDbLine
 10
30.534126
 20
23.718357
 30
0.0
 11
9.986326
 21
3.170657
 31
0.0
  0
ARC
  5
89B
100
AcDbEntity
  8
0
  6
CONTINUOUS
 62
     7
100
AcDbCircle
 10
29.771826
 20
33.703457
 30
0.0
 40
1.0
100
AcDbArc
 50
165.713
 51
329.287
  0
ARC
  5
89C
100
AcDbEntity
  8
0
  6
CONTINUOUS
 62
     7
100
AcDbCircle
 10
29.771826
 20
46.637857
 30
0.0
 40
1.0
100
AcDbArc
 50
30.7131
 51
194.287
  0
LINE
  5
89D
100
AcDbEntity
  8
0
  6
CONTINUOUS
 62
     7
100
AcDbLine
 10
2.450626
 20
36.170657
 30
0.0
 11
2.450626
 21
24.420657
 31
0.0
  0
ARC
  5
89E
100
AcDbEntity
  8
0
  6
CONTINUOUS
 62
     7
100
AcDbCircle
 10
10.302226
 20
39.335857
 30
0.0
 40
8.0
100
AcDbArc
 50
315.0
 51
0.0
  0
LINE
  5
89F
100
AcDbEntity
  8
0
  6
CONTINUOUS
 62
     7
100
AcDbLine
 10
6.450626
 20
36.170657
 30
0.0
 11
6.450626
 21
29.670657
 31
0.0
  0
LINE
  5
8A0
100
AcDbEntity
  8
0
  6
CONTINUOUS
 62
     7
100
AcDbLine
 10
3.450626
 20
35.170657
 30
0.0
 11
3.450626
 21
36.170657
 31
0.0
  0
LINE
  5
8A1
100
AcDbEntity
  8
0
  6
CONTINUOUS
 62
     7
100
AcDbLine
 10
4.450626
 20
35.170657
 30
0.0
 11
4.450626
 21
36.170657
 31
0.0
  0
ARC
  5
8A2
100
AcDbEntity
  8
0
  6
CONTINUOUS
 62
     7
100
AcDbCircle
 10
32.450626
 20
40.170657
 30
0.0
 40
7.0
100
AcDbArc
 50
212.652
 51
237.348
  0
LINE
  5
8A3
100
AcDbEntity
  8
0
  6
CONTINUOUS
 62
     7
100
AcDbLine
 10
2.450626
 20
6.670657
 30
0.0
 11
2.450626
 21
1.170657
 31
0.0
  0
LINE
  5
8A4
100
AcDbEntity
  8
0
  6
CONTINUOUS
 62
     7
100
AcDbLine
 10
5.950626
 20
0.170657
 30
0.0
 11
3.450626
 21
0.170657
 31
0.0
  0
ARC
  5
8A5
100
AcDbEntity
  8
0
  6
CONTINUOUS
 62
     7
100
AcDbCircle
 10
3.450626
 20
1.170657
 30
0.0
 40
1.0
100
AcDbArc
 50
180.0
 51
270.0
  0
LINE
  5
8A6
100
AcDbEntity
  8
0
  6
CONTINUOUS
 62
     7
100
AcDbLine
 10
6.950626
 20
3.170657
 30
0.0
 11
9.986526
 21
3.170657
 31
0.0
  0
LINE
  5
8A7
100
AcDbEntity
  8
0
  6
CONTINUOUS
 62
     7
100
AcDbLine
 10
6.450626
 20
2.670657
 30
0.0
 11
6.450626
 21
0.670657
 31
0.0
  0
ARC
  5
8A8
100
AcDbEntity
  8
0
  6
CONTINUOUS
 62
     7
100
AcDbCircle
 10
5.950626
 20
0.670657
 30
0.0
 40
0.5
100
AcDbArc
 50
270.0
 51
0.0
  0
ARC
  5
8A9
100
AcDbEntity
  8
0
  6
CONTINUOUS
 62
     7
100
AcDbCircle
 10
6.950626
 20
2.670657
 30
0.0
 40
0.5
100
AcDbArc
 50
90.0
 51
180.0
  0
LINE
  5
8AA
100
AcDbEntity
  8
0
  6
CONTINUOUS
 62
     7
100
AcDbLine
 10
13.864926
 20
13.412957
 30
0.0
 11
11.663826
 21
11.211857
 31
0.0
  0
ARC
  5
8AB
100
AcDbEntity
  8
0
  6
CONTINUOUS
 62
     7
100
AcDbCircle
 10
12.450726
 20
21.771157
 30
0.0
 40
2.0
100
AcDbArc
 50
0.0
 51
135.0
  0
LINE
  5
8AC
100
AcDbEntity
  8
0
  6
CONTINUOUS
 62
     7
100
AcDbLine
 10
13.622226
 20
32.170557
 30
0.0
 11
12.450626
 21
32.170557
 31
0.0
  0
LINE
  5
8AD
100
AcDbEntity
  8
0
  6
CONTINUOUS
 62
     7
100
AcDbLine
 10
2.450626
 20
21.920657
 30
0.0
 11
2.450626
 21
10.170657
 31
0.0
  0
ARC
  5
8AE
100
AcDbEntity
  8
0
  6
CONTINUOUS
 62
     7
100
AcDbCircle
 10
14.950626
 20
16.492957
 30
0.0
 40
7.5
100
AcDbArc
 50
135.0
 51
180.0
  0
ARC
  5
8AF
100
AcDbEntity
  8
0
  6
CONTINUOUS
 62
     7
100
AcDbCircle
 10
3.150626
 20
7.470657
 30
0.0
 40
0.8
100
AcDbArc
 50
270.0
 51
0.0
  0
ARC
  5
8B0
100
AcDbEntity
  8
0
  6
CONTINUOUS
 62
     7
100
AcDbCircle
 10
3.150626
 20
9.370757
 30
0.0
 40
0.8
100
AcDbArc
 50
0.0
 51
90.0
  0
LINE
  5
8B1
100
AcDbEntity
  8
0
  6
CONTINUOUS
 62
     7
100
AcDbLine
 10
2.450626
 20
6.670657
 30
0.0
 11
3.150626
 21
6.670657
 31
0.0
  0
LINE
  5
8B2
100
AcDbEntity
  8
0
  6
CONTINUOUS
 62
     7
100
AcDbLine
 10
3.950626
 20
7.470657
 30
0.0
 11
3.950626
 21
9.370757
 31
0.0
  0
LINE
  5
8B3
100
AcDbEntity
  8
0
  6
CONTINUOUS
 62
     7
100
AcDbLine
 10
3.150626
 20
10.170657
 30
0.0
 11
2.450626
 21
10.170657
 31
0.0
  0
LINE
  5
8B4
100
AcDbEntity
  8
0
  6
CONTINUOUS
 62
     7
100
AcDbLine
 10
7.450626
 20
12.956957
 30
0.0
 11
7.450626
 21
16.492957
 31
0.0
  0
ARC
  5
8B5
100
AcDbEntity
  8
0
  6
CONTINUOUS
 62
     7
100
AcDbCircle
 10
9.918626
 20
12.956957
 30
0.0
 40
2.46797
100
AcDbArc
 50
180.0
 51
315.0
  0
LINE
  5
8B6
100
AcDbEntity
  8
0
  6
CONTINUOUS
 62
     7
100
AcDbLine
 10
4.450626
 20
35.170657
 30
0.0
 11
3.450626
 21
35.170657
 31
0.0
  0
LINE
  5
8B7
100
AcDbEntity
  8
0
  6
CONTINUOUS
 62
     7
100
AcDbLine
 10
2.650626
 20
24.420657
 30
0.0
 11
2.650626
 21
21.920657
 31
0.0
  0
LINE
  5
8B8
100
AcDbEntity
  8
0
  6
CONTINUOUS
 62
     7
100
AcDbLine
 10
2.650626
 20
24.420657
 30
0.0
 11
2.450626
 21
24.420657
 31
0.0
  0
LINE
  5
8B9
100
AcDbEntity
  8
0
  6
CONTINUOUS
 62
     7
100
AcDbLine
 10
2.650626
 20
21.920657
 30
0.0
 11
2.450626
 21
21.920657
 31
0.0
  0
LINE
  5
8BA
100
AcDbEntity
  8
0
  6
CONTINUOUS
 62
     7
100
AcDbLine
 10
11.036426
 20
23.185357
 30
0.0
 11
9.647326
 21
21.796257
 31
0.0
  0
LINE
  5
8BB
100
AcDbEntity
  8
0
  6
CONTINUOUS
 62
     7
100
AcDbLine
 10
10.450626
 20
28.670657
 30
0.0
 11
7.450626
 21
28.670657
 31
0.0
  0
ARC
  5
8BC
100
AcDbEntity
  8
0
  6
CONTINUOUS
 62
     7
100
AcDbCircle
 10
7.450626
 20
29.670657
 30
0.0
 40
1.0
100
AcDbArc
 50
180.0
 51
270.0
  0
ARC
  5
8BD
100
AcDbEntity
  8
0
  6
CONTINUOUS
 62
     7
100
AcDbCircle
 10
12.450626
 20
31.170557
 30
0.0
 40
1.0
100
AcDbArc
 50
90.0
 51
180.0
  0
ARC
  5
8BE
100
AcDbEntity
  8
0
  6
CONTINUOUS
 62
     7
100
AcDbCircle
 10
10.450626
 20
29.670657
 30
0.0
 40
1.0
100
AcDbArc
 50
270.0
 51
0.0
  0
LINE
  5
8BF
100
AcDbEntity
  8
0
  6
CONTINUOUS
 62
     7
100
AcDbLine
 10
11.450626
 20
31.170557
 30
0.0
 11
11.450626
 21
29.670557
 31
0.0
  0
ARC
  5
8C0
100
AcDbEntity
  8
0
  6
CONTINUOUS
 62
     7
100
AcDbCircle
 10
18.450726
 20
20.827257
 30
0.0
 40
2.0
100
AcDbArc
 50
180.0
 51
315.0
  0
LINE
  5
8C1
100
AcDbEntity
  8
0
  6
CONTINUOUS
 62
     7
100
AcDbLine
 10
22.863826
 20
22.411957
 30
0.0
 11
19.864926
 21
19.413057
 31
0.0
  0
LINE
  5
8C2
100
AcDbEntity
  8
0
  6
CONTINUOUS
 62
     7
100
AcDbLine
 10
14.450726
 20
21.771157
 30
0.0
 11
14.450726
 21
14.827157
 31
0.0
  0
ARC
  5
8C3
100
AcDbEntity
  8
0
  6
CONTINUOUS
 62
     7
100
AcDbCircle
 10
12.450726
 20
14.827157
 30
0.0
 40
2.0
100
AcDbArc
 50
315.0
 51
0.0
  0
ARC
  5
8C4
100
AcDbEntity
  8
0
  6
CONTINUOUS
 62
     7
100
AcDbCircle
 10
21.390926
 20
32.125657
 30
0.0
 40
1.0
100
AcDbArc
 50
54.7198
 51
134.999
  0
ARC
  5
8C5
100
AcDbEntity
  8
0
  6
CONTINUOUS
 62
     7
100
AcDbCircle
 10
19.950726
 20
27.149757
 30
0.0
 40
3.5
100
AcDbArc
 50
135.0
 51
180.0
  0
LINE
  5
8C6
100
AcDbEntity
  8
0
  6
CONTINUOUS
 62
     7
100
AcDbLine
 10
16.450726
 20
20.827257
 30
0.0
 11
16.450726
 21
27.149757
 31
0.0
  0
ARC
  5
8C7
100
AcDbEntity
  8
0
  6
CONTINUOUS
 62
     7
100
AcDbCircle
 10
13.622226
 20
34.170557
 30
0.0
 40
2.0
100
AcDbArc
 50
270.0
 51
315.0
  0
LINE
  5
8C8
100
AcDbEntity
  8
0
  6
CONTINUOUS
 62
     7
100
AcDbLine
 10
15.959026
 20
33.678957
 30
0.0
 11
15.036426
 21
32.756357
 31
0.0
  0
LINE
  5
8C9
100
AcDbEntity
  8
0
  6
CONTINUOUS
 62
     7
100
AcDbLine
 10
20.683826
 20
32.832657
 30
0.0
 11
17.475826
 21
29.624657
 31
0.0
  0
ARC
  5
8CA
100
AcDbEntity
  8
0
  6
CONTINUOUS
 62
     7
100
AcDbCircle
 10
17.976226
 20
27.299457
 30
0.0
 40
6.91202
100
AcDbArc
 50
315.0
 51
54.7192
  0
ARC
  5
8CB
100
AcDbEntity
  8
0
  6
CONTINUOUS
 62
     7
100
AcDbCircle
 10
28.512026
 20
34.024257
 30
0.0
 40
0.3
100
AcDbArc
 50
345.712
 51
57.347
  0
ARC
  5
8CC
100
AcDbEntity
  8
0
  6
CONTINUOUS
 62
     7
100
AcDbCircle
 10
0.382626
 20
65.170657
 30
0.0
 40
10.0
100
AcDbArc
 50
301.788
 51
58.2117
  0
LINE
  5
8CD
100
AcDbEntity
  8
0
  6
CONTINUOUS
 62
     7
100
AcDbLine
 10
29.275126
 20
51.670657
 30
0.0
 11
20.450626
 21
66.955257
 31
0.0
  0
ARC
  5
8CE
100
AcDbEntity
  8
0
  6
CONTINUOUS
 62
     7
100
AcDbCircle
 10
16.433326
 20
63.913457
 30
0.0
 40
2.0
100
AcDbArc
 50
30.0003
 51
164.036
  0
LINE
  5
8CF
100
AcDbEntity
  8
0
  6
CONTINUOUS
 62
     7
100
AcDbLine
 10
13.622226
 20
48.170757
 30
0.0
 11
12.450626
 21
48.170757
 31
0.0
  0
LINE
  5
8D0
100
AcDbEntity
  8
0
  6
CONTINUOUS
 62
     7
100
AcDbLine
 10
12.481426
 20
57.370857
 30
0.0
 11
14.510426
 21
64.463457
 31
0.0
  0
ARC
  5
8D1
100
AcDbEntity
  8
0
  6
CONTINUOUS
 62
     7
100
AcDbCircle
 10
15.846526
 20
56.408157
 30
0.0
 40
3.5
100
AcDbArc
 50
164.036
 51
228.346
  0
LINE
  5
8D2
100
AcDbEntity
  8
0
  6
CONTINUOUS
 62
     7
100
AcDbLine
 10
2.450626
 20
44.170657
 30
0.0
 11
2.450626
 21
51.420657
 31
0.0
  0
LINE
  5
8D3
100
AcDbEntity
  8
0
  6
CONTINUOUS
 62
     7
100
AcDbLine
 10
6.450626
 20
44.170657
 30
0.0
 11
6.450626
 21
50.670657
 31
0.0
  0
LINE
  5
8D4
100
AcDbEntity
  8
0
  6
CONTINUOUS
 62
     7
100
AcDbLine
 10
11.450626
 20
49.170757
 30
0.0
 11
11.450626
 21
50.670657
 31
0.0
  0
LINE
  5
8D5
100
AcDbEntity
  8
0
  6
CONTINUOUS
 62
     7
100
AcDbLine
 10
4.450626
 20
45.170657
 30
0.0
 11
3.450626
 21
45.170657
 31
0.0
  0
LINE
  5
8D6
100
AcDbEntity
  8
0
  6
CONTINUOUS
 62
     7
100
AcDbLine
 10
3.450626
 20
36.170657
 30
0.0
 11
2.450626
 21
36.170657
 31
0.0
  0
LINE
  5
8D7
100
AcDbEntity
  8
0
  6
CONTINUOUS
 62
     7
100
AcDbLine
 10
3.450626
 20
44.170657
 30
0.0
 11
2.450626
 21
44.170657
 31
0.0
  0
LINE
  5
8D8
100
AcDbEntity
  8
0
  6
CONTINUOUS
 62
     7
100
AcDbLine
 10
3.450626
 20
45.170657
 30
0.0
 11
3.450626
 21
44.170657
 31
0.0
  0
LINE
  5
8D9
100
AcDbEntity
  8
0
  6
CONTINUOUS
 62
     7
100
AcDbLine
 10
6.450626
 20
36.170657
 30
0.0
 11
4.450626
 21
36.170657
 31
0.0
  0
LINE
  5
8DA
100
AcDbEntity
  8
0
  6
CONTINUOUS
 62
     7
100
AcDbLine
 10
6.450626
 20
44.170657
 30
0.0
 11
4.450626
 21
44.170657
 31
0.0
  0
LINE
  5
8DB
100
AcDbEntity
  8
0
  6
CONTINUOUS
 62
     7
100
AcDbLine
 10
4.450626
 20
45.170657
 30
0.0
 11
4.450626
 21
44.170657
 31
0.0
  0
ARC
  5
8DC
100
AcDbEntity
  8
0
  6
CONTINUOUS
 62
     7
100
AcDbCircle
 10
12.450626
 20
49.170757
 30
0.0
 40
1.0
100
AcDbArc
 50
180.0
 51
270.0
  0
LINE
  5
8DD
100
AcDbEntity
  8
0
  6
CONTINUOUS
 62
     7
100
AcDbLine
 10
2.450626
 20
61.120657
 30
0.0
 11
4.450626
 21
61.120657
 31
0.0
  0
LINE
  5
8DE
100
AcDbEntity
  8
0
  6
CONTINUOUS
 62
     7
100
AcDbLine
 10
2.450626
 20
61.120657
 30
0.0
 11
2.450626
 21
53.920657
 31
0.0
  0
LINE
  5
8DF
100
AcDbEntity
  8
0
  6
CONTINUOUS
 62
     7
100
AcDbLine
 10
2.650626
 20
53.920657
 30
0.0
 11
2.450626
 21
53.920657
 31
0.0
  0
LINE
  5
8E0
100
AcDbEntity
  8
0
  6
CONTINUOUS
 62
     7
100
AcDbLine
 10
2.450626
 20
51.420657
 30
0.0
 11
2.650626
 21
51.420657
 31
0.0
  0
LINE
  5
8E1
100
AcDbEntity
  8
0
  6
CONTINUOUS
 62
     7
100
AcDbLine
 10
2.650626
 20
51.420657
 30
0.0
 11
2.650626
 21
53.920657
 31
0.0
  0
LINE
  5
8E2
100
AcDbEntity
  8
0
  6
CONTINUOUS
 62
     7
100
AcDbLine
 10
4.450626
 20
61.120657
 30
0.0
 11
4.450626
 21
57.170657
 31
0.0
  0
LINE
  5
8E3
100
AcDbEntity
  8
0
  6
CONTINUOUS
 62
     7
100
AcDbLine
 10
4.450626
 20
58.080457
 30
0.0
 11
4.450626
 21
57.170657
 31
0.0
  0
LINE
  5
8E4
100
AcDbEntity
  8
0
  6
CONTINUOUS
 62
     7
100
AcDbLine
 10
10.450626
 20
51.670657
 30
0.0
 11
7.450626
 21
51.670657
 31
0.0
  0
ARC
  5
8E5
100
AcDbEntity
  8
0
  6
CONTINUOUS
 62
     7
100
AcDbCircle
 10
7.450626
 20
50.670657
 30
0.0
 40
1.0
100
AcDbArc
 50
90.0
 51
180.0
  0
ARC
  5
8E6
100
AcDbEntity
  8
0
  6
CONTINUOUS
 62
     7
100
AcDbCircle
 10
4.950626
 20
57.170657
 30
0.0
 40
0.5
100
AcDbArc
 50
180.0
 51
270.0
  0
LINE
  5
8E7
100
AcDbEntity
  8
0
  6
CONTINUOUS
 62
     7
100
AcDbLine
 10
4.950626
 20
56.670657
 30
0.0
 11
5.650426
 21
56.670657
 31
0.0
  0
ARC
  5
8E8
100
AcDbEntity
  8
0
  6
CONTINUOUS
 62
     7
100
AcDbCircle
 10
10.450626
 20
50.670657
 30
0.0
 40
1.0
100
AcDbArc
 50
0.0
 51
90.0
  0
LINE
  5
8E9
100
AcDbEntity
  8
0
  6
CONTINUOUS
 62
     7
100
AcDbLine
 10
20.688326
 20
46.625157
 30
0.0
 11
13.520226
 21
53.793057
 31
0.0
  0
ARC
  5
8EA
100
AcDbEntity
  8
0
  6
CONTINUOUS
 62
     7
100
AcDbCircle
 10
24.296026
 20
50.294957
 30
0.0
 40
2.0
100
AcDbArc
 50
308.85
 51
29.9999
  0
ARC
  5
8EB
100
AcDbEntity
  8
0
  6
CONTINUOUS
 62
     7
100
AcDbCircle
 10
22.102526
 20
48.039357
 30
0.0
 40
2.0
100
AcDbArc
 50
225.001
 51
322.75
  0
ARC
  5
8EC
100
AcDbEntity
  8
0
  6
CONTINUOUS
 62
     7
100
AcDbCircle
 10
10.302226
 20
41.005457
 30
0.0
 40
8.0
100
AcDbArc
 50
0.0
 51
45.0003
  0
LINE
  5
8ED
100
AcDbEntity
  8
0
  6
CONTINUOUS
 62
     7
100
AcDbLine
 10
18.302226
 20
39.335857
 30
0.0
 11
18.302226
 21
40.170657
 31
0.0
  0
LINE
  5
8EE
100
AcDbEntity
  8
0
  6
CONTINUOUS
 62
     7
100
AcDbLine
 10
18.302226
 20
41.005457
 30
0.0
 11
18.302226
 21
40.170657
 31
0.0
  0
LINE
  5
8EF
100
AcDbEntity
  8
0
  6
CONTINUOUS
 62
     7
100
AcDbLine
 10
15.959026
 20
46.662357
 30
0.0
 11
15.036426
 21
47.584957
 31
0.0
  0
ARC
  5
8F0
100
AcDbEntity
  8
0
  6
CONTINUOUS
 62
     7
100
AcDbCircle
 10
13.622226
 20
46.170757
 30
0.0
 40
2.0
100
AcDbArc
 50
45.0
 51
90.0
  0
ARC
  5
8F1
100
AcDbEntity
  8
0
  6
CONTINUOUS
 62
     7
100
AcDbCircle
 10
25.983526
 20
42.849457
 30
0.0
 40
1.0
100
AcDbArc
 50
75.7139
 51
239.287
  0
ARC
  5
8F2
100
AcDbEntity
  8
0
  6
CONTINUOUS
 62
     7
100
AcDbCircle
 10
25.983526
 20
37.491857
 30
0.0
 40
1.0
100
AcDbArc
 50
120.713
 51
284.286
  0
ARC
  5
8F3
100
AcDbEntity
  8
0
  6
CONTINUOUS
 62
     7
100
AcDbCircle
 10
32.450626
 20
40.170657
 30
0.0
 40
7.0
100
AcDbArc
 50
167.652
 51
192.348
  0
ARC
  5
8F4
100
AcDbEntity
  8
0
  6
CONTINUOUS
 62
     7
100
AcDbCircle
 10
25.319526
 20
38.609457
 30
0.0
 40
0.3
100
AcDbArc
 50
300.714
 51
12.3467
  0
ARC
  5
8F5
100
AcDbEntity
  8
0
  6
CONTINUOUS
 62
     7
100
AcDbCircle
 10
25.319526
 20
41.731757
 30
0.0
 40
0.3
100
AcDbArc
 50
347.653
 51
59.2856
  0
ARC
  5
8F6
100
AcDbEntity
  8
0
  6
CONTINUOUS
 62
     7
100
AcDbCircle
 10
26.304326
 20
36.232057
 30
0.0
 40
0.3
100
AcDbArc
 50
32.6522
 51
104.287
  0
ARC
  5
8F7
100
AcDbEntity
  8
0
  6
CONTINUOUS
 62
     7
100
AcDbCircle
 10
32.450626
 20
40.170657
 30
0.0
 40
11.0
100
AcDbArc
 50
128.85
 51
142.75
  0
ARC
  5
8F8
100
AcDbEntity
  8
0
  6
CONTINUOUS
 62
     7
100
AcDbCircle
 10
32.450626
 20
40.170657
 30
0.0
 40
7.0
100
AcDbArc
 50
122.652
 51
147.348
  0
ARC
  5
8F9
100
AcDbEntity
  8
0
  6
CONTINUOUS
 62
     7
100
AcDbCircle
 10
26.304326
 20
44.109257
 30
0.0
 40
0.3
100
AcDbArc
 50
255.712
 51
327.348
  0
ARC
  5
8FA
100
AcDbEntity
  8
0
  6
CONTINUOUS
 62
     7
100
AcDbCircle
 10
28.512026
 20
46.317057
 30
0.0
 40
0.3
100
AcDbArc
 50
302.653
 51
14.2879
  0
LINE
  5
8FB
100
AcDbEntity
  8
0
  6
CONTINUOUS
 62
     7
100
AcDbLine
 10
26.028026
 20
51.294957
 30
0.0
 11
18.165326
 21
64.913457
 31
0.0
  0
LINE
  5
8FC
100
AcDbEntity
  8
0
  6
CONTINUOUS
 62
     7
100
AcDbLine
 10
13.950626
 20
75.263157
 30
0.0
 11
5.450626
 21
80.170657
 31
0.0
  0
LINE
  5
8FD
100
AcDbEntity
  8
0
  6
CONTINUOUS
 62
     7
100
AcDbLine
 10
4.450626
 20
69.220657
 30
0.0
 11
2.450626
 21
69.220657
 31
0.0
  0
LINE
  5
8FE
100
AcDbEntity
  8
0
  6
CONTINUOUS
 62
     7
100
AcDbLine
 10
5.450626
 20
80.170657
 30
0.0
 11
2.450626
 21
80.170657
 31
0.0
  0
LINE
  5
8FF
100
AcDbEntity
  8
0
  6
CONTINUOUS
 62
     7
100
AcDbLine
 10
2.450626
 20
80.170657
 30
0.0
 11
2.450626
 21
69.220657
 31
0.0
  0
LINE
  5
900
100
AcDbEntity
  8
0
  6
CONTINUOUS
 62
     7
100
AcDbLine
 10
4.450626
 20
69.220657
 30
0.0
 11
4.450626
 21
73.170657
 31
0.0
  0
LINE
  5
901
100
AcDbEntity
  8
0
  6
CONTINUOUS
 62
     7
100
AcDbLine
 10
4.450626
 20
72.260857
 30
0.0
 11
4.450626
 21
73.170657
 31
0.0
  0
ARC
  5
902
100
AcDbEntity
  8
0
  6
CONTINUOUS
 62
     7
100
AcDbCircle
 10
4.950626
 20
73.170657
 30
0.0
 40
0.5
100
AcDbArc
 50
90.0
 51
180.0
  0
LINE
  5
903
100
AcDbEntity
  8
0
  6
CONTINUOUS
 62
     7
100
AcDbLine
 10
4.950626
 20
73.670657
 30
0.0
 11
5.650426
 21
73.670657
 31
0.0
  0
LINE
  5
904
100
AcDbEntity
  8
0
  6
CONTINUOUS
 62
     7
100
AcDbLine
 10
20.450626
 20
90.170657
 30
0.0
 11
20.450626
 21
66.955257
 31
0.0
  0
LINE
  5
905
100
AcDbEntity
  8
0
  6
CONTINUOUS
 62
     7
100
AcDbLine
 10
15.450626
 20
90.170657
 30
0.0
 11
15.450626
 21
76.129257
 31
0.0
  0
ARC
  5
906
100
AcDbEntity
  8
0
  6
CONTINUOUS
 62
     7
100
AcDbCircle
 10
14.450626
 20
76.129257
 30
0.0
 40
1.0
100
AcDbArc
 50
240.0
 51
0.0
  0
ARC
  5
907
100
AcDbEntity
  8
0
  6
CONTINUOUS
 62
     7
100
AcDbCircle
 10
32.450626
 20
40.170657
 30
0.0
 40
7.0
100
AcDbArc
 50
302.652
 51
327.348
  0
LINE
  5
908
100
AcDbEntity
  8
0
  6
CONTINUOUS
 62
     7
100
AcDbLine
 10
62.450626
 20
36.170657
 30
0.0
 11
62.450626
 21
24.420657
 31
0.0
  0
ARC
  5
909
100
AcDbEntity
  8
0
  6
CONTINUOUS
 62
     7
100
AcDbCircle
 10
54.599126
 20
39.335857
 30
0.0
 40
8.0
100
AcDbArc
 50
180.0
 51
225.0
  0
LINE
  5
90A
100
AcDbEntity
  8
0
  6
CONTINUOUS
 62
     7
100
AcDbLine
 10
58.450626
 20
36.170657
 30
0.0
 11
58.450626
 21
29.670657
 31
0.0
  0
LINE
  5
90B
100
AcDbEntity
  8
0
  6
CONTINUOUS
 62
     7
100
AcDbLine
 10
61.450626
 20
35.170657
 30
0.0
 11
61.450626
 21
36.170657
 31
0.0
  0
LINE
  5
90C
100
AcDbEntity
  8
0
  6
CONTINUOUS
 62
     7
100
AcDbLine
 10
60.450626
 20
35.170657
 30
0.0
 11
60.450626
 21
36.170657
 31
0.0
  0
LINE
  5
90D
100
AcDbEntity
  8
0
  6
CONTINUOUS
 62
     7
100
AcDbLine
 10
34.367126
 20
23.718257
 30
0.0
 11
54.915026
 21
3.170657
 31
0.0
  0
LINE
  5
90E
100
AcDbEntity
  8
0
  6
CONTINUOUS
 62
     7
100
AcDbLine
 10
62.450626
 20
6.670657
 30
0.0
 11
62.450626
 21
1.170657
 31
0.0
  0
LINE
  5
90F
100
AcDbEntity
  8
0
  6
CONTINUOUS
 62
     7
100
AcDbLine
 10
57.950626
 20
3.170657
 30
0.0
 11
54.914726
 21
3.170657
 31
0.0
  0
LINE
  5
910
100
AcDbEntity
  8
0
  6
CONTINUOUS
 62
     7
100
AcDbLine
 10
58.950626
 20
0.170657
 30
0.0
 11
61.450626
 21
0.170657
 31
0.0
  0
LINE
  5
911
100
AcDbEntity
  8
0
  6
CONTINUOUS
 62
     7
100
AcDbLine
 10
58.450626
 20
2.670657
 30
0.0
 11
58.450626
 21
0.670657
 31
0.0
  0
ARC
  5
912
100
AcDbEntity
  8
0
  6
CONTINUOUS
 62
     7
100
AcDbCircle
 10
58.950626
 20
0.670657
 30
0.0
 40
0.5
100
AcDbArc
 50
180.0
 51
270.0
  0
ARC
  5
913
100
AcDbEntity
  8
0
  6
CONTINUOUS
 62
     7
100
AcDbCircle
 10
57.950626
 20
2.670657
 30
0.0
 40
0.5
100
AcDbArc
 50
0.0
 51
90.0
  0
ARC
  5
914
100
AcDbEntity
  8
0
  6
CONTINUOUS
 62
     7
100
AcDbCircle
 10
61.450626
 20
1.170657
 30
0.0
 40
1.0
100
AcDbArc
 50
270.0
 51
0.0
  0
ARC
  5
915
100
AcDbEntity
  8
0
  6
CONTINUOUS
 62
     7
100
AcDbCircle
 10
46.450626
 20
20.827257
 30
0.0
 40
2.0
100
AcDbArc
 50
225.0
 51
0.0
  0
ARC
  5
916
100
AcDbEntity
  8
0
  6
CONTINUOUS
 62
     7
100
AcDbCircle
 10
44.950626
 20
27.149757
 30
0.0
 40
3.5
100
AcDbArc
 50
0.0
 51
45.0004
  0
LINE
  5
917
100
AcDbEntity
  8
0
  6
CONTINUOUS
 62
     7
100
AcDbLine
 10
42.037526
 20
22.411957
 30
0.0
 11
45.036426
 21
19.413057
 31
0.0
  0
ARC
  5
918
100
AcDbEntity
  8
0
  6
CONTINUOUS
 62
     7
100
AcDbCircle
 10
32.450626
 20
23.146357
 30
0.0
 40
2.0
100
AcDbArc
 50
16.6174
 51
163.382
  0
ARC
  5
919
100
AcDbEntity
  8
0
  6
CONTINUOUS
 62
     7
100
AcDbCircle
 10
35.129426
 20
33.703457
 30
0.0
 40
1.0
100
AcDbArc
 50
210.713
 51
14.2869
  0
ARC
  5
91A
100
AcDbEntity
  8
0
  6
CONTINUOUS
 62
     7
100
AcDbCircle
 10
32.450626
 20
40.170657
 30
0.0
 40
7.0
100
AcDbArc
 50
257.652
 51
282.348
  0
ARC
  5
91B
100
AcDbEntity
  8
0
  6
CONTINUOUS
 62
     7
100
AcDbCircle
 10
30.889526
 20
33.039557
 30
0.0
 40
0.3
100
AcDbArc
 50
77.6533
 51
149.288
  0
ARC
  5
91C
100
AcDbEntity
  8
0
  6
CONTINUOUS
 62
     7
100
AcDbCircle
 10
34.011826
 20
33.039557
 30
0.0
 40
0.3
100
AcDbArc
 50
30.7104
 51
102.347
  0
ARC
  5
91D
100
AcDbEntity
  8
0
  6
CONTINUOUS
 62
     7
100
AcDbCircle
 10
36.389226
 20
34.024257
 30
0.0
 40
0.3
100
AcDbArc
 50
122.653
 51
194.288
  0
ARC
  5
91E
100
AcDbEntity
  8
0
  6
CONTINUOUS
 62
     7
100
AcDbCircle
 10
46.925126
 20
27.299457
 30
0.0
 40
6.91202
100
AcDbArc
 50
125.281
 51
225.0
  0
ARC
  5
91F
100
AcDbEntity
  8
0
  6
CONTINUOUS
 62
     7
100
AcDbCircle
 10
43.510426
 20
32.125657
 30
0.0
 40
1.0
100
AcDbArc
 50
45.0006
 51
125.28
  0
LINE
  5
920
100
AcDbEntity
  8
0
  6
CONTINUOUS
 62
     7
100
AcDbLine
 10
44.217526
 20
32.832657
 30
0.0
 11
47.425526
 21
29.624657
 31
0.0
  0
LINE
  5
921
100
AcDbEntity
  8
0
  6
CONTINUOUS
 62
     7
100
AcDbLine
 10
50.450626
 20
21.771157
 30
0.0
 11
50.450626
 21
14.827157
 31
0.0
  0
ARC
  5
922
100
AcDbEntity
  8
0
  6
CONTINUOUS
 62
     7
100
AcDbCircle
 10
49.950726
 20
16.492957
 30
0.0
 40
7.5
100
AcDbArc
 50
0.000031
 51
45.0002
  0
LINE
  5
923
100
AcDbEntity
  8
0
  6
CONTINUOUS
 62
     7
100
AcDbLine
 10
62.450626
 20
21.920657
 30
0.0
 11
62.450626
 21
10.170657
 31
0.0
  0
ARC
  5
924
100
AcDbEntity
  8
0
  6
CONTINUOUS
 62
     7
100
AcDbCircle
 10
54.982726
 20
12.956957
 30
0.0
 40
2.46797
100
AcDbArc
 50
225.0
 51
0.0
  0
LINE
  5
925
100
AcDbEntity
  8
0
  6
CONTINUOUS
 62
     7
100
AcDbLine
 10
51.036426
 20
13.412957
 30
0.0
 11
53.237526
 21
11.211857
 31
0.0
  0
ARC
  5
926
100
AcDbEntity
  8
0
  6
CONTINUOUS
 62
     7
100
AcDbCircle
 10
52.450626
 20
14.827157
 30
0.0
 40
2.0
100
AcDbArc
 50
180.0
 51
225.0
  0
LINE
  5
927
100
AcDbEntity
  8
0
  6
CONTINUOUS
 62
     7
100
AcDbLine
 10
57.450726
 20
12.956957
 30
0.0
 11
57.450726
 21
16.492957
 31
0.0
  0
ARC
  5
928
100
AcDbEntity
  8
0
  6
CONTINUOUS
 62
     7
100
AcDbCircle
 10
61.750626
 20
9.370757
 30
0.0
 40
0.8
100
AcDbArc
 50
90.0
 51
180.0
  0
LINE
  5
929
100
AcDbEntity
  8
0
  6
CONTINUOUS
 62
     7
100
AcDbLine
 10
62.450626
 20
6.670657
 30
0.0
 11
61.750626
 21
6.670657
 31
0.0
  0
ARC
  5
92A
100
AcDbEntity
  8
0
  6
CONTINUOUS
 62
     7
100
AcDbCircle
 10
61.750626
 20
7.470657
 30
0.0
 40
0.8
100
AcDbArc
 50
180.0
 51
270.0
  0
LINE
  5
92B
100
AcDbEntity
  8
0
  6
CONTINUOUS
 62
     7
100
AcDbLine
 10
60.950626
 20
7.470657
 30
0.0
 11
60.950626
 21
9.370757
 31
0.0
  0
LINE
  5
92C
100
AcDbEntity
  8
0
  6
CONTINUOUS
 62
     7
100
AcDbLine
 10
61.750626
 20
10.170657
 30
0.0
 11
62.450626
 21
10.170657
 31
0.0
  0
LINE
  5
92D
100
AcDbEntity
  8
0
  6
CONTINUOUS
 62
     7
100
AcDbLine
 10
54.450626
 20
28.670657
 30
0.0
 11
57.450626
 21
28.670657
 31
0.0
  0
ARC
  5
92E
100
AcDbEntity
  8
0
  6
CONTINUOUS
 62
     7
100
AcDbCircle
 10
52.450626
 20
21.771157
 30
0.0
 40
2.0
100
AcDbArc
 50
45.0
 51
180.0
  0
LINE
  5
92F
100
AcDbEntity
  8
0
  6
CONTINUOUS
 62
     7
100
AcDbLine
 10
48.450626
 20
20.827257
 30
0.0
 11
48.450626
 21
27.149757
 31
0.0
  0
LINE
  5
930
100
AcDbEntity
  8
0
  6
CONTINUOUS
 62
     7
100
AcDbLine
 10
53.864826
 20
23.185357
 30
0.0
 11
55.254026
 21
21.796257
 31
0.0
  0
LINE
  5
931
100
AcDbEntity
  8
0
  6
CONTINUOUS
 62
     7
100
AcDbLine
 10
51.279026
 20
32.170557
 30
0.0
 11
52.450626
 21
32.170557
 31
0.0
  0
LINE
  5
932
100
AcDbEntity
  8
0
  6
CONTINUOUS
 62
     7
100
AcDbLine
 10
48.942226
 20
33.678957
 30
0.0
 11
49.864826
 21
32.756357
 31
0.0
  0
ARC
  5
933
100
AcDbEntity
  8
0
  6
CONTINUOUS
 62
     7
100
AcDbCircle
 10
51.279026
 20
34.170557
 30
0.0
 40
2.0
100
AcDbArc
 50
225.0
 51
270.0
  0
ARC
  5
934
100
AcDbEntity
  8
0
  6
CONTINUOUS
 62
     7
100
AcDbCircle
 10
52.450626
 20
31.170557
 30
0.0
 40
1.0
100
AcDbArc
 50
0.0
 51
90.0
  0
ARC
  5
935
100
AcDbEntity
  8
0
  6
CONTINUOUS
 62
     7
100
AcDbCircle
 10
54.450626
 20
29.670657
 30
0.0
 40
1.0
100
AcDbArc
 50
180.0
 51
270.0
  0
LINE
  5
936
100
AcDbEntity
  8
0
  6
CONTINUOUS
 62
     7
100
AcDbLine
 10
53.450626
 20
31.170557
 30
0.0
 11
53.450626
 21
29.670557
 31
0.0
  0
LINE
  5
937
100
AcDbEntity
  8
0
  6
CONTINUOUS
 62
     7
100
AcDbLine
 10
62.250626
 20
24.420657
 30
0.0
 11
62.250626
 21
21.920657
 31
0.0
  0
LINE
  5
938
100
AcDbEntity
  8
0
  6
CONTINUOUS
 62
     7
100
AcDbLine
 10
62.250626
 20
24.420657
 30
0.0
 11
62.450626
 21
24.420657
 31
0.0
  0
LINE
  5
939
100
AcDbEntity
  8
0
  6
CONTINUOUS
 62
     7
100
AcDbLine
 10
62.250626
 20
21.920657
 30
0.0
 11
62.450626
 21
21.920657
 31
0.0
  0
LINE
  5
93A
100
AcDbEntity
  8
0
  6
CONTINUOUS
 62
     7
100
AcDbLine
 10
60.450626
 20
35.170657
 30
0.0
 11
61.450626
 21
35.170657
 31
0.0
  0
ARC
  5
93B
100
AcDbEntity
  8
0
  6
CONTINUOUS
 62
     7
100
AcDbCircle
 10
57.450626
 20
29.670657
 30
0.0
 40
1.0
100
AcDbArc
 50
270.0
 51
0.0
  0
LINE
  5
93C
100
AcDbEntity
  8
0
  6
CONTINUOUS
 62
     7
100
AcDbLine
 10
35.626126
 20
51.670657
 30
0.0
 11
44.450626
 21
66.955257
 31
0.0
  0
ARC
  5
93D
100
AcDbEntity
  8
0
  6
CONTINUOUS
 62
     7
100
AcDbCircle
 10
64.518626
 20
65.170657
 30
0.0
 40
10.0
100
AcDbArc
 50
121.788
 51
238.212
  0
ARC
  5
93E
100
AcDbEntity
  8
0
  6
CONTINUOUS
 62
     7
100
AcDbCircle
 10
48.468026
 20
63.913457
 30
0.0
 40
2.0
100
AcDbArc
 50
15.9638
 51
150.0
  0
LINE
  5
93F
100
AcDbEntity
  8
0
  6
CONTINUOUS
 62
     7
100
AcDbLine
 10
44.212926
 20
46.625157
 30
0.0
 11
51.381026
 21
53.793057
 31
0.0
  0
ARC
  5
940
100
AcDbEntity
  8
0
  6
CONTINUOUS
 62
     7
100
AcDbCircle
 10
54.599126
 20
41.005457
 30
0.0
 40
8.0
100
AcDbArc
 50
135.0
 51
180.0
  0
ARC
  5
941
100
AcDbEntity
  8
0
  6
CONTINUOUS
 62
     7
100
AcDbCircle
 10
40.605326
 20
50.294957
 30
0.0
 40
2.0
100
AcDbArc
 50
150.0
 51
231.15
  0
ARC
  5
942
100
AcDbEntity
  8
0
  6
CONTINUOUS
 62
     7
100
AcDbCircle
 10
38.917826
 20
37.491857
 30
0.0
 40
1.0
100
AcDbArc
 50
255.714
 51
59.2869
  0
ARC
  5
943
100
AcDbEntity
  8
0
  6
CONTINUOUS
 62
     7
100
AcDbCircle
 10
38.917826
 20
42.849457
 30
0.0
 40
1.0
100
AcDbArc
 50
300.713
 51
104.286
  0
ARC
  5
944
100
AcDbEntity
  8
0
  6
CONTINUOUS
 62
     7
100
AcDbCircle
 10
38.597026
 20
36.232057
 30
0.0
 40
0.3
100
AcDbArc
 50
75.7125
 51
147.348
  0
ARC
  5
945
100
AcDbEntity
  8
0
  6
CONTINUOUS
 62
     7
100
AcDbCircle
 10
35.129426
 20
46.637857
 30
0.0
 40
1.0
100
AcDbArc
 50
345.713
 51
149.287
  0
ARC
  5
946
100
AcDbEntity
  8
0
  6
CONTINUOUS
 62
     7
100
AcDbCircle
 10
32.450626
 20
40.170657
 30
0.0
 40
7.0
100
AcDbArc
 50
77.6519
 51
102.348
  0
ARC
  5
947
100
AcDbEntity
  8
0
  6
CONTINUOUS
 62
     7
100
AcDbCircle
 10
30.889526
 20
47.301857
 30
0.0
 40
0.3
100
AcDbArc
 50
210.712
 51
282.347
  0
ARC
  5
948
100
AcDbEntity
  8
0
  6
CONTINUOUS
 62
     7
100
AcDbCircle
 10
34.011826
 20
47.301857
 30
0.0
 40
0.3
100
AcDbArc
 50
257.653
 51
329.29
  0
ARC
  5
949
100
AcDbEntity
  8
0
  6
CONTINUOUS
 62
     7
100
AcDbCircle
 10
32.450626
 20
40.170657
 30
0.0
 40
7.0
100
AcDbArc
 50
32.6517
 51
57.3481
  0
ARC
  5
94A
100
AcDbEntity
  8
0
  6
CONTINUOUS
 62
     7
100
AcDbCircle
 10
36.389226
 20
46.317057
 30
0.0
 40
0.3
100
AcDbArc
 50
165.712
 51
237.347
  0
ARC
  5
94B
100
AcDbEntity
  8
0
  6
CONTINUOUS
 62
     7
100
AcDbCircle
 10
38.597026
 20
44.109257
 30
0.0
 40
0.3
100
AcDbArc
 50
212.652
 51
284.287
  0
ARC
  5
94C
100
AcDbEntity
  8
0
  6
CONTINUOUS
 62
     7
100
AcDbCircle
 10
32.450626
 20
40.170657
 30
0.0
 40
7.0
100
AcDbArc
 50
347.652
 51
12.3482
  0
ARC
  5
94D
100
AcDbEntity
  8
0
  6
CONTINUOUS
 62
     7
100
AcDbCircle
 10
39.581726
 20
38.609457
 30
0.0
 40
0.3
100
AcDbArc
 50
167.653
 51
239.286
  0
ARC
  5
94E
100
AcDbEntity
  8
0
  6
CONTINUOUS
 62
     7
100
AcDbCircle
 10
39.581726
 20
41.731757
 30
0.0
 40
0.3
100
AcDbArc
 50
120.714
 51
192.347
  0
LINE
  5
94F
100
AcDbEntity
  8
0
  6
CONTINUOUS
 62
     7
100
AcDbLine
 10
46.599126
 20
39.335857
 30
0.0
 11
46.599126
 21
40.170657
 31
0.0
  0
LINE
  5
950
100
AcDbEntity
  8
0
  6
CONTINUOUS
 62
     7
100
AcDbLine
 10
46.599126
 20
41.005457
 30
0.0
 11
46.599126
 21
40.170657
 31
0.0
  0
ARC
  5
951
100
AcDbEntity
  8
0
  6
CONTINUOUS
 62
     7
100
AcDbCircle
 10
42.798826
 20
48.039357
 30
0.0
 40
2.0
100
AcDbArc
 50
217.25
 51
314.999
  0
ARC
  5
952
100
AcDbEntity
  8
0
  6
CONTINUOUS
 62
     7
100
AcDbCircle
 10
32.450626
 20
40.170657
 30
0.0
 40
11.0
100
AcDbArc
 50
37.2495
 51
51.1502
  0
LINE
  5
953
100
AcDbEntity
  8
0
  6
CONTINUOUS
 62
     7
100
AcDbLine
 10
34.760126
 20
51.170657
 30
0.0
 11
30.141226
 21
51.170657
 31
0.0
  0
ARC
  5
954
100
AcDbEntity
  8
0
  6
CONTINUOUS
 62
     7
100
AcDbCircle
 10
34.760126
 20
52.170657
 30
0.0
 40
1.0
100
AcDbArc
 50
270.0
 51
330.0
  0
LINE
  5
955
100
AcDbEntity
  8
0
  6
CONTINUOUS
 62
     7
100
AcDbLine
 10
38.873226
 20
51.294957
 30
0.0
 11
46.735926
 21
64.913457
 31
0.0
  0
LINE
  5
956
100
AcDbEntity
  8
0
  6
CONTINUOUS
 62
     7
100
AcDbLine
 10
62.450626
 20
44.170657
 30
0.0
 11
62.450626
 21
51.420657
 31
0.0
  0
LINE
  5
957
100
AcDbEntity
  8
0
  6
CONTINUOUS
 62
     7
100
AcDbLine
 10
58.450626
 20
44.170657
 30
0.0
 11
58.450626
 21
50.670657
 31
0.0
  0
LINE
  5
958
100
AcDbEntity
  8
0
  6
CONTINUOUS
 62
     7
100
AcDbLine
 10
53.450626
 20
49.170757
 30
0.0
 11
53.450626
 21
50.670657
 31
0.0
  0
LINE
  5
959
100
AcDbEntity
  8
0
  6
CONTINUOUS
 62
     7
100
AcDbLine
 10
51.279026
 20
48.170757
 30
0.0
 11
52.450626
 21
48.170757
 31
0.0
  0
LINE
  5
95A
100
AcDbEntity
  8
0
  6
CONTINUOUS
 62
     7
100
AcDbLine
 10
48.942226
 20
46.662357
 30
0.0
 11
49.864826
 21
47.584957
 31
0.0
  0
ARC
  5
95B
100
AcDbEntity
  8
0
  6
CONTINUOUS
 62
     7
100
AcDbCircle
 10
51.279026
 20
46.170757
 30
0.0
 40
2.0
100
AcDbArc
 50
90.0
 51
135.0
  0
ARC
  5
95C
100
AcDbEntity
  8
0
  6
CONTINUOUS
 62
     7
100
AcDbCircle
 10
52.450626
 20
49.170757
 30
0.0
 40
1.0
100
AcDbArc
 50
270.0
 51
0.0
  0
LINE
  5
95D
100
AcDbEntity
  8
0
  6
CONTINUOUS
 62
     7
100
AcDbLine
 10
58.450626
 20
36.170657
 30
0.0
 11
60.450626
 21
36.170657
 31
0.0
  0
LINE
  5
95E
100
AcDbEntity
  8
0
  6
CONTINUOUS
 62
     7
100
AcDbLine
 10
61.450626
 20
36.170657
 30
0.0
 11
62.450626
 21
36.170657
 31
0.0
  0
LINE
  5
95F
100
AcDbEntity
  8
0
  6
CONTINUOUS
 62
     7
100
AcDbLine
 10
60.450626
 20
45.170657
 30
0.0
 11
61.450626
 21
45.170657
 31
0.0
  0
LINE
  5
960
100
AcDbEntity
  8
0
  6
CONTINUOUS
 62
     7
100
AcDbLine
 10
60.450626
 20
45.170657
 30
0.0
 11
60.450626
 21
44.170657
 31
0.0
  0
LINE
  5
961
100
AcDbEntity
  8
0
  6
CONTINUOUS
 62
     7
100
AcDbLine
 10
58.450626
 20
44.170657
 30
0.0
 11
60.450626
 21
44.170657
 31
0.0
  0
LINE
  5
962
100
AcDbEntity
  8
0
  6
CONTINUOUS
 62
     7
100
AcDbLine
 10
61.450626
 20
44.170657
 30
0.0
 11
62.450626
 21
44.170657
 31
0.0
  0
LINE
  5
963
100
AcDbEntity
  8
0
  6
CONTINUOUS
 62
     7
100
AcDbLine
 10
61.450626
 20
45.170657
 30
0.0
 11
61.450626
 21
44.170657
 31
0.0
  0
LINE
  5
964
100
AcDbEntity
  8
0
  6
CONTINUOUS
 62
     7
100
AcDbLine
 10
54.450626
 20
51.670657
 30
0.0
 11
57.450626
 21
51.670657
 31
0.0
  0
LINE
  5
965
100
AcDbEntity
  8
0
  6
CONTINUOUS
 62
     7
100
AcDbLine
 10
52.419826
 20
57.370857
 30
0.0
 11
50.390826
 21
64.463457
 31
0.0
  0
ARC
  5
966
100
AcDbEntity
  8
0
  6
CONTINUOUS
 62
     7
100
AcDbCircle
 10
49.054726
 20
56.408157
 30
0.0
 40
3.5
100
AcDbArc
 50
311.654
 51
15.964
  0
ARC
  5
967
100
AcDbEntity
  8
0
  6
CONTINUOUS
 62
     7
100
AcDbCircle
 10
54.450626
 20
50.670657
 30
0.0
 40
1.0
100
AcDbArc
 50
90.0
 51
180.0
  0
LINE
  5
968
100
AcDbEntity
  8
0
  6
CONTINUOUS
 62
     7
100
AcDbLine
 10
62.450626
 20
61.170657
 30
0.0
 11
62.450626
 21
53.920657
 31
0.0
  0
LINE
  5
969
100
AcDbEntity
  8
0
  6
CONTINUOUS
 62
     7
100
AcDbLine
 10
60.450626
 20
61.170657
 30
0.0
 11
60.450626
 21
57.170657
 31
0.0
  0
LINE
  5
96A
100
AcDbEntity
  8
0
  6
CONTINUOUS
 62
     7
100
AcDbLine
 10
60.450626
 20
58.080457
 30
0.0
 11
60.450626
 21
57.170657
 31
0.0
  0
ARC
  5
96B
100
AcDbEntity
  8
0
  6
CONTINUOUS
 62
     7
100
AcDbCircle
 10
57.450626
 20
50.670657
 30
0.0
 40
1.0
100
AcDbArc
 50
0.0
 51
90.0
  0
ARC
  5
96C
100
AcDbEntity
  8
0
  6
CONTINUOUS
 62
     7
100
AcDbCircle
 10
59.950626
 20
57.170657
 30
0.0
 40
0.5
100
AcDbArc
 50
270.0
 51
0.0
  0
LINE
  5
96D
100
AcDbEntity
  8
0
  6
CONTINUOUS
 62
     7
100
AcDbLine
 10
59.950626
 20
56.670657
 30
0.0
 11
59.250826
 21
56.670657
 31
0.0
  0
LINE
  5
96E
100
AcDbEntity
  8
0
  6
CONTINUOUS
 62
     7
100
AcDbLine
 10
62.250626
 20
53.920657
 30
0.0
 11
62.450626
 21
53.920657
 31
0.0
  0
LINE
  5
96F
100
AcDbEntity
  8
0
  6
CONTINUOUS
 62
     7
100
AcDbLine
 10
62.450626
 20
51.420657
 30
0.0
 11
62.250626
 21
51.420657
 31
0.0
  0
LINE
  5
970
100
AcDbEntity
  8
0
  6
CONTINUOUS
 62
     7
100
AcDbLine
 10
62.250626
 20
51.420657
 30
0.0
 11
62.250626
 21
53.920657
 31
0.0
  0
LINE
  5
971
100
AcDbEntity
  8
0
  6
CONTINUOUS
 62
     7
100
AcDbLine
 10
62.450626
 20
61.170657
 30
0.0
 11
60.450626
 21
61.170657
 31
0.0
  0
LINE
  5
972
100
AcDbEntity
  8
0
  6
CONTINUOUS
 62
     7
100
AcDbLine
 10
44.450626
 20
90.170657
 30
0.0
 11
44.450626
 21
66.955257
 31
0.0
  0
LINE
  5
973
100
AcDbEntity
  8
0
  6
CONTINUOUS
 62
     7
100
AcDbLine
 10
49.450626
 20
90.170657
 30
0.0
 11
49.450626
 21
76.129257
 31
0.0
  0
LINE
  5
974
100
AcDbEntity
  8
0
  6
CONTINUOUS
 62
     7
100
AcDbLine
 10
50.950626
 20
75.263157
 30
0.0
 11
59.450626
 21
80.120657
 31
0.0
  0
ARC
  5
975
100
AcDbEntity
  8
0
  6
CONTINUOUS
 62
     7
100
AcDbCircle
 10
50.450626
 20
76.129257
 30
0.0
 40
1.0
100
AcDbArc
 50
180.0
 51
300.0
  0
LINE
  5
976
100
AcDbEntity
  8
0
  6
CONTINUOUS
 62
     7
100
AcDbLine
 10
62.450626
 20
80.120657
 30
0.0
 11
62.450626
 21
69.170657
 31
0.0
  0
LINE
  5
977
100
AcDbEntity
  8
0
  6
CONTINUOUS
 62
     7
100
AcDbLine
 10
60.450626
 20
69.170657
 30
0.0
 11
60.450626
 21
73.170657
 31
0.0
  0
LINE
  5
978
100
AcDbEntity
  8
0
  6
CONTINUOUS
 62
     7
100
AcDbLine
 10
60.450626
 20
72.260857
 30
0.0
 11
60.450626
 21
73.170657
 31
0.0
  0
LINE
  5
979
100
AcDbEntity
  8
0
  6
CONTINUOUS
 62
     7
100
AcDbLine
 10
60.450626
 20
69.170657
 30
0.0
 11
62.450626
 21
69.170657
 31
0.0
  0
LINE
  5
97A
100
AcDbEntity
  8
0
  6
CONTINUOUS
 62
     7
100
AcDbLine
 10
59.450626
 20
80.120657
 30
0.0
 11
62.450626
 21
80.120657
 31
0.0
  0
ARC
  5
97B
100
AcDbEntity
  8
0
  6
CONTINUOUS
 62
     7
100
AcDbCircle
 10
59.950626
 20
73.170657
 30
0.0
 40
0.5
100
AcDbArc
 50
0.0
 51
90.0
  0
LINE
  5
97C
100
AcDbEntity
  8
0
  6
CONTINUOUS
 62
     7
100
AcDbLine
 10
59.950626
 20
73.670657
 30
0.0
 11
59.250826
 21
73.670657
 31
0.0
  0
ARC
  5
97D
100
AcDbEntity
  8
0
  6
CONTINUOUS
 62
     7
100
AcDbCircle
 10
30.141226
 20
128.170657
 30
0.0
 40
1.0
100
AcDbArc
 50
90.0
 51
150.0
  0
LINE
  5
97E
100
AcDbEntity
  8
0
  6
CONTINUOUS
 62
     7
100
AcDbLine
 10
30.534126
 20
156.622957
 30
0.0
 11
9.986326
 21
177.170657
 31
0.0
  0
LINE
  5
97F
100
AcDbEntity
  8
0
  6
CENTER
 62
     1
100
AcDbLine
 10
0.382626
 20
115.170657
 30
0.0
 11
64.518626
 21
115.170657
 31
0.0
  0
LINE
  5
980
100
AcDbEntity
  8
0
  6
CENTER
 62
     1
100
AcDbLine
 10
58.450626
 20
140.170657
 30
0.0
 11
4.450626
 21
140.170657
 31
0.0
  0
ARC
  5
981
100
AcDbEntity
  8
0
  6
CONTINUOUS
 62
     7
100
AcDbCircle
 10
29.771826
 20
133.703457
 30
0.0
 40
1.0
100
AcDbArc
 50
165.713
 51
329.287
  0
ARC
  5
982
100
AcDbEntity
  8
0
  6
CONTINUOUS
 62
     7
100
AcDbCircle
 10
29.771826
 20
146.637857
 30
0.0
 40
1.0
100
AcDbArc
 50
30.7131
 51
194.287
  0
LINE
  5
983
100
AcDbEntity
  8
0
  6
CONTINUOUS
 62
     7
100
AcDbLine
 10
2.450626
 20
144.220657
 30
0.0
 11
2.450626
 21
155.970657
 31
0.0
  0
LINE
  5
984
100
AcDbEntity
  8
0
  6
CONTINUOUS
 62
     7
100
AcDbLine
 10
16.450726
 20
159.514057
 30
0.0
 11
16.450726
 21
153.191557
 31
0.0
  0
ARC
  5
985
100
AcDbEntity
  8
0
  6
CONTINUOUS
 62
     7
100
AcDbCircle
 10
17.976226
 20
153.041857
 30
0.0
 40
6.91202
100
AcDbArc
 50
305.281
 51
44.9996
  0
LINE
  5
986
100
AcDbEntity
  8
0
  6
CONTINUOUS
 62
     7
100
AcDbLine
 10
26.028026
 20
129.046357
 30
0.0
 11
18.165326
 21
115.427857
 31
0.0
  0
LINE
  5
987
100
AcDbEntity
  8
0
  6
CONTINUOUS
 62
     7
100
AcDbLine
 10
29.275226
 20
128.670657
 30
0.0
 11
20.450626
 21
113.386057
 31
0.0
  0
LINE
  5
988
100
AcDbEntity
  8
0
  6
CONTINUOUS
 62
     7
100
AcDbLine
 10
2.450626
 20
119.170657
 30
0.0
 11
2.450626
 21
126.420657
 31
0.0
  0
ARC
  5
989
100
AcDbEntity
  8
0
  6
CONTINUOUS
 62
     7
100
AcDbCircle
 10
15.846526
 20
123.933057
 30
0.0
 40
3.5
100
AcDbArc
 50
131.654
 51
195.964
  0
LINE
  5
98A
100
AcDbEntity
  8
0
  6
CONTINUOUS
 62
     7
100
AcDbLine
 10
12.481426
 20
122.970457
 30
0.0
 11
14.510426
 21
115.877857
 31
0.0
  0
LINE
  5
98B
100
AcDbEntity
  8
0
  6
CONTINUOUS
 62
     7
100
AcDbLine
 10
13.950626
 20
105.078157
 30
0.0
 11
5.450626
 21
100.170657
 31
0.0
  0
ARC
  5
98C
100
AcDbEntity
  8
0
  6
CONTINUOUS
 62
     7
100
AcDbCircle
 10
0.382626
 20
115.170657
 30
0.0
 40
10.0
100
AcDbArc
 50
301.788
 51
58.2117
  0
LINE
  5
98D
100
AcDbEntity
  8
0
  6
CONTINUOUS
 62
     7
100
AcDbLine
 10
2.450626
 20
100.170657
 30
0.0
 11
2.450626
 21
111.170657
 31
0.0
  0
LINE
  5
98E
100
AcDbEntity
  8
0
  6
CONTINUOUS
 62
     7
100
AcDbLine
 10
4.450626
 20
111.170657
 30
0.0
 11
4.450626
 21
107.170657
 31
0.0
  0
LINE
  5
98F
100
AcDbEntity
  8
0
  6
CONTINUOUS
 62
     7
100
AcDbLine
 10
5.450626
 20
100.170657
 30
0.0
 11
2.450626
 21
100.170657
 31
0.0
  0
ARC
  5
990
100
AcDbEntity
  8
0
  6
CONTINUOUS
 62
     7
100
AcDbCircle
 10
4.950626
 20
107.170657
 30
0.0
 40
0.5
100
AcDbArc
 50
180.0
 51
270.0
  0
LINE
  5
991
100
AcDbEntity
  8
0
  6
CONTINUOUS
 62
     7
100
AcDbLine
 10
4.950626
 20
106.670657
 30
0.0
 11
5.650426
 21
106.670657
 31
0.0
  0
LINE
  5
992
100
AcDbEntity
  8
0
  6
CONTINUOUS
 62
     7
100
AcDbLine
 10
4.450626
 20
108.080457
 30
0.0
 11
4.450626
 21
107.170657
 31
0.0
  0
LINE
  5
993
100
AcDbEntity
  8
0
  6
CONTINUOUS
 62
     7
100
AcDbLine
 10
4.450626
 20
111.170657
 30
0.0
 11
2.450626
 21
111.170657
 31
0.0
  0
LINE
  5
994
100
AcDbEntity
  8
0
  6
CONTINUOUS
 62
     7
100
AcDbLine
 10
2.450626
 20
119.170657
 30
0.0
 11
4.450626
 21
119.170657
 31
0.0
  0
LINE
  5
995
100
AcDbEntity
  8
0
  6
CONTINUOUS
 62
     7
100
AcDbLine
 10
4.450626
 20
119.170657
 30
0.0
 11
4.450626
 21
123.170657
 31
0.0
  0
ARC
  5
996
100
AcDbEntity
  8
0
  6
CONTINUOUS
 62
     7
100
AcDbCircle
 10
4.950626
 20
123.170657
 30
0.0
 40
0.5
100
AcDbArc
 50
90.0
 51
180.0
  0
LINE
  5
997
100
AcDbEntity
  8
0
  6
CONTINUOUS
 62
     7
100
AcDbLine
 10
4.450626
 20
122.260857
 30
0.0
 11
4.450626
 21
123.170657
 31
0.0
  0
LINE
  5
998
100
AcDbEntity
  8
0
  6
CONTINUOUS
 62
     7
100
AcDbLine
 10
4.950626
 20
123.670657
 30
0.0
 11
5.650426
 21
123.670657
 31
0.0
  0
ARC
  5
999
100
AcDbEntity
  8
0
  6
CONTINUOUS
 62
     7
100
AcDbCircle
 10
14.450626
 20
104.212057
 30
0.0
 40
1.0
100
AcDbArc
 50
0.0
 51
120.0
  0
ARC
  5
99A
100
AcDbEntity
  8
0
  6
CONTINUOUS
 62
     7
100
AcDbCircle
 10
16.433326
 20
116.427857
 30
0.0
 40
2.0
100
AcDbArc
 50
195.964
 51
330.0
  0
LINE
  5
99B
100
AcDbEntity
  8
0
  6
CONTINUOUS
 62
     7
100
AcDbLine
 10
13.622226
 20
132.170557
 30
0.0
 11
12.450626
 21
132.170557
 31
0.0
  0
LINE
  5
99C
100
AcDbEntity
  8
0
  6
CONTINUOUS
 62
     7
100
AcDbLine
 10
13.622226
 20
148.170757
 30
0.0
 11
12.450626
 21
148.170757
 31
0.0
  0
LINE
  5
99D
100
AcDbEntity
  8
0
  6
CONTINUOUS
 62
     7
100
AcDbLine
 10
4.450626
 20
135.120657
 30
0.0
 11
3.450626
 21
135.120657
 31
0.0
  0
LINE
  5
99E
100
AcDbEntity
  8
0
  6
CONTINUOUS
 62
     7
100
AcDbLine
 10
2.450626
 20
136.120657
 30
0.0
 11
2.450626
 21
128.920657
 31
0.0
  0
LINE
  5
99F
100
AcDbEntity
  8
0
  6
CONTINUOUS
 62
     7
100
AcDbLine
 10
2.650626
 20
128.920657
 30
0.0
 11
2.650626
 21
126.420657
 31
0.0
  0
LINE
  5
9A0
100
AcDbEntity
  8
0
  6
CONTINUOUS
 62
     7
100
AcDbLine
 10
2.650626
 20
126.420657
 30
0.0
 11
2.450626
 21
126.420657
 31
0.0
  0
LINE
  5
9A1
100
AcDbEntity
  8
0
  6
CONTINUOUS
 62
     7
100
AcDbLine
 10
2.450626
 20
128.920657
 30
0.0
 11
2.650626
 21
128.920657
 31
0.0
  0
LINE
  5
9A2
100
AcDbEntity
  8
0
  6
CONTINUOUS
 62
     7
100
AcDbLine
 10
3.450626
 20
135.120657
 30
0.0
 11
3.450626
 21
136.120657
 31
0.0
  0
LINE
  5
9A3
100
AcDbEntity
  8
0
  6
CONTINUOUS
 62
     7
100
AcDbLine
 10
3.450626
 20
136.120657
 30
0.0
 11
2.450626
 21
136.120657
 31
0.0
  0
LINE
  5
9A4
100
AcDbEntity
  8
0
  6
CONTINUOUS
 62
     7
100
AcDbLine
 10
6.450626
 20
136.120657
 30
0.0
 11
6.450626
 21
129.670657
 31
0.0
  0
ARC
  5
9A5
100
AcDbEntity
  8
0
  6
CONTINUOUS
 62
     7
100
AcDbCircle
 10
12.450626
 20
131.170557
 30
0.0
 40
1.0
100
AcDbArc
 50
90.0
 51
180.0
  0
LINE
  5
9A6
100
AcDbEntity
  8
0
  6
CONTINUOUS
 62
     7
100
AcDbLine
 10
10.450626
 20
128.670657
 30
0.0
 11
7.450626
 21
128.670657
 31
0.0
  0
ARC
  5
9A7
100
AcDbEntity
  8
0
  6
CONTINUOUS
 62
     7
100
AcDbCircle
 10
7.450626
 20
129.670657
 30
0.0
 40
1.0
100
AcDbArc
 50
180.0
 51
270.0
  0
ARC
  5
9A8
100
AcDbEntity
  8
0
  6
CONTINUOUS
 62
     7
100
AcDbCircle
 10
10.450626
 20
129.670657
 30
0.0
 40
1.0
100
AcDbArc
 50
270.0
 51
0.0
  0
LINE
  5
9A9
100
AcDbEntity
  8
0
  6
CONTINUOUS
 62
     7
100
AcDbLine
 10
11.450626
 20
131.170557
 30
0.0
 11
11.450626
 21
129.670657
 31
0.0
  0
LINE
  5
9AA
100
AcDbEntity
  8
0
  6
CONTINUOUS
 62
     7
100
AcDbLine
 10
4.450626
 20
135.120657
 30
0.0
 11
4.450626
 21
136.120657
 31
0.0
  0
LINE
  5
9AB
100
AcDbEntity
  8
0
  6
CONTINUOUS
 62
     7
100
AcDbLine
 10
6.450626
 20
136.120657
 30
0.0
 11
4.450626
 21
136.120657
 31
0.0
  0
LINE
  5
9AC
100
AcDbEntity
  8
0
  6
CONTINUOUS
 62
     7
100
AcDbLine
 10
4.450626
 20
145.220657
 30
0.0
 11
3.450626
 21
145.220657
 31
0.0
  0
LINE
  5
9AD
100
AcDbEntity
  8
0
  6
CONTINUOUS
 62
     7
100
AcDbLine
 10
3.450626
 20
144.220657
 30
0.0
 11
2.450626
 21
144.220657
 31
0.0
  0
LINE
  5
9AE
100
AcDbEntity
  8
0
  6
CONTINUOUS
 62
     7
100
AcDbLine
 10
3.450626
 20
145.220657
 30
0.0
 11
3.450626
 21
144.220657
 31
0.0
  0
LINE
  5
9AF
100
AcDbEntity
  8
0
  6
CONTINUOUS
 62
     7
100
AcDbLine
 10
6.450626
 20
144.220657
 30
0.0
 11
6.450626
 21
150.670657
 31
0.0
  0
LINE
  5
9B0
100
AcDbEntity
  8
0
  6
CONTINUOUS
 62
     7
100
AcDbLine
 10
6.450626
 20
144.220657
 30
0.0
 11
4.450626
 21
144.220657
 31
0.0
  0
LINE
  5
9B1
100
AcDbEntity
  8
0
  6
CONTINUOUS
 62
     7
100
AcDbLine
 10
4.450626
 20
145.220657
 30
0.0
 11
4.450626
 21
144.220657
 31
0.0
  0
LINE
  5
9B2
100
AcDbEntity
  8
0
  6
CONTINUOUS
 62
     7
100
AcDbLine
 10
10.450626
 20
151.670657
 30
0.0
 11
7.450626
 21
151.670657
 31
0.0
  0
ARC
  5
9B3
100
AcDbEntity
  8
0
  6
CONTINUOUS
 62
     7
100
AcDbCircle
 10
7.450626
 20
150.670657
 30
0.0
 40
1.0
100
AcDbArc
 50
90.0
 51
180.0
  0
ARC
  5
9B4
100
AcDbEntity
  8
0
  6
CONTINUOUS
 62
     7
100
AcDbCircle
 10
10.450626
 20
150.670657
 30
0.0
 40
1.0
100
AcDbArc
 50
0.0
 51
90.0
  0
ARC
  5
9B5
100
AcDbEntity
  8
0
  6
CONTINUOUS
 62
     7
100
AcDbCircle
 10
12.450626
 20
149.170757
 30
0.0
 40
1.0
100
AcDbArc
 50
180.0
 51
270.0
  0
LINE
  5
9B6
100
AcDbEntity
  8
0
  6
CONTINUOUS
 62
     7
100
AcDbLine
 10
11.450626
 20
149.170757
 30
0.0
 11
11.450626
 21
150.670757
 31
0.0
  0
ARC
  5
9B7
100
AcDbEntity
  8
0
  6
CONTINUOUS
 62
     7
100
AcDbCircle
 10
32.450626
 20
140.170657
 30
0.0
 40
7.0
100
AcDbArc
 50
167.652
 51
192.348
  0
LINE
  5
9B8
100
AcDbEntity
  8
0
  6
CONTINUOUS
 62
     7
100
AcDbLine
 10
18.302226
 20
139.335857
 30
0.0
 11
18.302226
 21
140.170657
 31
0.0
  0
ARC
  5
9B9
100
AcDbEntity
  8
0
  6
CONTINUOUS
 62
     7
100
AcDbCircle
 10
22.102526
 20
132.301857
 30
0.0
 40
2.0
100
AcDbArc
 50
37.2494
 51
134.999
  0
LINE
  5
9BA
100
AcDbEntity
  8
0
  6
CONTINUOUS
 62
     7
100
AcDbLine
 10
20.688326
 20
133.716157
 30
0.0
 11
13.520226
 21
126.548157
 31
0.0
  0
ARC
  5
9BB
100
AcDbEntity
  8
0
  6
CONTINUOUS
 62
     7
100
AcDbCircle
 10
13.622226
 20
134.170557
 30
0.0
 40
2.0
100
AcDbArc
 50
270.0
 51
315.0
  0
ARC
  5
9BC
100
AcDbEntity
  8
0
  6
CONTINUOUS
 62
     7
100
AcDbCircle
 10
10.302226
 20
139.335857
 30
0.0
 40
8.0
100
AcDbArc
 50
315.0
 51
0.0
  0
LINE
  5
9BD
100
AcDbEntity
  8
0
  6
CONTINUOUS
 62
     7
100
AcDbLine
 10
15.959026
 20
133.678957
 30
0.0
 11
15.036426
 21
132.756357
 31
0.0
  0
ARC
  5
9BE
100
AcDbEntity
  8
0
  6
CONTINUOUS
 62
     7
100
AcDbCircle
 10
32.450626
 20
140.170657
 30
0.0
 40
11.0
100
AcDbArc
 50
217.25
 51
231.15
  0
ARC
  5
9BF
100
AcDbEntity
  8
0
  6
CONTINUOUS
 62
     7
100
AcDbCircle
 10
24.296026
 20
130.046357
 30
0.0
 40
2.0
100
AcDbArc
 50
330.0
 51
51.1497
  0
ARC
  5
9C0
100
AcDbEntity
  8
0
  6
CONTINUOUS
 62
     7
100
AcDbCircle
 10
25.983526
 20
137.491857
 30
0.0
 40
1.0
100
AcDbArc
 50
120.713
 51
284.287
  0
ARC
  5
9C1
100
AcDbEntity
  8
0
  6
CONTINUOUS
 62
     7
100
AcDbCircle
 10
25.319526
 20
138.609457
 30
0.0
 40
0.3
100
AcDbArc
 50
300.713
 51
12.3467
  0
ARC
  5
9C2
100
AcDbEntity
  8
0
  6
CONTINUOUS
 62
     7
100
AcDbCircle
 10
32.450626
 20
140.170657
 30
0.0
 40
7.0
100
AcDbArc
 50
212.652
 51
237.348
  0
ARC
  5
9C3
100
AcDbEntity
  8
0
  6
CONTINUOUS
 62
     7
100
AcDbCircle
 10
28.512026
 20
134.024257
 30
0.0
 40
0.3
100
AcDbArc
 50
345.713
 51
57.3467
  0
ARC
  5
9C4
100
AcDbEntity
  8
0
  6
CONTINUOUS
 62
     7
100
AcDbCircle
 10
26.304326
 20
136.232057
 30
0.0
 40
0.3
100
AcDbArc
 50
32.6538
 51
104.288
  0
ARC
  5
9C5
100
AcDbEntity
  8
0
  6
CONTINUOUS
 62
     7
100
AcDbCircle
 10
21.390926
 20
148.215657
 30
0.0
 40
1.0
100
AcDbArc
 50
225.001
 51
305.28
  0
LINE
  5
9C6
100
AcDbEntity
  8
0
  6
CONTINUOUS
 62
     7
100
AcDbLine
 10
15.959026
 20
146.662357
 30
0.0
 11
15.036426
 21
147.584957
 31
0.0
  0
ARC
  5
9C7
100
AcDbEntity
  8
0
  6
CONTINUOUS
 62
     7
100
AcDbCircle
 10
10.302226
 20
141.005457
 30
0.0
 40
8.0
100
AcDbArc
 50
0.0
 51
45.0003
  0
LINE
  5
9C8
100
AcDbEntity
  8
0
  6
CONTINUOUS
 62
     7
100
AcDbLine
 10
18.302226
 20
141.005457
 30
0.0
 11
18.302226
 21
140.170657
 31
0.0
  0
ARC
  5
9C9
100
AcDbEntity
  8
0
  6
CONTINUOUS
 62
     7
100
AcDbCircle
 10
19.950726
 20
153.191557
 30
0.0
 40
3.5
100
AcDbArc
 50
180.0
 51
225.0
  0
ARC
  5
9CA
100
AcDbEntity
  8
0
  6
CONTINUOUS
 62
     7
100
AcDbCircle
 10
13.622226
 20
146.170757
 30
0.0
 40
2.0
100
AcDbArc
 50
45.0
 51
90.0
  0
LINE
  5
9CB
100
AcDbEntity
  8
0
  6
CONTINUOUS
 62
     7
100
AcDbLine
 10
20.683826
 20
147.508657
 30
0.0
 11
17.475826
 21
150.716557
 31
0.0
  0
ARC
  5
9CC
100
AcDbEntity
  8
0
  6
CONTINUOUS
 62
     7
100
AcDbCircle
 10
25.983526
 20
142.849457
 30
0.0
 40
1.0
100
AcDbArc
 50
75.7131
 51
239.287
  0
ARC
  5
9CD
100
AcDbEntity
  8
0
  6
CONTINUOUS
 62
     7
100
AcDbCircle
 10
25.319526
 20
141.731857
 30
0.0
 40
0.3
100
AcDbArc
 50
347.654
 51
59.2879
  0
ARC
  5
9CE
100
AcDbEntity
  8
0
  6
CONTINUOUS
 62
     7
100
AcDbCircle
 10
32.450626
 20
140.170657
 30
0.0
 40
7.0
100
AcDbArc
 50
122.652
 51
147.348
  0
ARC
  5
9CF
100
AcDbEntity
  8
0
  6
CONTINUOUS
 62
     7
100
AcDbCircle
 10
26.304326
 20
144.109257
 30
0.0
 40
0.3
100
AcDbArc
 50
255.713
 51
327.347
  0
ARC
  5
9D0
100
AcDbEntity
  8
0
  6
CONTINUOUS
 62
     7
100
AcDbCircle
 10
28.512026
 20
146.317057
 30
0.0
 40
0.3
100
AcDbArc
 50
302.654
 51
14.2879
  0
ARC
  5
9D1
100
AcDbEntity
  8
0
  6
CONTINUOUS
 62
     7
100
AcDbCircle
 10
12.450726
 20
157.842757
 30
0.0
 40
2.0
100
AcDbArc
 50
221.912
 51
0.0
  0
LINE
  5
9D2
100
AcDbEntity
  8
0
  6
CONTINUOUS
 62
     7
100
AcDbLine
 10
13.864926
 20
166.928357
 30
0.0
 11
11.645226
 21
169.148057
 31
0.0
  0
LINE
  5
9D3
100
AcDbEntity
  8
0
  6
CONTINUOUS
 62
     7
100
AcDbLine
 10
2.450626
 20
158.470657
 30
0.0
 11
2.450626
 21
170.170557
 31
0.0
  0
ARC
  5
9D4
100
AcDbEntity
  8
0
  6
CONTINUOUS
 62
     7
100
AcDbCircle
 10
9.700626
 20
167.203457
 30
0.0
 40
2.75
100
AcDbArc
 50
44.9992
 51
180.0
  0
LINE
  5
9D5
100
AcDbEntity
  8
0
  6
CONTINUOUS
 62
     7
100
AcDbLine
 10
2.650626
 20
155.970657
 30
0.0
 11
2.650626
 21
158.470657
 31
0.0
  0
LINE
  5
9D6
100
AcDbEntity
  8
0
  6
CONTINUOUS
 62
     7
100
AcDbLine
 10
2.650626
 20
155.970657
 30
0.0
 11
2.450626
 21
155.970657
 31
0.0
  0
LINE
  5
9D7
100
AcDbEntity
  8
0
  6
CONTINUOUS
 62
     7
100
AcDbLine
 10
2.650626
 20
158.470657
 30
0.0
 11
2.450626
 21
158.470657
 31
0.0
  0
ARC
  5
9D8
100
AcDbEntity
  8
0
  6
CONTINUOUS
 62
     7
100
AcDbCircle
 10
14.450626
 20
163.848357
 30
0.0
 40
7.5
100
AcDbArc
 50
180.0
 51
221.912
  0
LINE
  5
9D9
100
AcDbEntity
  8
0
  6
CONTINUOUS
 62
     7
100
AcDbLine
 10
8.869326
 20
158.838457
 30
0.0
 11
10.962326
 21
156.506757
 31
0.0
  0
LINE
  5
9DA
100
AcDbEntity
  8
0
  6
CONTINUOUS
 62
     7
100
AcDbLine
 10
6.950626
 20
167.203457
 30
0.0
 11
6.950626
 21
163.848357
 31
0.0
  0
ARC
  5
9DB
100
AcDbEntity
  8
0
  6
CONTINUOUS
 62
     7
100
AcDbCircle
 10
3.150626
 20
170.970557
 30
0.0
 40
0.8
100
AcDbArc
 50
270.0
 51
0.0
  0
ARC
  5
9DC
100
AcDbEntity
  8
0
  6
CONTINUOUS
 62
     7
100
AcDbCircle
 10
3.150626
 20
172.870657
 30
0.0
 40
0.8
100
AcDbArc
 50
0.0
 51
90.0
  0
LINE
  5
9DD
100
AcDbEntity
  8
0
  6
CONTINUOUS
 62
     7
100
AcDbLine
 10
5.950626
 20
180.170657
 30
0.0
 11
3.450626
 21
180.170657
 31
0.0
  0
LINE
  5
9DE
100
AcDbEntity
  8
0
  6
CONTINUOUS
 62
     7
100
AcDbLine
 10
2.450626
 20
173.670557
 30
0.0
 11
2.450626
 21
179.170657
 31
0.0
  0
LINE
  5
9DF
100
AcDbEntity
  8
0
  6
CONTINUOUS
 62
     7
100
AcDbLine
 10
3.150626
 20
170.170557
 30
0.0
 11
2.450626
 21
170.170557
 31
0.0
  0
LINE
  5
9E0
100
AcDbEntity
  8
0
  6
CONTINUOUS
 62
     7
100
AcDbLine
 10
3.950626
 20
172.870657
 30
0.0
 11
3.950626
 21
170.970557
 31
0.0
  0
LINE
  5
9E1
100
AcDbEntity
  8
0
  6
CONTINUOUS
 62
     7
100
AcDbLine
 10
2.450626
 20
173.670557
 30
0.0
 11
3.150626
 21
173.670557
 31
0.0
  0
ARC
  5
9E2
100
AcDbEntity
  8
0
  6
CONTINUOUS
 62
     7
100
AcDbCircle
 10
3.450626
 20
179.170657
 30
0.0
 40
1.0
100
AcDbArc
 50
90.0
 51
180.0
  0
LINE
  5
9E3
100
AcDbEntity
  8
0
  6
CONTINUOUS
 62
     7
100
AcDbLine
 10
6.950626
 20
177.170657
 30
0.0
 11
9.986326
 21
177.170657
 31
0.0
  0
ARC
  5
9E4
100
AcDbEntity
  8
0
  6
CONTINUOUS
 62
     7
100
AcDbCircle
 10
5.950626
 20
179.670657
 30
0.0
 40
0.5
100
AcDbArc
 50
0.0
 51
90.0
  0
ARC
  5
9E5
100
AcDbEntity
  8
0
  6
CONTINUOUS
 62
     7
100
AcDbCircle
 10
6.950626
 20
177.670657
 30
0.0
 40
0.5
100
AcDbArc
 50
180.0
 51
270.0
  0
LINE
  5
9E6
100
AcDbEntity
  8
0
  6
CONTINUOUS
 62
     7
100
AcDbLine
 10
6.450626
 20
177.670657
 30
0.0
 11
6.450626
 21
179.670657
 31
0.0
  0
LINE
  5
9E7
100
AcDbEntity
  8
0
  6
CONTINUOUS
 62
     7
100
AcDbLine
 10
22.863826
 20
157.929357
 30
0.0
 11
19.864926
 21
160.928257
 31
0.0
  0
LINE
  5
9E8
100
AcDbEntity
  8
0
  6
CONTINUOUS
 62
     7
100
AcDbLine
 10
14.450726
 20
157.842757
 30
0.0
 11
14.450726
 21
165.514057
 31
0.0
  0
ARC
  5
9E9
100
AcDbEntity
  8
0
  6
CONTINUOUS
 62
     7
100
AcDbCircle
 10
18.450726
 20
159.514057
 30
0.0
 40
2.0
100
AcDbArc
 50
44.9998
 51
180.0
  0
ARC
  5
9EA
100
AcDbEntity
  8
0
  6
CONTINUOUS
 62
     7
100
AcDbCircle
 10
12.450726
 20
165.514057
 30
0.0
 40
2.0
100
AcDbArc
 50
0.0
 51
44.9997
  0
ARC
  5
9EB
100
AcDbEntity
  8
0
  6
CONTINUOUS
 62
     7
100
AcDbCircle
 10
46.925126
 20
153.041857
 30
0.0
 40
6.91202
100
AcDbArc
 50
135.0
 51
234.719
  0
LINE
  5
9EC
100
AcDbEntity
  8
0
  6
CONTINUOUS
 62
     7
100
AcDbLine
 10
48.450626
 20
159.514057
 30
0.0
 11
48.450626
 21
153.191557
 31
0.0
  0
LINE
  5
9ED
100
AcDbEntity
  8
0
  6
CONTINUOUS
 62
     7
100
AcDbLine
 10
62.450626
 20
144.170657
 30
0.0
 11
62.450626
 21
155.920657
 31
0.0
  0
LINE
  5
9EE
100
AcDbEntity
  8
0
  6
CONTINUOUS
 62
     7
100
AcDbLine
 10
35.626026
 20
128.670657
 30
0.0
 11
44.450626
 21
113.386057
 31
0.0
  0
LINE
  5
9EF
100
AcDbEntity
  8
0
  6
CONTINUOUS
 62
     7
100
AcDbLine
 10
38.873226
 20
129.046357
 30
0.0
 11
46.735926
 21
115.427857
 31
0.0
  0
ARC
  5
9F0
100
AcDbEntity
  8
0
  6
CONTINUOUS
 62
     7
100
AcDbCircle
 10
49.054726
 20
123.933057
 30
0.0
 40
3.5
100
AcDbArc
 50
344.036
 51
48.346
  0
LINE
  5
9F1
100
AcDbEntity
  8
0
  6
CONTINUOUS
 62
     7
100
AcDbLine
 10
62.450626
 20
119.170657
 30
0.0
 11
62.450626
 21
126.420657
 31
0.0
  0
ARC
  5
9F2
100
AcDbEntity
  8
0
  6
CONTINUOUS
 62
     7
100
AcDbCircle
 10
48.468026
 20
116.427857
 30
0.0
 40
2.0
100
AcDbArc
 50
210.0
 51
344.036
  0
ARC
  5
9F3
100
AcDbEntity
  8
0
  6
CONTINUOUS
 62
     7
100
AcDbCircle
 10
64.518626
 20
115.170657
 30
0.0
 40
10.0
100
AcDbArc
 50
121.788
 51
238.212
  0
LINE
  5
9F4
100
AcDbEntity
  8
0
  6
CONTINUOUS
 62
     7
100
AcDbLine
 10
62.450626
 20
100.220657
 30
0.0
 11
62.450626
 21
111.170657
 31
0.0
  0
LINE
  5
9F5
100
AcDbEntity
  8
0
  6
CONTINUOUS
 62
     7
100
AcDbLine
 10
60.450626
 20
111.170657
 30
0.0
 11
60.450626
 21
107.170657
 31
0.0
  0
LINE
  5
9F6
100
AcDbEntity
  8
0
  6
CONTINUOUS
 62
     7
100
AcDbLine
 10
50.950626
 20
105.078157
 30
0.0
 11
59.450626
 21
100.220657
 31
0.0
  0
ARC
  5
9F7
100
AcDbEntity
  8
0
  6
CONTINUOUS
 62
     7
100
AcDbCircle
 10
50.450626
 20
104.212057
 30
0.0
 40
1.0
100
AcDbArc
 50
60.0
 51
180.0
  0
LINE
  5
9F8
100
AcDbEntity
  8
0
  6
CONTINUOUS
 62
     7
100
AcDbLine
 10
59.450626
 20
100.220657
 30
0.0
 11
62.450626
 21
100.220657
 31
0.0
  0
ARC
  5
9F9
100
AcDbEntity
  8
0
  6
CONTINUOUS
 62
     7
100
AcDbCircle
 10
59.950626
 20
107.170657
 30
0.0
 40
0.5
100
AcDbArc
 50
270.0
 51
0.0
  0
LINE
  5
9FA
100
AcDbEntity
  8
0
  6
CONTINUOUS
 62
     7
100
AcDbLine
 10
59.950626
 20
106.670657
 30
0.0
 11
59.250826
 21
106.670657
 31
0.0
  0
LINE
  5
9FB
100
AcDbEntity
  8
0
  6
CONTINUOUS
 62
     7
100
AcDbLine
 10
60.450626
 20
108.080457
 30
0.0
 11
60.450626
 21
107.170657
 31
0.0
  0
LINE
  5
9FC
100
AcDbEntity
  8
0
  6
CONTINUOUS
 62
     7
100
AcDbLine
 10
52.419826
 20
122.970457
 30
0.0
 11
50.390826
 21
115.877757
 31
0.0
  0
LINE
  5
9FD
100
AcDbEntity
  8
0
  6
CONTINUOUS
 62
     7
100
AcDbLine
 10
60.450626
 20
111.170657
 30
0.0
 11
62.450626
 21
111.170657
 31
0.0
  0
LINE
  5
9FE
100
AcDbEntity
  8
0
  6
CONTINUOUS
 62
     7
100
AcDbLine
 10
62.450626
 20
119.170657
 30
0.0
 11
60.450626
 21
119.170657
 31
0.0
  0
LINE
  5
9FF
100
AcDbEntity
  8
0
  6
CONTINUOUS
 62
     7
100
AcDbLine
 10
60.450626
 20
119.170657
 30
0.0
 11
60.450626
 21
123.170657
 31
0.0
  0
ARC
  5
A00
100
AcDbEntity
  8
0
  6
CONTINUOUS
 62
     7
100
AcDbCircle
 10
59.950626
 20
123.170657
 30
0.0
 40
0.5
100
AcDbArc
 50
0.0
 51
90.0
  0
LINE
  5
A01
100
AcDbEntity
  8
0
  6
CONTINUOUS
 62
     7
100
AcDbLine
 10
59.950626
 20
123.670657
 30
0.0
 11
59.250826
 21
123.670657
 31
0.0
  0
LINE
  5
A02
100
AcDbEntity
  8
0
  6
CONTINUOUS
 62
     7
100
AcDbLine
 10
60.450626
 20
122.260857
 30
0.0
 11
60.450626
 21
123.170657
 31
0.0
  0
ARC
  5
A03
100
AcDbEntity
  8
0
  6
CONTINUOUS
 62
     7
100
AcDbCircle
 10
54.599126
 20
141.005457
 30
0.0
 40
8.0
100
AcDbArc
 50
135.0
 51
180.0
  0
LINE
  5
A04
100
AcDbEntity
  8
0
  6
CONTINUOUS
 62
     7
100
AcDbLine
 10
44.212926
 20
133.716157
 30
0.0
 11
51.381026
 21
126.548157
 31
0.0
  0
ARC
  5
A05
100
AcDbEntity
  8
0
  6
CONTINUOUS
 62
     7
100
AcDbCircle
 10
54.599126
 20
139.335857
 30
0.0
 40
8.0
100
AcDbArc
 50
180.0
 51
225.0
  0
ARC
  5
A06
100
AcDbEntity
  8
0
  6
CONTINUOUS
 62
     7
100
AcDbCircle
 10
44.950626
 20
153.191557
 30
0.0
 40
3.5
100
AcDbArc
 50
315.0
 51
0.0
  0
ARC
  5
A07
100
AcDbEntity
  8
0
  6
CONTINUOUS
 62
     7
100
AcDbCircle
 10
32.450626
 20
140.170657
 30
0.0
 40
7.0
100
AcDbArc
 50
347.652
 51
12.3482
  0
LINE
  5
A08
100
AcDbEntity
  8
0
  6
CONTINUOUS
 62
     7
100
AcDbLine
 10
46.599126
 20
139.335857
 30
0.0
 11
46.599126
 21
140.170657
 31
0.0
  0
ARC
  5
A09
100
AcDbEntity
  8
0
  6
CONTINUOUS
 62
     7
100
AcDbCircle
 10
40.605326
 20
130.046357
 30
0.0
 40
2.0
100
AcDbArc
 50
128.85
 51
210.0
  0
ARC
  5
A0A
100
AcDbEntity
  8
0
  6
CONTINUOUS
 62
     7
100
AcDbCircle
 10
38.917826
 20
137.491857
 30
0.0
 40
1.0
100
AcDbArc
 50
255.714
 51
59.2869
  0
LINE
  5
A0B
100
AcDbEntity
  8
0
  6
CONTINUOUS
 62
     7
100
AcDbLine
 10
30.141226
 20
129.170657
 30
0.0
 11
34.760026
 21
129.170657
 31
0.0
  0
ARC
  5
A0C
100
AcDbEntity
  8
0
  6
CONTINUOUS
 62
     7
100
AcDbCircle
 10
34.760026
 20
128.170657
 30
0.0
 40
1.0
100
AcDbArc
 50
29.9991
 51
90.0
  0
ARC
  5
A0D
100
AcDbEntity
  8
0
  6
CONTINUOUS
 62
     7
100
AcDbCircle
 10
35.129426
 20
133.703457
 30
0.0
 40
1.0
100
AcDbArc
 50
210.713
 51
14.2869
  0
ARC
  5
A0E
100
AcDbEntity
  8
0
  6
CONTINUOUS
 62
     7
100
AcDbCircle
 10
32.450626
 20
140.170657
 30
0.0
 40
7.0
100
AcDbArc
 50
257.652
 51
282.348
  0
ARC
  5
A0F
100
AcDbEntity
  8
0
  6
CONTINUOUS
 62
     7
100
AcDbCircle
 10
30.889526
 20
133.039457
 30
0.0
 40
0.3
100
AcDbArc
 50
77.6538
 51
149.288
  0
ARC
  5
A10
100
AcDbEntity
  8
0
  6
CONTINUOUS
 62
     7
100
AcDbCircle
 10
34.011826
 20
133.039457
 30
0.0
 40
0.3
100
AcDbArc
 50
30.7116
 51
102.347
  0
ARC
  5
A11
100
AcDbEntity
  8
0
  6
CONTINUOUS
 62
     7
100
AcDbCircle
 10
32.450626
 20
140.170657
 30
0.0
 40
7.0
100
AcDbArc
 50
302.652
 51
327.348
  0
ARC
  5
A12
100
AcDbEntity
  8
0
  6
CONTINUOUS
 62
     7
100
AcDbCircle
 10
36.389226
 20
134.024257
 30
0.0
 40
0.3
100
AcDbArc
 50
122.653
 51
194.288
  0
ARC
  5
A13
100
AcDbEntity
  8
0
  6
CONTINUOUS
 62
     7
100
AcDbCircle
 10
38.597026
 20
136.232057
 30
0.0
 40
0.3
100
AcDbArc
 50
75.7125
 51
147.348
  0
ARC
  5
A14
100
AcDbEntity
  8
0
  6
CONTINUOUS
 62
     7
100
AcDbCircle
 10
32.450626
 20
140.170657
 30
0.0
 40
11.0
100
AcDbArc
 50
308.85
 51
322.75
  0
ARC
  5
A15
100
AcDbEntity
  8
0
  6
CONTINUOUS
 62
     7
100
AcDbCircle
 10
42.798826
 20
132.301857
 30
0.0
 40
2.0
100
AcDbArc
 50
45.0009
 51
142.75
  0
ARC
  5
A16
100
AcDbEntity
  8
0
  6
CONTINUOUS
 62
     7
100
AcDbCircle
 10
39.581726
 20
138.609457
 30
0.0
 40
0.3
100
AcDbArc
 50
167.653
 51
239.286
  0
ARC
  5
A17
100
AcDbEntity
  8
0
  6
CONTINUOUS
 62
     7
100
AcDbCircle
 10
38.917826
 20
142.849457
 30
0.0
 40
1.0
100
AcDbArc
 50
300.713
 51
104.286
  0
ARC
  5
A18
100
AcDbEntity
  8
0
  6
CONTINUOUS
 62
     7
100
AcDbCircle
 10
30.889526
 20
147.301757
 30
0.0
 40
0.3
100
AcDbArc
 50
210.713
 51
282.347
  0
ARC
  5
A19
100
AcDbEntity
  8
0
  6
CONTINUOUS
 62
     7
100
AcDbCircle
 10
34.011826
 20
147.301757
 30
0.0
 40
0.3
100
AcDbArc
 50
257.653
 51
329.288
  0
ARC
  5
A1A
100
AcDbEntity
  8
0
  6
CONTINUOUS
 62
     7
100
AcDbCircle
 10
35.129426
 20
146.637857
 30
0.0
 40
1.0
100
AcDbArc
 50
345.713
 51
149.287
  0
ARC
  5
A1B
100
AcDbEntity
  8
0
  6
CONTINUOUS
 62
     7
100
AcDbCircle
 10
32.450626
 20
140.170657
 30
0.0
 40
7.0
100
AcDbArc
 50
77.6517
 51
102.348
  0
ARC
  5
A1C
100
AcDbEntity
  8
0
  6
CONTINUOUS
 62
     7
100
AcDbCircle
 10
32.450626
 20
140.170657
 30
0.0
 40
7.0
100
AcDbArc
 50
32.652
 51
57.3484
  0
ARC
  5
A1D
100
AcDbEntity
  8
0
  6
CONTINUOUS
 62
     7
100
AcDbCircle
 10
36.389226
 20
146.317057
 30
0.0
 40
0.3
100
AcDbArc
 50
165.712
 51
237.347
  0
ARC
  5
A1E
100
AcDbEntity
  8
0
  6
CONTINUOUS
 62
     7
100
AcDbCircle
 10
38.597026
 20
144.109257
 30
0.0
 40
0.3
100
AcDbArc
 50
212.652
 51
284.287
  0
ARC
  5
A1F
100
AcDbEntity
  8
0
  6
CONTINUOUS
 62
     7
100
AcDbCircle
 10
39.581726
 20
141.731857
 30
0.0
 40
0.3
100
AcDbArc
 50
120.714
 51
192.347
  0
LINE
  5
A20
100
AcDbEntity
  8
0
  6
CONTINUOUS
 62
     7
100
AcDbLine
 10
46.599126
 20
141.005457
 30
0.0
 11
46.599126
 21
140.170657
 31
0.0
  0
ARC
  5
A21
100
AcDbEntity
  8
0
  6
CONTINUOUS
 62
     7
100
AcDbCircle
 10
43.510426
 20
148.215657
 30
0.0
 40
1.0
100
AcDbArc
 50
234.719
 51
315.0
  0
LINE
  5
A22
100
AcDbEntity
  8
0
  6
CONTINUOUS
 62
     7
100
AcDbLine
 10
44.217526
 20
147.508657
 30
0.0
 11
47.425526
 21
150.716557
 31
0.0
  0
LINE
  5
A23
100
AcDbEntity
  8
0
  6
CONTINUOUS
 62
     7
100
AcDbLine
 10
54.450626
 20
128.670657
 30
0.0
 11
57.450626
 21
128.670657
 31
0.0
  0
ARC
  5
A24
100
AcDbEntity
  8
0
  6
CONTINUOUS
 62
     7
100
AcDbCircle
 10
51.279026
 20
134.170557
 30
0.0
 40
2.0
100
AcDbArc
 50
225.0
 51
270.0
  0
ARC
  5
A25
100
AcDbEntity
  8
0
  6
CONTINUOUS
 62
     7
100
AcDbCircle
 10
52.450626
 20
131.170557
 30
0.0
 40
1.0
100
AcDbArc
 50
0.0
 51
90.0
  0
LINE
  5
A26
100
AcDbEntity
  8
0
  6
CONTINUOUS
 62
     7
100
AcDbLine
 10
51.279026
 20
132.170557
 30
0.0
 11
52.450626
 21
132.170557
 31
0.0
  0
ARC
  5
A27
100
AcDbEntity
  8
0
  6
CONTINUOUS
 62
     7
100
AcDbCircle
 10
54.450626
 20
129.670657
 30
0.0
 40
1.0
100
AcDbArc
 50
180.0
 51
270.0
  0
LINE
  5
A28
100
AcDbEntity
  8
0
  6
CONTINUOUS
 62
     7
100
AcDbLine
 10
53.450626
 20
131.170557
 30
0.0
 11
53.450626
 21
129.670657
 31
0.0
  0
LINE
  5
A29
100
AcDbEntity
  8
0
  6
CONTINUOUS
 62
     7
100
AcDbLine
 10
48.942226
 20
133.678957
 30
0.0
 11
49.864826
 21
132.756357
 31
0.0
  0
LINE
  5
A2A
100
AcDbEntity
  8
0
  6
CONTINUOUS
 62
     7
100
AcDbLine
 10
58.450626
 20
136.170657
 30
0.0
 11
58.450626
 21
129.670657
 31
0.0
  0
LINE
  5
A2B
100
AcDbEntity
  8
0
  6
CONTINUOUS
 62
     7
100
AcDbLine
 10
62.450626
 20
136.170657
 30
0.0
 11
62.450626
 21
128.920657
 31
0.0
  0
ARC
  5
A2C
100
AcDbEntity
  8
0
  6
CONTINUOUS
 62
     7
100
AcDbCircle
 10
57.450626
 20
129.670657
 30
0.0
 40
1.0
100
AcDbArc
 50
270.0
 51
0.0
  0
LINE
  5
A2D
100
AcDbEntity
  8
0
  6
CONTINUOUS
 62
     7
100
AcDbLine
 10
62.250626
 20
128.920657
 30
0.0
 11
62.250626
 21
126.420657
 31
0.0
  0
LINE
  5
A2E
100
AcDbEntity
  8
0
  6
CONTINUOUS
 62
     7
100
AcDbLine
 10
62.250626
 20
126.420657
 30
0.0
 11
62.450626
 21
126.420657
 31
0.0
  0
LINE
  5
A2F
100
AcDbEntity
  8
0
  6
CONTINUOUS
 62
     7
100
AcDbLine
 10
62.450626
 20
128.920657
 30
0.0
 11
62.250626
 21
128.920657
 31
0.0
  0
LINE
  5
A30
100
AcDbEntity
  8
0
  6
CONTINUOUS
 62
     7
100
AcDbLine
 10
60.450626
 20
135.170657
 30
0.0
 11
61.450626
 21
135.170657
 31
0.0
  0
LINE
  5
A31
100
AcDbEntity
  8
0
  6
CONTINUOUS
 62
     7
100
AcDbLine
 10
60.450626
 20
135.170657
 30
0.0
 11
60.450626
 21
136.170657
 31
0.0
  0
LINE
  5
A32
100
AcDbEntity
  8
0
  6
CONTINUOUS
 62
     7
100
AcDbLine
 10
58.450626
 20
136.170657
 30
0.0
 11
60.450626
 21
136.170657
 31
0.0
  0
LINE
  5
A33
100
AcDbEntity
  8
0
  6
CONTINUOUS
 62
     7
100
AcDbLine
 10
61.450626
 20
135.170657
 30
0.0
 11
61.450626
 21
136.170657
 31
0.0
  0
LINE
  5
A34
100
AcDbEntity
  8
0
  6
CONTINUOUS
 62
     7
100
AcDbLine
 10
61.450626
 20
136.170657
 30
0.0
 11
62.450626
 21
136.170657
 31
0.0
  0
LINE
  5
A35
100
AcDbEntity
  8
0
  6
CONTINUOUS
 62
     7
100
AcDbLine
 10
54.450626
 20
151.670657
 30
0.0
 11
57.450626
 21
151.670657
 31
0.0
  0
LINE
  5
A36
100
AcDbEntity
  8
0
  6
CONTINUOUS
 62
     7
100
AcDbLine
 10
48.942226
 20
146.662357
 30
0.0
 11
49.864826
 21
147.584957
 31
0.0
  0
LINE
  5
A37
100
AcDbEntity
  8
0
  6
CONTINUOUS
 62
     7
100
AcDbLine
 10
51.279026
 20
148.170757
 30
0.0
 11
52.450626
 21
148.170757
 31
0.0
  0
ARC
  5
A38
100
AcDbEntity
  8
0
  6
CONTINUOUS
 62
     7
100
AcDbCircle
 10
51.279026
 20
146.170757
 30
0.0
 40
2.0
100
AcDbArc
 50
90.0
 51
135.0
  0
ARC
  5
A39
100
AcDbEntity
  8
0
  6
CONTINUOUS
 62
     7
100
AcDbCircle
 10
54.450626
 20
150.670657
 30
0.0
 40
1.0
100
AcDbArc
 50
90.0
 51
180.0
  0
ARC
  5
A3A
100
AcDbEntity
  8
0
  6
CONTINUOUS
 62
     7
100
AcDbCircle
 10
52.450626
 20
149.170757
 30
0.0
 40
1.0
100
AcDbArc
 50
270.0
 51
0.0
  0
LINE
  5
A3B
100
AcDbEntity
  8
0
  6
CONTINUOUS
 62
     7
100
AcDbLine
 10
53.450626
 20
149.170757
 30
0.0
 11
53.450626
 21
150.670757
 31
0.0
  0
LINE
  5
A3C
100
AcDbEntity
  8
0
  6
CONTINUOUS
 62
     7
100
AcDbLine
 10
58.450626
 20
144.170657
 30
0.0
 11
58.450626
 21
150.670657
 31
0.0
  0
LINE
  5
A3D
100
AcDbEntity
  8
0
  6
CONTINUOUS
 62
     7
100
AcDbLine
 10
60.450626
 20
145.170657
 30
0.0
 11
61.450626
 21
145.170657
 31
0.0
  0
LINE
  5
A3E
100
AcDbEntity
  8
0
  6
CONTINUOUS
 62
     7
100
AcDbLine
 10
60.450626
 20
145.170657
 30
0.0
 11
60.450626
 21
144.170657
 31
0.0
  0
LINE
  5
A3F
100
AcDbEntity
  8
0
  6
CONTINUOUS
 62
     7
100
AcDbLine
 10
58.450626
 20
144.170657
 30
0.0
 11
60.450626
 21
144.170657
 31
0.0
  0
LINE
  5
A40
100
AcDbEntity
  8
0
  6
CONTINUOUS
 62
     7
100
AcDbLine
 10
61.450626
 20
144.170657
 30
0.0
 11
62.450626
 21
144.170657
 31
0.0
  0
LINE
  5
A41
100
AcDbEntity
  8
0
  6
CONTINUOUS
 62
     7
100
AcDbLine
 10
61.450626
 20
145.170657
 30
0.0
 11
61.450626
 21
144.170657
 31
0.0
  0
ARC
  5
A42
100
AcDbEntity
  8
0
  6
CONTINUOUS
 62
     7
100
AcDbCircle
 10
57.450626
 20
150.670657
 30
0.0
 40
1.0
100
AcDbArc
 50
0.0
 51
90.0
  0
LINE
  5
A43
100
AcDbEntity
  8
0
  6
CONTINUOUS
 62
     7
100
AcDbLine
 10
34.367126
 20
156.623057
 30
0.0
 11
54.915026
 21
177.170657
 31
0.0
  0
ARC
  5
A44
100
AcDbEntity
  8
0
  6
CONTINUOUS
 62
     7
100
AcDbCircle
 10
46.450626
 20
159.514057
 30
0.0
 40
2.0
100
AcDbArc
 50
0.0
 51
135.0
  0
ARC
  5
A45
100
AcDbEntity
  8
0
  6
CONTINUOUS
 62
     7
100
AcDbCircle
 10
32.450626
 20
157.194957
 30
0.0
 40
2.0
100
AcDbArc
 50
196.618
 51
343.382
  0
LINE
  5
A46
100
AcDbEntity
  8
0
  6
CONTINUOUS
 62
     7
100
AcDbLine
 10
42.037526
 20
157.929357
 30
0.0
 11
45.036426
 21
160.928257
 31
0.0
  0
LINE
  5
A47
100
AcDbEntity
  8
0
  6
CONTINUOUS
 62
     7
100
AcDbLine
 10
62.450626
 20
158.420657
 30
0.0
 11
62.450626
 21
170.170557
 31
0.0
  0
ARC
  5
A48
100
AcDbEntity
  8
0
  6
CONTINUOUS
 62
     7
100
AcDbCircle
 10
55.200726
 20
167.203457
 30
0.0
 40
2.75
100
AcDbArc
 50
0.0
 51
135.001
  0
ARC
  5
A49
100
AcDbEntity
  8
0
  6
CONTINUOUS
 62
     7
100
AcDbCircle
 10
50.450726
 20
163.848357
 30
0.0
 40
7.5
100
AcDbArc
 50
318.088
 51
0.0
  0
LINE
  5
A4A
100
AcDbEntity
  8
0
  6
CONTINUOUS
 62
     7
100
AcDbLine
 10
50.450626
 20
157.842757
 30
0.0
 11
50.450626
 21
165.514057
 31
0.0
  0
LINE
  5
A4B
100
AcDbEntity
  8
0
  6
CONTINUOUS
 62
     7
100
AcDbLine
 10
50.450726
 20
158.570157
 30
0.0
 11
50.450726
 21
165.514057
 31
0.0
  0
ARC
  5
A4C
100
AcDbEntity
  8
0
  6
CONTINUOUS
 62
     7
100
AcDbCircle
 10
52.450626
 20
157.842757
 30
0.0
 40
2.0
100
AcDbArc
 50
180.0
 51
318.088
  0
LINE
  5
A4D
100
AcDbEntity
  8
0
  6
CONTINUOUS
 62
     7
100
AcDbLine
 10
56.031926
 20
158.838457
 30
0.0
 11
53.939026
 21
156.506757
 31
0.0
  0
LINE
  5
A4E
100
AcDbEntity
  8
0
  6
CONTINUOUS
 62
     7
100
AcDbLine
 10
51.036426
 20
166.928357
 30
0.0
 11
53.256126
 21
169.148057
 31
0.0
  0
ARC
  5
A4F
100
AcDbEntity
  8
0
  6
CONTINUOUS
 62
     7
100
AcDbCircle
 10
52.450626
 20
165.514057
 30
0.0
 40
2.0
100
AcDbArc
 50
135.0
 51
180.0
  0
LINE
  5
A50
100
AcDbEntity
  8
0
  6
CONTINUOUS
 62
     7
100
AcDbLine
 10
62.250626
 20
155.920657
 30
0.0
 11
62.250626
 21
158.420657
 31
0.0
  0
LINE
  5
A51
100
AcDbEntity
  8
0
  6
CONTINUOUS
 62
     7
100
AcDbLine
 10
62.250626
 20
155.920657
 30
0.0
 11
62.450626
 21
155.920657
 31
0.0
  0
LINE
  5
A52
100
AcDbEntity
  8
0
  6
CONTINUOUS
 62
     7
100
AcDbLine
 10
62.250626
 20
158.420657
 30
0.0
 11
62.450626
 21
158.420657
 31
0.0
  0
LINE
  5
A53
100
AcDbEntity
  8
0
  6
CONTINUOUS
 62
     7
100
AcDbLine
 10
57.950726
 20
167.203457
 30
0.0
 11
57.950726
 21
163.848357
 31
0.0
  0
LINE
  5
A54
100
AcDbEntity
  8
0
  6
CONTINUOUS
 62
     7
100
AcDbLine
 10
57.950626
 20
177.170657
 30
0.0
 11
54.915026
 21
177.170657
 31
0.0
  0
LINE
  5
A55
100
AcDbEntity
  8
0
  6
CONTINUOUS
 62
     7
100
AcDbLine
 10
62.450626
 20
173.670557
 30
0.0
 11
62.450626
 21
179.170657
 31
0.0
  0
ARC
  5
A56
100
AcDbEntity
  8
0
  6
CONTINUOUS
 62
     7
100
AcDbCircle
 10
61.750626
 20
172.870657
 30
0.0
 40
0.8
100
AcDbArc
 50
90.0
 51
180.0
  0
ARC
  5
A57
100
AcDbEntity
  8
0
  6
CONTINUOUS
 62
     7
100
AcDbCircle
 10
61.750626
 20
170.970557
 30
0.0
 40
0.8
100
AcDbArc
 50
180.0
 51
270.0
  0
LINE
  5
A58
100
AcDbEntity
  8
0
  6
CONTINUOUS
 62
     7
100
AcDbLine
 10
61.750626
 20
170.170557
 30
0.0
 11
62.450626
 21
170.170557
 31
0.0
  0
LINE
  5
A59
100
AcDbEntity
  8
0
  6
CONTINUOUS
 62
     7
100
AcDbLine
 10
60.950626
 20
172.870657
 30
0.0
 11
60.950626
 21
170.970557
 31
0.0
  0
LINE
  5
A5A
100
AcDbEntity
  8
0
  6
CONTINUOUS
 62
     7
100
AcDbLine
 10
62.450626
 20
173.670557
 30
0.0
 11
61.750626
 21
173.670557
 31
0.0
  0
LINE
  5
A5B
100
AcDbEntity
  8
0
  6
CONTINUOUS
 62
     7
100
AcDbLine
 10
58.950626
 20
180.170657
 30
0.0
 11
61.450626
 21
180.170657
 31
0.0
  0
ARC
  5
A5C
100
AcDbEntity
  8
0
  6
CONTINUOUS
 62
     7
100
AcDbCircle
 10
58.950626
 20
179.670657
 30
0.0
 40
0.5
100
AcDbArc
 50
90.0
 51
180.0
  0
ARC
  5
A5D
100
AcDbEntity
  8
0
  6
CONTINUOUS
 62
     7
100
AcDbCircle
 10
57.950626
 20
177.670657
 30
0.0
 40
0.5
100
AcDbArc
 50
270.0
 51
0.0
  0
LINE
  5
A5E
100
AcDbEntity
  8
0
  6
CONTINUOUS
 62
     7
100
AcDbLine
 10
58.450626
 20
177.670657
 30
0.0
 11
58.450626
 21
179.670657
 31
0.0
  0
ARC
  5
A5F
100
AcDbEntity
  8
0
  6
CONTINUOUS
 62
     7
100
AcDbCircle
 10
61.450626
 20
179.170657
 30
0.0
 40
1.0
100
AcDbArc
 50
0.0
 51
90.0
  0
ENDBLK
  5
A61
100
AcDbEntity
  8
0
  6
CONTINUOUS
100
AcDbBlockEnd
  0
ENDSEC
  0
SECTION
  2
ENTITIES
  0
INSERT
  5
88F
100
AcDbEntity
  8
0
  6
CONTINUOUS
100
AcDbBlockReference
  2
A$C8282
 10
-3.341382
 20
-180.170757
 30
0.0
  0
INSERT
  5
A62
100
AcDbEntity
  8
0
  6
CONTINUOUS
100
AcDbBlockReference
  2
A$C9041
 10
147.549374
 20
-180.170757
 30
0.0
  0
ENDSEC
  0
SECTION
  2
OBJECTS
  0
DICTIONARY
  5
C
100
AcDbDictionary
  3
ACAD_GROUP
350
D
  3
ACAD_MLINESTYLE
350
E
  0
DICTIONARY
  5
D
102
{ACAD_REACTORS
330
C
102
}
100
AcDbDictionary
  0
DICTIONARY
  5
E
102
{ACAD_REACTORS
330
C
102
}
100
AcDbDictionary
  3
STANDARD
350
1C
  0
MLINESTYLE
  5
1C
102
{ACAD_REACTORS
330
E
102
}
100
AcDbMlineStyle
  2
STANDARD
 70
     0
  3

 62
     0
 51
90.0
 52
90.0
 71
     2
 49
0.5
 62
   256
  6
BYLAYER
 49
-0.5
 62
   256
  6
BYLAYER
  0
ENDSEC
  0
EOF
