  0
SECTION
  2
HEADER
  9
$ACADVER
  1
AC1014
  9
$ACADMAINTVER
 70
     9
  9
$DWGCODEPAGE
  3
ANSI_1252
  9
$INSBASE
 10
0.0
 20
0.0
 30
0.0
  9
$EXTMIN
 10
473.3035550493964
 20
-323.5538489121216
 30
0.0
  9
$EXTMAX
 10
1861.172281594535
 20
261.1164768772468
 30
0.0
  9
$LIMMIN
 10
0.0
 20
0.0
  9
$LIMMAX
 10
420.0
 20
297.0
  9
$ORTHOMODE
 70
     0
  9
$REGENMODE
 70
     1
  9
$FILLMODE
 70
     1
  9
$QTEXTMODE
 70
     0
  9
$MIRRTEXT
 70
     1
  9
$DRAGMODE
 70
     2
  9
$LTSCALE
 40
10.0
  9
$OSMODE
 70
    37
  9
$ATTMODE
 70
     1
  9
$TEXTSIZE
 40
5.0
  9
$TRACEWID
 40
1.0
  9
$TEXTSTYLE
  7
STANDARD
  9
$CLAYER
  8
DISEGNO
  9
$CELTYPE
  6
BYLAYER
  9
$CECOLOR
 62
   256
  9
$CELTSCALE
 40
1.0
  9
$DELOBJ
 70
     1
  9
$DISPSILH
 70
     0
  9
$DIMSCALE
 40
2.5
  9
$DIMASZ
 40
3.5
  9
$DIMEXO
 40
1.0
  9
$DIMDLI
 40
1.0
  9
$DIMRND
 40
0.0
  9
$DIMDLE
 40
0.0
  9
$DIMEXE
 40
1.0
  9
$DIMTP
 40
0.0
  9
$DIMTM
 40
0.0
  9
$DIMTXT
 40
3.5
  9
$DIMCEN
 40
0.09
  9
$DIMTSZ
 40
0.0
  9
$DIMTOL
 70
     0
  9
$DIMLIM
 70
     0
  9
$DIMTIH
 70
     0
  9
$DIMTOH
 70
     0
  9
$DIMSE1
 70
     0
  9
$DIMSE2
 70
     0
  9
$DIMTAD
 70
     1
  9
$DIMZIN
 70
     8
  9
$DIMBLK
  1

  9
$DIMASO
 70
     1
  9
$DIMSHO
 70
     1
  9
$DIMPOST
  1

  9
$DIMAPOST
  1

  9
$DIMALT
 70
     0
  9
$DIMALTD
 70
     2
  9
$DIMALTF
 40
25.4
  9
$DIMLFAC
 40
1.0
  9
$DIMTOFL
 70
     1
  9
$DIMTVP
 40
0.0
  9
$DIMTIX
 70
     0
  9
$DIMSOXD
 70
     0
  9
$DIMSAH
 70
     0
  9
$DIMBLK1
  1

  9
$DIMBLK2
  1

  9
$DIMSTYLE
  2
SCALA2-5
  9
$DIMCLRD
 70
   256
  9
$DIMCLRE
 70
   256
  9
$DIMCLRT
 70
     7
  9
$DIMTFAC
 40
0.7
  9
$DIMGAP
 40
1.0
  9
$DIMJUST
 70
     0
  9
$DIMSD1
 70
     0
  9
$DIMSD2
 70
     0
  9
$DIMTOLJ
 70
     1
  9
$DIMTZIN
 70
     8
  9
$DIMALTZ
 70
     0
  9
$DIMALTTZ
 70
     0
  9
$DIMFIT
 70
     3
  9
$DIMUPT
 70
     0
  9
$DIMUNIT
 70
     2
  9
$DIMDEC
 70
     2
  9
$DIMTDEC
 70
     4
  9
$DIMALTU
 70
     2
  9
$DIMALTTD
 70
     2
  9
$DIMTXSTY
  7
SIMPLEX
  9
$DIMAUNIT
 70
     0
  9
$LUNITS
 70
     2
  9
$LUPREC
 70
     4
  9
$SKETCHINC
 40
1.0
  9
$FILLETRAD
 40
0.3
  9
$AUNITS
 70
     0
  9
$AUPREC
 70
     0
  9
$MENU
  1
.
  9
$ELEVATION
 40
0.0
  9
$PELEVATION
 40
0.0
  9
$THICKNESS
 40
0.0
  9
$LIMCHECK
 70
     0
  9
$BLIPMODE
 70
     0
  9
$CHAMFERA
 40
0.0
  9
$CHAMFERB
 40
0.0
  9
$CHAMFERC
 40
20.0
  9
$CHAMFERD
 40
0.0
  9
$SKPOLY
 70
     0
  9
$TDCREATE
 40
2451849.758561400
  9
$TDUPDATE
 40
2453142.663631539
  9
$TDINDWG
 40
0.7008158796
  9
$TDUSRTIMER
 40
0.7008158796
  9
$USRTIMER
 70
     1
  9
$ANGBASE
 50
0.0
  9
$ANGDIR
 70
     0
  9
$PDMODE
 70
     0
  9
$PDSIZE
 40
0.0
  9
$PLINEWID
 40
0.0
  9
$COORDS
 70
     1
  9
$SPLFRAME
 70
     0
  9
$SPLINETYPE
 70
     6
  9
$SPLINESEGS
 70
     8
  9
$ATTDIA
 70
     0
  9
$ATTREQ
 70
     1
  9
$HANDLING
 70
  4097
  9
$HANDSEED
  5
F5E3
  9
$SURFTAB1
 70
     6
  9
$SURFTAB2
 70
     6
  9
$SURFTYPE
 70
     6
  9
$SURFU
 70
     6
  9
$SURFV
 70
     6
  9
$UCSNAME
  2

  9
$UCSORG
 10
0.0
 20
0.0
 30
0.0
  9
$UCSXDIR
 10
1.0
 20
0.0
 30
0.0
  9
$UCSYDIR
 10
0.0
 20
1.0
 30
0.0
  9
$PUCSNAME
  2

  9
$PUCSORG
 10
0.0
 20
0.0
 30
0.0
  9
$PUCSXDIR
 10
1.0
 20
0.0
 30
0.0
  9
$PUCSYDIR
 10
0.0
 20
1.0
 30
0.0
  9
$USERI1
 70
     0
  9
$USERI2
 70
     0
  9
$USERI3
 70
     0
  9
$USERI4
 70
     0
  9
$USERI5
 70
     0
  9
$USERR1
 40
0.0
  9
$USERR2
 40
0.0
  9
$USERR3
 40
0.0
  9
$USERR4
 40
0.0
  9
$USERR5
 40
0.0
  9
$WORLDVIEW
 70
     1
  9
$SHADEDGE
 70
     3
  9
$SHADEDIF
 70
    70
  9
$TILEMODE
 70
     1
  9
$MAXACTVP
 70
    48
  9
$PINSBASE
 10
0.0
 20
0.0
 30
0.0
  9
$PLIMCHECK
 70
     0
  9
$PEXTMIN
 10
1.000000000000000E+20
 20
1.000000000000000E+20
 30
1.000000000000000E+20
  9
$PEXTMAX
 10
-1.000000000000000E+20
 20
-1.000000000000000E+20
 30
-1.000000000000000E+20
  9
$PLIMMIN
 10
0.0
 20
0.0
  9
$PLIMMAX
 10
420.0
 20
297.0
  9
$UNITMODE
 70
     0
  9
$VISRETAIN
 70
     1
  9
$PLINEGEN
 70
     0
  9
$PSLTSCALE
 70
     1
  9
$TREEDEPTH
 70
  3020
  9
$PICKSTYLE
 70
     1
  9
$CMLSTYLE
  2
STANDARD
  9
$CMLJUST
 70
     0
  9
$CMLSCALE
 40
20.0
  9
$PROXYGRAPHICS
 70
     1
  9
$MEASUREMENT
 70
     1
  0
ENDSEC
  0
SECTION
  2
CLASSES
  0
CLASS
  1
LWPOLYLINE
  2
AcDbPolyline
  3
AutoCAD 2000
 90
        0
280
     0
281
     1
  0
CLASS
  1
ACDBDICTIONARYWDFLT
  2
AcDbDictionaryWithDefault
  3
AutoCAD 2000
 90
        0
280
     0
281
     0
  0
CLASS
  1
ACDBPLACEHOLDER
  2
AcDbPlaceHolder
  3
AutoCAD 2000
 90
        0
280
     0
281
     0
  0
CLASS
  1
LAYOUT
  2
AcDbLayout
  3
AutoCAD 2000
 90
        0
280
     0
281
     0
  0
CLASS
  1
ACME_DOCUMENT
  2
AcMeDbDoc
  3
AcMeServices
 90
        0
280
     0
281
     0
  0
CLASS
  1
AMGSETTINGSOBJ
  2
AmgSettingsObj
  3
"AcadM|Product Description: AutoCAD Mechanical 2000|Company: Autodesk"
 90
        0
280
     0
281
     0
  0
CLASS
  1
ACMESCOPE
  2
AcMeScope
  3
AcMeServices
 90
        0
280
     0
281
     0
  0
CLASS
  1
ACMECOMMANDHISTORY
  2
AcMeCommandHistory
  3
AcMeServices
 90
        0
280
     0
281
     0
  0
CLASS
  1
ACIMSYSVARMAN
  2
AcImSysVarManager
  3
AcMeServices
 90
        0
280
     0
281
     0
  0
CLASS
  1
ACIMREALSYSVAR
  2
AcImRealSysVar
  3
AcMeServices
 90
        0
280
     0
281
     0
  0
CLASS
  1
ACIMINTSYSVAR
  2
AcImIntSysVar
  3
AcMeServices
 90
        0
280
     0
281
     0
  0
CLASS
  1
ACMEDRAWINGMAN
  2
AcMeDrawingMan
  3
AcMeServices
 90
        0
280
     0
281
     0
  0
CLASS
  1
ACMEVIEW
  2
AcMeView
  3
AcMeServices
 90
        0
280
     0
281
     0
  0
CLASS
  1
ACDBENTITYCACHE
  2
AcMeEntityCache
  3
AcMeServices
 90
        0
280
     0
281
     0
  0
CLASS
  1
GSMANAGER
  2
AcMeGSManager
  3
AcMeServices
 90
        0
280
     0
281
     0
  0
CLASS
  1
AMDTINTERNALREACTOR
  2
AmdtInternalReactor
  3
AcMeServices
 90
        0
280
     0
281
     0
  0
CLASS
  1
ACMESTATEMGR
  2
AcMeStateMgr
  3
AcMeServices
 90
        0
280
     0
281
     0
  0
CLASS
  1
ACGREFMASTER
  2
AcGrefMaster
  3
AcAttribServices
 90
        0
280
     0
281
     0
  0
CLASS
  1
ACME_DATABASE
  2
AcMeDbDatabase
  3
AcMeServices
 90
        0
280
     0
281
     0
  0
CLASS
  1
ACRFINSADJUSTERMGR
  2
AcRfInsAdjusterMgr
  3
AcMeServices
 90
        0
280
     0
281
     0
  0
CLASS
  1
ACGREFACADMASTER
  2
AcGrefacadMaster
  3
AcGrefServices
 90
        0
280
     0
281
     0
  0
CLASS
  1
AMIMASTER
  2
AmiMaster
  3
AmiServices
 90
        0
280
     0
281
     0
  0
CLASS
  1
ACMDATADICTIONARY
  2
AcmDataDictionary
  3
"AcmSymBB|Product Description: AutoCAD Mechanical 2000|Company: Autodesk"
 90
        0
280
     0
281
     0
  0
CLASS
  1
ACMDATAENTRYBLOCK
  2
AcmDataEntryBlock
  3
"AcmSymBB|Product Description: AutoCAD Mechanical 2000|Company: Autodesk"
 90
        0
280
     0
281
     0
  0
CLASS
  1
ACIMSTRSYSVAR
  2
AcImStrSysVar
  3
AcMeServices
 90
        0
280
     0
281
     0
  0
CLASS
  1
ACMSTANDARDISO
  2
AcmStandardISO
  3
"Amdt_StdImp|Product Description: AutoCAD Mechanical 2000|Company: Autodesk"
 90
        0
280
     0
281
     0
  0
CLASS
  1
AMGOBJPROPCFG
  2
AmgObjPropCfg
  3
"AmgLay|Product Description: AutoCAD Mechanical 2000|Company: Autodesk"
 90
        1
280
     0
281
     0
  0
CLASS
  1
AMDTEDGESTANDARDISO
  2
AmdtEdgeStdISO
  3
"Amdt_StdImp|Product Description: AutoCAD Mechanical 2000|Company: Autodesk"
 90
        0
280
     0
281
     0
  0
CLASS
  1
ACMSURFSTANDARDISO
  2
AcmSurfTextStdISO
  3
"Amdt_StdImp|Product Description: AutoCAD Mechanical 2000|Company: Autodesk"
 90
        0
280
     0
281
     0
  0
CLASS
  1
ACMFCFSTANDARDISO
  2
AcmFCFStdISO
  3
"Amdt_StdImp|Product Description: AutoCAD Mechanical 2000|Company: Autodesk"
 90
        0
280
     0
281
     0
  0
CLASS
  1
ACMWELDSTANDARDISO
  2
AcmWeldingStdISO
  3
"Amdt_StdImp|Product Description: AutoCAD Mechanical 2000|Company: Autodesk"
 90
        0
280
     0
281
     0
  0
CLASS
  1
ACMIDSTANDARDISO
  2
AcmIdStdISO
  3
"Amdt_StdImp|Product Description: AutoCAD Mechanical 2000|Company: Autodesk"
 90
        0
280
     0
281
     0
  0
CLASS
  1
ACMDATUMSTANDARDISO
  2
AcmDatumStdISO
  3
"Amdt_StdImp|Product Description: AutoCAD Mechanical 2000|Company: Autodesk"
 90
        0
280
     0
281
     0
  0
CLASS
  1
ACMBOMSTANDARDISO
  2
AcmBOMStdISO
  3
"Amdt_StdImp|Product Description: AutoCAD Mechanical 2000|Company: Autodesk"
 90
        0
280
     0
281
     0
  0
CLASS
  1
ACMDETAILSTANDARDISO
  2
AmdtDetailSymStdISO
  3
"Amdt_StdImp|Product Description: AutoCAD Mechanical 2000|Company: Autodesk"
 90
        0
280
     0
281
     0
  0
CLASS
  1
ACMSECTIONSTANDARDISO
  2
AmdtSectionSymStdISO
  3
"Amdt_StdImp|Product Description: AutoCAD Mechanical 2000|Company: Autodesk"
 90
        0
280
     0
281
     0
  0
CLASS
  1
ACMCENTERLINESTANDARDISO
  2
AmdtCenterLineStdISO
  3
"Amdt_StdImp|Product Description: AutoCAD Mechanical 2000|Company: Autodesk"
 90
        0
280
     0
281
     0
  0
CLASS
  1
ACMNOTESTANDARDISO
  2
AmdtNoteStdISO
  3
"Amdt_StdImp|Product Description: AutoCAD Mechanical 2000|Company: Autodesk"
 90
        0
280
     0
281
     0
  0
CLASS
  1
ACAMGLAYSTD
  2
AcAmgLayStd
  3
"AcAmgLayStd|Product Description: AutoCAD Mechanical 2000|Company: Autodesk"
 90
        0
280
     0
281
     0
  0
CLASS
  1
ACAMGDIMSTD
  2
AcAmgDimStd
  3
"AcAmgDimStd|Product Description: AutoCAD Mechanical 2000|Company: Autodesk"
 90
        0
280
     0
281
     0
  0
CLASS
  1
ACAMGHOLECHARTSTDISO
  2
AcAmgHoleChartStdISO
  3
ACMSYMBB_MODULE_NAME
 90
        0
280
     0
281
     0
  0
CLASS
  1
ACAMGTITLESTD
  2
AcAmgTitleStd
  3
"TITLEAPP"
 90
        0
280
     0
281
     0
  0
CLASS
  1
ACAMGFILTERDAT
  2
AcAmgFilterDat
  3
"AcadM|Product Description: AutoCAD Mechanical 2000|Company: Autodesk"
 90
        0
280
     0
281
     0
  0
CLASS
  1
ACMSTANDARDANSI
  2
AcmStandardANSI
  3
"Amdt_StdImp|Product Description: AutoCAD Mechanical 2000|Company: Autodesk"
 90
        0
280
     0
281
     0
  0
CLASS
  1
ACMSURFSTANDARDANSI
  2
AcmSurfTextStdANSI
  3
"Amdt_StdImp|Product Description: AutoCAD Mechanical 2000|Company: Autodesk"
 90
        0
280
     0
281
     0
  0
CLASS
  1
ACMFCFSTANDARDANSI
  2
AcmFCFStdANSI
  3
"Amdt_StdImp|Product Description: AutoCAD Mechanical 2000|Company: Autodesk"
 90
        0
280
     0
281
     0
  0
CLASS
  1
ACMWELDSTANDARDANSI
  2
AcmWeldingStdANSI
  3
"Amdt_StdImp|Product Description: AutoCAD Mechanical 2000|Company: Autodesk"
 90
        0
280
     0
281
     0
  0
CLASS
  1
ACMIDSTANDARDANSI
  2
AcmIdStdANSI
  3
"Amdt_StdImp|Product Description: AutoCAD Mechanical 2000|Company: Autodesk"
 90
        0
280
     0
281
     0
  0
CLASS
  1
ACMDATUMSTANDARDANSI
  2
AcmDatumStdANSI
  3
"Amdt_StdImp|Product Description: AutoCAD Mechanical 2000|Company: Autodesk"
 90
        0
280
     0
281
     0
  0
CLASS
  1
ACMBOMSTANDARDANSI
  2
AcmBOMStdANSI
  3
"Amdt_StdImp|Product Description: AutoCAD Mechanical 2000|Company: Autodesk"
 90
        0
280
     0
281
     0
  0
CLASS
  1
ACMDETAILSTANDARDANSI
  2
AmdtDetailSymStdANSI
  3
"Amdt_StdImp|Product Description: AutoCAD Mechanical 2000|Company: Autodesk"
 90
        0
280
     0
281
     0
  0
CLASS
  1
ACMSECTIONSTANDARDANSI
  2
AmdtSectionSymStdANSI
  3
"Amdt_StdImp|Product Description: AutoCAD Mechanical 2000|Company: Autodesk"
 90
        0
280
     0
281
     0
  0
CLASS
  1
ACMCENTERLINESTANDARDANSI
  2
AmdtCenterLineStdANSI
  3
"Amdt_StdImp|Product Description: AutoCAD Mechanical 2000|Company: Autodesk"
 90
        0
280
     0
281
     0
  0
CLASS
  1
ACMNOTESTANDARDANSI
  2
AmdtNoteStdANSI
  3
"Amdt_StdImp|Product Description: AutoCAD Mechanical 2000|Company: Autodesk"
 90
        0
280
     0
281
     0
  0
CLASS
  1
ACAMGHOLECHARTSTDANSI
  2
AcAmgHoleChartStdANSI
  3
ACMSYMBB_MODULE_NAME
 90
        0
280
     0
281
     0
  0
CLASS
  1
AMDTFORMULAUPDATEDISPATCHER
  2
AmdtFormulaUpdateDispatcher
  3
AcMeServices
 90
        0
280
     0
281
     0
  0
CLASS
  1
LAYER_INDEX
  2
AcDbLayerIndex
  3
AutoCAD 2000
 90
        0
280
     0
281
     0
  0
CLASS
  1
IDBUFFER
  2
AcDbIdBuffer
  3
AutoCAD 2000
 90
        0
280
     0
281
     0
  0
CLASS
  1
DICTIONARYVAR
  2
AcDbDictionaryVar
  3
AutoCAD 2000
 90
        0
280
     0
281
     0
  0
CLASS
  1
STDPART2D
  2
AmgStdPart
  3
"AmgStdPart|Product Description: AutoCAD Mechanical 2000|Company: Autodesk"
 90
     1023
280
     0
281
     1
  0
CLASS
  1
ACMDATAENTRYPART
  2
AcmDataEntryPart
  3
"AcmSymBB|Product Description: AutoCAD Mechanical 2000|Company: Autodesk"
 90
        0
280
     0
281
     0
  0
CLASS
  1
ACMPARTREF
  2
AcmPartRef
  3
"AcmSymBB|Product Description: AutoCAD Mechanical 2000|Company: Autodesk"
 90
     1023
280
     0
281
     1
  0
CLASS
  1
ACDBSTDPARTRES_LINE
  2
AcDbStdPartRes_Line
  3
"AcDbStdPartRes_Line|Product Description: AutoCAD Mechanical 2000|Company: Autodesk"
 90
        0
280
     0
281
     0
  0
CLASS
  1
ACDBCIRCARCRES
  2
AcDbCircArcRes
  3
AcGrefServices
 90
        0
280
     0
281
     0
  0
CLASS
  1
AMDTNOTE
  2
AmdtNote
  3
"AcmSymBB|Product Description: AutoCAD Mechanical 2000|Company: Autodesk"
 90
     1023
280
     0
281
     1
  0
CLASS
  1
ACDBLINERES
  2
AcDbLineRes
  3
AcGrefServices
 90
        0
280
     0
281
     0
  0
CLASS
  1
ACDBSTDPARTRES_ARC
  2
AcDbStdPartRes_Arc
  3
"AcDbStdPartRes_Arc|Product Description: AutoCAD Mechanical 2000|Company: Autodesk"
 90
        0
280
     0
281
     0
  0
CLASS
  1
SORTENTSTABLE
  2
AcDbSortentsTable
  3
AutoCAD 2000
 90
        0
280
     0
281
     0
  0
CLASS
  1
ACAD_PROXY_OBJECT_WRAPPER
  2
AcDbProxyObjectWrapper
  3
AutoCAD 2000
 90
        0
280
     0
281
     0
  0
CLASS
  1
LONG_TRANSACTION
  2
AcDbLongTransaction
  3
AutoCAD 2000
 90
        0
280
     0
281
     0
  0
CLASS
  1
LWPOLYLINE
  2
AcDbPolyline
  3
AutoCAD 2000
 90
        0
280
     0
281
     1
  0
CLASS
  1
HATCH
  2
AcDbHatch
  3
AutoCAD 2000
 90
        0
280
     0
281
     1
  0
CLASS
  1
XRECORD
  2
AcDbXrecord
  3
AutoCAD 2000
 90
        0
280
     0
281
     0
  0
ENDSEC
  0
SECTION
  2
TABLES
  0
TABLE
  2
VPORT
  5
8
330
0
100
AcDbSymbolTable
 70
     3
  0
VPORT
  5
F5BF
330
8
100
AcDbSymbolTableRecord
100
AcDbViewportTableRecord
  2
*ACTIVE
 70
     0
 10
0.0
 20
0.0
 11
1.0
 21
1.0
 12
1198.850529084788
 22
-31.19741575652233
 13
0.0
 23
0.0
 14
5.0
 24
5.0
 15
20.0
 25
20.0
 16
0.0
 26
0.0
 36
1.0
 17
0.0
 27
0.0
 37
0.0
 40
837.6194272640635
 41
1.741635687732341
 42
50.0
 43
0.0
 44
0.0
 50
0.0
 51
0.0
 71
     0
 72
  1234
 73
     1
 74
     0
 75
     0
 76
     0
 77
     0
 78
     2
  0
ENDTAB
  0
TABLE
  2
LTYPE
  5
5
330
0
100
AcDbSymbolTable
 70
    16
  0
LTYPE
  5
12
330
5
100
AcDbSymbolTableRecord
100
AcDbLinetypeTableRecord
  2
BYBLOCK
 70
     0
  3

 72
    65
 73
     0
 40
0.0
  0
LTYPE
  5
13
330
5
100
AcDbSymbolTableRecord
100
AcDbLinetypeTableRecord
  2
BYLAYER
 70
     0
  3

 72
    65
 73
     0
 40
0.0
  0
LTYPE
  5
14
330
5
100
AcDbSymbolTableRecord
100
AcDbLinetypeTableRecord
  2
CONTINUOUS
 70
     0
  3
Solid line
 72
    65
 73
     0
 40
0.0
  0
LTYPE
  5
97
330
5
100
AcDbSymbolTableRecord
100
AcDbLinetypeTableRecord
  2
CENTER
 70
     0
  3
____ _ ____ _ ____ _ ____ _ ____ _ ____ _ ____ 
 72
    65
 73
     4
 40
2.0
 49
1.25
 74
     0
 49
-0.25
 74
     0
 49
0.25
 74
     0
 49
-0.25
 74
     0
  0
LTYPE
  5
A4D
330
5
100
AcDbSymbolTableRecord
100
AcDbLinetypeTableRecord
  2
AM_ISO02W050
 70
     0
  3
__ __ __ __ __ __ __ __ __ __ __ __ __ __ __
 72
    65
 73
     2
 40
7.5
 49
6.0
 74
     0
 49
-1.5
 74
     0
  0
LTYPE
  5
A4E
330
5
100
AcDbSymbolTableRecord
100
AcDbLinetypeTableRecord
  2
AM_ISO08W050
 70
     0
  3
____ . ____ . ____ . ____ . ____ . ____ . ____
 72
    65
 73
     4
 40
18.0
 49
12.0
 74
     0
 49
-1.5
 74
     0
 49
3.0
 74
     0
 49
-1.5
 74
     0
  0
LTYPE
  5
A4F
330
5
100
AcDbSymbolTableRecord
100
AcDbLinetypeTableRecord
  2
AM_ISO09W050
 70
     0
  3
_____ . . _____ . . _____ . . ____ .. ____
 72
    65
 73
     6
 40
22.5
 49
12.0
 74
     0
 49
-1.5
 74
     0
 49
3.0
 74
     0
 49
-1.5
 74
     0
 49
3.0
 74
     0
 49
-1.5
 74
     0
  0
LTYPE
  5
A50
330
5
100
AcDbSymbolTableRecord
100
AcDbLinetypeTableRecord
  2
AMCONSTR
 70
     0
  3
_______________________
 72
    65
 73
     2
 40
9999.0
 49
9999.0
 74
     0
 49
0.0
 74
     0
  0
LTYPE
  5
A51
330
5
100
AcDbSymbolTableRecord
100
AcDbLinetypeTableRecord
  2
AM_ISO08W050X2
 70
     0
  3
__ . __ . __ . __ . __ . __
 72
    65
 73
     4
 40
9.0
 49
6.0
 74
     0
 49
-0.75
 74
     0
 49
1.5
 74
     0
 49
-0.75
 74
     0
  0
LTYPE
  5
A52
330
5
100
AcDbSymbolTableRecord
100
AcDbLinetypeTableRecord
  2
AM_ISO02W050X2
 70
     0
  3
 _ _ _ _ _ _ _ _ _ _ _ _
 72
    65
 73
     2
 40
3.75
 49
3.0
 74
     0
 49
-0.75
 74
     0
  0
LTYPE
  5
A55
330
5
100
AcDbSymbolTableRecord
100
AcDbLinetypeTableRecord
  2
AMZIGZAG
 70
     0
  3
/\/-/\/-/\/-/\/-/\/-/\/
 72
    65
 73
     2
 40
11.00009999999999
 49
0.0001
 74
     4
 75
   135
340
A54
 46
0.04
 50
0.0
 44
0.0
 45
0.0
 49
-11.0
 74
     0
  0
LTYPE
  5
A63
330
5
100
AcDbSymbolTableRecord
100
AcDbLinetypeTableRecord
  2
ACISOWELD
 70
     0
  3
_ _ _ _ _
 72
    65
 73
     2
 40
2.0
 49
2.0
 74
     0
 49
-1.0
 74
     0
  0
LTYPE
  5
A64
330
5
100
AcDbSymbolTableRecord
100
AcDbLinetypeTableRecord
  2
ACISOTGB
 70
     0
  3
__ . . __ . .
 72
    65
 73
     6
 40
9.0
 49
4.0
 74
     0
 49
-1.0
 74
     0
 49
1.0
 74
     0
 49
-1.0
 74
     0
 49
1.0
 74
     0
 49
-1.0
 74
     0
  0
LTYPE
  5
A65
330
5
100
AcDbSymbolTableRecord
100
AcDbLinetypeTableRecord
  2
ACISOTGL
 70
     0
  3
_ _ _ _ _
 72
    65
 73
     2
 40
3.0
 49
2.0
 74
     0
 49
-1.0
 74
     0
  0
LTYPE
  5
BE5
330
5
100
AcDbSymbolTableRecord
100
AcDbLinetypeTableRecord
  2
PHANTOM2
 70
     0
  3
Phantom (.5x) ___ _ _ ___ _ _ ___ _ _ ___ _ _
 72
    65
 73
     6
 40
1.25
 49
0.625
 74
     0
 49
-0.125
 74
     0
 49
0.125
 74
     0
 49
-0.125
 74
     0
 49
0.125
 74
     0
 49
-0.125
 74
     0
  0
LTYPE
  5
BE9
330
5
100
AcDbSymbolTableRecord
100
AcDbLinetypeTableRecord
  2
ACANSTGB
 70
     0
  3
__ . . __ . .
 72
    65
 73
     6
 40
0.35433070866
 49
0.15748031496
 74
     0
 49
-0.03937007874
 74
     0
 49
0.03937007874
 74
     0
 49
-0.03937007874
 74
     0
 49
0.03937007874
 74
     0
 49
-0.03937007874
 74
     0
  0
LTYPE
  5
BEA
330
5
100
AcDbSymbolTableRecord
100
AcDbLinetypeTableRecord
  2
ACANSTGL
 70
     0
  3
_ _ _ _ _
 72
    65
 73
     2
 40
0.11811023622
 49
0.07874015748
 74
     0
 49
-0.03937007874
 74
     0
  0
LTYPE
  5
F538
330
5
100
AcDbSymbolTableRecord
100
AcDbLinetypeTableRecord
  2
DASHED
 70
     0
  3
__ __ __ __ __ __ __ __ __ __ __ __ __ __ __ __
 72
    65
 73
     2
 40
0.75
 49
0.5
 74
     0
 49
-0.25
 74
     0
  0
ENDTAB
  0
TABLE
  2
LAYER
  5
2
102
{ACAD_XDICTIONARY
360
238A
102
}
330
0
100
AcDbSymbolTable
 70
     6
  0
LAYER
  5
E
330
2
100
AcDbSymbolTableRecord
100
AcDbLayerTableRecord
  2
0
 70
     0
 62
     7
  6
CONTINUOUS
  0
LAYER
  5
9A
330
2
100
AcDbSymbolTableRecord
100
AcDbLayerTableRecord
  2
DISEGNO
 70
     0
 62
     7
  6
CONTINUOUS
  0
LAYER
  5
9B
330
2
100
AcDbSymbolTableRecord
100
AcDbLayerTableRecord
  2
ASSI
 70
     0
 62
     2
  6
CENTER
  0
LAYER
  5
9C
330
2
100
AcDbSymbolTableRecord
100
AcDbLayerTableRecord
  2
NORMALI
 70
     0
 62
     6
  6
CONTINUOUS
  0
LAYER
  5
A84
330
2
100
AcDbSymbolTableRecord
100
AcDbLayerTableRecord
  2
DEFPOINTS
 70
     0
 62
     7
  6
CONTINUOUS
  0
LAYER
  5
F539
330
2
100
AcDbSymbolTableRecord
100
AcDbLayerTableRecord
  2
TRATTEGGI
 70
     0
 62
     8
  6
DASHED
  0
ENDTAB
  0
TABLE
  2
STYLE
  5
3
330
0
100
AcDbSymbolTable
 70
     7
  0
STYLE
  5
F
330
3
100
AcDbSymbolTableRecord
100
AcDbTextStyleTableRecord
  2
STANDARD
 70
     0
 40
0.0
 41
1.0
 50
0.0
 71
     0
 42
5.0
  3
txt
  4

  0
STYLE
  5
A54
330
3
100
AcDbSymbolTableRecord
100
AcDbTextStyleTableRecord
  2

 70
     1
 40
0.0
 41
1.0
 50
0.0
 71
     0
 42
2.5
  3
ltypeshp.shx
  4

  0
STYLE
  5
A56
330
3
100
AcDbSymbolTableRecord
100
AcDbTextStyleTableRecord
  2
ACISOTS
 70
     0
 40
1.0
 41
1.0
 50
0.0
 71
     0
 42
2.5
  3
isocp.shx
  4

  0
STYLE
  5
A62
330
3
100
AcDbSymbolTableRecord
100
AcDbTextStyleTableRecord
  2
ACISOGDT
 70
     0
 40
0.0
 41
1.0
 50
0.0
 71
     0
 42
2.5
  3
amgdt.shx
  4

  0
STYLE
  5
BF4
330
3
100
AcDbSymbolTableRecord
100
AcDbTextStyleTableRecord
  2
ACANSTS
 70
     0
 40
1.0
 41
1.0
 50
0.0
 71
     0
 42
2.5
  3
romans.shx
  4

  0
STYLE
  5
BF5
330
3
100
AcDbSymbolTableRecord
100
AcDbTextStyleTableRecord
  2
ACANSGDT
 70
     0
 40
0.0
 41
1.0
 50
0.0
 71
     0
 42
2.5
  3
amgdtans.shx
  4

  0
STYLE
  5
222C
330
3
100
AcDbSymbolTableRecord
100
AcDbTextStyleTableRecord
  2
SIMPLEX
 70
     0
 40
0.0
 41
1.0
 50
0.0
 71
     0
 42
3.0
  3
C:\R13\COM\FONTS\SIMPLEX.SHX
  4

  0
ENDTAB
  0
TABLE
  2
VIEW
  5
6
330
0
100
AcDbSymbolTable
 70
     0
  0
ENDTAB
  0
TABLE
  2
UCS
  5
7
330
0
100
AcDbSymbolTable
 70
     0
  0
ENDTAB
  0
TABLE
  2
APPID
  5
9
330
0
100
AcDbSymbolTable
 70
    48
  0
APPID
  5
10
330
9
100
AcDbSymbolTableRecord
100
AcDbRegAppTableRecord
  2
ACAD
 70
     0
  0
APPID
  5
A0
330
9
100
AcDbSymbolTableRecord
100
AcDbRegAppTableRecord
  2
COMAU_ACADLIB
 70
     0
  0
APPID
  5
75D
330
9
100
AcDbSymbolTableRecord
100
AcDbRegAppTableRecord
  2
ZIMM
 70
     0
  0
APPID
  5
A2F
330
9
100
AcDbSymbolTableRecord
100
AcDbRegAppTableRecord
  2
MCAD_NO_VIS
 70
     0
  0
APPID
  5
A30
330
9
100
AcDbSymbolTableRecord
100
AcDbRegAppTableRecord
  2
ACAD_TEMP_GRAPHIC
 70
     0
  0
APPID
  5
A41
330
9
100
AcDbSymbolTableRecord
100
AcDbRegAppTableRecord
  2
ACATTRIBSERVICES
 70
     0
  0
APPID
  5
3AD1
330
9
100
AcDbSymbolTableRecord
100
AcDbRegAppTableRecord
  2
GEVID1036577964
 70
     0
  0
APPID
  5
3AD2
330
9
100
AcDbSymbolTableRecord
100
AcDbRegAppTableRecord
  2
GEVDC
 70
     0
  0
APPID
  5
3AD6
330
9
100
AcDbSymbolTableRecord
100
AcDbRegAppTableRecord
  2
GENIUS_GENBH_13
 70
     0
  0
APPID
  5
3AD9
330
9
100
AcDbSymbolTableRecord
100
AcDbRegAppTableRecord
  2
GENIUS_GENOLIS_13
 70
     0
  0
APPID
  5
3ADA
330
9
100
AcDbSymbolTableRecord
100
AcDbRegAppTableRecord
  2
GENIUS_GENOENT_13
 70
     0
  0
APPID
  5
3ADB
330
9
100
AcDbSymbolTableRecord
100
AcDbRegAppTableRecord
  2
GENIUS_GENOBJ-NBEHI-BHF_13
 70
     0
  0
APPID
  5
3ADC
330
9
100
AcDbSymbolTableRecord
100
AcDbRegAppTableRecord
  2
GENIUS_GENODEF_13
 70
     0
  0
APPID
  5
3ADD
330
9
100
AcDbSymbolTableRecord
100
AcDbRegAppTableRecord
  2
GENIUS_GENOREF_13
 70
     0
  0
APPID
  5
3ADF
330
9
100
AcDbSymbolTableRecord
100
AcDbRegAppTableRecord
  2
GENIUS_GENOBJ-NBEHI-BHB_13
 70
     0
  0
APPID
  5
3AF7
330
9
100
AcDbSymbolTableRecord
100
AcDbRegAppTableRecord
  2
GEVID1036577965
 70
     0
  0
APPID
  5
538B
330
9
100
AcDbSymbolTableRecord
100
AcDbRegAppTableRecord
  2
GENIUS_GENFIL_13
 70
     0
  0
APPID
  5
538C
330
9
100
AcDbSymbolTableRecord
100
AcDbRegAppTableRecord
  2
GENIUS_GENOBJ-N-CHA_13
 70
     0
  0
APPID
  5
55DE
330
9
100
AcDbSymbolTableRecord
100
AcDbRegAppTableRecord
  2
GEVID1036577966
 70
     0
  0
APPID
  5
5633
330
9
100
AcDbSymbolTableRecord
100
AcDbRegAppTableRecord
  2
GEVID1036577968
 70
     0
  0
APPID
  5
5680
330
9
100
AcDbSymbolTableRecord
100
AcDbRegAppTableRecord
  2
GEVID1036577970
 70
     0
  0
APPID
  5
56CE
330
9
100
AcDbSymbolTableRecord
100
AcDbRegAppTableRecord
  2
GEVID1036577971
 70
     0
  0
APPID
  5
570B
330
9
100
AcDbSymbolTableRecord
100
AcDbRegAppTableRecord
  2
GEVID1036577972
 70
     0
  0
APPID
  5
5721
330
9
100
AcDbSymbolTableRecord
100
AcDbRegAppTableRecord
  2
GEVID1036577973
 70
     0
  0
APPID
  5
6C58
330
9
100
AcDbSymbolTableRecord
100
AcDbRegAppTableRecord
  2
GENIUS_GENOBJ-N-FIL_13
 70
     0
  0
APPID
  5
8BD4
330
9
100
AcDbSymbolTableRecord
100
AcDbRegAppTableRecord
  2
ASM_CADM_VER_12_00
 70
     0
  0
APPID
  5
8BD5
330
9
100
AcDbSymbolTableRecord
100
AcDbRegAppTableRecord
  2
ASM_BASE
 70
     0
  0
APPID
  5
8BD6
330
9
100
AcDbSymbolTableRecord
100
AcDbRegAppTableRecord
  2
ASM_EXPLO_VER_2_00
 70
     0
  0
APPID
  5
8BD7
330
9
100
AcDbSymbolTableRecord
100
AcDbRegAppTableRecord
  2
ASM_BASEFORO
 70
     0
  0
APPID
  5
8BD8
330
9
100
AcDbSymbolTableRecord
100
AcDbRegAppTableRecord
  2
ASM_BASETRAVI
 70
     0
  0
APPID
  5
8BD9
330
9
100
AcDbSymbolTableRecord
100
AcDbRegAppTableRecord
  2
ASM_BASETRAVI1
 70
     0
  0
APPID
  5
8BDA
330
9
100
AcDbSymbolTableRecord
100
AcDbRegAppTableRecord
  2
ASM_GRUPPI
 70
     0
  0
APPID
  5
8BDB
330
9
100
AcDbSymbolTableRecord
100
AcDbRegAppTableRecord
  2
ASM_CADM_ALBERO
 70
     0
  0
APPID
  5
8BDC
330
9
100
AcDbSymbolTableRecord
100
AcDbRegAppTableRecord
  2
ASM_GOLE
 70
     0
  0
APPID
  5
8BDD
330
9
100
AcDbSymbolTableRecord
100
AcDbRegAppTableRecord
  2
AVE_RENDER
 70
     0
  0
APPID
  5
8BDE
330
9
100
AcDbSymbolTableRecord
100
AcDbRegAppTableRecord
  2
AVE_ENTITY_MATERIAL
 70
     0
  0
APPID
  5
8BDF
330
9
100
AcDbSymbolTableRecord
100
AcDbRegAppTableRecord
  2
AVE_FINISH
 70
     0
  0
APPID
  5
8BE0
330
9
100
AcDbSymbolTableRecord
100
AcDbRegAppTableRecord
  2
AVE_MATERIAL
 70
     0
  0
APPID
  5
8BE1
330
9
100
AcDbSymbolTableRecord
100
AcDbRegAppTableRecord
  2
AVE_GLOBAL
 70
     0
  0
APPID
  5
8BE2
330
9
100
AcDbSymbolTableRecord
100
AcDbRegAppTableRecord
  2
AD_SKETCHDIM
 70
     0
  0
APPID
  5
8F80
330
9
100
AcDbSymbolTableRecord
100
AcDbRegAppTableRecord
  2
GENIUS_GENDTOL_13
 70
     0
  0
APPID
  5
C880
330
9
100
AcDbSymbolTableRecord
100
AcDbRegAppTableRecord
  2
GEVID1038903611
 70
     0
  0
APPID
  5
C8B0
330
9
100
AcDbSymbolTableRecord
100
AcDbRegAppTableRecord
  2
GEVID1038903612
 70
     0
  0
APPID
  5
C904
330
9
100
AcDbSymbolTableRecord
100
AcDbRegAppTableRecord
  2
GEVID1038903613
 70
     0
  0
APPID
  5
C905
330
9
100
AcDbSymbolTableRecord
100
AcDbRegAppTableRecord
  2
GEVMK
 70
     0
  0
APPID
  5
D017
330
9
100
AcDbSymbolTableRecord
100
AcDbRegAppTableRecord
  2
GEVID1038903614
 70
     0
  0
APPID
  5
D1E3
330
9
100
AcDbSymbolTableRecord
100
AcDbRegAppTableRecord
  2
GEVID1038903615
 70
     0
  0
APPID
  5
F55D
330
9
100
AcDbSymbolTableRecord
100
AcDbRegAppTableRecord
  2
DCO15
 70
     0
  0
ENDTAB
  0
TABLE
  2
DIMSTYLE
  5
A
330
0
100
AcDbSymbolTable
 70
    15
  0
DIMSTYLE
105
1D
330
A
100
AcDbSymbolTableRecord
100
AcDbDimStyleTableRecord
  2
STANDARD
 70
     0
  3

  4

  5

  6

  7

 40
1.0
 41
0.18
 42
0.0625
 43
0.38
 44
0.18
 45
0.0
 46
0.0
 47
0.0
 48
0.0
140
0.18
141
0.09
142
0.0
143
25.4
144
1.0
145
0.0
146
1.0
147
0.09
 71
     0
 72
     0
 73
     1
 74
     1
 75
     0
 76
     0
 77
     0
 78
     0
170
     0
171
     2
172
     0
173
     0
174
     0
175
     0
176
     0
177
     0
178
     0
270
     2
271
     4
272
     4
273
     2
274
     2
340
F
275
     0
280
     0
281
     0
282
     0
283
     1
284
     0
285
     0
286
     0
287
     3
288
     0
  0
DIMSTYLE
105
A69
330
A
100
AcDbSymbolTableRecord
100
AcDbDimStyleTableRecord
  2
AM_ISO
 70
     0
  3

  4
"
  5

  6

  7

 40
2.0
 41
2.5
 42
1.0
 43
10.0
 44
1.0
 45
0.0
 46
0.0
 47
0.1
 48
0.1
140
3.5
141
0.0
142
0.0
143
0.0393701
144
1.0
145
0.0
146
0.71
147
1.5
 71
     0
 72
     0
 73
     0
 74
     0
 75
     0
 76
     0
 77
     1
 78
     8
170
     0
171
     2
172
     1
173
     0
174
     0
175
     0
176
   256
177
   256
178
     2
270
     2
271
     2
272
     3
273
     2
274
     4
340
F
275
     0
280
     0
281
     0
282
     0
283
     0
284
     8
285
     0
286
     0
287
     3
288
     0
  0
DIMSTYLE
105
A6A
330
A
100
AcDbSymbolTableRecord
100
AcDbDimStyleTableRecord
  2
AM_ISO$3
 70
     0
  3

  4
"
  5

  6

  7

 40
2.0
 41
2.5
 42
1.0
 43
10.0
 44
1.0
 45
0.0
 46
0.0
 47
0.1
 48
0.1
140
3.5
141
0.0
142
0.0
143
0.0393701
144
1.0
145
0.0
146
0.71
147
1.5
 71
     0
 72
     0
 73
     0
 74
     1
 75
     0
 76
     0
 77
     1
 78
     8
170
     0
171
     2
172
     0
173
     0
174
     0
175
     0
176
   256
177
   256
178
     2
270
     2
271
     2
272
     3
273
     2
274
     4
340
F
275
     0
280
     0
281
     0
282
     0
283
     0
284
     8
285
     0
286
     0
287
     0
288
     1
  0
DIMSTYLE
105
A6B
330
A
100
AcDbSymbolTableRecord
100
AcDbDimStyleTableRecord
  2
AM_ISO$4
 70
     0
  3

  4
"
  5

  6

  7

 40
2.0
 41
2.5
 42
1.0
 43
10.0
 44
1.0
 45
0.0
 46
0.0
 47
0.1
 48
0.1
140
3.5
141
0.0
142
0.0
143
0.0393701
144
1.0
145
0.0
146
0.71
147
1.5
 71
     0
 72
     0
 73
     0
 74
     1
 75
     0
 76
     0
 77
     1
 78
     8
170
     0
171
     2
172
     0
173
     0
174
     0
175
     0
176
   256
177
   256
178
     2
270
     2
271
     2
272
     3
273
     2
274
     4
340
F
275
     0
280
     0
281
     0
282
     0
283
     0
284
     8
285
     0
286
     0
287
     0
288
     1
  0
DIMSTYLE
105
A6C
330
A
100
AcDbSymbolTableRecord
100
AcDbDimStyleTableRecord
  2
AM_ISO$6
 70
     0
  3

  4
"
  5

  6

  7

 40
2.0
 41
2.5
 42
1.0
 43
10.0
 44
1.0
 45
0.0
 46
0.0
 47
0.1
 48
0.1
140
3.5
141
0.0
142
0.0
143
0.0393701
144
1.0
145
0.0
146
0.71
147
1.5
 71
     0
 72
     0
 73
     0
 74
     0
 75
     0
 76
     0
 77
     0
 78
     8
170
     0
171
     2
172
     1
173
     0
174
     0
175
     0
176
   256
177
   256
178
     2
270
     2
271
     2
272
     3
273
     2
274
     4
340
F
275
     0
280
     0
281
     0
282
     0
283
     0
284
     8
285
     0
286
     0
287
     3
288
     0
  0
DIMSTYLE
105
A6D
330
A
100
AcDbSymbolTableRecord
100
AcDbDimStyleTableRecord
  2
AM_ISO$7
 70
     0
  3

  4
"
  5

  6

  7

 40
2.0
 41
2.5
 42
1.0
 43
10.0
 44
1.0
 45
0.0
 46
0.0
 47
0.1
 48
0.1
140
5.0
141
0.0
142
0.0
143
0.0393701
144
1.0
145
0.0
146
0.71
147
1.5
 71
     0
 72
     0
 73
     0
 74
     0
 75
     0
 76
     0
 77
     1
 78
     8
170
     0
171
     2
172
     1
173
     0
174
     0
175
     0
176
   256
177
   256
178
     2
270
     2
271
     2
272
     3
273
     2
274
     4
340
F
275
     0
280
     0
281
     0
282
     0
283
     0
284
     8
285
     0
286
     0
287
     3
288
     0
  0
DIMSTYLE
105
A6E
330
A
100
AcDbSymbolTableRecord
100
AcDbDimStyleTableRecord
  2
AM_ISO$SF
 70
     0
  3

  4
"
  5

  6

  7

 40
2.0
 41
2.5
 42
1.0
 43
10.0
 44
1.0
 45
0.0
 46
0.0
 47
0.1
 48
0.1
140
3.5
141
0.0
142
0.0
143
0.0393701
144
1.0
145
0.0
146
0.71
147
1.5
 71
     0
 72
     0
 73
     0
 74
     0
 75
     1
 76
     1
 77
     1
 78
     8
170
     0
171
     2
172
     1
173
     0
174
     0
175
     0
176
   256
177
   256
178
     2
270
     2
271
     2
272
     3
273
     2
274
     4
340
F
275
     0
280
     0
281
     0
282
     0
283
     0
284
     8
285
     0
286
     0
287
     3
288
     0
  0
DIMSTYLE
105
A73
330
A
100
AcDbSymbolTableRecord
100
AcDbDimStyleTableRecord
  2
AM_ISO$SH
 70
     0
  3

  4
"
  5

  6
GENAXEH
  7

 40
2.0
 41
2.5
 42
1.0
 43
10.0
 44
1.0
 45
0.0
 46
0.0
 47
0.1
 48
0.1
140
3.5
141
0.0
142
0.0
143
0.0393701
144
2.0
145
0.0
146
0.71
147
1.5
 71
     0
 72
     0
 73
     0
 74
     0
 75
     1
 76
     1
 77
     1
 78
     8
170
     0
171
     2
172
     1
173
     1
174
     0
175
     0
176
   256
177
   256
178
     2
270
     2
271
     2
272
     3
273
     2
274
     4
340
F
275
     0
280
     0
281
     0
282
     0
283
     0
284
     8
285
     0
286
     0
287
     3
288
     0
  0
DIMSTYLE
105
BF7
330
A
100
AcDbSymbolTableRecord
100
AcDbDimStyleTableRecord
  2
AM_ANSI
 70
     0
  3

  4
mm
  5

  6

  7

 40
2.0
 41
0.1
 42
0.05
 43
0.5
 44
0.1
 45
0.0
 46
0.0
 47
0.1
 48
0.1
140
0.12
141
0.0
142
0.0
143
25.4
144
1.0
145
0.0
146
0.71
147
0.06
 71
     0
 72
     0
 73
     1
 74
     1
 75
     0
 76
     0
 77
     0
 78
     7
170
     0
171
     2
172
     0
173
     0
174
     0
175
     0
176
   256
177
   256
178
     2
270
     2
271
     4
272
     4
273
     2
274
     4
340
F
275
     0
280
     0
281
     0
282
     0
283
     1
284
     7
285
     0
286
     0
287
     3
288
     0
  0
DIMSTYLE
105
BF8
330
A
100
AcDbSymbolTableRecord
100
AcDbDimStyleTableRecord
  2
AM_ANSI$3
 70
     0
  3

  4
mm
  5

  6

  7

 40
2.0
 41
0.1
 42
0.05
 43
0.5
 44
0.1
 45
0.0
 46
0.0
 47
0.1
 48
0.1
140
0.12
141
0.0
142
0.0
143
25.4
144
1.0
145
0.0
146
0.71
147
0.06
 71
     0
 72
     0
 73
     1
 74
     1
 75
     0
 76
     0
 77
     0
 78
     7
170
     0
171
     2
172
     0
173
     0
174
     0
175
     0
176
   256
177
   256
178
     2
270
     2
271
     4
272
     4
273
     2
274
     4
340
F
275
     0
280
     0
281
     0
282
     0
283
     1
284
     7
285
     0
286
     0
287
     0
288
     1
  0
DIMSTYLE
105
BF9
330
A
100
AcDbSymbolTableRecord
100
AcDbDimStyleTableRecord
  2
AM_ANSI$4
 70
     0
  3

  4
mm
  5

  6

  7

 40
2.0
 41
0.1
 42
0.05
 43
0.5
 44
0.1
 45
0.0
 46
0.0
 47
0.1
 48
0.1
140
0.12
141
0.0
142
0.0
143
25.4
144
1.0
145
0.0
146
0.71
147
0.06
 71
     0
 72
     0
 73
     1
 74
     1
 75
     0
 76
     0
 77
     0
 78
     7
170
     0
171
     2
172
     0
173
     0
174
     0
175
     0
176
   256
177
   256
178
     2
270
     2
271
     4
272
     4
273
     2
274
     4
340
F
275
     0
280
     0
281
     0
282
     0
283
     1
284
     7
285
     0
286
     0
287
     0
288
     1
  0
DIMSTYLE
105
BFA
330
A
100
AcDbSymbolTableRecord
100
AcDbDimStyleTableRecord
  2
AM_ANSI$7
 70
     0
  3

  4
mm
  5

  6

  7

 40
2.0
 41
0.1
 42
0.05
 43
0.5
 44
0.1
 45
0.0
 46
0.0
 47
0.1
 48
0.1
140
0.24
141
0.0
142
0.0
143
25.4
144
1.0
145
0.0
146
0.71
147
0.06
 71
     0
 72
     0
 73
     1
 74
     1
 75
     0
 76
     0
 77
     0
 78
     7
170
     0
171
     2
172
     0
173
     0
174
     0
175
     0
176
   256
177
   256
178
     2
270
     2
271
     4
272
     4
273
     2
274
     4
340
F
275
     0
280
     0
281
     0
282
     0
283
     1
284
     7
285
     0
286
     0
287
     3
288
     0
  0
DIMSTYLE
105
BFB
330
A
100
AcDbSymbolTableRecord
100
AcDbDimStyleTableRecord
  2
AM_ANSI$SF
 70
     0
  3

  4
mm
  5

  6

  7

 40
2.0
 41
0.1
 42
0.05
 43
0.5
 44
0.1
 45
0.0
 46
0.0
 47
0.1
 48
0.1
140
0.12
141
0.0
142
0.0
143
25.4
144
1.0
145
0.0
146
0.71
147
0.06
 71
     0
 72
     0
 73
     1
 74
     1
 75
     1
 76
     1
 77
     0
 78
     7
170
     0
171
     2
172
     0
173
     0
174
     0
175
     0
176
   256
177
   256
178
     2
270
     2
271
     4
272
     4
273
     2
274
     4
340
F
275
     0
280
     0
281
     0
282
     0
283
     1
284
     7
285
     0
286
     0
287
     3
288
     0
  0
DIMSTYLE
105
BFC
330
A
100
AcDbSymbolTableRecord
100
AcDbDimStyleTableRecord
  2
AM_ANSI$SH
 70
     0
  3

  4
mm
  5

  6
GENAXEH
  7

 40
2.0
 41
0.1
 42
0.05
 43
0.5
 44
0.1
 45
0.0
 46
0.0
 47
0.1
 48
0.1
140
0.12
141
0.0
142
0.0
143
25.4
144
1.0
145
0.0
146
0.71
147
0.06
 71
     0
 72
     0
 73
     1
 74
     1
 75
     1
 76
     1
 77
     0
 78
     7
170
     0
171
     2
172
     0
173
     1
174
     0
175
     0
176
   256
177
   256
178
     2
270
     2
271
     4
272
     4
273
     2
274
     4
340
F
275
     0
280
     0
281
     0
282
     0
283
     1
284
     7
285
     0
286
     0
287
     3
288
     0
  0
DIMSTYLE
105
2556
330
A
100
AcDbSymbolTableRecord
100
AcDbDimStyleTableRecord
  2
SCALA2-5
 70
     0
  3

  4

  5

  6

  7

 40
2.5
 41
3.5
 42
1.0
 43
1.0
 44
1.0
 45
0.0
 46
0.0
 47
0.0
 48
0.0
140
3.5
141
0.09
142
0.0
143
25.4
144
1.0
145
0.0
146
0.7
147
1.0
 71
     0
 72
     0
 73
     0
 74
     0
 75
     0
 76
     0
 77
     1
 78
     8
170
     0
171
     2
172
     1
173
     0
174
     0
175
     0
176
   256
177
   256
178
     7
270
     2
271
     2
272
     4
273
     2
274
     2
340
222C
275
     0
280
     0
281
     0
282
     0
283
     1
284
     8
285
     0
286
     0
287
     3
288
     0
  0
ENDTAB
  0
TABLE
  2
BLOCK_RECORD
  5
1
330
0
100
AcDbSymbolTable
 70
     2
  0
BLOCK_RECORD
  5
18
102
{ACAD_XDICTIONARY
360
209A
102
}
330
1
100
AcDbSymbolTableRecord
100
AcDbBlockTableRecord
  2
*MODEL_SPACE
  0
BLOCK_RECORD
  5
15
102
{ACAD_XDICTIONARY
360
F5E0
102
}
330
1
100
AcDbSymbolTableRecord
100
AcDbBlockTableRecord
  2
*PAPER_SPACE
  0
BLOCK_RECORD
  5
94D
330
1
100
AcDbSymbolTableRecord
100
AcDbBlockTableRecord
  2

  0
BLOCK_RECORD
  5
A6F
330
1
100
AcDbSymbolTableRecord
100
AcDbBlockTableRecord
  2
GENAXEH
  0
ENDTAB
  0
ENDSEC
  0
SECTION
  2
BLOCKS
  0
BLOCK
  5
19
330
18
100
AcDbEntity
  8
0
100
AcDbBlockBegin
  2
*MODEL_SPACE
 70
     0
 10
0.0
 20
0.0
 30
0.0
  3
*MODEL_SPACE
  1

  0
ENDBLK
  5
1A
330
18
100
AcDbEntity
  8
0
100
AcDbBlockEnd
  0
BLOCK
  5
16
330
15
100
AcDbEntity
 67
     1
  8
0
100
AcDbBlockBegin
  2
*PAPER_SPACE
 70
     0
 10
0.0
 20
0.0
 30
0.0
  3
*PAPER_SPACE
  1

  0
ENDBLK
  5
17
330
15
100
AcDbEntity
 67
     1
  8
0
100
AcDbBlockEnd
  0
BLOCK
  5
94E
330
94D
100
AcDbEntity
  8
0
100
AcDbBlockBegin
  2

 70
     0
 10
0.0
 20
0.0
 30
0.0
  3

  1

  0
ENDBLK
  5
94F
330
94D
100
AcDbEntity
  8
0
100
AcDbBlockEnd
  0
BLOCK
  5
A71
330
A6F
100
AcDbEntity
  8
0
100
AcDbBlockBegin
  2
GENAXEH
 70
     0
 10
0.0
 20
0.0
 30
0.0
  3
GENAXEH
  1

  0
LINE
  5
A70
330
A6F
100
AcDbEntity
  8
0
100
AcDbLine
 10
-1.0
 20
0.0
 30
0.0
 11
1.0
 21
0.0
 31
0.0
  0
ENDBLK
  5
A72
330
A6F
100
AcDbEntity
  8
0
100
AcDbBlockEnd
  0
ENDSEC
  0
SECTION
  2
ENTITIES
  0
LINE
  5
40B
330
18
100
AcDbEntity
  8
DISEGNO
100
AcDbLine
 10
1354.197774695402
 20
53.0000000000025
 30
0.0
 11
974.1977746954002
 21
53.0000000000025
 31
0.0
  0
LINE
  5
40E
330
18
100
AcDbEntity
  8
DISEGNO
100
AcDbLine
 10
1352.697774695398
 20
249.0000000000002
 30
0.0
 11
1152.6977746954
 21
248.9999999999997
 31
0.0
  0
LINE
  5
40F
330
18
100
AcDbEntity
  8
DISEGNO
100
AcDbLine
 10
1352.6977746954
 20
139.0000000000002
 30
0.0
 11
1152.6977746954
 21
139.0000000000002
 31
0.0
  0
LINE
  5
412
330
18
100
AcDbEntity
  8
ASSI
100
AcDbLine
 10
1595.355481040742
 20
-223.5538489121206
 30
0.0
 11
743.4436591499142
 21
-223.5538489121206
 31
0.0
  0
LINE
  5
415
330
18
100
AcDbEntity
  8
DISEGNO
100
AcDbLine
 10
1354.1977746954
 20
50.00000000000341
 30
0.0
 11
974.1977746954002
 21
50.00000000000341
 31
0.0
  0
LINE
  5
416
330
18
100
AcDbEntity
  8
DISEGNO
100
AcDbLine
 10
1354.1977746954
 20
114.9999999999993
 30
0.0
 11
974.1977746954002
 21
114.9999999999993
 31
0.0
  0
LINE
  5
417
330
18
100
AcDbEntity
  8
DISEGNO
100
AcDbLine
 10
1354.197774695399
 20
129.0000000000013
 30
0.0
 11
974.1977746954002
 21
128.9999999999993
 31
0.0
  0
LINE
  5
41C
330
18
100
AcDbEntity
  8
DISEGNO
100
AcDbLine
 10
1352.1977746954
 20
-323.5538489121207
 30
0.0
 11
976.1977746954002
 21
-323.5538489121207
 31
0.0
  0
LINE
  5
41D
330
18
100
AcDbEntity
  8
DISEGNO
100
AcDbLine
 10
1352.1977746954
 20
-123.5538489121206
 30
0.0
 11
976.1977746954002
 21
-123.5538489121206
 31
0.0
  0
LINE
  5
422
330
18
100
AcDbEntity
  8
DISEGNO
100
AcDbLine
 10
1352.6977746954
 20
-318.5538489121207
 30
0.0
 11
1152.6977746954
 21
-318.5538489121207
 31
0.0
  0
LINE
  5
423
330
18
100
AcDbEntity
  8
DISEGNO
100
AcDbLine
 10
1352.6977746954
 20
-128.5538489121206
 30
0.0
 11
1152.6977746954
 21
-128.5538489121206
 31
0.0
  0
LINE
  5
430
330
18
100
AcDbEntity
  8
DISEGNO
100
AcDbLine
 10
761.5977746954022
 20
-253.5538489121211
 30
0.0
 11
974.1977746954002
 21
-253.5538489121207
 31
0.0
  0
LINE
  5
431
330
18
100
AcDbEntity
  8
DISEGNO
100
AcDbLine
 10
761.5977746954022
 20
-193.5538489121211
 30
0.0
 11
974.1977746954002
 21
-193.5538489121206
 31
0.0
  0
LINE
  5
435
330
18
100
AcDbEntity
  8
DISEGNO
100
AcDbLine
 10
761.5977746954004
 20
-193.5538489121206
 30
0.0
 11
761.5977746954004
 21
-253.5538489121207
 31
0.0
  0
LINE
  5
436
330
18
100
AcDbEntity
  8
DISEGNO
100
AcDbLine
 10
762.597774695404
 20
-253.5538489121207
 30
0.0
 11
761.597774695404
 21
-252.5538489121206
 31
0.0
  0
LINE
  5
437
330
18
100
AcDbEntity
  8
DISEGNO
100
AcDbLine
 10
761.597774695404
 20
-194.5538489121206
 30
0.0
 11
762.597774695404
 21
-193.5538489121206
 31
0.0
  0
LINE
  5
438
330
18
100
AcDbEntity
  8
DISEGNO
100
AcDbLine
 10
796.5977746954004
 20
-193.5538489121197
 30
0.0
 11
796.5977746954004
 21
-253.5538489121216
 31
0.0
  0
CIRCLE
  5
43B
330
18
100
AcDbEntity
  8
NORMALI
100
AcDbCircle
 10
776.5977746954022
 20
-244.0538489121206
 30
0.0
 40
5.0
1001
COMAU_ACADLIB
1000
00302053
1000
Vite T.C.E.I. UNI 5931 - M6x25 - 8.8
  0
LINE
  5
43C
330
18
100
AcDbEntity
  8
NORMALI
100
AcDbLine
 10
796.5977746954004
 20
-229.0538489121201
 30
0.0
 11
815.5977746954004
 21
-229.0538489121201
 31
0.0
  0
LINE
  5
43D
330
18
100
AcDbEntity
  8
NORMALI
100
AcDbLine
 10
796.5977746954004
 20
-249.0538489121202
 30
0.0
 11
815.5977746954004
 21
-249.0538489121202
 31
0.0
  0
LINE
  5
43E
330
18
100
AcDbEntity
  8
NORMALI
100
AcDbLine
 10
816.5977746954004
 20
-248.0538489121201
 30
0.0
 11
816.5977746954004
 21
-230.0538489121202
 31
0.0
  0
LINE
  5
43F
330
18
100
AcDbEntity
  8
NORMALI
100
AcDbLine
 10
815.5977746954004
 20
-249.0538489121202
 30
0.0
 11
815.5977746954004
 21
-229.0538489121201
 31
0.0
  0
LINE
  5
440
330
18
100
AcDbEntity
  8
NORMALI
100
AcDbLine
 10
815.5977746954004
 20
-249.0538489121202
 30
0.0
 11
816.5977746954004
 21
-248.0538489121201
 31
0.0
  0
LINE
  5
441
330
18
100
AcDbEntity
  8
NORMALI
100
AcDbLine
 10
815.5977746954004
 20
-229.0538489121201
 30
0.0
 11
816.5977746954004
 21
-230.0538489121202
 31
0.0
  0
LINE
  5
445
330
18
100
AcDbEntity
  8
NORMALI
100
AcDbLine
 10
796.5977746954004
 20
-198.0538489121211
 30
0.0
 11
815.5977746954004
 21
-198.0538489121211
 31
0.0
  0
LINE
  5
446
330
18
100
AcDbEntity
  8
NORMALI
100
AcDbLine
 10
796.5977746954004
 20
-218.053848912121
 30
0.0
 11
815.5977746954004
 21
-218.053848912121
 31
0.0
  0
LINE
  5
447
330
18
100
AcDbEntity
  8
NORMALI
100
AcDbLine
 10
816.5977746954004
 20
-199.0538489121211
 30
0.0
 11
816.5977746954004
 21
-217.0538489121211
 31
0.0
  0
LINE
  5
448
330
18
100
AcDbEntity
  8
NORMALI
100
AcDbLine
 10
815.5977746954004
 20
-198.0538489121211
 30
0.0
 11
815.5977746954004
 21
-218.053848912121
 31
0.0
  0
LINE
  5
449
330
18
100
AcDbEntity
  8
NORMALI
100
AcDbLine
 10
815.5977746954004
 20
-218.053848912121
 30
0.0
 11
816.5977746954004
 21
-217.0538489121211
 31
0.0
  0
LINE
  5
44A
330
18
100
AcDbEntity
  8
NORMALI
100
AcDbLine
 10
815.5977746954004
 20
-198.0538489121211
 30
0.0
 11
816.5977746954004
 21
-199.0538489121211
 31
0.0
  0
CIRCLE
  5
44B
330
18
100
AcDbEntity
  8
NORMALI
100
AcDbCircle
 10
776.5977746954022
 20
-203.0538489121206
 30
0.0
 40
5.0
1001
COMAU_ACADLIB
1000
00302053
1000
Vite T.C.E.I. UNI 5931 - M6x25 - 8.8
  0
LINE
  5
451
330
18
100
AcDbEntity
  8
DISEGNO
100
AcDbLine
 10
974.1977746954002
 20
-125.5538489121206
 30
0.0
 11
974.1977746954002
 21
-321.5538489121207
 31
0.0
  0
LINE
  5
45F
330
18
100
AcDbEntity
  8
DISEGNO
100
AcDbLine
 10
974.1977746954002
 20
-321.5538489121207
 30
0.0
 11
976.1977746954002
 21
-323.5538489121207
 31
0.0
  0
LINE
  5
4C3
330
18
100
AcDbEntity
  8
DISEGNO
100
AcDbLine
 10
976.1977746954002
 20
-123.5538489121206
 30
0.0
 11
974.1977746954002
 21
-125.5538489121206
 31
0.0
  0
LINE
  5
4FB
330
18
100
AcDbEntity
  8
DISEGNO
100
AcDbLine
 10
761.5977746953994
 20
100.0000000000002
 30
0.0
 11
973.8860090016874
 21
100.0000000000002
 31
0.0
  0
LINE
  5
512
330
18
100
AcDbEntity
  8
DISEGNO
100
AcDbLine
 10
1152.6977746954
 20
129.4999999999993
 30
0.0
 11
1152.6977746954
 21
248.9999999999997
 31
0.0
  0
LINE
  5
516
330
18
100
AcDbEntity
  8
DISEGNO
100
AcDbLine
 10
977.1977746954004
 20
114.9999999999993
 30
0.0
 11
977.1977746954021
 21
53.00000000000341
 31
0.0
  0
LINE
  5
517
330
18
100
AcDbEntity
  8
DISEGNO
100
AcDbLine
 10
974.1977746954002
 20
128.9999999999993
 30
0.0
 11
974.1977746954002
 21
50.00000000000341
 31
0.0
  0
LINE
  5
54E
330
18
100
AcDbEntity
  8
DISEGNO
100
AcDbLine
 10
1315.6977746954
 20
141.0355860756451
 30
0.0
 11
1189.6977746954
 21
141.0355860756446
 31
0.0
  0
LINE
  5
54F
330
18
100
AcDbEntity
  8
DISEGNO
100
AcDbLine
 10
1315.6977746954
 20
141.0355860756455
 30
0.0
 11
1189.6977746954
 21
141.0355860756446
 31
0.0
  0
LINE
  5
550
330
18
100
AcDbEntity
  8
DISEGNO
100
AcDbLine
 10
1187.6977746954
 20
143.0355860756446
 30
0.0
 11
1187.6977746954
 21
247.0000000000033
 31
0.0
  0
LINE
  5
554
330
18
100
AcDbEntity
  8
ASSI
100
AcDbLine
 10
1186.6977746954
 20
121.3201518858372
 30
0.0
 11
1186.6977746954
 21
151.6798481141613
 31
0.0
  0
LINE
  5
557
330
18
100
AcDbEntity
  8
ASSI
100
AcDbLine
 10
1171.356276880836
 20
136.4999999999993
 30
0.0
 11
1202.039272509964
 21
136.4999999999993
 31
0.0
  0
LINE
  5
564
330
18
100
AcDbEntity
  8
DISEGNO
100
AcDbLine
 10
1189.6977746954
 20
141.0355860756446
 30
0.0
 11
1187.6977746954
 21
143.0355860756446
 31
0.0
  0
LINE
  5
565
330
18
100
AcDbEntity
  8
DISEGNO
100
AcDbLine
 10
1189.6977746954
 20
141.0355860756446
 30
0.0
 11
1187.6977746954
 21
143.0355860756446
 31
0.0
  0
LINE
  5
56F
330
18
100
AcDbEntity
  8
DISEGNO
100
AcDbLine
 10
1187.6977746954
 20
247.0000000000033
 30
0.0
 11
1189.6977746954
 21
249.0000000000033
 31
0.0
  0
LINE
  5
572
330
18
100
AcDbEntity
  8
DISEGNO
100
AcDbLine
 10
1317.6977746954
 20
143.0355860756451
 30
0.0
 11
1317.6977746954
 21
247.0000000000033
 31
0.0
  0
LINE
  5
57A
330
18
100
AcDbEntity
  8
DISEGNO
100
AcDbLine
 10
1317.6977746954
 20
143.0355860756451
 30
0.0
 11
1315.6977746954
 21
141.0355860756451
 31
0.0
  0
LINE
  5
57B
330
18
100
AcDbEntity
  8
DISEGNO
100
AcDbLine
 10
1317.6977746954
 20
143.0355860756455
 30
0.0
 11
1315.6977746954
 21
141.0355860756455
 31
0.0
  0
LINE
  5
586
330
18
100
AcDbEntity
  8
DISEGNO
100
AcDbLine
 10
1317.6977746954
 20
247.0000000000033
 30
0.0
 11
1315.6977746954
 21
249.0000000000033
 31
0.0
  0
LINE
  5
589
330
18
100
AcDbEntity
  8
DISEGNO
100
AcDbLine
 10
1354.1977746954
 20
-125.5538489121206
 30
0.0
 11
1354.1977746954
 21
-183.5538489121206
 31
0.0
  0
LINE
  5
58B
330
18
100
AcDbEntity
  8
DISEGNO
100
AcDbLine
 10
1352.1977746954
 20
-323.5538489121216
 30
0.0
 11
1354.1977746954
 21
-321.5538489121216
 31
0.0
  0
LINE
  5
599
330
18
100
AcDbEntity
  8
DISEGNO
100
AcDbLine
 10
1571.597774695401
 20
-253.5538489121202
 30
0.0
 11
1370.053288975816
 21
-253.5538489121207
 31
0.0
  0
LINE
  5
59A
330
18
100
AcDbEntity
  8
DISEGNO
100
AcDbLine
 10
1571.597774695401
 20
-193.5538489121201
 30
0.0
 11
1355.697774695399
 21
-193.5538489121208
 31
0.0
  0
LINE
  5
59D
330
18
100
AcDbEntity
  8
NORMALI
100
AcDbLine
 10
1471.697774695399
 20
-181.0538489121204
 30
0.0
 11
1370.053288975814
 21
-181.0538489121215
 31
0.0
  0
LINE
  5
59E
330
18
100
AcDbEntity
  8
NORMALI
100
AcDbLine
 10
1471.697774695399
 20
-266.0538489121203
 30
0.0
 11
1380.053288975814
 21
-266.0538489121207
 31
0.0
  0
LINE
  5
5A3
330
18
100
AcDbEntity
  8
DISEGNO
100
AcDbLine
 10
1370.053288975816
 20
-253.5538489121207
 30
0.0
 11
1355.697774695399
 21
-253.5538489121207
 31
0.0
  0
LINE
  5
5A4
330
18
100
AcDbEntity
  8
NORMALI
100
AcDbLine
 10
1380.053288975814
 20
-266.0538489121207
 30
0.0
 11
1354.1977746954
 21
-266.0538489121207
 31
0.0
  0
LINE
  5
5A9
330
18
100
AcDbEntity
  8
NORMALI
100
AcDbLine
 10
1370.053288975814
 20
-181.0538489121215
 30
0.0
 11
1354.1977746954
 21
-181.0538489121206
 31
0.0
  0
LINE
  5
5BB
330
18
100
AcDbEntity
  8
DISEGNO
100
AcDbLine
 10
1352.1977746954
 20
-123.5538489121206
 30
0.0
 11
1354.1977746954
 21
-125.5538489121206
 31
0.0
  0
LINE
  5
5BC
330
18
100
AcDbEntity
  8
DISEGNO
100
AcDbLine
 10
1496.697774695398
 20
-193.5538489121201
 30
0.0
 11
1496.697774695398
 21
-253.5538489121202
 31
0.0
  0
LINE
  5
5BE
330
18
100
AcDbEntity
  8
DISEGNO
100
AcDbLine
 10
1571.597774695401
 20
-193.5538489121206
 30
0.0
 11
1571.597774695401
 21
-253.5538489121207
 31
0.0
  0
LINE
  5
5BF
330
18
100
AcDbEntity
  8
DISEGNO
100
AcDbLine
 10
1561.597774695399
 20
-193.5538489121206
 30
0.0
 11
1561.597774695399
 21
-253.5538489121207
 31
0.0
  0
LINE
  5
5C0
330
18
100
AcDbEntity
  8
DISEGNO
100
AcDbLine
 10
1461.5977746954
 20
-194.5538489121206
 30
0.0
 11
1461.5977746954
 21
-252.5538489121206
 31
0.0
  0
LINE
  5
5C2
330
18
100
AcDbEntity
  8
NORMALI
100
AcDbLine
 10
1471.697774695399
 20
-266.0538489121203
 30
0.0
 11
1471.697774695399
 21
-253.5538489121203
 31
0.0
  0
LINE
  5
5C3
330
18
100
AcDbEntity
  8
DISEGNO
100
AcDbLine
 10
1461.5977746954
 20
-252.5538489121206
 30
0.0
 11
1462.5977746954
 21
-253.5538489121206
 31
0.0
  0
LINE
  5
5C6
330
18
100
AcDbEntity
  8
NORMALI
100
AcDbLine
 10
1496.697774695399
 20
-229.0538489121197
 30
0.0
 11
1477.6977746954
 21
-229.0538489121197
 31
0.0
  0
LINE
  5
5C7
330
18
100
AcDbEntity
  8
NORMALI
100
AcDbLine
 10
1496.697774695399
 20
-249.0538489121197
 30
0.0
 11
1477.6977746954
 21
-249.0538489121197
 31
0.0
  0
LINE
  5
5C8
330
18
100
AcDbEntity
  8
NORMALI
100
AcDbLine
 10
1476.697774695399
 20
-248.0538489121197
 30
0.0
 11
1476.697774695399
 21
-230.0538489121197
 31
0.0
  0
LINE
  5
5C9
330
18
100
AcDbEntity
  8
NORMALI
100
AcDbLine
 10
1477.6977746954
 20
-249.0538489121197
 30
0.0
 11
1477.6977746954
 21
-229.0538489121197
 31
0.0
  0
LINE
  5
5CA
330
18
100
AcDbEntity
  8
NORMALI
100
AcDbLine
 10
1477.697774695398
 20
-249.0538489121197
 30
0.0
 11
1476.697774695399
 21
-248.0538489121197
 31
0.0
  0
LINE
  5
5CB
330
18
100
AcDbEntity
  8
NORMALI
100
AcDbLine
 10
1477.6977746954
 20
-229.0538489121197
 30
0.0
 11
1476.697774695399
 21
-230.0538489121197
 31
0.0
  0
LINE
  5
5CF
330
18
100
AcDbEntity
  8
DISEGNO
100
AcDbLine
 10
1560.597774695399
 20
-253.5538489121207
 30
0.0
 11
1561.597774695399
 21
-252.5538489121206
 31
0.0
  0
LINE
  5
5D1
330
18
100
AcDbEntity
  8
NORMALI
100
AcDbLine
 10
1496.697774695399
 20
-198.0538489121197
 30
0.0
 11
1477.6977746954
 21
-198.0538489121197
 31
0.0
  0
LINE
  5
5D2
330
18
100
AcDbEntity
  8
NORMALI
100
AcDbLine
 10
1496.697774695399
 20
-218.0538489121197
 30
0.0
 11
1477.6977746954
 21
-218.0538489121197
 31
0.0
  0
LINE
  5
5D3
330
18
100
AcDbEntity
  8
NORMALI
100
AcDbLine
 10
1476.697774695399
 20
-199.0538489121197
 30
0.0
 11
1476.697774695399
 21
-217.0538489121197
 31
0.0
  0
LINE
  5
5D4
330
18
100
AcDbEntity
  8
NORMALI
100
AcDbLine
 10
1477.6977746954
 20
-198.0538489121197
 30
0.0
 11
1477.6977746954
 21
-218.0538489121197
 31
0.0
  0
LINE
  5
5D5
330
18
100
AcDbEntity
  8
NORMALI
100
AcDbLine
 10
1477.6977746954
 20
-218.0538489121197
 30
0.0
 11
1476.697774695399
 21
-217.0538489121197
 31
0.0
  0
LINE
  5
5D6
330
18
100
AcDbEntity
  8
NORMALI
100
AcDbLine
 10
1477.697774695398
 20
-198.0538489121197
 30
0.0
 11
1476.697774695399
 21
-199.0538489121197
 31
0.0
  0
LINE
  5
5D7
330
18
100
AcDbEntity
  8
DISEGNO
100
AcDbLine
 10
1462.5977746954
 20
-193.5538489121206
 30
0.0
 11
1461.5977746954
 21
-194.5538489121206
 31
0.0
  0
LINE
  5
5D8
330
18
100
AcDbEntity
  8
NORMALI
100
AcDbLine
 10
1471.697774695399
 20
-181.0538489121204
 30
0.0
 11
1471.697774695399
 21
-193.5538489121204
 31
0.0
  0
LINE
  5
5DE
330
18
100
AcDbEntity
  8
DISEGNO
100
AcDbLine
 10
1561.597774695399
 20
-194.5553090054152
 30
0.0
 11
1560.597774695399
 21
-193.5553090054152
 31
0.0
  0
LINE
  5
5E1
330
18
100
AcDbEntity
  8
DISEGNO
100
AcDbLine
 10
1496.697774695398
 20
138.000000000002
 30
0.0
 11
1496.697774695398
 21
113.0000000000002
 31
0.0
  0
LINE
  5
5E2
330
18
100
AcDbEntity
  8
DISEGNO
100
AcDbLine
 10
1561.597774695399
 20
135.000000000002
 30
0.0
 11
1561.5977746954
 21
113.0000000000002
 31
0.0
  0
LINE
  5
5E5
330
18
100
AcDbEntity
  8
DISEGNO
100
AcDbLine
 10
1354.197774695399
 20
249.0000000000002
 30
0.0
 11
1354.1977746954
 21
50.00000000000341
 31
0.0
  0
LINE
  5
5E6
330
18
100
AcDbEntity
  8
NORMALI
100
AcDbLine
 10
1476.697774695398
 20
136.000000000002
 30
0.0
 11
1476.697774695398
 21
118.000000000002
 31
0.0
  0
LINE
  5
5E7
330
18
100
AcDbEntity
  8
NORMALI
100
AcDbLine
 10
1477.697774695398
 20
137.000000000002
 30
0.0
 11
1477.697774695398
 21
117.000000000002
 31
0.0
  0
LINE
  5
5EA
330
18
100
AcDbEntity
  8
DISEGNO
100
AcDbLine
 10
1561.5977746954
 20
100.0000000000002
 30
0.0
 11
1414.21490308176
 21
100.0000000000002
 31
0.0
  0
LINE
  5
5EE
330
18
100
AcDbEntity
  8
NORMALI
100
AcDbLine
 10
1461.5977746954
 20
101.9999999999993
 30
0.0
 11
1374.813084498479
 21
101.9999999999993
 31
0.0
  0
LINE
  5
5EF
330
18
100
AcDbEntity
  8
NORMALI
100
AcDbLine
 10
1461.5977746954
 20
106.5000000000002
 30
0.0
 11
1413.447768398908
 21
106.5000000000002
 31
0.0
  0
LINE
  5
5F2
330
18
100
AcDbEntity
  8
DISEGNO
100
AcDbLine
 10
1351.197774695402
 20
114.9999999999993
 30
0.0
 11
1351.197774695402
 21
53.00000000000341
 31
0.0
  0
LINE
  5
5FB
330
18
100
AcDbEntity
  8
DISEGNO
100
AcDbLine
 10
1414.21490308176
 20
100.0000000000002
 30
0.0
 11
1354.1977746954
 21
99.99999999999932
 31
0.0
  0
LINE
  5
5FC
330
18
100
AcDbEntity
  8
NORMALI
100
AcDbLine
 10
1413.447768398908
 20
106.5000000000002
 30
0.0
 11
1354.197774695402
 21
106.5000000000002
 31
0.0
  0
LINE
  5
5FD
330
18
100
AcDbEntity
  8
NORMALI
100
AcDbLine
 10
1374.813084498479
 20
101.9999999999993
 30
0.0
 11
1354.197774695402
 21
101.9999999999993
 31
0.0
  0
LINE
  5
608
330
18
100
AcDbEntity
  8
DISEGNO
100
AcDbLine
 10
1571.597774695401
 20
116.000000000002
 30
0.0
 11
1571.5977746954
 21
40.03623724332465
 31
0.0
  0
LINE
  5
609
330
18
100
AcDbEntity
  8
DISEGNO
100
AcDbLine
 10
1561.5977746954
 20
113.0000000000002
 30
0.0
 11
1561.5977746954
 21
40.03623724332465
 31
0.0
  0
LINE
  5
60D
330
18
100
AcDbEntity
  8
DISEGNO
100
AcDbLine
 10
1561.5977746954
 20
112.9999999999993
 30
0.0
 11
1461.5977746954
 21
112.9999999999993
 31
0.0
  0
LINE
  5
60E
330
18
100
AcDbEntity
  8
NORMALI
100
AcDbLine
 10
1471.697774695399
 20
77.50219503094399
 30
0.0
 11
1471.697774695399
 21
62.50219503094399
 31
0.0
  0
LINE
  5
60F
330
18
100
AcDbEntity
  8
NORMALI
100
AcDbLine
 10
1496.697774695398
 20
117.000000000002
 30
0.0
 11
1477.792774695398
 21
117.000000000002
 31
0.0
  0
LINE
  5
610
330
18
100
AcDbEntity
  8
DISEGNO
100
AcDbLine
 10
1461.5977746954
 20
100.0000000000002
 30
0.0
 11
1461.5977746954
 21
112.9999999999993
 31
0.0
  0
LINE
  5
611
330
18
100
AcDbEntity
  8
NORMALI
100
AcDbLine
 10
1477.792774695398
 20
117.000000000002
 30
0.0
 11
1476.792774695398
 21
118.000000000002
 31
0.0
  0
LINE
  5
612
330
18
100
AcDbEntity
  8
DISEGNO
100
AcDbLine
 10
1571.597774695401
 20
116.000000000002
 30
0.0
 11
1561.5977746954
 21
116.000000000002
 31
0.0
  0
LINE
  5
623
330
18
100
AcDbEntity
  8
DISEGNO
100
AcDbLine
 10
1496.697774695398
 20
138.000000000002
 30
0.0
 11
1558.5977746954
 21
138.000000000002
 31
0.0
  0
LINE
  5
624
330
18
100
AcDbEntity
  8
NORMALI
100
AcDbLine
 10
1496.697774695398
 20
137.000000000002
 30
0.0
 11
1477.697774695398
 21
137.000000000002
 31
0.0
  0
LINE
  5
625
330
18
100
AcDbEntity
  8
NORMALI
100
AcDbLine
 10
1477.697774695398
 20
137.000000000002
 30
0.0
 11
1476.697774695398
 21
136.000000000002
 31
0.0
  0
LINE
  5
626
330
18
100
AcDbEntity
  8
DISEGNO
100
AcDbLine
 10
1558.597774695399
 20
138.000000000002
 30
0.0
 11
1561.597774695399
 21
135.000000000002
 31
0.0
  0
LINE
  5
88B
330
18
100
AcDbEntity
  8
0
100
AcDbLine
 10
861.5977746954003
 20
111.9999999999993
 30
0.0
 11
761.5977746953994
 21
111.9999999999993
 31
0.0
  0
LINE
  5
8CE
330
18
100
AcDbEntity
  8
NORMALI
100
AcDbLine
 10
796.5977746954004
 20
113.0000000000018
 30
0.0
 11
815.5977746954004
 21
113.0000000000018
 31
0.0
  0
LINE
  5
8CF
330
18
100
AcDbEntity
  8
NORMALI
100
AcDbLine
 10
816.5977746954004
 20
132.0000000000018
 30
0.0
 11
816.5977746954004
 21
114.0000000000018
 31
0.0
  0
LINE
  5
8D0
330
18
100
AcDbEntity
  8
NORMALI
100
AcDbLine
 10
815.5977746954004
 20
133.0000000000018
 30
0.0
 11
815.5977746954004
 21
113.0000000000018
 31
0.0
  0
LINE
  5
8D1
330
18
100
AcDbEntity
  8
NORMALI
100
AcDbLine
 10
815.5977746954004
 20
113.0000000000018
 30
0.0
 11
816.5977746954004
 21
114.0000000000018
 31
0.0
  0
LINE
  5
8D2
330
18
100
AcDbEntity
  8
NORMALI
100
AcDbLine
 10
815.5977746954004
 20
133.0000000000018
 30
0.0
 11
816.5977746954004
 21
132.0000000000018
 31
0.0
  0
LINE
  5
8D3
330
18
100
AcDbEntity
  8
NORMALI
100
AcDbLine
 10
796.5977746954004
 20
133.0000000000018
 30
0.0
 11
815.5977746954004
 21
133.0000000000018
 31
0.0
  0
LINE
  5
8D5
330
18
100
AcDbEntity
  8
DISEGNO
100
AcDbLine
 10
796.5977746953995
 20
134.000000000002
 30
0.0
 11
764.5977746953994
 21
134.000000000002
 31
0.0
  0
LINE
  5
8D6
330
18
100
AcDbEntity
  8
DISEGNO
100
AcDbLine
 10
796.5977746954004
 20
134.000000000002
 30
0.0
 11
796.5977746954004
 21
112.0
 31
0.0
  0
LINE
  5
8D7
330
18
100
AcDbEntity
  8
DISEGNO
100
AcDbLine
 10
764.5977746953994
 20
134.000000000002
 30
0.0
 11
761.5977746953994
 21
131.000000000002
 31
0.0
  0
LINE
  5
8D8
330
18
100
AcDbEntity
  8
DISEGNO
100
AcDbLine
 10
761.5977746954004
 20
131.0000000000027
 30
0.0
 11
761.5977746953999
 21
40.03623724332465
 31
0.0
  0
LINE
  5
995
330
18
100
AcDbEntity
  8
DISEGNO
100
AcDbLine
 10
1352.6977746954
 20
-268.5538489121209
 30
0.0
 11
1152.6977746954
 21
-268.5538489121209
 31
0.0
  0
LINE
  5
997
330
18
100
AcDbEntity
  8
DISEGNO
100
AcDbLine
 10
1317.6977746954
 20
-277.5538489121209
 30
0.0
 11
1187.6977746954
 21
-277.5538489121209
 31
0.0
  0
LINE
  5
998
330
18
100
AcDbEntity
  8
DISEGNO
100
AcDbLine
 10
1317.6977746954
 20
-277.5538489121209
 30
0.0
 11
1317.6977746954
 21
-268.5538489121209
 31
0.0
  0
LINE
  5
99E
330
18
100
AcDbEntity
  8
DISEGNO
100
AcDbLine
 10
1187.6977746954
 20
-277.5538489121209
 30
0.0
 11
1187.6977746954
 21
-268.5538489121209
 31
0.0
  0
LINE
  5
9A0
330
18
100
AcDbEntity
  8
DISEGNO
100
AcDbLine
 10
1352.6977746954
 20
-178.5538489121204
 30
0.0
 11
1152.6977746954
 21
-178.5538489121204
 31
0.0
  0
LINE
  5
9A2
330
18
100
AcDbEntity
  8
DISEGNO
100
AcDbLine
 10
1317.6977746954
 20
-169.5538489121204
 30
0.0
 11
1187.6977746954
 21
-169.5538489121204
 31
0.0
  0
LINE
  5
9A3
330
18
100
AcDbEntity
  8
DISEGNO
100
AcDbLine
 10
1317.6977746954
 20
-169.5538489121204
 30
0.0
 11
1317.6977746954
 21
-178.5538489121204
 31
0.0
  0
LINE
  5
9A6
330
18
100
AcDbEntity
  8
DISEGNO
100
AcDbLine
 10
1187.6977746954
 20
-169.5538489121204
 30
0.0
 11
1187.6977746954
 21
-178.5538489121204
 31
0.0
  0
LINE
  5
AA9
330
18
100
AcDbEntity
  8
DISEGNO
100
AcDbLine
 10
861.5977746954003
 20
111.9999999999993
 30
0.0
 11
861.5977746954003
 21
100.0000000000002
 31
0.0
  0
LINE
  5
AAA
330
18
100
AcDbEntity
  8
NORMALI
100
AcDbLine
 10
816.6190307136581
 20
-181.0538489121204
 30
0.0
 11
974.1977746954002
 21
-181.0538489121215
 31
0.0
  0
LINE
  5
AAB
330
18
100
AcDbEntity
  8
NORMALI
100
AcDbLine
 10
816.6190307136581
 20
-181.0538489121204
 30
0.0
 11
816.6190307136581
 21
-193.5538489121204
 31
0.0
  0
LINE
  5
AAC
330
18
100
AcDbEntity
  8
NORMALI
100
AcDbLine
 10
816.6190307136581
 20
-266.0538489121203
 30
0.0
 11
974.1977746954002
 21
-266.0538489121207
 31
0.0
  0
LINE
  5
AAD
330
18
100
AcDbEntity
  8
NORMALI
100
AcDbLine
 10
816.6190307136581
 20
-266.0538489121203
 30
0.0
 11
816.6190307136581
 21
-253.5538489121203
 31
0.0
  0
LINE
  5
AB2
330
18
100
AcDbEntity
  8
NORMALI
100
AcDbLine
 10
816.9573402128655
 20
77.50219503094388
 30
0.0
 11
816.9573402128653
 21
62.50219503094399
 31
0.0
  0
LINE
  5
21F4
330
18
100
AcDbEntity
  8
ASSI
100
AcDbLine
 10
1252.6977746954
 20
134.1581851972824
 30
0.0
 11
1252.6977746954
 21
251.8418148027162
 31
0.0
  0
LINE
  5
21FB
330
18
100
AcDbEntity
  8
ASSI
100
AcDbLine
 10
1311.539589498117
 20
197.9999999999994
 30
0.0
 11
1193.855959892683
 21
197.9999999999991
 31
0.0
  0
LINE
  5
3A94
330
18
100
AcDbEntity
  8
NORMALI
100
AcDbLine
 10
974.1977746954002
 20
106.4999999999999
 30
0.0
 11
861.5977746954003
 21
106.4999999999999
 31
0.0
  0
LINE
  5
3A95
330
18
100
AcDbEntity
  8
NORMALI
100
AcDbLine
 10
974.1977746954002
 20
101.9999999999993
 30
0.0
 11
861.5977746954003
 21
101.9999999999993
 31
0.0
  0
LINE
  5
3A96
330
18
100
AcDbEntity
  8
ASSI
100
AcDbLine
 10
1318.6977746954
 20
121.3201518858372
 30
0.0
 11
1318.6977746954
 21
151.6798481141613
 31
0.0
  0
LINE
  5
3A97
330
18
100
AcDbEntity
  8
ASSI
100
AcDbLine
 10
1303.356276880837
 20
136.4999999999993
 30
0.0
 11
1334.039272509964
 21
136.4999999999993
 31
0.0
  0
LINE
  5
3ABC
330
18
100
AcDbEntity
  8
DISEGNO
100
AcDbLine
 10
1151.1977746954
 20
129.4999999999993
 30
0.0
 11
1151.1977746954
 21
248.9999999999997
 31
0.0
  0
LINE
  5
3ABD
330
18
100
AcDbEntity
  8
DISEGNO
100
AcDbLine
 10
1151.1977746954
 20
129.4999999999993
 30
0.0
 11
1151.6977746954
 21
128.9999999999993
 31
0.0
  0
LINE
  5
3ABE
330
18
100
AcDbEntity
  8
DISEGNO
100
AcDbLine
 10
1152.6977746954
 20
129.4999999999993
 30
0.0
 11
1152.1977746954
 21
128.9999999999993
 31
0.0
  0
LINE
  5
3ABF
330
18
100
AcDbEntity
  8
DISEGNO
100
AcDbLine
 10
1352.697774695398
 20
250.5000000000002
 30
0.0
 11
1152.6977746954
 21
250.4999999999997
 31
0.0
  0
LINE
  5
3AC1
330
18
100
AcDbEntity
  8
DISEGNO
100
AcDbLine
 10
1354.197774695399
 20
249.0000000000002
 30
0.0
 11
1354.197774695399
 21
119.5000000000013
 31
0.0
  0
ARC
  5
5283
330
18
100
AcDbEntity
  8
DISEGNO
100
AcDbCircle
 10
1152.6977746954
 20
248.9999999999997
 30
0.0
 40
1.5
100
AcDbArc
 50
90.0000000000001
 51
180.0
  0
ARC
  5
5284
330
18
100
AcDbEntity
  8
DISEGNO
100
AcDbCircle
 10
1352.697774695398
 20
249.0000000000002
 30
0.0
 40
1.5
100
AcDbArc
 50
0.0000000000004326
 51
90.0000000000001
  0
CIRCLE
  5
52D7
330
18
100
AcDbEntity
  8
DISEGNO
100
AcDbCircle
 10
1252.6977746954
 20
197.9999999999996
 30
0.0
 40
22.50000000000022
  0
CIRCLE
  5
52D8
330
18
100
AcDbEntity
  8
DISEGNO
100
AcDbCircle
 10
1252.6977746954
 20
197.9999999999996
 30
0.0
 40
25.00000000000023
  0
CIRCLE
  5
52D9
330
18
100
AcDbEntity
  8
DISEGNO
100
AcDbCircle
 10
1252.6977746954
 20
197.9999999999996
 30
0.0
 40
24.99999999999988
  0
LINE
  5
5533
330
18
100
AcDbEntity
  8
DISEGNO
100
AcDbLine
 10
1315.6977746954
 20
249.0000000000033
 30
0.0
 11
1189.6977746954
 21
249.0000000000033
 31
0.0
  0
LINE
  5
5803
330
18
100
AcDbEntity
  8
DISEGNO
100
AcDbLine
 10
473.3035550493964
 20
129.0000000000034
 30
0.0
 11
613.3035550493964
 21
129.0000000000034
 31
0.0
  0
LINE
  5
580B
330
18
100
AcDbEntity
  8
DISEGNO
100
AcDbLine
 10
529.8035550493962
 20
114.5000000000034
 30
0.0
 11
543.3175972617805
 21
114.5000000000034
 31
0.0
  0
LINE
  5
580D
330
18
100
AcDbEntity
  8
ASSI
100
AcDbLine
 10
514.1394358207885
 20
193.0000000000034
 30
0.0
 11
632.4676742780042
 21
193.0000000000034
 31
0.0
  0
LINE
  5
5814
330
18
100
AcDbEntity
  8
DISEGNO
100
AcDbLine
 10
533.3035550493964
 20
250.5000000000038
 30
0.0
 11
613.3035550493964
 21
250.5000000000038
 31
0.0
  0
LINE
  5
5829
330
18
100
AcDbEntity
  8
ASSI
100
AcDbLine
 10
573.3035550493964
 20
261.1164768772468
 30
0.0
 11
573.3035550493959
 21
37.17059351600232
 31
0.0
  0
LINE
  5
5831
330
18
100
AcDbEntity
  8
0
100
AcDbLine
 10
543.3175972617796
 20
42.02808435811379
 30
0.0
 11
543.3175972617805
 21
51.7780843581138
 31
0.0
  0
LINE
  5
5853
330
18
100
AcDbEntity
  8
DISEGNO
100
AcDbLine
 10
522.2035550493983
 20
141.0000000000034
 30
0.0
 11
522.2035550493974
 21
244.0000000000034
 31
0.0
  0
LINE
  5
585A
330
18
100
AcDbEntity
  8
DISEGNO
100
AcDbLine
 10
529.8035550493962
 20
115.0000000000034
 30
0.0
 11
473.3035550493964
 21
115.0000000000034
 31
0.0
  0
LINE
  5
585B
330
18
100
AcDbEntity
  8
DISEGNO
100
AcDbLine
 10
473.3035550493964
 20
129.0000000000034
 30
0.0
 11
473.3035550493964
 21
115.0000000000034
 31
0.0
  0
LINE
  5
585C
330
18
100
AcDbEntity
  8
DISEGNO
100
AcDbLine
 10
509.3025550493962
 20
50.00000000000341
 30
0.0
 11
509.3025550493962
 21
115.0000000000034
 31
0.0
  0
LINE
  5
5867
330
18
100
AcDbEntity
  8
DISEGNO
100
AcDbLine
 10
543.3175972617802
 20
40.03623724332533
 30
0.0
 11
543.3175972617805
 21
116.000000000002
 31
0.0
  0
LINE
  5
587F
330
18
100
AcDbEntity
  8
NORMALI
100
AcDbLine
 10
530.825750080336
 20
77.50219503094399
 30
0.0
 11
539.8533640647074
 21
77.50219503094399
 31
0.0
  0
LINE
  5
5884
330
18
100
AcDbEntity
  8
DISEGNO
100
AcDbLine
 10
509.3025550493962
 20
50.00000000000341
 30
0.0
 11
539.3025550493962
 21
50.00000000000341
 31
0.0
  0
LINE
  5
5888
330
18
100
AcDbEntity
  8
NORMALI
100
AcDbLine
 10
530.825750080336
 20
62.50219503094399
 30
0.0
 11
539.8533640647074
 21
62.50219503094399
 31
0.0
  0
LINE
  5
5890
330
18
100
AcDbEntity
  8
NORMALI
100
AcDbLine
 10
530.825750080336
 20
77.50219503094399
 30
0.0
 11
530.825750080336
 21
62.50219503094399
 31
0.0
  0
LINE
  5
58D6
330
18
100
AcDbEntity
  8
DISEGNO
100
AcDbLine
 10
539.3025550493962
 20
50.00000000000341
 30
0.0
 11
539.3025550493962
 21
62.50219503094399
 31
0.0
  0
LINE
  5
58E1
330
18
100
AcDbEntity
  8
NORMALI
100
AcDbLine
 10
539.8533640647074
 20
62.50219503094399
 30
0.0
 11
543.325750080336
 21
62.50219503094399
 31
0.0
  0
LINE
  5
5900
330
18
100
AcDbEntity
  8
0
100
AcDbLine
 10
543.3175972617805
 20
54.2780843581138
 30
0.0
 11
543.3175972617805
 21
66.0230843581146
 31
0.0
  0
LINE
  5
5925
330
18
100
AcDbEntity
  8
NORMALI
100
AcDbLine
 10
543.325750080336
 20
77.50219503094399
 30
0.0
 11
539.8533640647074
 21
77.50219503094399
 31
0.0
  0
LINE
  5
5953
330
18
100
AcDbEntity
  8
0
100
AcDbLine
 10
543.3175972617805
 20
74.00500006665857
 30
0.0
 11
543.3175972617805
 21
85.75000006665755
 31
0.0
  0
LINE
  5
59F4
330
18
100
AcDbEntity
  8
DISEGNO
100
AcDbLine
 10
522.2035550493983
 20
141.0000000000034
 30
0.0
 11
523.6868698229414
 21
141.0000000000034
 31
0.0
  0
LINE
  5
5A12
330
18
100
AcDbEntity
  8
ASSI
100
AcDbLine
 10
552.2880232206403
 20
105.0000000000034
 30
0.0
 11
566.3953451759562
 21
105.0000000000034
 31
0.0
  0
LINE
  5
5A15
330
18
100
AcDbEntity
  8
ASSI
100
AcDbLine
 10
562.0535550493964
 20
112.664687105394
 30
0.0
 11
562.0535550493964
 21
96.27650087636084
 31
0.0
  0
LINE
  5
5A2E
330
18
100
AcDbEntity
  8
ASSI
100
AcDbLine
 10
593.995639969933
 20
105.0000000000034
 30
0.0
 11
580.1404380565664
 21
105.0000000000034
 31
0.0
  0
LINE
  5
5A31
330
18
100
AcDbEntity
  8
ASSI
100
AcDbLine
 10
584.5535550493964
 20
112.2013265018367
 30
0.0
 11
584.5535550493964
 21
97.00307665481796
 31
0.0
  0
LINE
  5
5A72
330
18
100
AcDbEntity
  8
DISEGNO
100
AcDbLine
 10
531.2035550493992
 20
244.0000000000038
 30
0.0
 11
531.2035550493992
 21
239.0000000000043
 31
0.0
  0
LINE
  5
5A73
330
18
100
AcDbEntity
  8
DISEGNO
100
AcDbLine
 10
531.2035550493992
 20
244.0000000000038
 30
0.0
 11
522.2035550493974
 21
244.0000000000034
 31
0.0
  0
LINE
  5
5A74
330
18
100
AcDbEntity
  8
DISEGNO
100
AcDbLine
 10
533.3035550493964
 20
250.5000000000038
 30
0.0
 11
533.3035550493964
 21
249.0000000000038
 31
0.0
  0
LINE
  5
5A9B
330
18
100
AcDbEntity
  8
ASSI
100
AcDbLine
 10
538.4035550493963
 20
246.4190091723322
 30
0.0
 11
538.4035550493963
 21
256.2499999999996
 31
0.0
  0
LINE
  5
5AA3
330
18
100
AcDbEntity
  8
DISEGNO
100
AcDbLine
 10
624.4035550493945
 20
141.0000000000034
 30
0.0
 11
624.4035550493954
 21
244.0000000000034
 31
0.0
  0
LINE
  5
5B09
330
18
100
AcDbEntity
  8
DISEGNO
100
AcDbLine
 10
616.8035550493964
 20
115.0000000000034
 30
0.0
 11
673.3035550493964
 21
115.0000000000034
 31
0.0
  0
LINE
  5
5B32
330
18
100
AcDbEntity
  8
DISEGNO
100
AcDbLine
 10
616.8035550493964
 20
114.5000000000034
 30
0.0
 11
616.8035550493964
 21
115.0000000000034
 31
0.0
  0
LINE
  5
5B3E
330
18
100
AcDbEntity
  8
DISEGNO
100
AcDbLine
 10
624.4035550493945
 20
141.0000000000034
 30
0.0
 11
622.9202402758515
 21
141.0000000000034
 31
0.0
  0
LINE
  5
5B5B
330
18
100
AcDbEntity
  8
DISEGNO
100
AcDbLine
 10
673.3035550493964
 20
129.0000000000034
 30
0.0
 11
673.3035550493964
 21
115.0000000000034
 31
0.0
  0
LINE
  5
5B5C
330
18
100
AcDbEntity
  8
DISEGNO
100
AcDbLine
 10
673.3035550493964
 20
129.0000000000034
 30
0.0
 11
673.3035550493964
 21
115.0000000000034
 31
0.0
  0
LINE
  5
5B73
330
18
100
AcDbEntity
  8
DISEGNO
100
AcDbLine
 10
615.4035550493936
 20
244.0000000000038
 30
0.0
 11
624.4035550493954
 21
244.0000000000034
 31
0.0
  0
LINE
  5
5B7A
330
18
100
AcDbEntity
  8
DISEGNO
100
AcDbLine
 10
613.3035550493964
 20
250.5000000000038
 30
0.0
 11
613.3035550493964
 21
249.0000000000038
 31
0.0
  0
LINE
  5
5B7B
330
18
100
AcDbEntity
  8
ASSI
100
AcDbLine
 10
608.2035550493965
 20
246.4190091723322
 30
0.0
 11
608.2035550493965
 21
256.2499999999996
 31
0.0
  0
LINE
  5
5B8C
330
18
100
AcDbEntity
  8
NORMALI
100
AcDbLine
 10
816.9573402128655
 20
77.50219503094388
 30
0.0
 11
974.1977746954002
 21
77.50219503094399
 31
0.0
  0
LINE
  5
5B8D
330
18
100
AcDbEntity
  8
NORMALI
100
AcDbLine
 10
816.9573402128653
 20
62.50219503094399
 30
0.0
 11
974.1977746954004
 21
62.50219503094399
 31
0.0
  0
LINE
  5
5B8E
330
18
100
AcDbEntity
  8
NORMALI
100
AcDbLine
 10
1354.1977746954
 20
62.50219503094399
 30
0.0
 11
1471.697774695399
 21
62.50219503094399
 31
0.0
  0
LINE
  5
5B8F
330
18
100
AcDbEntity
  8
NORMALI
100
AcDbLine
 10
1354.1977746954
 20
77.50219503094388
 30
0.0
 11
1471.697774695399
 21
77.50219503094399
 31
0.0
  0
LINE
  5
5B90
330
18
100
AcDbEntity
  8
DISEGNO
100
AcDbLine
 10
761.5977746953999
 20
40.03623724332465
 30
0.0
 11
1571.5977746954
 21
40.03623724332465
 31
0.0
  0
LINE
  5
5E79
330
18
100
AcDbEntity
  8
DISEGNO
100
AcDbLine
 10
1152.6977746954
 20
-128.5538489121206
 30
0.0
 11
1152.6977746954
 21
-183.5538489121206
 31
0.0
  0
LINE
  5
5EBC
330
18
100
AcDbEntity
  8
DISEGNO
100
AcDbLine
 10
613.3035550493964
 20
249.0000000000038
 30
0.0
 11
613.3035550493964
 21
129.0000000000034
 31
0.0
  0
LINE
  5
5EBD
330
18
100
AcDbEntity
  8
DISEGNO
100
AcDbLine
 10
533.3035550493964
 20
249.0000000000038
 30
0.0
 11
533.3035550493962
 21
129.0000000000034
 31
0.0
  0
ARC
  5
5EC0
330
18
100
AcDbEntity
  8
DISEGNO
100
AcDbCircle
 10
533.2035550493956
 20
247.0000000000038
 30
0.0
 40
2.0
100
AcDbArc
 50
90.0
 51
180.0
  0
LINE
  5
5EC1
330
18
100
AcDbEntity
  8
DISEGNO
100
AcDbLine
 10
531.2035550493956
 20
247.0000000000038
 30
0.0
 11
531.2035550493958
 21
154.0000000000049
 31
0.0
  0
ARC
  5
5EC4
330
18
100
AcDbEntity
  8
DISEGNO
100
AcDbCircle
 10
613.4035550493972
 20
247.0000000000038
 30
0.0
 40
2.0
100
AcDbArc
 50
0.0
 51
90.0
  0
LINE
  5
5ECB
330
18
100
AcDbEntity
  8
DISEGNO
100
AcDbLine
 10
613.3035550493964
 20
129.0000000000034
 30
0.0
 11
673.3035550493964
 21
129.0000000000034
 31
0.0
  0
ARC
  5
5ED5
330
18
100
AcDbEntity
  8
DISEGNO
100
AcDbCircle
 10
516.2035550493962
 20
154.0000000000049
 30
0.0
 40
15.0
100
AcDbArc
 50
270.0
 51
0.0000000000001086
  0
LINE
  5
5ED7
330
18
100
AcDbEntity
  8
DISEGNO
100
AcDbLine
 10
516.2035550493956
 20
139.0000000000038
 30
0.0
 11
502.4025550493961
 21
139.0000000000038
 31
0.0
  0
LINE
  5
5ED8
330
18
100
AcDbEntity
  8
DISEGNO
100
AcDbLine
 10
502.4025550493961
 20
139.0000000000038
 30
0.0
 11
502.2025550493963
 21
138.8000000000038
 31
0.0
  0
LINE
  5
5ED9
330
18
100
AcDbEntity
  8
DISEGNO
100
AcDbLine
 10
502.2025550493963
 20
138.8000000000038
 30
0.0
 11
500.2045550493958
 21
138.8000000000038
 31
0.0
  0
LINE
  5
5EDA
330
18
100
AcDbEntity
  8
DISEGNO
100
AcDbLine
 10
500.2045550493958
 20
138.8000000000038
 30
0.0
 11
500.0045550493969
 21
139.0000000000038
 31
0.0
  0
LINE
  5
5EDB
330
18
100
AcDbEntity
  8
DISEGNO
100
AcDbLine
 10
500.0045550493969
 20
139.0000000000038
 30
0.0
 11
483.2035550493956
 21
139.0000000000038
 31
0.0
  0
ARC
  5
5EDC
330
18
100
AcDbEntity
  8
DISEGNO
100
AcDbCircle
 10
483.2035550493956
 20
137.0000000000038
 30
0.0
 40
2.0
100
AcDbArc
 50
90.0
 51
180.0
  0
LINE
  5
5EDD
330
18
100
AcDbEntity
  8
DISEGNO
100
AcDbLine
 10
481.2035550493956
 20
137.0000000000038
 30
0.0
 11
481.2035550493956
 21
129.0000000000038
 31
0.0
  0
LINE
  5
5EDE
330
18
100
AcDbEntity
  8
DISEGNO
100
AcDbLine
 10
481.2035550493956
 20
129.0000000000038
 30
0.0
 11
491.2035550493956
 21
129.0000000000038
 31
0.0
  0
LINE
  5
5EDF
330
18
100
AcDbEntity
  8
DISEGNO
100
AcDbLine
 10
491.2035550493956
 20
129.0000000000038
 30
0.0
 11
491.2035550493965
 21
129.1000000000037
 31
0.0
  0
ARC
  5
5EE0
330
18
100
AcDbEntity
  8
DISEGNO
100
AcDbCircle
 10
491.6035550493984
 20
129.1000000000016
 30
0.0
 40
0.40000000000191
100
AcDbArc
 50
90.00000000019539
 51
179.9999999996946
  0
LINE
  5
5EE1
330
18
100
AcDbEntity
  8
DISEGNO
100
AcDbLine
 10
491.6035550493971
 20
129.5000000000036
 30
0.0
 11
530.803555049396
 21
129.5000000000036
 31
0.0
  0
ARC
  5
5EE2
330
18
100
AcDbEntity
  8
DISEGNO
100
AcDbCircle
 10
530.8035550493961
 20
129.1000000000033
 30
0.0
 40
0.4000000000002331
100
AcDbArc
 50
0.0000000000529244
 51
90.00000000003257
  0
LINE
  5
5EE3
330
18
100
AcDbEntity
  8
DISEGNO
100
AcDbLine
 10
531.2035550493965
 20
129.1000000000037
 30
0.0
 11
531.2035550493956
 21
129.0000000000038
 31
0.0
  0
LINE
  5
5EE4
330
18
100
AcDbEntity
  8
DISEGNO
100
AcDbLine
 10
531.2035550493956
 20
129.0000000000038
 30
0.0
 11
533.3035550493962
 21
129.0000000000038
 31
0.0
  0
LINE
  5
5EE6
330
18
100
AcDbEntity
  8
DISEGNO
100
AcDbLine
 10
630.4035550493972
 20
139.0000000000038
 30
0.0
 11
644.2045550493967
 21
139.0000000000038
 31
0.0
  0
LINE
  5
5EE7
330
18
100
AcDbEntity
  8
DISEGNO
100
AcDbLine
 10
644.2045550493967
 20
139.0000000000038
 30
0.0
 11
644.4045550493965
 21
138.8000000000038
 31
0.0
  0
LINE
  5
5EE8
330
18
100
AcDbEntity
  8
DISEGNO
100
AcDbLine
 10
644.4045550493965
 20
138.8000000000038
 30
0.0
 11
646.402555049397
 21
138.8000000000038
 31
0.0
  0
LINE
  5
5EE9
330
18
100
AcDbEntity
  8
DISEGNO
100
AcDbLine
 10
646.402555049397
 20
138.8000000000038
 30
0.0
 11
646.6025550493959
 21
139.0000000000038
 31
0.0
  0
LINE
  5
5EEA
330
18
100
AcDbEntity
  8
DISEGNO
100
AcDbLine
 10
646.6025550493959
 20
139.0000000000038
 30
0.0
 11
663.4035550493972
 21
139.0000000000038
 31
0.0
  0
ARC
  5
5EEB
330
18
100
AcDbEntity
  8
DISEGNO
100
AcDbCircle
 10
663.4035550493972
 20
137.0000000000038
 30
0.0
 40
2.0
100
AcDbArc
 50
0.0
 51
90.0
  0
LINE
  5
5EEC
330
18
100
AcDbEntity
  8
DISEGNO
100
AcDbLine
 10
665.4035550493972
 20
137.0000000000038
 30
0.0
 11
665.4035550493972
 21
129.0000000000038
 31
0.0
  0
LINE
  5
5EED
330
18
100
AcDbEntity
  8
DISEGNO
100
AcDbLine
 10
665.4035550493972
 20
129.0000000000038
 30
0.0
 11
655.4035550493972
 21
129.0000000000038
 31
0.0
  0
LINE
  5
5EEE
330
18
100
AcDbEntity
  8
DISEGNO
100
AcDbLine
 10
655.4035550493972
 20
129.0000000000038
 30
0.0
 11
655.4035550493964
 21
129.1000000000037
 31
0.0
  0
ARC
  5
5EEF
330
18
100
AcDbEntity
  8
DISEGNO
100
AcDbCircle
 10
655.0035550493944
 20
129.1000000000016
 30
0.0
 40
0.40000000000191
100
AcDbArc
 50
0.0000000003053332
 51
89.99999999980458
  0
LINE
  5
5EF0
330
18
100
AcDbEntity
  8
DISEGNO
100
AcDbLine
 10
655.0035550493958
 20
129.5000000000036
 30
0.0
 11
615.8035550493969
 21
129.5000000000036
 31
0.0
  0
ARC
  5
5EF1
330
18
100
AcDbEntity
  8
DISEGNO
100
AcDbCircle
 10
615.8035550493966
 20
129.1000000000033
 30
0.0
 40
0.4000000000002331
100
AcDbArc
 50
89.99999999996743
 51
179.999999999947
  0
LINE
  5
5EF2
330
18
100
AcDbEntity
  8
DISEGNO
100
AcDbLine
 10
615.4035550493963
 20
129.1000000000037
 30
0.0
 11
615.4035550493972
 21
129.0000000000038
 31
0.0
  0
LINE
  5
5EF3
330
18
100
AcDbEntity
  8
DISEGNO
100
AcDbLine
 10
615.4035550493972
 20
129.0000000000038
 30
0.0
 11
613.3035550493964
 21
129.0000000000038
 31
0.0
  0
LINE
  5
5EF5
330
18
100
AcDbEntity
  8
DISEGNO
100
AcDbLine
 10
630.4035550493972
 20
139.0000000000038
 30
0.0
 11
644.2045550493967
 21
139.0000000000038
 31
0.0
  0
LINE
  5
5EF6
330
18
100
AcDbEntity
  8
DISEGNO
100
AcDbLine
 10
644.2045550493967
 20
139.0000000000038
 30
0.0
 11
644.4045550493965
 21
138.800000000004
 31
0.0
  0
LINE
  5
5EF7
330
18
100
AcDbEntity
  8
DISEGNO
100
AcDbLine
 10
644.4045550493965
 20
138.800000000004
 30
0.0
 11
646.402555049397
 21
138.800000000004
 31
0.0
  0
LINE
  5
5EF8
330
18
100
AcDbEntity
  8
DISEGNO
100
AcDbLine
 10
646.402555049397
 20
138.800000000004
 30
0.0
 11
646.6025550493959
 21
139.0000000000038
 31
0.0
  0
LINE
  5
5EFA
330
18
100
AcDbEntity
  8
DISEGNO
100
AcDbLine
 10
615.4035550493972
 20
247.0000000000038
 30
0.0
 11
615.403555049397
 21
154.0000000000049
 31
0.0
  0
ARC
  5
5EFB
330
18
100
AcDbEntity
  8
DISEGNO
100
AcDbCircle
 10
630.4035550493965
 20
154.0000000000049
 30
0.0
 40
15.0
100
AcDbArc
 50
179.9999999999998
 51
270.0
  0
LINE
  5
6A10
330
18
100
AcDbEntity
  8
DISEGNO
100
AcDbLine
 10
603.2895128370117
 20
40.03623724332533
 30
0.0
 11
543.3175972617802
 21
40.03623724332533
 31
0.0
  0
LINE
  5
6A12
330
18
100
AcDbEntity
  8
DISEGNO
100
AcDbLine
 10
603.2895128370117
 20
40.03623724332533
 30
0.0
 11
603.2895128370114
 21
116.000000000002
 31
0.0
  0
CIRCLE
  5
6A62
330
18
100
AcDbEntity
  8
DISEGNO
100
AcDbCircle
 10
584.5535550493964
 20
105.0000000000034
 30
0.0
 40
6.0
1001
COMAU_ACADLIB
1000
Non normalizzato
1000
Vite T.C.E.I. UNI 9327 - M6x25 - 8.8
  0
CIRCLE
  5
6A63
330
18
100
AcDbEntity
  8
NORMALI
100
AcDbCircle
 10
584.5535550493964
 20
105.0000000000034
 30
0.0
 40
2.886751345948141
1001
COMAU_ACADLIB
1000
Non normalizzato
1000
Vite T.C.E.I. UNI 9327 - M6x25 - 8.8
  0
CIRCLE
  5
6A6C
330
18
100
AcDbEntity
  8
NORMALI
100
AcDbCircle
 10
584.5535550493964
 20
105.0000000000034
 30
0.0
 40
5.0
1001
COMAU_ACADLIB
1000
Non normalizzato
1000
Vite T.C.E.I. UNI 9327 - M6x25 - 8.8
  0
CIRCLE
  5
6A91
330
18
100
AcDbEntity
  8
NORMALI
100
AcDbCircle
 10
562.0535550493964
 20
105.0000000000034
 30
0.0
 40
5.0
1001
COMAU_ACADLIB
1000
Non normalizzato
1000
Vite T.C.E.I. UNI 9327 - M6x25 - 8.8
  0
CIRCLE
  5
6A92
330
18
100
AcDbEntity
  8
DISEGNO
100
AcDbCircle
 10
562.0535550493964
 20
105.0000000000034
 30
0.0
 40
6.0
1001
COMAU_ACADLIB
1000
Non normalizzato
1000
Vite T.C.E.I. UNI 9327 - M6x25 - 8.8
  0
CIRCLE
  5
6A9F
330
18
100
AcDbEntity
  8
NORMALI
100
AcDbCircle
 10
562.0535550493964
 20
105.0000000000034
 30
0.0
 40
2.886751345948141
1001
COMAU_ACADLIB
1000
Non normalizzato
1000
Vite T.C.E.I. UNI 9327 - M6x25 - 8.8
  0
LINE
  5
6B2F
330
18
100
AcDbEntity
  8
DISEGNO
100
AcDbLine
 10
1151.1977746954
 20
-183.5538489121206
 30
0.0
 11
1151.1977746954
 21
-263.5538489121207
 31
0.0
  0
LINE
  5
6B30
330
18
100
AcDbEntity
  8
DISEGNO
100
AcDbLine
 10
1354.197774695399
 20
-183.5538489121206
 30
0.0
 11
1354.197774695399
 21
-263.5538489121207
 31
0.0
  0
LINE
  5
6B31
330
18
100
AcDbEntity
  8
DISEGNO
100
AcDbLine
 10
1354.197774695399
 20
-183.5538489121206
 30
0.0
 11
1151.1977746954
 21
-183.5538489121206
 31
0.0
  0
LINE
  5
6B32
330
18
100
AcDbEntity
  8
DISEGNO
100
AcDbLine
 10
1354.197774695399
 20
-263.5538489121207
 30
0.0
 11
1151.1977746954
 21
-263.5538489121207
 31
0.0
  0
LINE
  5
6B33
330
18
100
AcDbEntity
  8
DISEGNO
100
AcDbLine
 10
1354.1977746954
 20
-263.5538489121207
 30
0.0
 11
1354.1977746954
 21
-321.5538489121207
 31
0.0
  0
LINE
  5
6B34
330
18
100
AcDbEntity
  8
DISEGNO
100
AcDbLine
 10
1152.6977746954
 20
-263.5538489121207
 30
0.0
 11
1152.6977746954
 21
-318.5538489121207
 31
0.0
  0
LINE
  5
6BB8
330
18
100
AcDbEntity
  8
NORMALI
100
AcDbLine
 10
1370.053288975814
 20
-266.0538489121199
 30
0.0
 11
1354.1977746954
 21
-266.0538489121208
 31
0.0
  0
LINE
  5
931A
330
18
100
AcDbEntity
  8
DISEGNO
100
AcDbLine
 10
529.8035550493962
 20
114.5000000000034
 30
0.0
 11
529.8035550493962
 21
115.0000000000034
 31
0.0
  0
LINE
  5
9346
330
18
100
AcDbEntity
  8
0
100
AcDbLine
 10
603.2895128370114
 20
116.000000000002
 30
0.0
 11
543.3175972617805
 21
116.000000000002
 31
0.0
  0
LINE
  5
9347
330
18
100
AcDbEntity
  8
DISEGNO
100
AcDbLine
 10
603.2895128370114
 20
114.5000000000034
 30
0.0
 11
616.8035550493964
 21
114.5000000000034
 31
0.0
  0
LINE
  5
97C8
330
18
100
AcDbEntity
  8
ASSI
100
AcDbLine
 10
744.1472595101132
 20
70.00219503094399
 30
0.0
 11
1579.761798694984
 21
70.00219503094399
 31
0.0
  0
LINE
  5
97C9
330
18
100
AcDbEntity
  8
0
100
AcDbLine
 10
1471.697774695399
 20
66.00308435811621
 30
0.0
 11
1561.5977746954
 21
66.00308435811621
 31
0.0
  0
LINE
  5
97CA
330
18
100
AcDbEntity
  8
0
100
AcDbLine
 10
1561.5977746954
 20
73.98500006666018
 30
0.0
 11
1471.697774695399
 21
73.98500006666018
 31
0.0
  0
LINE
  5
97CB
330
18
100
AcDbEntity
  8
0
100
AcDbLine
 10
761.5977746954001
 20
66.00308435811621
 30
0.0
 11
816.9573402128655
 21
66.00308435811621
 31
0.0
  0
LINE
  5
97CC
330
18
100
AcDbEntity
  8
0
100
AcDbLine
 10
816.9573402128657
 20
73.98500006666018
 30
0.0
 11
761.5977746954001
 21
73.98500006666018
 31
0.0
  0
POLYLINE
  5
BBC7
330
18
100
AcDbEntity
  8
ASSI
100
AcDb2dPolyline
 66
     1
 10
0.0
 20
0.0
 30
0.0
  0
VERTEX
  5
BBC8
330
BBC7
100
AcDbEntity
  8
ASSI
100
AcDbVertex
100
AcDb2dVertex
 10
1033.797774695
 20
70.00219503094348
 30
0.0
  0
VERTEX
  5
BBC9
330
BBC7
100
AcDbEntity
  8
ASSI
100
AcDbVertex
100
AcDb2dVertex
 10
997.0790248354003
 20
70.00219503094354
 30
0.0
  0
SEQEND
  5
BBCA
330
BBC7
100
AcDbEntity
  8
ASSI
  0
POLYLINE
  5
BBE6
330
18
100
AcDbEntity
  8
ASSI
100
AcDb2dPolyline
 66
     1
 10
0.0
 20
0.0
 30
0.0
  0
VERTEX
  5
BBE7
330
BBE6
100
AcDbEntity
  8
ASSI
100
AcDbVertex
100
AcDb2dVertex
 10
997.0790248354003
 20
70.00219503094354
 30
0.0
  0
VERTEX
  5
BBE8
330
BBE6
100
AcDbEntity
  8
ASSI
100
AcDbVertex
100
AcDb2dVertex
 10
979.4039469124001
 20
70.01219503094375
 30
0.0
  0
SEQEND
  5
BBE9
330
BBE6
100
AcDbEntity
  8
ASSI
  0
LINE
  5
D14B
330
18
100
AcDbEntity
  8
ASSI
100
AcDbLine
 10
655.3035550493964
 20
149.0573189011026
 30
0.0
 11
655.3035550493964
 21
135.0573189011026
 31
0.0
  0
LINE
  5
D162
330
18
100
AcDbEntity
  8
DISEGNO
100
AcDbLine
 10
500.2045550493953
 20
138.8000000000038
 30
0.0
 11
500.0045550493964
 21
139.0000000000038
 31
0.0
  0
LINE
  5
D163
330
18
100
AcDbEntity
  8
DISEGNO
100
AcDbLine
 10
500.2045550493953
 20
138.800000000004
 30
0.0
 11
500.0045550493964
 21
139.0000000000038
 31
0.0
  0
LINE
  5
D164
330
18
100
AcDbEntity
  8
ASSI
100
AcDbLine
 10
491.3035550493959
 20
149.0573189011026
 30
0.0
 11
491.3035550493959
 21
135.0573189011026
 31
0.0
  0
LINE
  5
F22C
330
18
100
AcDbEntity
  8
DISEGNO
100
AcDbLine
 10
539.3025550493962
 20
77.50219503094399
 30
0.0
 11
539.3025550493962
 21
114.5000000000034
 31
0.0
  0
LINE
  5
F22D
330
18
100
AcDbEntity
  8
DISEGNO
100
AcDbLine
 10
637.3045550493957
 20
50.00000000000341
 30
0.0
 11
637.3045550493957
 21
115.0000000000034
 31
0.0
  0
LINE
  5
F22E
330
18
100
AcDbEntity
  8
NORMALI
100
AcDbLine
 10
615.7813600184558
 20
77.50219503094399
 30
0.0
 11
606.7537460340845
 21
77.50219503094399
 31
0.0
  0
LINE
  5
F22F
330
18
100
AcDbEntity
  8
DISEGNO
100
AcDbLine
 10
637.3045550493957
 20
50.00000000000341
 30
0.0
 11
607.3045550493957
 21
50.00000000000341
 31
0.0
  0
LINE
  5
F230
330
18
100
AcDbEntity
  8
NORMALI
100
AcDbLine
 10
615.7813600184558
 20
62.50219503094399
 30
0.0
 11
606.7537460340845
 21
62.50219503094399
 31
0.0
  0
LINE
  5
F231
330
18
100
AcDbEntity
  8
NORMALI
100
AcDbLine
 10
615.7813600184558
 20
77.50219503094399
 30
0.0
 11
615.7813600184558
 21
62.50219503094399
 31
0.0
  0
LINE
  5
F232
330
18
100
AcDbEntity
  8
DISEGNO
100
AcDbLine
 10
607.3045550493957
 20
50.00000000000341
 30
0.0
 11
607.3045550493957
 21
62.50219503094399
 31
0.0
  0
LINE
  5
F233
330
18
100
AcDbEntity
  8
NORMALI
100
AcDbLine
 10
606.7537460340845
 20
62.50219503094399
 30
0.0
 11
603.2813600184558
 21
62.50219503094399
 31
0.0
  0
LINE
  5
F234
330
18
100
AcDbEntity
  8
NORMALI
100
AcDbLine
 10
603.2813600184558
 20
77.50219503094399
 30
0.0
 11
606.7537460340845
 21
77.50219503094399
 31
0.0
  0
LINE
  5
F235
330
18
100
AcDbEntity
  8
DISEGNO
100
AcDbLine
 10
607.3045550493957
 20
77.50219503094399
 30
0.0
 11
607.3045550493957
 21
114.5000000000034
 31
0.0
  0
CIRCLE
  5
F236
330
18
100
AcDbEntity
  8
NORMALI
100
AcDbCircle
 10
1252.6977746954
 20
197.9999999999993
 30
0.0
 40
9.5
  0
LINE
  5
F24B
330
18
100
AcDbEntity
  8
DISEGNO
100
AcDbLine
 10
1661.172281594535
 20
129.0000000000034
 30
0.0
 11
1721.172281594535
 21
129.0000000000034
 31
0.0
  0
LINE
  5
F24D
330
18
100
AcDbEntity
  8
ASSI
100
AcDbLine
 10
1702.008162365928
 20
193.0000000000034
 30
0.0
 11
1820.336400823143
 21
193.0000000000034
 31
0.0
  0
LINE
  5
F24E
330
18
100
AcDbEntity
  8
DISEGNO
100
AcDbLine
 10
1721.172281594536
 20
250.5000000000038
 30
0.0
 11
1801.172281594535
 21
250.5000000000038
 31
0.0
  0
LINE
  5
F24F
330
18
100
AcDbEntity
  8
ASSI
100
AcDbLine
 10
1761.172281594536
 20
261.1164768772468
 30
0.0
 11
1761.172281594535
 21
37.17059351600232
 31
0.0
  0
LINE
  5
F250
330
18
100
AcDbEntity
  8
0
100
AcDbLine
 10
1731.186323806919
 20
42.02808435811379
 30
0.0
 11
1731.18632380692
 21
51.7780843581138
 31
0.0
  0
LINE
  5
F251
330
18
100
AcDbEntity
  8
DISEGNO
100
AcDbLine
 10
1710.072281594537
 20
141.0000000000034
 30
0.0
 11
1710.072281594537
 21
244.0000000000034
 31
0.0
  0
LINE
  5
F252
330
18
100
AcDbEntity
  8
DISEGNO
100
AcDbLine
 10
1717.672281594535
 20
115.0000000000034
 30
0.0
 11
1661.172281594535
 21
115.0000000000034
 31
0.0
  0
LINE
  5
F253
330
18
100
AcDbEntity
  8
DISEGNO
100
AcDbLine
 10
1661.172281594535
 20
129.0000000000034
 30
0.0
 11
1661.172281594535
 21
115.0000000000034
 31
0.0
  0
LINE
  5
F254
330
18
100
AcDbEntity
  8
DISEGNO
100
AcDbLine
 10
1697.171281594535
 20
50.00000000000341
 30
0.0
 11
1697.171281594535
 21
115.0000000000034
 31
0.0
  0
LINE
  5
F256
330
18
100
AcDbEntity
  8
NORMALI
100
AcDbLine
 10
1718.694476625475
 20
77.50219503094399
 30
0.0
 11
1727.722090609847
 21
77.50219503094399
 31
0.0
  0
LINE
  5
F257
330
18
100
AcDbEntity
  8
DISEGNO
100
AcDbLine
 10
1697.171281594535
 20
50.00000000000341
 30
0.0
 11
1727.171281594535
 21
50.00000000000341
 31
0.0
  0
LINE
  5
F258
330
18
100
AcDbEntity
  8
NORMALI
100
AcDbLine
 10
1718.694476625475
 20
62.50219503094399
 30
0.0
 11
1727.722090609847
 21
62.50219503094399
 31
0.0
  0
LINE
  5
F259
330
18
100
AcDbEntity
  8
NORMALI
100
AcDbLine
 10
1718.694476625475
 20
77.50219503094399
 30
0.0
 11
1718.694476625475
 21
62.50219503094399
 31
0.0
  0
LINE
  5
F25A
330
18
100
AcDbEntity
  8
DISEGNO
100
AcDbLine
 10
1727.171281594535
 20
50.00000000000341
 30
0.0
 11
1727.171281594535
 21
62.50219503094399
 31
0.0
  0
LINE
  5
F25B
330
18
100
AcDbEntity
  8
NORMALI
100
AcDbLine
 10
1727.722090609847
 20
62.50219503094399
 30
0.0
 11
1731.194476625475
 21
62.50219503094399
 31
0.0
  0
LINE
  5
F25C
330
18
100
AcDbEntity
  8
0
100
AcDbLine
 10
1731.18632380692
 20
54.2780843581138
 30
0.0
 11
1731.18632380692
 21
66.0230843581146
 31
0.0
  0
LINE
  5
F25D
330
18
100
AcDbEntity
  8
NORMALI
100
AcDbLine
 10
1731.194476625475
 20
77.50219503094399
 30
0.0
 11
1727.722090609847
 21
77.50219503094399
 31
0.0
  0
LINE
  5
F25E
330
18
100
AcDbEntity
  8
0
100
AcDbLine
 10
1731.18632380692
 20
74.00500006665857
 30
0.0
 11
1731.18632380692
 21
85.75000006665755
 31
0.0
  0
LINE
  5
F25F
330
18
100
AcDbEntity
  8
DISEGNO
100
AcDbLine
 10
1710.072281594537
 20
141.0000000000034
 30
0.0
 11
1711.55559636808
 21
141.0000000000034
 31
0.0
  0
LINE
  5
F264
330
18
100
AcDbEntity
  8
DISEGNO
100
AcDbLine
 10
1719.072281594538
 20
244.0000000000038
 30
0.0
 11
1719.072281594538
 21
239.0000000000043
 31
0.0
  0
LINE
  5
F265
330
18
100
AcDbEntity
  8
DISEGNO
100
AcDbLine
 10
1719.072281594538
 20
244.0000000000038
 30
0.0
 11
1710.072281594537
 21
244.0000000000034
 31
0.0
  0
LINE
  5
F266
330
18
100
AcDbEntity
  8
DISEGNO
100
AcDbLine
 10
1721.172281594536
 20
250.5000000000038
 30
0.0
 11
1721.172281594536
 21
249.0000000000038
 31
0.0
  0
LINE
  5
F267
330
18
100
AcDbEntity
  8
ASSI
100
AcDbLine
 10
1726.272281594535
 20
246.4190091723322
 30
0.0
 11
1726.272281594535
 21
256.2499999999996
 31
0.0
  0
LINE
  5
F268
330
18
100
AcDbEntity
  8
DISEGNO
100
AcDbLine
 10
1812.272281594534
 20
141.0000000000034
 30
0.0
 11
1812.272281594534
 21
244.0000000000034
 31
0.0
  0
LINE
  5
F269
330
18
100
AcDbEntity
  8
DISEGNO
100
AcDbLine
 10
1804.672281594536
 20
115.0000000000034
 30
0.0
 11
1861.172281594535
 21
115.0000000000034
 31
0.0
  0
LINE
  5
F26A
330
18
100
AcDbEntity
  8
DISEGNO
100
AcDbLine
 10
1804.672281594536
 20
114.5000000000034
 30
0.0
 11
1804.672281594536
 21
115.0000000000034
 31
0.0
  0
LINE
  5
F26B
330
18
100
AcDbEntity
  8
DISEGNO
100
AcDbLine
 10
1812.272281594534
 20
141.0000000000034
 30
0.0
 11
1810.788966820991
 21
141.0000000000034
 31
0.0
  0
LINE
  5
F26C
330
18
100
AcDbEntity
  8
DISEGNO
100
AcDbLine
 10
1861.172281594535
 20
129.0000000000034
 30
0.0
 11
1861.172281594535
 21
115.0000000000034
 31
0.0
  0
LINE
  5
F26D
330
18
100
AcDbEntity
  8
DISEGNO
100
AcDbLine
 10
1861.172281594535
 20
129.0000000000034
 30
0.0
 11
1861.172281594535
 21
115.0000000000034
 31
0.0
  0
LINE
  5
F26E
330
18
100
AcDbEntity
  8
DISEGNO
100
AcDbLine
 10
1803.272281594533
 20
244.0000000000038
 30
0.0
 11
1812.272281594534
 21
244.0000000000034
 31
0.0
  0
LINE
  5
F26F
330
18
100
AcDbEntity
  8
DISEGNO
100
AcDbLine
 10
1801.172281594535
 20
250.5000000000038
 30
0.0
 11
1801.172281594535
 21
249.0000000000038
 31
0.0
  0
LINE
  5
F270
330
18
100
AcDbEntity
  8
ASSI
100
AcDbLine
 10
1796.072281594535
 20
246.4190091723322
 30
0.0
 11
1796.072281594535
 21
256.2499999999996
 31
0.0
  0
LINE
  5
F271
330
18
100
AcDbEntity
  8
DISEGNO
100
AcDbLine
 10
1801.172281594535
 20
249.0000000000038
 30
0.0
 11
1801.172281594536
 21
129.0000000000036
 31
0.0
  0
LINE
  5
F272
330
18
100
AcDbEntity
  8
DISEGNO
100
AcDbLine
 10
1721.172281594536
 20
249.0000000000038
 30
0.0
 11
1721.172281594536
 21
129.0000000000038
 31
0.0
  0
ARC
  5
F273
330
18
100
AcDbEntity
  8
DISEGNO
100
AcDbCircle
 10
1721.072281594535
 20
247.0000000000038
 30
0.0
 40
2.0
100
AcDbArc
 50
90.0
 51
180.0
  0
LINE
  5
F274
330
18
100
AcDbEntity
  8
DISEGNO
100
AcDbLine
 10
1719.072281594534
 20
247.0000000000038
 30
0.0
 11
1719.072281594535
 21
154.0000000000049
 31
0.0
  0
ARC
  5
F275
330
18
100
AcDbEntity
  8
DISEGNO
100
AcDbCircle
 10
1801.272281594536
 20
247.0000000000038
 30
0.0
 40
2.0
100
AcDbArc
 50
0.0
 51
90.0
  0
LINE
  5
F279
330
18
100
AcDbEntity
  8
DISEGNO
100
AcDbLine
 10
1721.172281594535
 20
129.0000000000038
 30
0.0
 11
1861.172281594535
 21
129.0000000000034
 31
0.0
  0
ARC
  5
F27A
330
18
100
AcDbEntity
  8
DISEGNO
100
AcDbCircle
 10
1704.072281594535
 20
154.0000000000049
 30
0.0
 40
15.0
100
AcDbArc
 50
270.0
 51
0.0000000000001086
  0
LINE
  5
F27B
330
18
100
AcDbEntity
  8
DISEGNO
100
AcDbLine
 10
1704.072281594535
 20
139.0000000000038
 30
0.0
 11
1690.271281594535
 21
139.0000000000038
 31
0.0
  0
LINE
  5
F27C
330
18
100
AcDbEntity
  8
DISEGNO
100
AcDbLine
 10
1690.271281594535
 20
139.0000000000038
 30
0.0
 11
1690.071281594535
 21
138.8000000000038
 31
0.0
  0
LINE
  5
F27D
330
18
100
AcDbEntity
  8
DISEGNO
100
AcDbLine
 10
1690.071281594535
 20
138.8000000000038
 30
0.0
 11
1688.073281594535
 21
138.8000000000038
 31
0.0
  0
LINE
  5
F27E
330
18
100
AcDbEntity
  8
DISEGNO
100
AcDbLine
 10
1688.073281594535
 20
138.8000000000038
 30
0.0
 11
1687.873281594536
 21
139.0000000000038
 31
0.0
  0
LINE
  5
F27F
330
18
100
AcDbEntity
  8
DISEGNO
100
AcDbLine
 10
1687.873281594536
 20
139.0000000000038
 30
0.0
 11
1671.072281594535
 21
139.0000000000038
 31
0.0
  0
ARC
  5
F280
330
18
100
AcDbEntity
  8
DISEGNO
100
AcDbCircle
 10
1671.072281594535
 20
137.0000000000038
 30
0.0
 40
2.0
100
AcDbArc
 50
90.0
 51
180.0
  0
LINE
  5
F281
330
18
100
AcDbEntity
  8
DISEGNO
100
AcDbLine
 10
1669.072281594535
 20
137.0000000000038
 30
0.0
 11
1669.072281594535
 21
129.0000000000038
 31
0.0
  0
LINE
  5
F282
330
18
100
AcDbEntity
  8
DISEGNO
100
AcDbLine
 10
1669.072281594535
 20
129.0000000000038
 30
0.0
 11
1679.072281594535
 21
129.0000000000038
 31
0.0
  0
LINE
  5
F283
330
18
100
AcDbEntity
  8
DISEGNO
100
AcDbLine
 10
1679.072281594535
 20
129.0000000000038
 30
0.0
 11
1679.072281594536
 21
129.1000000000037
 31
0.0
  0
ARC
  5
F284
330
18
100
AcDbEntity
  8
DISEGNO
100
AcDbCircle
 10
1679.472281594538
 20
129.1000000000016
 30
0.0
 40
0.40000000000191
100
AcDbArc
 50
90.00000000019539
 51
179.9999999996946
  0
LINE
  5
F285
330
18
100
AcDbEntity
  8
DISEGNO
100
AcDbLine
 10
1679.472281594536
 20
129.5000000000036
 30
0.0
 11
1718.672281594535
 21
129.5000000000036
 31
0.0
  0
ARC
  5
F286
330
18
100
AcDbEntity
  8
DISEGNO
100
AcDbCircle
 10
1718.672281594535
 20
129.1000000000033
 30
0.0
 40
0.4000000000002331
100
AcDbArc
 50
0.0000000000529244
 51
90.00000000003257
  0
LINE
  5
F287
330
18
100
AcDbEntity
  8
DISEGNO
100
AcDbLine
 10
1719.072281594536
 20
129.1000000000037
 30
0.0
 11
1719.072281594534
 21
129.0000000000038
 31
0.0
  0
LINE
  5
F288
330
18
100
AcDbEntity
  8
DISEGNO
100
AcDbLine
 10
1719.072281594534
 20
129.0000000000038
 30
0.0
 11
1721.172281594535
 21
129.0000000000038
 31
0.0
  0
LINE
  5
F289
330
18
100
AcDbEntity
  8
DISEGNO
100
AcDbLine
 10
1818.272281594536
 20
139.0000000000038
 30
0.0
 11
1832.073281594536
 21
139.0000000000038
 31
0.0
  0
LINE
  5
F28A
330
18
100
AcDbEntity
  8
DISEGNO
100
AcDbLine
 10
1832.073281594536
 20
139.0000000000038
 30
0.0
 11
1832.273281594536
 21
138.8000000000038
 31
0.0
  0
LINE
  5
F28B
330
18
100
AcDbEntity
  8
DISEGNO
100
AcDbLine
 10
1832.273281594536
 20
138.8000000000038
 30
0.0
 11
1834.271281594536
 21
138.8000000000038
 31
0.0
  0
LINE
  5
F28C
330
18
100
AcDbEntity
  8
DISEGNO
100
AcDbLine
 10
1834.271281594536
 20
138.8000000000038
 30
0.0
 11
1834.471281594535
 21
139.0000000000038
 31
0.0
  0
LINE
  5
F28D
330
18
100
AcDbEntity
  8
DISEGNO
100
AcDbLine
 10
1834.471281594535
 20
139.0000000000038
 30
0.0
 11
1851.272281594536
 21
139.0000000000038
 31
0.0
  0
ARC
  5
F28E
330
18
100
AcDbEntity
  8
DISEGNO
100
AcDbCircle
 10
1851.272281594536
 20
137.0000000000038
 30
0.0
 40
2.0
100
AcDbArc
 50
0.0
 51
90.0
  0
LINE
  5
F28F
330
18
100
AcDbEntity
  8
DISEGNO
100
AcDbLine
 10
1853.272281594536
 20
137.0000000000038
 30
0.0
 11
1853.272281594536
 21
129.0000000000038
 31
0.0
  0
LINE
  5
F290
330
18
100
AcDbEntity
  8
DISEGNO
100
AcDbLine
 10
1853.272281594536
 20
129.0000000000038
 30
0.0
 11
1843.272281594536
 21
129.0000000000038
 31
0.0
  0
LINE
  5
F291
330
18
100
AcDbEntity
  8
DISEGNO
100
AcDbLine
 10
1843.272281594536
 20
129.0000000000038
 30
0.0
 11
1843.272281594535
 21
129.1000000000037
 31
0.0
  0
ARC
  5
F292
330
18
100
AcDbEntity
  8
DISEGNO
100
AcDbCircle
 10
1842.872281594534
 20
129.1000000000016
 30
0.0
 40
0.40000000000191
100
AcDbArc
 50
0.0000000003053332
 51
89.99999999980458
  0
LINE
  5
F293
330
18
100
AcDbEntity
  8
DISEGNO
100
AcDbLine
 10
1842.872281594535
 20
129.5000000000036
 30
0.0
 11
1803.672281594536
 21
129.5000000000036
 31
0.0
  0
ARC
  5
F294
330
18
100
AcDbEntity
  8
DISEGNO
100
AcDbCircle
 10
1803.672281594536
 20
129.1000000000033
 30
0.0
 40
0.4000000000002331
100
AcDbArc
 50
89.99999999996743
 51
179.999999999947
  0
LINE
  5
F295
330
18
100
AcDbEntity
  8
DISEGNO
100
AcDbLine
 10
1803.272281594535
 20
129.1000000000037
 30
0.0
 11
1803.272281594536
 21
129.0000000000038
 31
0.0
  0
LINE
  5
F296
330
18
100
AcDbEntity
  8
DISEGNO
100
AcDbLine
 10
1803.272281594536
 20
129.0000000000038
 30
0.0
 11
1801.172281594535
 21
129.0000000000038
 31
0.0
  0
LINE
  5
F297
330
18
100
AcDbEntity
  8
DISEGNO
100
AcDbLine
 10
1818.272281594536
 20
139.0000000000038
 30
0.0
 11
1832.073281594536
 21
139.0000000000038
 31
0.0
  0
LINE
  5
F298
330
18
100
AcDbEntity
  8
DISEGNO
100
AcDbLine
 10
1832.073281594536
 20
139.0000000000038
 30
0.0
 11
1832.273281594536
 21
138.800000000004
 31
0.0
  0
LINE
  5
F299
330
18
100
AcDbEntity
  8
DISEGNO
100
AcDbLine
 10
1832.273281594536
 20
138.800000000004
 30
0.0
 11
1834.271281594536
 21
138.800000000004
 31
0.0
  0
LINE
  5
F29A
330
18
100
AcDbEntity
  8
DISEGNO
100
AcDbLine
 10
1834.271281594536
 20
138.800000000004
 30
0.0
 11
1834.471281594535
 21
139.0000000000038
 31
0.0
  0
LINE
  5
F29B
330
18
100
AcDbEntity
  8
DISEGNO
100
AcDbLine
 10
1803.272281594536
 20
247.0000000000038
 30
0.0
 11
1803.272281594536
 21
154.0000000000049
 31
0.0
  0
ARC
  5
F29C
330
18
100
AcDbEntity
  8
DISEGNO
100
AcDbCircle
 10
1818.272281594536
 20
154.0000000000049
 30
0.0
 40
15.0
100
AcDbArc
 50
179.9999999999998
 51
270.0
  0
LINE
  5
F2A5
330
18
100
AcDbEntity
  8
DISEGNO
100
AcDbLine
 10
1717.672281594535
 20
114.5000000000034
 30
0.0
 11
1717.672281594535
 21
115.0000000000034
 31
0.0
  0
LINE
  5
F2A7
330
18
100
AcDbEntity
  8
DISEGNO
100
AcDbLine
 10
1717.672281594535
 20
114.5000000000034
 30
0.0
 11
1804.672281594536
 21
114.5000000000034
 31
0.0
  0
LINE
  5
F2A8
330
18
100
AcDbEntity
  8
ASSI
100
AcDbLine
 10
1843.172281594536
 20
149.0573189011026
 30
0.0
 11
1843.172281594536
 21
135.0573189011026
 31
0.0
  0
LINE
  5
F2A9
330
18
100
AcDbEntity
  8
DISEGNO
100
AcDbLine
 10
1688.073281594534
 20
138.8000000000038
 30
0.0
 11
1687.873281594535
 21
139.0000000000038
 31
0.0
  0
LINE
  5
F2AA
330
18
100
AcDbEntity
  8
DISEGNO
100
AcDbLine
 10
1688.073281594534
 20
138.800000000004
 30
0.0
 11
1687.873281594535
 21
139.0000000000038
 31
0.0
  0
LINE
  5
F2AB
330
18
100
AcDbEntity
  8
ASSI
100
AcDbLine
 10
1679.172281594535
 20
149.0573189011026
 30
0.0
 11
1679.172281594535
 21
135.0573189011026
 31
0.0
  0
LINE
  5
F2AC
330
18
100
AcDbEntity
  8
DISEGNO
100
AcDbLine
 10
1727.171281594535
 20
77.50219503094399
 30
0.0
 11
1727.171281594535
 21
114.5000000000034
 31
0.0
  0
LINE
  5
F2AD
330
18
100
AcDbEntity
  8
DISEGNO
100
AcDbLine
 10
1825.173281594535
 20
50.00000000000341
 30
0.0
 11
1825.173281594535
 21
115.0000000000034
 31
0.0
  0
LINE
  5
F2AE
330
18
100
AcDbEntity
  8
NORMALI
100
AcDbLine
 10
1803.650086563595
 20
77.50219503094399
 30
0.0
 11
1794.622472579224
 21
77.50219503094399
 31
0.0
  0
LINE
  5
F2AF
330
18
100
AcDbEntity
  8
DISEGNO
100
AcDbLine
 10
1825.173281594535
 20
50.00000000000341
 30
0.0
 11
1795.173281594535
 21
50.00000000000341
 31
0.0
  0
LINE
  5
F2B0
330
18
100
AcDbEntity
  8
NORMALI
100
AcDbLine
 10
1803.650086563595
 20
62.50219503094399
 30
0.0
 11
1794.622472579224
 21
62.50219503094399
 31
0.0
  0
LINE
  5
F2B1
330
18
100
AcDbEntity
  8
NORMALI
100
AcDbLine
 10
1803.650086563595
 20
77.50219503094399
 30
0.0
 11
1803.650086563595
 21
62.50219503094399
 31
0.0
  0
LINE
  5
F2B2
330
18
100
AcDbEntity
  8
DISEGNO
100
AcDbLine
 10
1795.173281594535
 20
50.00000000000341
 30
0.0
 11
1795.173281594535
 21
62.50219503094399
 31
0.0
  0
LINE
  5
F2B3
330
18
100
AcDbEntity
  8
NORMALI
100
AcDbLine
 10
1794.622472579224
 20
62.50219503094399
 30
0.0
 11
1791.150086563595
 21
62.50219503094399
 31
0.0
  0
LINE
  5
F2B4
330
18
100
AcDbEntity
  8
NORMALI
100
AcDbLine
 10
1791.150086563595
 20
77.50219503094399
 30
0.0
 11
1794.622472579224
 21
77.50219503094399
 31
0.0
  0
LINE
  5
F2B5
330
18
100
AcDbEntity
  8
DISEGNO
100
AcDbLine
 10
1795.173281594535
 20
77.50219503094399
 30
0.0
 11
1795.173281594535
 21
114.5000000000034
 31
0.0
  0
LINE
  5
F3BE
330
18
100
AcDbEntity
  8
ASSI
100
AcDbLine
 10
1761.172281594536
 20
102.8737965458856
 30
0.0
 11
1761.172281594535
 21
37.17059351600232
 31
0.0
  0
LINE
  5
F3BF
330
18
100
AcDbEntity
  8
ASSI
100
AcDbLine
 10
1709.445928100303
 20
70.02219503094398
 30
0.0
 11
1808.616285229981
 21
70.02219503094398
 31
0.0
  0
LWPOLYLINE
  5
F3C0
330
18
100
AcDbEntity
  8
DISEGNO
100
AcDbPolyline
 90
       16
 70
     1
 43
0.0
 10
1735.088637761344
 20
97.8028309768522
 42
1.008733790278455
 10
1733.391645648626
 20
96.10583886413383
 42
-0.3005899398571918
 10
1733.460639487612
 20
95.78229620824163
 42
0.1891577417510599
 10
1733.460639487612
 20
93.26209385364268
 42
-0.3005899398571916
 10
1733.391645648626
 20
92.93855119775049
 42
1.008733790278727
 10
1735.088637761344
 20
91.24155908503302
 42
-0.3005899398577271
 10
1735.412180417237
 20
91.31055292401811
 42
0.1891577417510563
 10
1737.932382771836
 20
91.31055292401811
 42
-0.300589939857727
 10
1738.255925427728
 20
91.24155908503302
 42
1.008733790278321
 10
1739.952917540445
 20
92.93855119774958
 42
-0.3005899398573464
 10
1739.88392370146
 20
93.26209385364178
 42
0.1891577417511831
 10
1739.88392370146
 20
95.78229620824254
 42
-0.3005899398581157
 10
1739.952917540445
 20
96.10583886413564
 42
1.008733790277784
 10
1738.25592542773
 20
97.80283097685128
 42
-0.3005899398577271
 10
1737.932382771837
 20
97.73383713786621
 42
0.1891577417510631
 10
1735.412180417237
 20
97.73383713786712
 42
-0.300589939858017
  0
ARC
  5
F3C1
330
18
100
AcDbEntity
  8
DISEGNO
100
AcDbCircle
 10
1735.302606401817
 20
49.01311036455695
 30
0.0
 40
0.3
100
AcDbArc
 50
224.5017695512824
 51
291.4227669401418
  0
ARC
  5
F3C2
330
18
100
AcDbEntity
  8
DISEGNO
100
AcDbCircle
 10
1734.232763199442
 20
47.9617134260377
 30
0.0
 40
1.199999999998852
100
AcDbArc
 50
44.50176955130093
 51
225.4982304486552
  0
ARC
  5
F3C3
330
18
100
AcDbEntity
  8
DISEGNO
100
AcDbCircle
 10
1736.672281594535
 20
45.52219503094488
 30
0.0
 40
3.45
100
AcDbArc
 50
68.57723305999842
 51
111.4227669400015
  0
ARC
  5
F3C4
330
18
100
AcDbEntity
  8
DISEGNO
100
AcDbCircle
 10
1733.181366260923
 20
46.89187022366309
 30
0.0
 40
0.3
100
AcDbArc
 50
338.5772330599388
 51
45.49823044870944
  0
ARC
  5
F3C5
330
18
100
AcDbEntity
  8
DISEGNO
100
AcDbCircle
 10
1738.041956787253
 20
49.01311036455695
 30
0.0
 40
0.3
100
AcDbArc
 50
248.5772330600256
 51
315.4982304487174
  0
ARC
  5
F3C6
330
18
100
AcDbEntity
  8
DISEGNO
100
AcDbCircle
 10
1736.672281594535
 20
45.52219503094488
 30
0.0
 40
3.45
100
AcDbArc
 50
158.5772330599984
 51
201.422766939942
  0
ARC
  5
F3C7
330
18
100
AcDbEntity
  8
DISEGNO
100
AcDbCircle
 10
1739.111799989629
 20
47.9617134260377
 30
0.0
 40
1.199999999999495
100
AcDbArc
 50
314.5017695512905
 51
135.4982304487174
  0
ARC
  5
F3C8
330
18
100
AcDbEntity
  8
DISEGNO
100
AcDbCircle
 10
1733.181366260922
 20
44.1525198382285
 30
0.0
 40
0.3
100
AcDbArc
 50
314.5017695512905
 51
21.42276694006112
  0
ARC
  5
F3C9
330
18
100
AcDbEntity
  8
DISEGNO
100
AcDbCircle
 10
1740.163196928149
 20
46.89187022366127
 30
0.0
 40
0.3
100
AcDbArc
 50
134.5017695512905
 51
201.4227669398948
  0
ARC
  5
F3CA
330
18
100
AcDbEntity
  8
DISEGNO
100
AcDbCircle
 10
1734.232763199442
 20
43.08267663585024
 30
0.0
 40
1.200000000000781
100
AcDbArc
 50
134.5017695512721
 51
315.4982304487739
  0
ARC
  5
F3CB
330
18
100
AcDbEntity
  8
DISEGNO
100
AcDbCircle
 10
1736.672281594535
 20
45.52219503094488
 30
0.0
 40
3.45
100
AcDbArc
 50
338.5772330599984
 51
21.42276694000158
  0
ARC
  5
F3CC
330
18
100
AcDbEntity
  8
DISEGNO
100
AcDbCircle
 10
1735.302606401819
 20
42.031279697331
 30
0.0
 40
0.3
100
AcDbArc
 50
68.57723306016595
 51
135.4982304487174
  0
ARC
  5
F3CD
330
18
100
AcDbEntity
  8
DISEGNO
100
AcDbCircle
 10
1740.163196928149
 20
44.1525198382285
 30
0.0
 40
0.3
100
AcDbArc
 50
158.5772330601051
 51
225.4982304487094
  0
ARC
  5
F3CE
330
18
100
AcDbEntity
  8
DISEGNO
100
AcDbCircle
 10
1736.672281594535
 20
45.52219503094488
 30
0.0
 40
3.45
100
AcDbArc
 50
248.5772330600256
 51
291.4227669399743
  0
ARC
  5
F3CF
330
18
100
AcDbEntity
  8
DISEGNO
100
AcDbCircle
 10
1739.111799989629
 20
43.08267663585024
 30
0.0
 40
1.200000000000459
100
AcDbArc
 50
224.501769551226
 51
45.49823044878312
  0
ARC
  5
F3D0
330
18
100
AcDbEntity
  8
DISEGNO
100
AcDbCircle
 10
1738.041956787252
 20
42.031279697331
 30
0.0
 40
0.3
100
AcDbArc
 50
44.50176955128251
 51
111.422766939834
  0
LWPOLYLINE
  5
F3D1
330
18
100
AcDbEntity
  8
DISEGNO
100
AcDbPolyline
 90
       16
 70
     1
 43
0.0
 10
1782.46063948761
 20
95.78229620824254
 42
0.1891577417511833
 10
1782.46063948761
 20
93.26209385364178
 42
-0.3005899398573463
 10
1782.391645648625
 20
92.93855119774958
 42
1.00873379027832
 10
1784.088637761342
 20
91.24155908503302
 42
-0.3005899398577271
 10
1784.412180417234
 20
91.31055292401811
 42
0.1891577417510563
 10
1786.932382771833
 20
91.31055292401811
 42
-0.3005899398577271
 10
1787.255925427726
 20
91.24155908503302
 42
1.008733790278727
 10
1788.952917540444
 20
92.93855119775049
 42
-0.3005899398571916
 10
1788.883923701458
 20
93.26209385364268
 42
0.18915774175106
 10
1788.883923701458
 20
95.78229620824163
 42
-0.3005899398571916
 10
1788.952917540444
 20
96.10583886413383
 42
1.008733790278455
 10
1787.255925427726
 20
97.8028309768522
 42
-0.300589939858017
 10
1786.932382771833
 20
97.73383713786712
 42
0.1891577417510631
 10
1784.412180417233
 20
97.73383713786621
 42
-0.3005899398577271
 10
1784.088637761341
 20
97.80283097685128
 42
1.008733790277784
 10
1782.391645648625
 20
96.10583886413564
 42
-0.3005899398581155
  0
LWPOLYLINE
  5
F3D2
330
18
100
AcDbEntity
  8
DISEGNO
100
AcDbPolyline
 90
       26
 70
     1
 43
0.0
 10
1771.982281594536
 20
71.02219503094215
 10
1774.472281594535
 20
71.02219503094215
 42
0.414213562373632
 10
1775.472281594535
 20
72.02219503094216
 10
1775.472281594535
 20
75.13219503094183
 42
-0.1982473407095496
 10
1777.662281594536
 20
80.43219503094292
 10
1779.268766078986
 20
82.04775569891967
 42
-0.1996445569523663
 10
1782.814245168815
 20
83.52219503094216
 10
1787.672281594535
 20
83.52219503094216
 42
0.4142135623730992
 10
1788.672281594535
 20
84.52219503094216
 10
1788.672281594535
 20
88.02219503094216
 42
0.4142135623730951
 10
1787.672281594535
 20
89.02219503094215
 10
1782.172281594535
 20
89.02219503094215
 42
-0.4142135623730951
 10
1780.172281594535
 20
91.02219503094216
 10
1780.172281594535
 20
96.52219503094215
 42
0.4142135623730951
 10
1779.172281594535
 20
97.52219503094217
 10
1775.672281594535
 20
97.52219503094217
 42
0.4142135623730951
 10
1774.672281594535
 20
96.52219503094215
 10
1774.672281594535
 20
91.68326284280624
 42
-0.1989123673796449
 10
1773.207815500468
 20
88.14772893687381
 10
1771.582281594536
 20
86.52219503094215
 42
-0.1987392255062521
 10
1766.272281594535
 20
84.32219503094144
 10
1763.172281594535
 20
84.32219503094234
 42
0.4142135623732283
 10
1762.172281594535
 20
83.32219503094234
 10
1762.172281594535
 20
80.84219503094278
 42
0.3592448899483769
 10
1762.990518041177
 20
79.85550659033538
 42
-0.3112840039674356
 10
1770.998950438597
 20
71.84037138627786
 42
0.3616199243049043
  0
LWPOLYLINE
  5
F3D3
330
18
100
AcDbEntity
  8
DISEGNO
100
AcDbPolyline
 90
       16
 70
     1
 43
0.0
 10
1755.421664659551
 20
65.67128652040333
 42
0.8660254037841379
 10
1756.821373083998
 20
64.27157809595678
 42
-0.3231601030082785
 10
1757.172446284611
 20
64.27751771246017
 42
0.3138435921106971
 10
1765.172116904459
 20
64.27751771246017
 42
-0.3231601030074421
 10
1765.523190105072
 20
64.27157809595769
 42
0.8660254037847694
 10
1766.92289852952
 20
65.67128652040515
 42
-0.3231601030079357
 10
1766.916958913017
 20
66.02235972101766
 42
0.3138435921106666
 10
1766.916958913018
 20
74.02203034086574
 42
-0.3231601030079357
 10
1766.922898529521
 20
74.37310354147825
 42
0.8660254037845696
 10
1765.523190105073
 20
75.77281196592571
 42
-0.3231601030077773
 10
1765.17211690446
 20
75.76687234942323
 42
0.3138435921107614
 10
1757.172446284611
 20
75.76687234942415
 42
-0.3231601030074418
 10
1756.821373083998
 20
75.77281196592662
 42
0.8660254037847757
 10
1755.42166465955
 20
74.37310354147917
 42
-0.3231601030079318
 10
1755.427604276053
 20
74.02203034086665
 42
0.3138435921107595
 10
1755.427604276053
 20
66.02235972101675
 42
-0.3231601030088529
  0
LWPOLYLINE
  5
F3D4
330
18
100
AcDbEntity
  8
DISEGNO
100
AcDbPolyline
 90
       16
 70
     1
 43
0.0
 10
1782.391645648625
 20
43.93855119774866
 42
0.3005899398581157
 10
1782.46063948761
 20
44.26209385364177
 42
-0.1891577417511834
 10
1782.46063948761
 20
46.78229620824254
 42
0.3005899398573463
 10
1782.391645648625
 20
47.10583886413473
 42
-1.00873379027832
 10
1784.088637761342
 20
48.80283097685128
 42
0.3005899398577271
 10
1784.412180417234
 20
48.7338371378662
 42
-0.1891577417510563
 10
1786.932382771833
 20
48.7338371378662
 42
0.3005899398577271
 10
1787.255925427726
 20
48.80283097685128
 42
-1.008733790278727
 10
1788.952917540444
 20
47.10583886413383
 42
0.3005899398571916
 10
1788.883923701458
 20
46.78229620824163
 42
-0.1891577417510598
 10
1788.883923701458
 20
44.26209385364268
 42
0.3005899398571916
 10
1788.952917540444
 20
43.93855119775048
 42
-1.008733790278455
 10
1787.255925427726
 20
42.24155908503212
 42
0.3005899398580168
 10
1786.932382771833
 20
42.3105529240172
 42
-0.189157741751063
 10
1784.412180417233
 20
42.31055292401811
 42
0.3005899398577271
 10
1784.088637761341
 20
42.24155908503303
 42
-1.008733790277785
  0
LWPOLYLINE
  5
F3D5
330
18
100
AcDbEntity
  8
DISEGNO
100
AcDbPolyline
 90
       26
 70
     1
 43
0.0
 10
1770.998950438599
 20
68.20401867560645
 42
-0.3616199243049043
 10
1771.982281594536
 20
69.02219503094215
 10
1774.472281594535
 20
69.02219503094215
 42
-0.414213562373632
 10
1775.472281594535
 20
68.02219503094216
 10
1775.472281594535
 20
64.91219503094248
 42
0.1982473407095497
 10
1777.662281594536
 20
59.61219503094139
 10
1779.268766078986
 20
57.99663436296464
 42
0.1996445569523661
 10
1782.814245168815
 20
56.52219503094215
 10
1787.672281594535
 20
56.52219503094215
 42
-0.4142135623730992
 10
1788.672281594535
 20
55.52219503094216
 10
1788.672281594535
 20
52.02219503094216
 42
-0.4142135623730951
 10
1787.672281594535
 20
51.02219503094215
 10
1782.172281594535
 20
51.02219503094215
 42
0.4142135623730951
 10
1780.172281594535
 20
49.02219503094215
 10
1780.172281594535
 20
43.52219503094215
 42
-0.4142135623730951
 10
1779.172281594535
 20
42.52219503094216
 10
1775.672281594535
 20
42.52219503094216
 42
-0.4142135623730951
 10
1774.672281594535
 20
43.52219503094215
 10
1774.672281594535
 20
48.36112721907807
 42
0.1989123673796449
 10
1773.207815500468
 20
51.8966611250105
 10
1771.582281594536
 20
53.52219503094215
 42
0.1987392255062522
 10
1766.272281594535
 20
55.72219503094288
 10
1763.172281594535
 20
55.72219503094197
 42
-0.4142135623732283
 10
1762.172281594535
 20
56.72219503094197
 10
1762.172281594535
 20
59.20219503094154
 42
-0.3592448899483767
 10
1762.990518041177
 20
60.18888347154893
 42
0.3112840039674356
  0
LWPOLYLINE
  5
F3D6
330
18
100
AcDbEntity
  8
DISEGNO
100
AcDbPolyline
 90
       26
 70
     1
 43
0.0
 10
1734.672281594535
 20
56.52219503094215
 10
1739.530318020256
 20
56.52219503094215
 42
0.1996445569523664
 10
1743.075797110084
 20
57.99663436296464
 10
1744.682281594534
 20
59.61219503094139
 42
0.1982473407095495
 10
1746.872281594535
 20
64.91219503094248
 10
1746.872281594535
 20
68.02219503094216
 42
-0.414213562373632
 10
1747.872281594535
 20
69.02219503094215
 10
1750.362281594534
 20
69.02219503094215
 42
-0.3616199243049043
 10
1751.345612750474
 20
68.20401867560645
 42
0.3112840039674356
 10
1759.354045147894
 20
60.18888347154893
 42
-0.3592448899483767
 10
1760.172281594535
 20
59.20219503094154
 10
1760.172281594535
 20
56.72219503094197
 42
-0.4142135623732283
 10
1759.172281594535
 20
55.72219503094197
 10
1756.072281594535
 20
55.72219503094288
 42
0.1987392255062522
 10
1750.762281594534
 20
53.52219503094215
 10
1749.136747688603
 20
51.8966611250105
 42
0.1989123673796449
 10
1747.672281594535
 20
48.36112721907807
 10
1747.672281594535
 20
43.52219503094215
 42
-0.4142135623730951
 10
1746.672281594535
 20
42.52219503094216
 10
1743.172281594535
 20
42.52219503094216
 42
-0.4142135623730951
 10
1742.172281594535
 20
43.52219503094215
 10
1742.172281594535
 20
49.02219503094215
 42
0.4142135623730951
 10
1740.172281594535
 20
51.02219503094215
 10
1734.672281594535
 20
51.02219503094215
 42
-0.4142135623730951
 10
1733.672281594535
 20
52.02219503094216
 10
1733.672281594535
 20
55.52219503094216
 42
-0.4142135623730992
  0
LWPOLYLINE
  5
F3D7
330
18
100
AcDbEntity
  8
DISEGNO
100
AcDbPolyline
 90
       26
 70
     1
 43
0.0
 10
1740.172281594535
 20
89.02219503094215
 42
0.4142135623730951
 10
1742.172281594535
 20
91.02219503094216
 10
1742.172281594535
 20
96.52219503094215
 42
-0.4142135623730951
 10
1743.172281594535
 20
97.52219503094217
 10
1746.672281594535
 20
97.52219503094217
 42
-0.4142135623730951
 10
1747.672281594535
 20
96.52219503094215
 10
1747.672281594535
 20
91.68326284280624
 42
0.1989123673796449
 10
1749.136747688603
 20
88.14772893687381
 10
1750.762281594534
 20
86.52219503094215
 42
0.198739225506252
 10
1756.072281594535
 20
84.32219503094144
 10
1759.172281594535
 20
84.32219503094234
 42
-0.4142135623732283
 10
1760.172281594535
 20
83.32219503094234
 10
1760.172281594535
 20
80.84219503094278
 42
-0.3592448899483769
 10
1759.354045147894
 20
79.85550659033538
 42
0.3112840039674356
 10
1751.345612750472
 20
71.84037138627786
 42
-0.3616199243049043
 10
1750.362281594534
 20
71.02219503094215
 10
1747.872281594535
 20
71.02219503094215
 42
-0.414213562373632
 10
1746.872281594535
 20
72.02219503094216
 10
1746.872281594535
 20
75.13219503094183
 42
0.1982473407095496
 10
1744.682281594534
 20
80.43219503094292
 10
1743.075797110084
 20
82.04775569891967
 42
0.1996445569523663
 10
1739.530318020256
 20
83.52219503094216
 10
1734.672281594535
 20
83.52219503094216
 42
-0.4142135623730992
 10
1733.672281594535
 20
84.52219503094216
 10
1733.672281594535
 20
88.02219503094216
 42
-0.4142135623730951
 10
1734.672281594535
 20
89.02219503094215
  0
LINE
  5
F3D8
330
18
100
AcDbEntity
  8
ASSI
 48
10.0
100
AcDbLine
 10
1736.751812991873
 20
98.90586545005568
 30
0.0
 11
1736.751812991872
 21
90.18919735515714
 31
0.0
  0
LINE
  5
F3D9
330
18
100
AcDbEntity
  8
ASSI
100
AcDbLine
 10
1732.364087236541
 20
94.54753140260686
 30
0.0
 11
1741.139538747203
 21
94.54753140260596
 31
0.0
  0
LINE
  5
F3DA
330
18
100
AcDbEntity
  8
ASSI
 48
10.0
100
AcDbLine
 10
1785.592750197197
 20
98.90586545005568
 30
0.0
 11
1785.592750197198
 21
90.18919735515714
 31
0.0
  0
LINE
  5
F3DB
330
18
100
AcDbEntity
  8
ASSI
100
AcDbLine
 10
1789.980475952529
 20
94.54753140260686
 30
0.0
 11
1781.205024441867
 21
94.54753140260596
 31
0.0
  0
LINE
  5
F3DC
330
18
100
AcDbEntity
  8
ASSI
 48
10.0
100
AcDbLine
 10
1736.751812991873
 20
41.13852461183228
 30
0.0
 11
1736.751812991872
 21
49.8551927067308
 31
0.0
  0
LINE
  5
F3DD
330
18
100
AcDbEntity
  8
ASSI
100
AcDbLine
 10
1732.364087236541
 20
45.49685865928108
 30
0.0
 11
1741.139538747203
 21
45.49685865928199
 31
0.0
  0
LINE
  5
F3DE
330
18
100
AcDbEntity
  8
ASSI
 48
10.0
100
AcDbLine
 10
1785.592750197197
 20
41.13852461183228
 30
0.0
 11
1785.592750197198
 21
49.8551927067308
 31
0.0
  0
LINE
  5
F3DF
330
18
100
AcDbEntity
  8
ASSI
100
AcDbLine
 10
1789.980475952529
 20
45.49685865928108
 30
0.0
 11
1781.205024441867
 21
45.49685865928199
 31
0.0
  0
ARC
  5
F3E8
330
18
100
AcDbEntity
  8
DISEGNO
100
AcDbCircle
 10
1789.150086630254
 20
42.03623724332078
 30
0.0
 40
1.999999999996157
100
AcDbArc
 50
269.9999999999218
 51
314.9999986497931
  0
LINE
  5
F3E9
330
18
100
AcDbEntity
  8
DISEGNO
100
AcDbLine
 10
1789.150086630252
 20
40.03623724332442
 30
0.0
 11
1779.400086630252
 21
40.03623724332442
 31
0.0
  0
LINE
  5
F3EA
330
18
100
AcDbEntity
  8
DISEGNO
100
AcDbLine
 10
1779.400086630252
 20
40.03623724332442
 30
0.0
 11
1779.400086630252
 21
40.23623724332515
 31
0.0
  0
LINE
  5
F3EB
330
18
100
AcDbEntity
  8
DISEGNO
100
AcDbLine
 10
1779.400086630252
 20
40.23623724332515
 30
0.0
 11
1776.900086630252
 21
40.23623724332515
 31
0.0
  0
LINE
  5
F3EC
330
18
100
AcDbEntity
  8
DISEGNO
100
AcDbLine
 10
1776.900086630252
 20
40.23623724332515
 30
0.0
 11
1776.900086630252
 21
40.03623724332442
 31
0.0
  0
LINE
  5
F3ED
330
18
100
AcDbEntity
  8
DISEGNO
100
AcDbLine
 10
1776.900086630252
 20
40.03623724332442
 30
0.0
 11
1765.155086630253
 21
40.03623724332533
 31
0.0
  0
LINE
  5
F3EE
330
18
100
AcDbEntity
  8
DISEGNO
100
AcDbLine
 10
1765.155086630253
 20
40.03623724332533
 30
0.0
 11
1765.155086630253
 21
44.03623724332533
 31
0.0
  0
LINE
  5
F3EF
330
18
100
AcDbEntity
  8
DISEGNO
100
AcDbLine
 10
1765.155086630253
 20
44.03623724332533
 30
0.0
 11
1768.150086630252
 21
44.03623724332533
 31
0.0
  0
LINE
  5
F3F0
330
18
100
AcDbEntity
  8
DISEGNO
100
AcDbLine
 10
1768.150086630252
 20
44.03623724332533
 30
0.0
 11
1768.150086630252
 21
42.53623724332533
 31
0.0
  0
ARC
  5
F3F1
330
18
100
AcDbEntity
  8
DISEGNO
100
AcDbCircle
 10
1768.650086630251
 20
42.53623724332442
 30
0.0
 40
0.4999999999990905
100
AcDbArc
 50
179.9999999998957
 51
270.0000000001042
  0
LINE
  5
F3F2
330
18
100
AcDbEntity
  8
DISEGNO
100
AcDbLine
 10
1768.650086630252
 20
42.03623724332532
 30
0.0
 11
1769.650086630252
 21
42.03623724332442
 31
0.0
  0
ARC
  5
F3F3
330
18
100
AcDbEntity
  8
DISEGNO
100
AcDbCircle
 10
1769.650086630253
 20
44.53623724332351
 30
0.0
 40
2.49999999999909
100
AcDbArc
 50
269.9999999999739
 51
0.0
  0
LINE
  5
F3F4
330
18
100
AcDbEntity
  8
DISEGNO
100
AcDbLine
 10
1772.150086630252
 20
44.53623724332442
 30
0.0
 11
1772.150086630252
 21
48.38070333739119
 31
0.0
  0
ARC
  5
F3F5
330
18
100
AcDbEntity
  8
DISEGNO
100
AcDbCircle
 10
1769.650086630256
 20
48.38070333739484
 30
0.0
 40
2.499999999995907
100
AcDbArc
 50
359.9999999998958
 51
45.0000000000046
  0
LINE
  5
F3F6
330
18
100
AcDbEntity
  8
DISEGNO
100
AcDbLine
 10
1771.417853583219
 20
50.14847029035786
 30
0.0
 11
1769.800086630253
 21
51.7662372433249
 31
0.0
  0
ARC
  5
F3F7
330
18
100
AcDbEntity
  8
DISEGNO
100
AcDbCircle
 10
1766.261060608398
 20
48.24113376212313
 30
0.0
 40
4.995103576157532
100
AcDbArc
 50
44.88707712870739
 51
90.01117190795957
  0
LINE
  5
F3F8
330
18
100
AcDbEntity
  8
DISEGNO
100
AcDbLine
 10
1766.260086630253
 20
53.23623724332424
 30
0.0
 11
1761.155086630253
 21
53.23623724332424
 31
0.0
  0
LINE
  5
F3F9
330
18
100
AcDbEntity
  8
DISEGNO
100
AcDbLine
 10
1761.155086630253
 20
53.23623724332424
 30
0.0
 11
1756.06817092171
 21
53.23623724332424
 31
0.0
  0
ARC
  5
F3FA
330
18
100
AcDbEntity
  8
DISEGNO
100
AcDbCircle
 10
1756.067196943565
 20
48.24113376212039
 30
0.0
 40
4.995103576160174
100
AcDbArc
 50
89.98882809204042
 51
135.1129228712742
  0
LINE
  5
F3FB
330
18
100
AcDbEntity
  8
DISEGNO
100
AcDbLine
 10
1752.528170921709
 20
51.7662372433249
 30
0.0
 11
1750.910403968743
 21
50.14847029035696
 31
0.0
  0
ARC
  5
F3FC
330
18
100
AcDbEntity
  8
DISEGNO
100
AcDbCircle
 10
1752.678170921705
 20
48.38070333739119
 30
0.0
 40
2.499999999996242
100
AcDbArc
 50
134.9999999999216
 51
180.0
  0
LINE
  5
F3FD
330
18
100
AcDbEntity
  8
DISEGNO
100
AcDbLine
 10
1750.178170921709
 20
48.38070333739119
 30
0.0
 11
1750.178170921708
 21
44.53623724332351
 31
0.0
  0
ARC
  5
F3FE
330
18
100
AcDbEntity
  8
DISEGNO
100
AcDbCircle
 10
1752.678170921707
 20
44.5362372433226
 30
0.0
 40
2.49999999999909
100
AcDbArc
 50
180.0
 51
270.000000000026
  0
LINE
  5
F3FF
330
18
100
AcDbEntity
  8
DISEGNO
100
AcDbLine
 10
1752.678170921708
 20
42.03623724332351
 30
0.0
 11
1753.678170921708
 21
42.03623724332351
 31
0.0
  0
ARC
  5
F400
330
18
100
AcDbEntity
  8
DISEGNO
100
AcDbCircle
 10
1753.678170921709
 20
42.5362372433226
 30
0.0
 40
0.4999999999990905
100
AcDbArc
 50
269.9999999998957
 51
0.0000000001042204
  0
LINE
  5
F401
330
18
100
AcDbEntity
  8
DISEGNO
100
AcDbLine
 10
1754.178170921708
 20
42.53623724332351
 30
0.0
 11
1754.178170921708
 21
44.03623724332351
 31
0.0
  0
LINE
  5
F402
330
18
100
AcDbEntity
  8
DISEGNO
100
AcDbLine
 10
1754.178170921708
 20
44.03623724332351
 30
0.0
 11
1757.173170921709
 21
44.03623724332533
 31
0.0
  0
LINE
  5
F403
330
18
100
AcDbEntity
  8
DISEGNO
100
AcDbLine
 10
1757.173170921709
 20
44.03623724332533
 30
0.0
 11
1757.173170921709
 21
40.03623724332533
 31
0.0
  0
LINE
  5
F404
330
18
100
AcDbEntity
  8
DISEGNO
100
AcDbLine
 10
1757.173170921709
 20
40.03623724332533
 30
0.0
 11
1745.428170921708
 21
40.03623724332351
 31
0.0
  0
LINE
  5
F405
330
18
100
AcDbEntity
  8
DISEGNO
100
AcDbLine
 10
1745.428170921708
 20
40.03623724332351
 30
0.0
 11
1745.42817092171
 21
40.23623724332423
 31
0.0
  0
LINE
  5
F406
330
18
100
AcDbEntity
  8
DISEGNO
100
AcDbLine
 10
1745.42817092171
 20
40.23623724332423
 30
0.0
 11
1742.92817092171
 21
40.23623724332423
 31
0.0
  0
LINE
  5
F407
330
18
100
AcDbEntity
  8
DISEGNO
100
AcDbLine
 10
1742.92817092171
 20
40.23623724332423
 30
0.0
 11
1742.928170921708
 21
40.03623724332351
 31
0.0
  0
LINE
  5
F408
330
18
100
AcDbEntity
  8
DISEGNO
100
AcDbLine
 10
1742.928170921708
 20
40.03623724332351
 30
0.0
 11
1733.178170921708
 21
40.03623724332442
 31
0.0
  0
ARC
  5
F409
330
18
100
AcDbEntity
  8
DISEGNO
100
AcDbCircle
 10
1733.178215296508
 20
42.03646033051859
 30
0.0
 40
2.000223087686397
100
AcDbArc
 50
225.3338913951795
 51
269.9987288974024
  0
ARC
  5
F40A
330
18
100
AcDbEntity
  8
DISEGNO
100
AcDbCircle
 10
1733.186323806914
 20
42.02808435811198
 30
0.0
 40
1.999999999994871
100
AcDbArc
 50
179.9999999999479
 51
224.9999986498023
  0
LINE
  5
F40B
330
18
100
AcDbEntity
  8
DISEGNO
100
AcDbLine
 10
1731.186323806919
 20
42.02808435811379
 30
0.0
 11
1731.18632380692
 21
51.7780843581138
 31
0.0
  0
LINE
  5
F40C
330
18
100
AcDbEntity
  8
DISEGNO
100
AcDbLine
 10
1731.18632380692
 20
51.7780843581138
 30
0.0
 11
1731.38632380692
 21
51.77808435811562
 31
0.0
  0
LINE
  5
F40D
330
18
100
AcDbEntity
  8
DISEGNO
100
AcDbLine
 10
1731.38632380692
 20
51.77808435811562
 30
0.0
 11
1731.38632380692
 21
54.27808435811562
 31
0.0
  0
LINE
  5
F40E
330
18
100
AcDbEntity
  8
DISEGNO
100
AcDbLine
 10
1731.38632380692
 20
54.27808435811562
 30
0.0
 11
1731.18632380692
 21
54.2780843581138
 31
0.0
  0
LINE
  5
F40F
330
18
100
AcDbEntity
  8
DISEGNO
100
AcDbLine
 10
1731.18632380692
 20
54.2780843581138
 30
0.0
 11
1731.18632380692
 21
66.0230843581146
 31
0.0
  0
LINE
  5
F410
330
18
100
AcDbEntity
  8
DISEGNO
100
AcDbLine
 10
1731.18632380692
 20
66.0230843581146
 30
0.0
 11
1735.18632380692
 21
66.0230843581146
 31
0.0
  0
LINE
  5
F411
330
18
100
AcDbEntity
  8
DISEGNO
100
AcDbLine
 10
1735.18632380692
 20
66.0230843581146
 30
0.0
 11
1735.18632380692
 21
63.0280843581138
 31
0.0
  0
LINE
  5
F412
330
18
100
AcDbEntity
  8
DISEGNO
100
AcDbLine
 10
1735.18632380692
 20
63.0280843581138
 30
0.0
 11
1733.68632380692
 21
63.0280843581138
 31
0.0
  0
ARC
  5
F413
330
18
100
AcDbEntity
  8
DISEGNO
100
AcDbCircle
 10
1733.686323806919
 20
62.52808435811471
 30
0.0
 40
0.4999999999990905
100
AcDbArc
 50
89.99999999989578
 51
180.0000000001042
  0
LINE
  5
F414
330
18
100
AcDbEntity
  8
DISEGNO
100
AcDbLine
 10
1733.18632380692
 20
62.5280843581138
 30
0.0
 11
1733.18632380692
 21
61.5280843581138
 31
0.0
  0
ARC
  5
F415
330
18
100
AcDbEntity
  8
DISEGNO
100
AcDbCircle
 10
1735.686323806919
 20
61.52808435811289
 30
0.0
 40
2.49999999999909
100
AcDbArc
 50
180.0
 51
270.000000000026
  0
LINE
  5
F416
330
18
100
AcDbEntity
  8
DISEGNO
100
AcDbLine
 10
1735.68632380692
 20
59.0280843581138
 30
0.0
 11
1739.530789900986
 21
59.0280843581138
 31
0.0
  0
ARC
  5
F417
330
18
100
AcDbEntity
  8
DISEGNO
100
AcDbCircle
 10
1739.530789900987
 20
61.52808435811016
 30
0.0
 40
2.499999999996362
100
AcDbArc
 50
269.9999999999739
 51
315.0000000000507
  0
LINE
  5
F418
330
18
100
AcDbEntity
  8
DISEGNO
100
AcDbLine
 10
1741.298556853953
 20
59.76031740514804
 30
0.0
 11
1742.91632380692
 21
61.37808435811416
 31
0.0
  0
ARC
  5
F419
330
18
100
AcDbEntity
  8
DISEGNO
100
AcDbCircle
 10
1739.391220325717
 20
64.91711037996878
 30
0.0
 40
4.995103576158497
100
AcDbArc
 50
314.8870771287281
 51
0.0111719079595895
  0
LINE
  5
F41A
330
18
100
AcDbEntity
  8
DISEGNO
100
AcDbLine
 10
1744.386323806919
 20
64.91808435811413
 30
0.0
 11
1744.386323806919
 21
70.00500006665674
 31
0.0
  0
LINE
  5
F41B
330
18
100
AcDbEntity
  8
DISEGNO
100
AcDbLine
 10
1744.386323806919
 20
70.00500006665674
 30
0.0
 11
1744.386323806919
 21
75.11000006665722
 31
0.0
  0
ARC
  5
F41C
330
18
100
AcDbEntity
  8
DISEGNO
100
AcDbCircle
 10
1739.391220325717
 20
75.11097404480256
 30
0.0
 40
4.995103576158355
100
AcDbArc
 50
359.9888280920404
 51
45.11292287127189
  0
LINE
  5
F41D
330
18
100
AcDbEntity
  8
DISEGNO
100
AcDbLine
 10
1742.91632380692
 20
78.65000006665718
 30
0.0
 11
1741.298556853953
 21
80.26776701962331
 31
0.0
  0
ARC
  5
F41E
330
18
100
AcDbEntity
  8
DISEGNO
100
AcDbCircle
 10
1739.530789900987
 20
78.50000006666118
 30
0.0
 40
2.499999999996563
100
AcDbArc
 50
44.99999999994932
 51
90.00000000002605
  0
LINE
  5
F41F
330
18
100
AcDbEntity
  8
DISEGNO
100
AcDbLine
 10
1739.530789900986
 20
81.00000006665755
 30
0.0
 11
1735.68632380692
 21
81.00000006665755
 31
0.0
  0
ARC
  5
F420
330
18
100
AcDbEntity
  8
DISEGNO
100
AcDbCircle
 10
1735.686323806919
 20
78.50000006665846
 30
0.0
 40
2.49999999999909
100
AcDbArc
 50
89.99999999997395
 51
180.0
  0
LINE
  5
F421
330
18
100
AcDbEntity
  8
DISEGNO
100
AcDbLine
 10
1733.18632380692
 20
78.50000006665755
 30
0.0
 11
1733.18632380692
 21
77.50000006665755
 31
0.0
  0
ARC
  5
F422
330
18
100
AcDbEntity
  8
DISEGNO
100
AcDbCircle
 10
1733.686323806919
 20
77.50000006665664
 30
0.0
 40
0.4999999999990905
100
AcDbArc
 50
179.9999999998957
 51
270.0000000001042
  0
LINE
  5
F423
330
18
100
AcDbEntity
  8
DISEGNO
100
AcDbLine
 10
1733.68632380692
 20
77.00000006665755
 30
0.0
 11
1735.18632380692
 21
77.00000006665755
 31
0.0
  0
LINE
  5
F424
330
18
100
AcDbEntity
  8
DISEGNO
100
AcDbLine
 10
1735.18632380692
 20
77.00000006665755
 30
0.0
 11
1735.18632380692
 21
74.00500006665857
 31
0.0
  0
LINE
  5
F425
330
18
100
AcDbEntity
  8
DISEGNO
100
AcDbLine
 10
1735.18632380692
 20
74.00500006665857
 30
0.0
 11
1731.18632380692
 21
74.00500006665857
 31
0.0
  0
LINE
  5
F426
330
18
100
AcDbEntity
  8
DISEGNO
100
AcDbLine
 10
1731.18632380692
 20
74.00500006665857
 30
0.0
 11
1731.18632380692
 21
85.75000006665755
 31
0.0
  0
LINE
  5
F427
330
18
100
AcDbEntity
  8
DISEGNO
100
AcDbLine
 10
1731.18632380692
 20
85.75000006665755
 30
0.0
 11
1731.38632380692
 21
85.75000006665755
 31
0.0
  0
LINE
  5
F428
330
18
100
AcDbEntity
  8
DISEGNO
100
AcDbLine
 10
1731.38632380692
 20
85.75000006665755
 30
0.0
 11
1731.38632380692
 21
88.25000006665755
 31
0.0
  0
LINE
  5
F429
330
18
100
AcDbEntity
  8
DISEGNO
100
AcDbLine
 10
1731.38632380692
 20
88.25000006665755
 30
0.0
 11
1731.18632380692
 21
88.25000006665755
 31
0.0
  0
LINE
  5
F42A
330
18
100
AcDbEntity
  8
DISEGNO
100
AcDbLine
 10
1731.18632380692
 20
88.25000006665755
 30
0.0
 11
1731.18632380692
 21
98.00000006665754
 31
0.0
  0
ARC
  5
F42B
330
18
100
AcDbEntity
  8
DISEGNO
100
AcDbCircle
 10
1733.186323806916
 20
98.00000006666119
 30
0.0
 40
1.999999999996816
100
AcDbArc
 50
135.0000013502345
 51
180.0000000001042
  0
ARC
  5
F42C
330
18
100
AcDbEntity
  8
DISEGNO
100
AcDbCircle
 10
1733.186323740262
 20
98.00000000000796
 30
0.0
 40
1.999999999995514
100
AcDbArc
 50
89.99999999994789
 51
134.9999986498115
  0
LINE
  5
F42D
330
18
100
AcDbEntity
  8
DISEGNO
100
AcDbLine
 10
1733.186323740263
 20
100.0000000000034
 30
0.0
 11
1742.936323740263
 21
100.0000000000034
 31
0.0
  0
LINE
  5
F42E
330
18
100
AcDbEntity
  8
DISEGNO
100
AcDbLine
 10
1742.936323740263
 20
100.0000000000034
 30
0.0
 11
1742.936323740264
 21
99.80000000000268
 31
0.0
  0
LINE
  5
F42F
330
18
100
AcDbEntity
  8
DISEGNO
100
AcDbLine
 10
1742.936323740264
 20
99.80000000000268
 30
0.0
 11
1745.436323740264
 21
99.80000000000268
 31
0.0
  0
LINE
  5
F430
330
18
100
AcDbEntity
  8
DISEGNO
100
AcDbLine
 10
1745.436323740264
 20
99.80000000000268
 30
0.0
 11
1745.436323740263
 21
100.0000000000034
 31
0.0
  0
LINE
  5
F431
330
18
100
AcDbEntity
  8
DISEGNO
100
AcDbLine
 10
1745.436323740263
 20
100.0000000000034
 30
0.0
 11
1757.181323740263
 21
100.0000000000034
 31
0.0
  0
LINE
  5
F432
330
18
100
AcDbEntity
  8
DISEGNO
100
AcDbLine
 10
1757.181323740263
 20
100.0000000000034
 30
0.0
 11
1757.181323740263
 21
96.00000000000342
 31
0.0
  0
LINE
  5
F433
330
18
100
AcDbEntity
  8
DISEGNO
100
AcDbLine
 10
1757.181323740263
 20
96.00000000000342
 30
0.0
 11
1754.186323740263
 21
96.00000000000342
 31
0.0
  0
LINE
  5
F434
330
18
100
AcDbEntity
  8
DISEGNO
100
AcDbLine
 10
1754.186323740263
 20
96.00000000000342
 30
0.0
 11
1754.186323740263
 21
97.50000000000341
 31
0.0
  0
ARC
  5
F435
330
18
100
AcDbEntity
  8
DISEGNO
100
AcDbCircle
 10
1753.686323740264
 20
97.50000000000433
 30
0.0
 40
0.4999999999990905
100
AcDbArc
 50
359.9999999998958
 51
90.00000000010421
  0
LINE
  5
F436
330
18
100
AcDbEntity
  8
DISEGNO
100
AcDbLine
 10
1753.686323740263
 20
98.00000000000341
 30
0.0
 11
1752.686323740263
 21
98.00000000000341
 31
0.0
  0
ARC
  5
F437
330
18
100
AcDbEntity
  8
DISEGNO
100
AcDbCircle
 10
1752.686323740262
 20
95.50000000000432
 30
0.0
 40
2.49999999999909
100
AcDbArc
 50
89.99999999997395
 51
180.0
  0
LINE
  5
F438
330
18
100
AcDbEntity
  8
DISEGNO
100
AcDbLine
 10
1750.186323740263
 20
95.50000000000341
 30
0.0
 11
1750.186323740264
 21
91.65553390593663
 31
0.0
  0
ARC
  5
F439
330
18
100
AcDbEntity
  8
DISEGNO
100
AcDbCircle
 10
1752.68632374026
 20
91.65553390593482
 30
0.0
 40
2.499999999996362
100
AcDbArc
 50
179.9999999999479
 51
225.000000000023
  0
LINE
  5
F43A
330
18
100
AcDbEntity
  8
DISEGNO
100
AcDbLine
 10
1750.918556787297
 20
89.88776695296996
 30
0.0
 11
1752.536323740264
 21
88.27000000000294
 31
0.0
  0
ARC
  5
F43B
330
18
100
AcDbEntity
  8
DISEGNO
100
AcDbCircle
 10
1756.075349762118
 20
91.79510348120562
 30
0.0
 40
4.995103576158497
100
AcDbArc
 50
224.8870771287073
 51
270.0111719079596
  0
LINE
  5
F43C
330
18
100
AcDbEntity
  8
DISEGNO
100
AcDbLine
 10
1756.076323740264
 20
86.8000000000036
 30
0.0
 11
1761.181323740264
 21
86.8000000000036
 31
0.0
  0
LINE
  5
F43D
330
18
100
AcDbEntity
  8
DISEGNO
100
AcDbLine
 10
1761.181323740264
 20
86.8000000000036
 30
0.0
 11
1766.268239448806
 21
86.8000000000036
 31
0.0
  0
ARC
  5
F43E
330
18
100
AcDbEntity
  8
DISEGNO
100
AcDbCircle
 10
1766.269213426952
 20
91.79510348120562
 30
0.0
 40
4.995103576158355
100
AcDbArc
 50
269.9888280920404
 51
315.1129228712926
  0
LINE
  5
F43F
330
18
100
AcDbEntity
  8
DISEGNO
100
AcDbLine
 10
1769.808239448806
 20
88.27000000000294
 30
0.0
 11
1771.426006401773
 21
89.88776695296996
 31
0.0
  0
ARC
  5
F440
330
18
100
AcDbEntity
  8
DISEGNO
100
AcDbCircle
 10
1769.65823944881
 20
91.65553390593482
 30
0.0
 40
2.499999999996563
100
AcDbArc
 50
314.9999999999769
 51
0.0000000000521102
  0
LINE
  5
F441
330
18
100
AcDbEntity
  8
DISEGNO
100
AcDbLine
 10
1772.158239448807
 20
91.65553390593663
 30
0.0
 11
1772.158239448807
 21
95.50000000000341
 31
0.0
  0
ARC
  5
F442
330
18
100
AcDbEntity
  8
DISEGNO
100
AcDbCircle
 10
1769.658239448808
 20
95.50000000000432
 30
0.0
 40
2.49999999999909
100
AcDbArc
 50
0.0
 51
90.00000000002605
  0
LINE
  5
F443
330
18
100
AcDbEntity
  8
DISEGNO
100
AcDbLine
 10
1769.658239448807
 20
98.00000000000341
 30
0.0
 11
1768.658239448807
 21
98.00000000000341
 31
0.0
  0
ARC
  5
F444
330
18
100
AcDbEntity
  8
DISEGNO
100
AcDbCircle
 10
1768.658239448806
 20
97.50000000000433
 30
0.0
 40
0.4999999999990905
100
AcDbArc
 50
89.99999999989578
 51
180.0000000001042
  0
LINE
  5
F445
330
18
100
AcDbEntity
  8
DISEGNO
100
AcDbLine
 10
1768.158239448807
 20
97.50000000000341
 30
0.0
 11
1768.158239448807
 21
96.00000000000342
 31
0.0
  0
LINE
  5
F446
330
18
100
AcDbEntity
  8
DISEGNO
100
AcDbLine
 10
1768.158239448807
 20
96.00000000000342
 30
0.0
 11
1765.163239448807
 21
96.00000000000342
 31
0.0
  0
LINE
  5
F447
330
18
100
AcDbEntity
  8
DISEGNO
100
AcDbLine
 10
1765.163239448807
 20
96.00000000000342
 30
0.0
 11
1765.163239448807
 21
100.0000000000034
 31
0.0
  0
LINE
  5
F448
330
18
100
AcDbEntity
  8
DISEGNO
100
AcDbLine
 10
1765.163239448807
 20
100.0000000000034
 30
0.0
 11
1776.908239448807
 21
100.0000000000034
 31
0.0
  0
LINE
  5
F449
330
18
100
AcDbEntity
  8
DISEGNO
100
AcDbLine
 10
1776.908239448807
 20
100.0000000000034
 30
0.0
 11
1776.908239448806
 21
99.80000000000268
 31
0.0
  0
LINE
  5
F44A
330
18
100
AcDbEntity
  8
DISEGNO
100
AcDbLine
 10
1776.908239448806
 20
99.80000000000268
 30
0.0
 11
1779.408239448806
 21
99.80000000000268
 31
0.0
  0
LINE
  5
F44B
330
18
100
AcDbEntity
  8
DISEGNO
100
AcDbLine
 10
1779.408239448806
 20
99.80000000000268
 30
0.0
 11
1779.408239448807
 21
100.0000000000034
 31
0.0
  0
LINE
  5
F44C
330
18
100
AcDbEntity
  8
DISEGNO
100
AcDbLine
 10
1779.408239448807
 20
100.0000000000034
 30
0.0
 11
1789.158239448807
 21
100.0000000000034
 31
0.0
  0
ARC
  5
F44D
330
18
100
AcDbEntity
  8
DISEGNO
100
AcDbCircle
 10
1789.158239448809
 20
98.00000000000796
 30
0.0
 40
1.999999999995452
100
AcDbArc
 50
45.00000135018844
 51
90.00000000005213
  0
ARC
  5
F44E
330
18
100
AcDbEntity
  8
DISEGNO
100
AcDbCircle
 10
1789.149863476403
 20
98.00810851041456
 30
0.0
 40
2.000223087686087
100
AcDbArc
 50
0.001271102571479
 51
44.66610860480317
  0
LINE
  5
F44F
330
18
100
AcDbEntity
  8
DISEGNO
100
AcDbLine
 10
1791.150086563597
 20
98.00815288521404
 30
0.0
 11
1791.150086563597
 21
88.25815288521402
 31
0.0
  0
LINE
  5
F450
330
18
100
AcDbEntity
  8
DISEGNO
100
AcDbLine
 10
1791.150086563597
 20
88.25815288521402
 30
0.0
 11
1790.950086563596
 21
88.25815288521221
 31
0.0
  0
LINE
  5
F451
330
18
100
AcDbEntity
  8
DISEGNO
100
AcDbLine
 10
1790.950086563596
 20
88.25815288521221
 30
0.0
 11
1790.950086563596
 21
85.75815288521221
 31
0.0
  0
LINE
  5
F452
330
18
100
AcDbEntity
  8
DISEGNO
100
AcDbLine
 10
1790.950086563596
 20
85.75815288521221
 30
0.0
 11
1791.150086563597
 21
85.75815288521402
 31
0.0
  0
LINE
  5
F453
330
18
100
AcDbEntity
  8
DISEGNO
100
AcDbLine
 10
1791.150086563597
 20
85.75815288521402
 30
0.0
 11
1791.150086563596
 21
74.01315288521323
 31
0.0
  0
LINE
  5
F454
330
18
100
AcDbEntity
  8
DISEGNO
100
AcDbLine
 10
1791.150086563596
 20
74.01315288521323
 30
0.0
 11
1787.150086563596
 21
74.01315288521323
 31
0.0
  0
LINE
  5
F455
330
18
100
AcDbEntity
  8
DISEGNO
100
AcDbLine
 10
1787.150086563596
 20
74.01315288521323
 30
0.0
 11
1787.150086563597
 21
77.00815288521403
 31
0.0
  0
LINE
  5
F456
330
18
100
AcDbEntity
  8
DISEGNO
100
AcDbLine
 10
1787.150086563597
 20
77.00815288521403
 30
0.0
 11
1788.650086563597
 21
77.00815288521403
 31
0.0
  0
ARC
  5
F457
330
18
100
AcDbEntity
  8
DISEGNO
100
AcDbCircle
 10
1788.650086563598
 20
77.50815288521312
 30
0.0
 40
0.4999999999990905
100
AcDbArc
 50
269.9999999998957
 51
0.0000000001042204
  0
LINE
  5
F458
330
18
100
AcDbEntity
  8
DISEGNO
100
AcDbLine
 10
1789.150086563597
 20
77.50815288521403
 30
0.0
 11
1789.150086563597
 21
78.50815288521403
 31
0.0
  0
ARC
  5
F459
330
18
100
AcDbEntity
  8
DISEGNO
100
AcDbCircle
 10
1786.650086563598
 20
78.50815288521494
 30
0.0
 40
2.49999999999909
100
AcDbArc
 50
0.0
 51
90.00000000002605
  0
LINE
  5
F45A
330
18
100
AcDbEntity
  8
DISEGNO
100
AcDbLine
 10
1786.650086563597
 20
81.00815288521403
 30
0.0
 11
1782.80562046953
 21
81.00815288521312
 31
0.0
  0
ARC
  5
F45B
330
18
100
AcDbEntity
  8
DISEGNO
100
AcDbCircle
 10
1782.805620469528
 20
78.50815288521676
 30
0.0
 40
2.499999999996362
100
AcDbArc
 50
89.99999999994789
 51
134.9999999999953
  0
LINE
  5
F45C
330
18
100
AcDbEntity
  8
DISEGNO
100
AcDbLine
 10
1781.037853516563
 20
80.27591983817979
 30
0.0
 11
1779.420086563597
 21
78.65815288521367
 31
0.0
  0
ARC
  5
F45D
330
18
100
AcDbEntity
  8
DISEGNO
100
AcDbCircle
 10
1782.9451900448
 20
75.11912686335813
 30
0.0
 40
4.995103576159462
100
AcDbArc
 50
134.8870771287281
 51
180.0111719079595
  0
LINE
  5
F45E
330
18
100
AcDbEntity
  8
DISEGNO
100
AcDbLine
 10
1777.950086563596
 20
75.1181528852128
 30
0.0
 11
1777.950086563596
 21
70.03123717667017
 31
0.0
  0
LINE
  5
F45F
330
18
100
AcDbEntity
  8
DISEGNO
100
AcDbLine
 10
1777.950086563596
 20
70.03123717667017
 30
0.0
 11
1777.950086563596
 21
64.9262371766697
 31
0.0
  0
ARC
  5
F460
330
18
100
AcDbEntity
  8
DISEGNO
100
AcDbCircle
 10
1782.945190044797
 20
64.92526319852436
 30
0.0
 40
4.99510357615699
100
AcDbArc
 50
179.9888280920404
 51
225.1129228712719
  0
LINE
  5
F461
330
18
100
AcDbEntity
  8
DISEGNO
100
AcDbLine
 10
1779.420086563595
 20
61.38623717667065
 30
0.0
 11
1781.037853516562
 21
59.76847022370361
 31
0.0
  0
ARC
  5
F462
330
18
100
AcDbEntity
  8
DISEGNO
100
AcDbCircle
 10
1782.805620469527
 20
61.53623717666665
 30
0.0
 40
2.499999999996242
100
AcDbArc
 50
225.0000000000046
 51
270.0000000000521
  0
LINE
  5
F463
330
18
100
AcDbEntity
  8
DISEGNO
100
AcDbLine
 10
1782.805620469529
 20
59.03623717667028
 30
0.0
 11
1786.650086563596
 21
59.03623717667028
 31
0.0
  0
ARC
  5
F464
330
18
100
AcDbEntity
  8
DISEGNO
100
AcDbCircle
 10
1786.650086563597
 20
61.53623717666937
 30
0.0
 40
2.49999999999909
100
AcDbArc
 50
269.9999999999739
 51
0.0
  0
LINE
  5
F465
330
18
100
AcDbEntity
  8
DISEGNO
100
AcDbLine
 10
1789.150086563596
 20
61.53623717667028
 30
0.0
 11
1789.150086563596
 21
62.53623717667029
 31
0.0
  0
ARC
  5
F466
330
18
100
AcDbEntity
  8
DISEGNO
100
AcDbCircle
 10
1788.650086563597
 20
62.53623717667119
 30
0.0
 40
0.4999999999990905
100
AcDbArc
 50
359.9999999998958
 51
90.00000000010421
  0
LINE
  5
F467
330
18
100
AcDbEntity
  8
DISEGNO
100
AcDbLine
 10
1788.650086563596
 20
63.03623717667028
 30
0.0
 11
1787.150086563596
 21
63.03623717667028
 31
0.0
  0
LINE
  5
F468
330
18
100
AcDbEntity
  8
DISEGNO
100
AcDbLine
 10
1787.150086563596
 20
63.03623717667028
 30
0.0
 11
1787.150086563596
 21
66.03123717666926
 31
0.0
  0
LINE
  5
F469
330
18
100
AcDbEntity
  8
DISEGNO
100
AcDbLine
 10
1787.150086563596
 20
66.03123717666926
 30
0.0
 11
1791.150086563596
 21
66.03123717666926
 31
0.0
  0
LINE
  5
F46A
330
18
100
AcDbEntity
  8
DISEGNO
100
AcDbLine
 10
1791.150086563596
 20
66.03123717666926
 30
0.0
 11
1791.150086563596
 21
54.28623717667028
 31
0.0
  0
LINE
  5
F46B
330
18
100
AcDbEntity
  8
DISEGNO
100
AcDbLine
 10
1791.150086563596
 20
54.28623717667028
 30
0.0
 11
1790.950086563595
 21
54.28623717667028
 31
0.0
  0
LINE
  5
F46C
330
18
100
AcDbEntity
  8
DISEGNO
100
AcDbLine
 10
1790.950086563595
 20
54.28623717667028
 30
0.0
 11
1790.950086563595
 21
51.78623717667028
 31
0.0
  0
LINE
  5
F46D
330
18
100
AcDbEntity
  8
DISEGNO
100
AcDbLine
 10
1790.950086563595
 20
51.78623717667028
 30
0.0
 11
1791.150086563596
 21
51.78623717667028
 31
0.0
  0
LINE
  5
F46E
330
18
100
AcDbEntity
  8
DISEGNO
100
AcDbLine
 10
1791.150086563596
 20
51.78623717667028
 30
0.0
 11
1791.150086563596
 21
42.03623717667028
 31
0.0
  0
ARC
  5
F46F
330
18
100
AcDbEntity
  8
DISEGNO
100
AcDbCircle
 10
1789.150086563599
 20
42.03623717666665
 30
0.0
 40
1.999999999996816
100
AcDbArc
 50
315.0000013502345
 51
0.0000000001042204
  0
LINE
  5
F4EF
330
18
100
AcDbEntity
  8
ASSI
100
AcDbLine
 10
1468.085080754408
 20
-208.0538489121197
 30
0.0
 11
1504.753725476048
 21
-208.0538489121197
 31
0.0
  0
LINE
  5
F4F0
330
18
100
AcDbEntity
  8
ASSI
100
AcDbLine
 10
1468.481501514048
 20
-239.0538489121197
 30
0.0
 11
1504.159099170712
 21
-239.0538489121197
 31
0.0
  0
LINE
  5
F4F1
330
18
100
AcDbEntity
  8
ASSI
100
AcDbLine
 10
789.7476483882492
 20
-208.0538489121197
 30
0.0
 11
826.4162931098894
 21
-208.0538489121197
 31
0.0
  0
LINE
  5
F4F2
330
18
100
AcDbEntity
  8
ASSI
100
AcDbLine
 10
790.1440691478897
 20
-239.0538489121197
 30
0.0
 11
825.8216668045534
 21
-239.0538489121197
 31
0.0
  0
LINE
  5
F50B
330
18
100
AcDbEntity
  8
DISEGNO
100
AcDbLine
 10
1731.18632380692
 20
112.0000000000034
 30
0.0
 11
1791.000042706812
 21
112.0000000000034
 31
0.0
  0
LINE
  5
F50C
330
18
100
AcDbEntity
  8
DISEGNO
100
AcDbLine
 10
1731.18632380692
 20
100.0000000000034
 30
0.0
 11
1731.18632380692
 21
112.0000000000034
 31
0.0
  0
LINE
  5
F50D
330
18
100
AcDbEntity
  8
DISEGNO
100
AcDbLine
 10
1791.000042706813
 20
100.0000000000034
 30
0.0
 11
1791.000042706812
 21
112.0000000000034
 31
0.0
  0
LINE
  5
F50F
330
18
100
AcDbEntity
  8
DISEGNO
100
AcDbLine
 10
1731.18632380692
 20
100.0000000000034
 30
0.0
 11
1791.000042706813
 21
100.0000000000034
 31
0.0
  0
LINE
  5
F510
330
18
100
AcDbEntity
  8
NORMALI
100
AcDbLine
 10
1731.18632380692
 20
74.00500006665857
 30
0.0
 11
1731.18632380692
 21
66.0230843581146
 31
0.0
  0
LINE
  5
F511
330
18
100
AcDbEntity
  8
NORMALI
100
AcDbLine
 10
1791.150086563596
 20
74.01315288521323
 30
0.0
 11
1791.150086563596
 21
66.03123717666926
 31
0.0
  0
LINE
  5
F521
330
18
100
AcDbEntity
  8
DISEGNO
100
AcDbLine
 10
1352.697774695398
 20
249.0000000000002
 30
0.0
 11
1352.697774695398
 21
129.0000000000013
 31
0.0
  0
LINE
  5
F522
330
18
100
AcDbEntity
  8
ASSI
100
AcDbLine
 10
1468.085080754406
 20
127.000000000002
 30
0.0
 11
1504.753725476047
 21
127.000000000002
 31
0.0
  0
LINE
  5
F523
330
18
100
AcDbEntity
  8
ASSI
100
AcDbLine
 10
787.9850807544089
 20
123.0000000000018
 30
0.0
 11
824.6537254760491
 21
123.0000000000018
 31
0.0
  0
LINE
  5
F524
330
18
100
AcDbEntity
  8
DISEGNO
100
AcDbLine
 10
1352.6977746954
 20
-128.5538489121206
 30
0.0
 11
1352.6977746954
 21
-183.5538489121206
 31
0.0
  0
LINE
  5
F525
330
18
100
AcDbEntity
  8
DISEGNO
100
AcDbLine
 10
1352.6977746954
 20
-318.5538489121207
 30
0.0
 11
1352.6977746954
 21
-263.5538489121207
 31
0.0
  0
LINE
  5
F52F
330
18
100
AcDbEntity
  8
TRATTEGGI
100
AcDbLine
 10
1710.072281594537
 20
202.5000000000034
 30
0.0
 11
1764.172281594536
 21
202.5000000000034
 31
0.0
  0
LINE
  5
F535
330
18
100
AcDbEntity
  8
TRATTEGGI
100
AcDbLine
 10
1710.072281594537
 20
183.5000000000034
 30
0.0
 11
1764.172281594536
 21
183.5000000000034
 31
0.0
  0
LINE
  5
F54A
330
18
100
AcDbEntity
  8
TRATTEGGI
100
AcDbLine
 10
1764.172281594536
 20
201.0000000000034
 30
0.0
 11
1812.272281594534
 21
201.0000000000033
 31
0.0
  0
LINE
  5
F550
330
18
100
AcDbEntity
  8
TRATTEGGI
100
AcDbLine
 10
1764.172281594536
 20
185.0000000000034
 30
0.0
 11
1812.272281594534
 21
185.0000000000034
 31
0.0
  0
LINE
  5
F55A
330
18
100
AcDbEntity
  8
TRATTEGGI
100
AcDbLine
 10
1764.172281594535
 20
202.5000000000034
 30
0.0
 11
1764.172281594536
 21
183.5000000000033
 31
0.0
  0
ENDSEC
  0
SECTION
  2
OBJECTS
  0
DICTIONARY
  5
C
330
0
100
AcDbDictionary
  3
ACAD_GROUP
350
D
  3
ACAD_LAYOUT
350
A23
  3
ACAD_MLINESTYLE
350
1B
  3
ACAD_PLOTSETTINGS
350
A24
  3
ACAD_PLOTSTYLENAME
350
A21
  3
ACDBVARIABLEDICTIONARY
350
20A5
  3
ACGREF_MASTER
350
A3E
  3
ACGREFACAD_MASTER
350
A42
  3
ACMDICTIONARY
350
A44
  3
ACME_BOM_MANAGER_NAME
350
A37
  3
ACME_COMMAND_HISTORY
350
A32
  3
ACME_SCOPE_NAME
350
A31
  3
ACMESTATEMGR
350
A3C
  3
ACMESYSVARMANAGER
350
A33
  3
ACMSYSTEMVARIABLEMANAGER
350
A48
  3
AMG
350
A2A
  3
AMGSNAPSETTINGS
350
A77
  3
AMI_MASTER
350
A43
  3
ASE_INDEX_DICTIONARY
350
F55C
  3
DWGPROPS
350
F537
  3
ACDBHEADERROUNDTRIPXREC
350
F5C0
  0
DICTIONARY
  5
238A
330
2
100
AcDbDictionary
280
     1
  3
ACAD_LAYERFILTERS
360
238B
  0
DICTIONARY
  5
209A
330
18
100
AcDbDictionary
280
     1
  3
ACAD_INDEX
360
EF9D
  3
ACAD_SORTENTS
360
B981
  3
ACAD_LAYOUTSELFREF
360
F5E2
  0
DICTIONARY
  5
F5E0
330
15
100
AcDbDictionary
280
     1
  3
ACAD_LAYOUTSELFREF
360
F5E1
  0
DICTIONARY
  5
D
102
{ACAD_REACTORS
330
C
102
}
330
C
100
AcDbDictionary
  3
*A1
350
8BE3
  3
*A2
350
90F4
  3
*A3
350
9112
  3
*A4
350
8C6A
  3
*A5
350
90AB
  3
*A6
350
9113
  3
*A7
350
9114
  3
*A8
350
9115
  3
*A9
350
8C26
  3
*A10
350
9116
  3
*A11
350
8FCE
  3
*A12
350
8FE2
  3
*A13
350
8F88
  3
*A14
350
9117
  3
*A15
350
8CB4
  3
*A16
350
90A4
  3
*A17
350
8C1F
  3
*A18
350
8C0B
  3
*A19
350
8F97
  3
*A20
350
8CCE
  3
*A21
350
9118
  3
*A22
350
8CA9
  3
*A23
350
9119
  3
*A24
350
8F9E
  3
*A25
350
8C7F
  3
*A26
350
911A
  3
*A27
350
911B
  3
*A28
350
9052
  3
*A29
350
90D0
  3
*A30
350
8C27
  3
*A31
350
8BE9
  3
*A32
350
9045
  3
*A33
350
8C6F
  3
*A34
350
8CAF
  3
*A35
350
8CAE
  3
*A36
350
901C
  3
*A37
350
8C28
  3
*A38
350
8C29
  3
*A39
350
8C2A
  3
*A40
350
8CCF
  3
*A41
350
8BF1
  3
*A42
350
8FA2
  3
*A43
350
8C2B
  3
*A44
350
9053
  3
*A45
350
909F
  3
*A46
350
90F5
  3
*A47
350
90AC
  3
*A48
350
8C2C
  3
*A49
350
9080
  3
*A50
350
8C2D
  3
*A51
350
8C80
  3
*A52
350
8C2E
  3
*A53
350
90D1
  3
*A54
350
8C65
  3
*A55
350
8FE3
  3
*A56
350
8C2F
  3
*A57
350
8C5F
  3
*A58
350
8C30
  3
*A59
350
8C31
  3
*A60
350
90AD
  3
*A61
350
8BEA
  3
*A62
350
8C6B
  3
*A63
350
9081
  3
*A64
350
8C32
  3
*A65
350
8C73
  3
*A66
350
8FA3
  3
*A67
350
8CD0
  3
*A68
350
9075
  3
*A69
350
8C33
  3
*A70
350
8C34
  3
*A71
350
8CB2
  3
*A72
350
901D
  3
*A73
350
8F87
  3
*A74
350
8C35
  3
*A75
350
8FE4
  3
*A76
350
8C36
  3
*A77
350
90D2
  3
*A78
350
9082
  3
*A79
350
90A6
  3
*A80
350
8CEF
  3
*A81
350
8C81
  3
*A82
350
8C37
  3
*A83
350
8C38
  3
*A84
350
8C39
  3
*A85
350
8C3A
  3
*A86
350
8FD7
  3
*A87
350
8CF0
  3
*A88
350
8C01
  3
*A89
350
90D3
  3
*A90
350
8FC8
  3
*A91
350
901E
  3
*A92
350
8C3B
  3
*A93
350
8CB3
  3
*A94
350
9083
  3
*A95
350
8CD1
  3
*A96
350
9009
  3
*A97
350
8FE5
  3
*A98
350
8BEB
  3
*A99
350
8C74
  3
*A100
350
8C3C
  3
*A101
350
8CBE
  3
*A102
350
90D4
  3
*A103
350
8C3D
  3
*A104
350
8C3E
  3
*A105
350
8C3F
  3
*A106
350
8BF2
  3
*A107
350
8C40
  3
*A108
350
900D
  3
*A109
350
901F
  3
*A110
350
8C41
  3
*A111
350
8F8E
  3
*A112
350
90CE
  3
*A113
350
8C7B
  3
*A114
350
8C69
  3
*A115
350
8FDC
  3
*A116
350
8FA4
  3
*A117
350
8C42
  3
*A118
350
8F84
  3
*A119
350
8C43
  3
*A120
350
8BFA
  3
*A121
350
8C44
  3
*A122
350
8C45
  3
*A123
350
9084
  3
*A124
350
90F6
  3
*A125
350
8C82
  3
*A126
350
8C4A
  3
*A127
350
9078
  3
*A128
350
8CC3
  3
*A129
350
8F89
  3
*A130
350
9054
  3
*A131
350
8C83
  3
*A132
350
8C84
  3
*A133
350
8C85
  3
*A134
350
8FA5
  3
*A135
350
8C51
  3
*A136
350
8FE6
  3
*A137
350
8C86
  3
*A138
350
9085
  3
*A139
350
90C9
  3
*A140
350
90D5
  3
*A141
350
8C87
  3
*A142
350
90AE
  3
*A143
350
8C88
  3
*A144
350
8CD2
  3
*A145
350
8C89
  3
*A146
350
90F7
  3
*A147
350
8CBA
  3
*A148
350
9020
  3
*A149
350
8C8A
  3
*A150
350
8C8B
  3
*A151
350
8BF3
  3
*A152
350
90D6
  3
*A153
350
8C4B
  3
*A154
350
8CBF
  3
*A155
350
90AF
  3
*A156
350
8C8C
  3
*A157
350
8CC7
  3
*A158
350
8FE7
  3
*A159
350
8FA6
  3
*A160
350
8C8D
  3
*A161
350
8C8E
  3
*A162
350
8F8C
  3
*A163
350
9055
  3
*A164
350
8FCD
  3
*A165
350
8C8F
  3
*A166
350
9021
  3
*A167
350
8C90
  3
*A168
350
8C23
  3
*A169
350
90B0
  3
*A170
350
8FC2
  3
*A171
350
8CD3
  3
*A172
350
8C91
  3
*A173
350
8C92
  3
*A174
350
8C93
  3
*A175
350
8C94
  3
*A176
350
9015
  3
*A177
350
8FC3
  3
*A178
350
8C60
  3
*A179
350
90F8
  3
*A180
350
9056
  3
*A181
350
8C95
  3
*A182
350
8F8D
  3
*A183
350
90B1
  3
*A184
350
8FA7
  3
*A185
350
9043
  3
*A186
350
9022
  3
*A187
350
8C4C
  3
*A188
350
8BF9
  3
*A189
350
8BF4
  3
*A190
350
90F9
  3
*A191
350
8C96
  3
*A192
350
8C97
  3
*A193
350
8C98
  3
*A194
350
8C52
  3
*A195
350
8C99
  3
*A196
350
9046
  3
*A197
350
9057
  3
*A198
350
8C9A
  3
*A199
350
8FD4
  3
*A200
350
8BF8
  3
*A201
350
901A
  3
*A202
350
8FE8
  3
*A203
350
8C9B
  3
*A204
350
8FCB
  3
*A205
350
8C9C
  3
*A206
350
8BEE
  3
*A207
350
8C9D
  3
*A208
350
8C9E
  3
*A209
350
8C1C
  3
*A210
350
8CD4
  3
*A211
350
8CA2
  3
*A212
350
90A7
  3
*A213
350
8F9A
  3
*A214
350
8FCF
  3
*A215
350
9086
  3
*A216
350
8CD5
  3
*A217
350
8CD6
  3
*A218
350
8CD7
  3
*A219
350
8FE9
  3
*A220
350
9023
  3
*A221
350
8CD8
  3
*A222
350
90B2
  3
*A223
350
90EF
  3
*A224
350
90FA
  3
*A225
350
8CD9
  3
*A226
350
90D7
  3
*A227
350
8CDA
  3
*A228
350
8FA8
  3
*A229
350
8CDB
  3
*A230
350
8F93
  3
*A231
350
8C13
  3
*A232
350
8BFB
  3
*A233
350
8CDC
  3
*A234
350
8C53
  3
*A235
350
90FB
  3
*A236
350
8CA3
  3
*A237
350
8F98
  3
*A238
350
90D8
  3
*A239
350
8CDD
  3
*A240
350
9024
  3
*A241
350
8C08
  3
*A242
350
8CDE
  3
*A243
350
8CDF
  3
*A244
350
8FD2
  3
*A245
350
9087
  3
*A246
350
900C
  3
*A247
350
8CE0
  3
*A248
350
9058
  3
*A249
350
8CE1
  3
*A250
350
90D9
  3
*A251
350
9002
  3
*A252
350
8FA9
  3
*A253
350
8CE2
  3
*A254
350
8CE3
  3
*A255
350
8CE4
  3
*A256
350
8CE5
  3
*A257
350
8C12
  3
*A258
350
9003
  3
*A259
350
8CB5
  3
*A260
350
9088
  3
*A261
350
8BFC
  3
*A262
350
8FD3
  3
*A263
350
8C20
  3
*A264
350
8FEA
  3
*A265
350
9076
  3
*A266
350
9059
  3
*A267
350
8CA4
  3
*A268
350
8C59
  3
*A269
350
8C54
  3
*A270
350
8CE6
  3
*A271
350
8CE7
  3
*A272
350
8CE8
  3
*A273
350
8BE4
  3
*A274
350
8CE9
  3
*A275
350
9079
  3
*A276
350
9089
  3
*A277
350
8CEA
  3
*A278
350
9012
  3
*A279
350
8C58
  3
*A280
350
9025
  3
*A281
350
8CEB
  3
*A282
350
900A
  3
*A283
350
8CEC
  3
*A284
350
8C4F
  3
*A285
350
8CED
  3
*A286
350
8CEE
  3
*A287
350
8C78
  3
*A288
350
8FAA
  3
*A289
350
8CF1
  3
*A290
350
8FDF
  3
*A291
350
900E
  3
*A292
350
90B3
  3
*A293
350
8FAB
  3
*A294
350
8FAC
  3
*A295
350
8FAD
  3
*A296
350
8C0E
  3
*A297
350
905A
  3
*A298
350
8C02
  3
*A299
350
90DA
  3
*A300
350
8FAE
  3
*A301
350
90FC
  3
*A302
350
8FAF
  3
*A303
350
8FEB
  3
*A304
350
8FB0
  3
*A305
350
8FD8
  3
*A306
350
8C70
  3
*A307
350
8C5A
  3
*A308
350
8FB1
  3
*A309
350
8BF6
  3
*A310
350
8CF2
  3
*A311
350
8FDD
  3
*A312
350
90FD
  3
*A313
350
8FB2
  3
*A314
350
905B
  3
*A315
350
8C66
  3
*A316
350
8FB3
  3
*A317
350
8FB4
  3
*A318
350
9011
  3
*A319
350
90B4
  3
*A320
350
8FB5
  3
*A321
350
8C18
  3
*A322
350
8FB6
  3
*A323
350
90FE
  3
*A324
350
903C
  3
*A325
350
8FEC
  3
*A326
350
8FB7
  3
*A327
350
8C03
  3
*A328
350
8FB8
  3
*A329
350
8FB9
  3
*A330
350
903D
  3
*A331
350
8F8F
  3
*A332
350
90B5
  3
*A333
350
8C5B
  3
*A334
350
8C0C
  3
*A335
350
8C7C
  3
*A336
350
9026
  3
*A337
350
90A5
  3
*A338
350
908A
  3
*A339
350
8CF3
  3
*A340
350
8CAA
  3
*A341
350
8FBA
  3
*A342
350
8FBB
  3
*A343
350
8FBC
  3
*A344
350
8BEC
  3
*A345
350
8FBD
  3
*A346
350
8C1B
  3
*A347
350
90B6
  3
*A348
350
8FBE
  3
*A349
350
904B
  3
*A350
350
905C
  3
*A351
350
8FBF
  3
*A352
350
8C11
  3
*A353
350
8FC0
  3
*A354
350
8CA7
  3
*A355
350
8FC1
  3
*A356
350
8C04
  3
*A357
350
8CCB
  3
*A358
350
8FED
  3
*A359
350
8FC4
  3
*A360
350
9047
  3
*A361
350
90DB
  3
*A362
350
8FEE
  3
*A363
350
8FEF
  3
*A364
350
8FF0
  3
*A365
350
8C6C
  3
*A366
350
908B
  3
*A367
350
8C61
  3
*A368
350
90FF
  3
*A369
350
8FF1
  3
*A370
350
8FF2
  3
*A371
350
9027
  3
*A372
350
8FF3
  3
*A373
350
9016
  3
*A374
350
8CC4
  3
*A375
350
8CB0
  3
*A376
350
8C09
  3
*A377
350
8C56
  3
*A378
350
8FC5
  3
*A379
350
901B
  3
*A380
350
8FF4
  3
*A381
350
908C
  3
*A382
350
8CBB
  3
*A383
350
8FF5
  3
*A384
350
8FF6
  3
*A385
350
904A
  3
*A386
350
90DC
  3
*A387
350
8FF7
  3
*A388
350
8C75
  3
*A389
350
8FF8
  3
*A390
350
9070
  3
*A391
350
9028
  3
*A392
350
8FF9
  3
*A393
350
8C62
  3
*A394
350
8FFA
  3
*A395
350
8FFB
  3
*A396
350
9071
  3
*A397
350
8FD5
  3
*A398
350
90DD
  3
*A399
350
8CB1
  3
*A400
350
905D
  3
*A401
350
90CF
  3
*A402
350
90B7
  3
*A403
350
8FC6
  3
*A404
350
8F85
  3
*A405
350
8FFC
  3
*A406
350
8FFD
  3
*A407
350
8BE6
  3
*A408
350
8C4D
  3
*A409
350
8C0A
  3
*A410
350
90DE
  3
*A411
350
8FFE
  3
*A412
350
907E
  3
*A413
350
908D
  3
*A414
350
8FFF
  3
*A415
350
8C6E
  3
*A416
350
9000
  3
*A417
350
8F82
  3
*A418
350
9001
  3
*A419
350
8C63
  3
*A420
350
9029
  3
*A421
350
9004
  3
*A422
350
907A
  3
*A423
350
9100
  3
*A424
350
902A
  3
*A425
350
902B
  3
*A426
350
902C
  3
*A427
350
8CC0
  3
*A428
350
90B8
  3
*A429
350
8CB6
  3
*A430
350
902D
  3
*A431
350
902E
  3
*A432
350
905E
  3
*A433
350
902F
  3
*A434
350
904E
  3
*A435
350
8F9B
  3
*A436
350
8F8A
  3
*A437
350
8C67
  3
*A438
350
8CAC
  3
*A439
350
9005
  3
*A440
350
8C0F
  3
*A441
350
90B9
  3
*A442
350
8F94
  3
*A443
350
9030
  3
*A444
350
9031
  3
*A445
350
907D
  3
*A446
350
9101
  3
*A447
350
9032
  3
*A448
350
8CC8
  3
*A449
350
9033
  3
*A450
350
905F
  3
*A451
350
9034
  3
*A452
350
8CB7
  3
*A453
350
9035
  3
*A454
350
9036
  3
*A455
350
90A0
  3
*A456
350
9013
  3
*A457
350
8C24
  3
*A458
350
8F8B
  3
*A459
350
908E
  3
*A460
350
90DF
  3
*A461
350
9006
  3
*A462
350
8C05
  3
*A463
350
9037
  3
*A464
350
9038
  3
*A465
350
8C47
  3
*A466
350
8CA5
  3
*A467
350
8C68
  3
*A468
350
9102
  3
*A469
350
9039
  3
*A470
350
90BA
  3
*A471
350
8C10
  3
*A472
350
8CC2
  3
*A473
350
903A
  3
*A474
350
8FC9
  3
*A475
350
903B
  3
*A476
350
8CB8
  3
*A477
350
9060
  3
*A478
350
903E
  3
*A479
350
90A8
  3
*A480
350
9061
  3
*A481
350
8BE7
  3
*A482
350
8C14
  3
*A483
350
8F99
  3
*A484
350
90E0
  3
*A485
350
8BFF
  3
*A486
350
9062
  3
*A487
350
9063
  3
*A488
350
908F
  3
*A489
350
9064
  3
*A490
350
8C07
  3
*A491
350
8FD0
  3
*A492
350
8CBC
  3
*A493
350
8F86
  3
*A494
350
903F
  3
*A495
350
8C6D
  3
*A496
350
90E1
  3
*A497
350
8FD9
  3
*A498
350
9065
  3
*A499
350
9066
  3
*A500
350
9067
  3
*A501
350
8F9F
  3
*A502
350
9068
  3
*A503
350
9090
  3
*A504
350
9069
  3
*A505
350
8F90
  3
*A506
350
906A
  3
*A507
350
906B
  3
*A508
350
90CA
  3
*A509
350
904C
  3
*A510
350
8FD1
  3
*A511
350
90BB
  3
*A512
350
9103
  3
*A513
350
9040
  3
*A514
350
8BEF
  3
*A515
350
8C15
  3
*A516
350
906C
  3
*A517
350
8BF5
  3
*A518
350
8CF4
  3
*A519
350
8CBD
  3
*A520
350
906D
  3
*A521
350
90E2
  3
*A522
350
8BF0
  3
*A523
350
8C00
  3
*A524
350
906E
  3
*A525
350
9008
  3
*A526
350
906F
  3
*A527
350
8F91
  3
*A528
350
9091
  3
*A529
350
9072
  3
*A530
350
9092
  3
*A531
350
8C48
  3
*A532
350
8C71
  3
*A533
350
8FDE
  3
*A534
350
9104
  3
*A535
350
8C5E
  3
*A536
350
9093
  3
*A537
350
8C19
  3
*A538
350
8C1D
  3
*A539
350
9094
  3
*A540
350
900F
  3
*A541
350
8F95
  3
*A542
350
8FCC
  3
*A543
350
9073
  3
*A544
350
8CC1
  3
*A545
350
9105
  3
*A546
350
9017
  3
*A547
350
9095
  3
*A548
350
9096
  3
*A549
350
9097
  3
*A550
350
9098
  3
*A551
350
90BC
  3
*A552
350
9099
  3
*A553
350
8C06
  3
*A554
350
909A
  3
*A555
350
909B
  3
*A556
350
90F0
  3
*A557
350
907F
  3
*A558
350
9010
  3
*A559
350
90E3
  3
*A560
350
9074
  3
*A561
350
8BED
  3
*A562
350
8C72
  3
*A563
350
909C
  3
*A564
350
8C55
  3
*A565
350
8FC7
  3
*A566
350
8F96
  3
*A567
350
909D
  3
*A568
350
9106
  3
*A569
350
8C50
  3
*A570
350
8C1A
  3
*A571
350
9042
  3
*A572
350
909E
  3
*A573
350
8FD6
  3
*A574
350
90BD
  3
*A575
350
90A1
  3
*A576
350
90BE
  3
*A577
350
8CA0
  3
*A578
350
8CC5
  3
*A579
350
8C0D
  3
*A580
350
8BF7
  3
*A581
350
90BF
  3
*A582
350
8C76
  3
*A583
350
8C79
  3
*A584
350
90C0
  3
*A585
350
9048
  3
*A586
350
8FDA
  3
*A587
350
900B
  3
*A588
350
90A2
  3
*A589
350
8BE5
  3
*A590
350
904F
  3
*A591
350
90C1
  3
*A592
350
90C2
  3
*A593
350
90C3
  3
*A594
350
90C4
  3
*A595
350
8C21
  3
*A596
350
90C5
  3
*A597
350
8C64
  3
*A598
350
8BE8
  3
*A599
350
8C1E
  3
*A600
350
9049
  3
*A601
350
9107
  3
*A602
350
90A3
  3
*A603
350
8C4E
  3
*A604
350
8CC6
  3
*A605
350
90C6
  3
*A606
350
8CAB
  3
*A607
350
9007
  3
*A608
350
8FDB
  3
*A609
350
90C7
  3
*A610
350
8CA8
  3
*A611
350
8C77
  3
*A612
350
8C16
  3
*A613
350
90C8
  3
*A614
350
9014
  3
*A615
350
90E4
  3
*A616
350
90CB
  3
*A617
350
90E5
  3
*A618
350
8BFD
  3
*A619
350
8F9C
  3
*A620
350
8C57
  3
*A621
350
90E6
  3
*A622
350
8CC9
  3
*A623
350
8CCC
  3
*A624
350
90E7
  3
*A625
350
907B
  3
*A626
350
9018
  3
*A627
350
9044
  3
*A628
350
90CC
  3
*A629
350
8C46
  3
*A630
350
90E8
  3
*A631
350
90E9
  3
*A632
350
90EA
  3
*A633
350
90EB
  3
*A634
350
8C7D
  3
*A635
350
90EC
  3
*A636
350
8CB9
  3
*A637
350
8C49
  3
*A638
350
8C7A
  3
*A639
350
907C
  3
*A640
350
90CD
  3
*A641
350
8CA6
  3
*A642
350
8F9D
  3
*A643
350
90ED
  3
*A644
350
8BFE
  3
*A645
350
9041
  3
*A646
350
9019
  3
*A647
350
8C22
  3
*A648
350
8F83
  3
*A649
350
8CCA
  3
*A650
350
90EE
  3
*A651
350
904D
  3
*A652
350
9108
  3
*A653
350
90F1
  3
*A654
350
9109
  3
*A655
350
8C5C
  3
*A656
350
8FE0
  3
*A657
350
8CAD
  3
*A658
350
910A
  3
*A659
350
8FA0
  3
*A660
350
910B
  3
*A661
350
90A9
  3
*A662
350
9050
  3
*A663
350
9077
  3
*A664
350
90F2
  3
*A665
350
8C9F
  3
*A666
350
8C25
  3
*A667
350
910C
  3
*A668
350
910D
  3
*A669
350
910E
  3
*A670
350
910F
  3
*A671
350
8F92
  3
*A672
350
8CA1
  3
*A673
350
8CCD
  3
*A674
350
90AA
  3
*A675
350
90F3
  3
*A676
350
8F81
  3
*A677
350
8FE1
  3
*A678
350
9110
  3
*A679
350
8C5D
  3
*A680
350
9051
  3
*A681
350
8C7E
  3
*A682
350
8FCA
  3
*A683
350
8FA1
  3
*A684
350
9111
  3
*A685
350
8C17
  0
DICTIONARY
  5
A23
102
{ACAD_REACTORS
330
C
102
}
330
C
100
AcDbDictionary
  0
DICTIONARY
  5
1B
102
{ACAD_REACTORS
330
C
102
}
330
C
100
AcDbDictionary
  3
STANDARD
350
1C
  0
DICTIONARY
  5
A24
102
{ACAD_REACTORS
330
C
102
}
330
C
100
AcDbDictionary
  0
ACDBDICTIONARYWDFLT
  5
A21
102
{ACAD_REACTORS
330
C
102
}
330
C
100
AcDbDictionary
281
     1
  3
Normal
350
A22
100
AcDbDictionaryWithDefault
340
A22
  0
DICTIONARY
  5
20A5
102
{ACAD_REACTORS
330
C
102
}
330
C
100
AcDbDictionary
  3
DIMASSOC
350
20A7
  3
INDEXCTL
350
20A6
  3
SORTENTS
350
B9A2
  0
ACAD_PROXY_OBJECT
  5
A3E
102
{ACAD_REACTORS
330
C
102
}
330
C
100
AcDbProxyObject
 90
      499
 91
      568
 93
       34
310
0400004295
 94
        0
1001
ACAD
1000
AcadProxyRoundTripData
1071
      517
1071
   393239
1070
     0
  0
ACAD_PROXY_OBJECT
  5
A42
102
{ACAD_REACTORS
330
C
102
}
330
C
100
AcDbProxyObject
 90
      499
 91
      568
 93
      114
310
04000041C00000000000000000000A
 94
        0
1001
ACAD
1000
AcadProxyRoundTripData
1071
      520
1071
   393239
1070
     0
  0
DICTIONARY
  5
A44
102
{ACAD_REACTORS
330
C
102
}
330
C
100
AcDbDictionary
  3
ACMBOMDATA
350
A45
  3
ACMSTDDICTIONARY
350
A4A
  0
ACAD_PROXY_OBJECT
  5
A37
102
{ACAD_REACTORS
330
C
102
}
330
C
100
AcDbProxyObject
 90
      499
 91
      568
 93
       50
310
0001004040001C
330
0
330
0
330
A38
 94
        0
1001
ACAD
1000
AcadProxyRoundTripData
1071
      511
1071
   393239
1070
     0
  0
ACAD_PROXY_OBJECT
  5
A32
102
{ACAD_REACTORS
330
C
102
}
330
C
100
AcDbProxyObject
 90
      499
 91
      568
 93
     4490
310
4780504554E444F80504554E444F805064F464653455440405184D5347202D20436F6D6D616E642043414E43454C4C45442E014193D19194D15510101461354D1C80B4810DBDB5B585B990810D05390D1531311510B80504554E444F805045452494D40405184D5347202D20436F6D6D616E642043414E43454C4C45442E01
310
411514925350101461354D1C80B4810DBDB5B585B990810D05390D1531311510B8050C475249505F53545245544348805095041535445434C4950805094D4154434850524F5080504554E444F80504554E444F80504554E444F805064F464653455440405184D5347202D20436F6D6D616E642043414E43454C4C45442E014
310
193D19194D15510101461354D1C80B4810DBDB5B585B990810D05390D1531311510B80504554E444F805045452494D40405184D5347202D20436F6D6D616E642043414E43454C4C45442E014151549054D16014251125353125391505490101461354D1C80B4810DBDB5B585B990810D05390D1531311510B80504554E444F
310
80504554E444F80504554E444F805064F464653455440405184D5347202D20436F6D6D616E642043414E43454C4C45442E014115539113E014191561511539110101461354D1C80B4810DBDB5B585B990810D05390D1531311510B805045452494D40405184D5347202D20436F6D6D616E642043414E43454C4C45442E0141
310
1514925350101461354D1C80B4810DBDB5B585B990810D05390D1531311510B805045A4F4F4D80505505552474580505515341564581
 94
        0
1001
ACAD
1000
AcadProxyRoundTripData
1071
      507
1071
   393239
1070
     0
  0
ACAD_PROXY_OBJECT
  5
A31
102
{ACAD_REACTORS
330
C
102
}
330
C
100
AcDbProxyObject
 90
      499
 91
      568
 93
      218
310
060000444000000000000000000010641E000000000000AAA406AA93
360
A34
360
A35
360
A36
360
A38
360
A49
360
F237
 94
        0
1001
ACAD
1000
AcadProxyRoundTripData
1071
      506
1071
   393239
1070
     0
  0
ACAD_PROXY_OBJECT
  5
A3C
102
{ACAD_REACTORS
330
C
102
}
330
C
100
AcDbProxyObject
 90
      499
 91
      568
 93
       50
310
06000041641280
 94
        0
1001
ACAD
1000
AcadProxyRoundTripData
1071
      516
1071
   393239
1070
     0
  0
ACAD_PROXY_OBJECT
  5
A33
102
{ACAD_REACTORS
330
C
102
}
330
C
100
AcDbProxyObject
 90
      499
 91
      568
 93
       48
310
90341200000041
330
A34
330
A35
330
A36
 94
        0
1001
ACAD
1000
AcadProxyRoundTripData
1071
      508
1071
   393239
1070
     0
  0
ACAD_PROXY_OBJECT
  5
A48
102
{ACAD_REACTORS
330
C
102
}
330
C
100
AcDbProxyObject
 90
      499
 91
      568
 93
       32
310
90140A0053
330
A49
 94
        0
1001
ACAD
1000
AcadProxyRoundTripData
1071
      508
1071
   393239
1070
     0
  0
DICTIONARY
  5
A2A
102
{ACAD_REACTORS
330
C
102
}
330
C
100
AcDbDictionary
  3
ACMGSETTINGS
350
A2B
  3
AMGLAYCFG
350
A4C
  0
DICTIONARY
  5
A77
102
{ACAD_REACTORS
330
C
102
}
330
C
100
AcDbDictionary
  3
DIMENSION
350
A7C
  3
FEA
350
A7B
  3
HATCH__1_
350
A78
  3
HATCH__2_
350
A79
  3
SIMPLE_WELD
350
A7D
  3
SYMBOLS
350
A7A
  0
ACAD_PROXY_OBJECT
  5
A43
102
{ACAD_REACTORS
330
C
102
}
330
C
100
AcDbProxyObject
 90
      499
 91
      568
 93
       34
310
0500004295
 94
        0
1001
ACAD
1000
AcadProxyRoundTripData
1071
      521
1071
   393239
1070
     0
  0
DICTIONARY
  5
F55C
102
{ACAD_REACTORS
330
C
102
}
330
C
100
AcDbDictionary
  3
ASEBLOCKHIERARCHYINDEXRECORD
350
F55E
1001
DCO15
1040
1480062732.832
  0
XRECORD
  5
F537
102
{ACAD_REACTORS
330
C
102
}
330
C
100
AcDbXrecord
  1
DWGPROPS COOKIE
  2

  3

  4

  6

  7

  8

  9

300
AmdtFileType=84
301
=
302
=
303
=
304
=
305
=
306
=
307
=
308
=
309
=
 40
0.6990211458333333
 41
2451849.7585614
 42
2452933.369162315
  1

 90
        1
  0
DICTIONARY
  5
F5C0
102
{ACAD_REACTORS
330
C
102
}
330
C
100
AcDbDictionary
  3
TSTACKALIGN
350
F5C1
  3
TSTACKSIZE
350
F5C2
  3
HYPERLINKBASE
350
F5C3
  3
STYLESHEET
350
F5C4
  3
LAYOUTDICT
350
F5C5
  3
PLOTSETDICT
350
F5C6
  3
PLOTSTYLNAMDICT
350
F5C7
  3
LWETCUNION
350
F5C8
  3
INSUNITS
350
F5C9
  3
CEPSNTYPE
350
F5CA
  3
FINGERPRINTGUID
350
F5CB
  3
VERSIONGUID
350
F5CC
  3
PSVPSCALE
350
F5CD
  3
PUCSORTHOREF
350
F5CE
  3
PUCSORTHOVIEW
350
F5CF
  3
PUCSBASE
350
F5D0
  3
PUCSORGTOP
350
F5D1
  3
PUCSORGBOTTOM
350
F5D2
  3
PUCSORGLEFT
350
F5D3
  3
PUCSORGRIGHT
350
F5D4
  3
PUCSORGFRONT
350
F5D5
  3
PUCSORGBACK
350
F5D6
  3
UCSORTHOREF
350
F5D7
  3
UCSORTHOVIEW
350
F5D8
  3
UCSBASE
350
F5D9
  3
UCSORGTOP
350
F5DA
  3
UCSORGBOTTOM
350
F5DB
  3
UCSORGLEFT
350
F5DC
  3
UCSORGRIGHT
350
F5DD
  3
UCSORGFRONT
350
F5DE
  3
UCSORGBACK
350
F5DF
  0
DICTIONARY
  5
238B
102
{ACAD_REACTORS
330
238A
102
}
330
238A
100
AcDbDictionary
280
     1
  3
PIPPO
360
238C
  0
DICTIONARY
  5
EF9D
102
{ACAD_REACTORS
330
209A
102
}
330
209A
100
AcDbDictionary
  3
*A1
350
EF9E
  0
SORTENTSTABLE
  5
B981
102
{ACAD_REACTORS
330
209A
102
}
330
209A
100
AcDbSortentsTable
330
18
331
610
  5
612
331
516
  5
54E
331
5C0
  5
5C3
331
5B8D
  5
5B8F
331
5E2
  5
5E6
331
431
  5
436
331
3ABD
  5
3ABF
331
59A
  5
59E
331
5EE1
  5
5EE3
331
AAD
  5
21F4
331
512
  5
517
331
5BC
  5
5BE
331
5DE
  5
5E2
331
5EDD
  5
5EDF
331
608
  5
60D
331
AA9
  5
AAB
331
21FB
  5
21FF
331
3A95
  5
3A97
331
5ED9
  5
5EDB
331
5FC
  5
608
331
44B
  5
45F
331
9A6
  5
AAA
331
5EFB
  5
63ED
331
5D6
  5
5D8
331
41D
  5
423
331
557
  5
565
331
8D8
  5
997
331
5ED5
  5
5ED8
331
447
  5
449
331
9A2
  5
9A6
331
5EF7
  5
5EF9
331
5D2
  5
5D4
331
6A91
  5
6A93
331
5890
  5
5894
331
99E
  5
9A2
331
5EF3
  5
5EF6
331
5EF
  5
5FB
331
626
  5
8CE
331
5B5C
  5
5B7A
331
415
  5
417
331
585A
  5
585C
331
54F
  5
554
331
8D0
  5
8D2
331
5533
  5
5536
331
5EEE
  5
5EF0
331
5C9
  5
5CB
331
43F
  5
441
331
97CA
  5
97CC
331
5A3
  5
5A9
331
5EEA
  5
5EEC
331
5888
  5
588A
331
43B
  5
43D
331
6B33
  5
6B3B
331
9346
  5
9348
331
5E7
  5
5EE
331
436
  5
438
331
580B
  5
580E
331
517
  5
54F
331
5EE6
  5
5EE8
331
611
  5
623
331
AB2
  5
21F5
331
5B8E
  5
5B90
331
451
  5
4C3
331
3ABE
  5
3AC1
331
587F
  5
5882
331
5EE2
  5
5EE4
331
60D
  5
60F
331
58E1
  5
5900
331
5A72
  5
5A74
331
5EC4
  5
5EC9
331
5803
  5
5809
331
AAA
  5
AAC
331
5EDE
  5
5EE0
331
609
  5
60E
331
88B
  5
8CF
331
6A10
  5
6A13
331
5867
  5
5880
331
5EC0
  5
5EC4
331
3A96
  5
3A98
331
422
  5
430
331
564
  5
56F
331
58B
  5
59A
331
5FD
  5
609
331
5EDA
  5
5EDC
331
5831
  5
5853
331
5B7A
  5
5B7C
331
586
  5
58B
331
5953
  5
5987
331
5D7
  5
5DE
331
5EBC
  5
5EC0
331
448
  5
44A
331
21F4
  5
21F6
331
9A3
  5
AA9
331
5A9
  5
5BC
331
5EF8
  5
5EFA
331
5D3
  5
5D5
331
5A31
  5
5A33
331
554
  5
564
331
8D5
  5
8D7
331
6A92
  5
6A94
331
5829
  5
5832
331
5AA3
  5
5AA7
331
416
  5
41C
331
585B
  5
585D
331
5814
  5
5831
331
550
  5
557
331
8D1
  5
8D3
331
5EEF
  5
5EF1
331
440
  5
445
331
5CA
  5
5CF
331
6BB8
  5
6BBA
331
57A
  5
586
331
97CB
  5
97CD
331
5EF0
  5
5EF2
331
623
  5
625
331
412
  5
416
331
5A4
  5
5BB
331
5EEB
  5
5EED
331
43C
  5
43E
331
5C6
  5
5C8
331
6B34
  5
6B3C
331
5A9B
  5
5A9D
331
997
  5
99E
331
9347
  5
9349
331
437
  5
43B
331
5884
  5
5888
331
6B2F
  5
6B31
331
5A15
  5
5A17
331
612
  5
624
331
5EE7
  5
5EE9
331
438
  5
43C
331
5C2
  5
5C6
331
5B8F
  5
5CE5
331
6B30
  5
6B32
331
572
  5
57B
331
3ABF
  5
3AC2
331
5EE3
  5
5EE6
331
60E
  5
610
331
5BE
  5
5C0
331
59F4
  5
59FA
331
5A73
  5
5A75
331
6A9F
  5
6AAE
331
5EDF
  5
5EE1
331
AAB
  5
AAD
331
58D6
  5
58DB
331
4FB
  5
516
331
423
  5
431
331
3A97
  5
3AA5
331
5EC1
  5
5EC6
331
565
  5
571
331
52D8
  5
52DA
331
5EDB
  5
5EDD
331
5B7B
  5
5B7D
331
5D8
  5
5E1
331
5EBD
  5
5EC1
331
931A
  5
931C
331
5ED7
  5
5ED9
331
449
  5
44B
331
52D7
  5
52D9
331
4C3
  5
512
331
5D4
  5
5D6
331
BBE6
  5
BC57
331
8D6
  5
8D8
331
5CF
  5
5D2
331
445
  5
447
331
9A0
  5
9A3
331
5EF5
  5
5EF7
331
45F
  5
4FB
331
417
  5
41D
331
585C
  5
585E
331
8D2
  5
8D5
331
5A2E
  5
5A32
331
5F2
  5
5FC
331
5CB
  5
5D1
331
441
  5
446
331
57B
  5
589
331
97CC
  5
97CF
331
5EF1
  5
5EF3
331
624
  5
626
331
8CE
  5
8D0
331
5EEC
  5
5EEE
331
5C7
  5
5C9
331
40E
  5
412
331
43D
  5
43F
331
998
  5
9A0
331
97C8
  5
97CA
331
5283
  5
52D7
331
5B3E
  5
5B41
331
580D
  5
580F
331
5EE8
  5
5EEA
331
5B90
  5
5CE7
331
5C3
  5
5C7
331
6A62
  5
6A64
331
6B31
  5
6B33
331
5900
  5
5922
331
5E5
  5
5E7
331
59D
  5
5A3
331
5A12
  5
5A14
331
5EE4
  5
5EE7
331
60F
  5
611
331
5B8C
  5
5B8E
331
3AC1
  5
3AC3
331
5853
  5
585B
331
5BF
  5
5C2
331
56F
  5
572
331
5A74
  5
5A92
331
5E1
  5
5E5
331
430
  5
435
331
3ABC
  5
3ABE
331
599
  5
59D
331
5EE0
  5
5EE2
331
AAC
  5
AB2
331
5BB
  5
5BD
331
6A12
  5
6A14
331
5B32
  5
5B40
331
52D9
  5
52DB
331
5EDC
  5
5EDE
331
3A94
  5
3A96
331
589
  5
599
331
5FB
  5
5FD
331
44A
  5
451
331
5ED8
  5
5EDA
331
5B09
  5
5B12
331
5EFA
  5
63EC
331
5D5
  5
5D7
331
41C
  5
422
331
5B73
  5
5B7B
331
8D7
  5
995
331
446
  5
448
331
5EF6
  5
5EF8
331
5925
  5
5953
331
5D1
  5
5D3
331
8D3
  5
8D6
331
5E79
  5
5EBD
331
5EF2
  5
5EF5
331
5EE
  5
5F2
331
625
  5
88B
331
5B5B
  5
5B73
331
6A6C
  5
6A6E
331
54E
  5
550
331
8CF
  5
8D1
331
5EED
  5
5EEF
331
43E
  5
440
331
5C8
  5
5CA
331
40F
  5
415
331
97C9
  5
97CB
331
5EA
  5
5EF
331
5284
  5
52D8
331
5EE9
  5
5EEB
331
40B
  5
40F
331
6B32
  5
6B34
331
6A63
  5
6A6C
331
995
  5
998
331
5E6
  5
5EA
331
435
  5
437
331
5ECB
  5
5ED7
331
59E
  5
5A4
331
BBC7
  5
BBCB
  0
XRECORD
  5
F5E2
102
{ACAD_REACTORS
330
209A
102
}
330
209A
100
AcDbXrecord
340
18
  0
XRECORD
  5
F5E1
102
{ACAD_REACTORS
330
F5E0
102
}
330
F5E0
100
AcDbXrecord
340
15
  0
GROUP
  5
8BE3
102
{ACAD_REACTORS
330
D
102
}
330
D
100
AcDbGroup
300
Vite UNI 5931 M8X25
 70
     1
 71
     1
  0
GROUP
  5
90F4
102
{ACAD_REACTORS
330
D
102
}
330
D
100
AcDbGroup
300

 70
     3
 71
     1
  0
GROUP
  5
9112
102
{ACAD_REACTORS
330
D
102
}
330
D
100
AcDbGroup
300
Vite UNI 5933 M6X16
 70
     3
 71
     1
  0
GROUP
  5
8C6A
102
{ACAD_REACTORS
330
D
102
}
330
D
100
AcDbGroup
300

 70
     3
 71
     1
  0
GROUP
  5
90AB
102
{ACAD_REACTORS
330
D
102
}
330
D
100
AcDbGroup
300

 70
     3
 71
     1
  0
GROUP
  5
9113
102
{ACAD_REACTORS
330
D
102
}
330
D
100
AcDbGroup
300

 70
     1
 71
     1
  0
GROUP
  5
9114
102
{ACAD_REACTORS
330
D
102
}
330
D
100
AcDbGroup
300

 70
     3
 71
     1
  0
GROUP
  5
9115
102
{ACAD_REACTORS
330
D
102
}
330
D
100
AcDbGroup
300

 70
     3
 71
     1
  0
GROUP
  5
8C26
102
{ACAD_REACTORS
330
D
102
}
330
D
100
AcDbGroup
300

 70
     3
 71
     1
  0
GROUP
  5
9116
102
{ACAD_REACTORS
330
D
102
}
330
D
100
AcDbGroup
300
Vite UNI 5933 M6X16
 70
     1
 71
     1
  0
GROUP
  5
8FCE
102
{ACAD_REACTORS
330
D
102
}
330
D
100
AcDbGroup
300

 70
     1
 71
     1
  0
GROUP
  5
8FE2
102
{ACAD_REACTORS
330
D
102
}
330
D
100
AcDbGroup
300

 70
     1
 71
     1
  0
GROUP
  5
8F88
102
{ACAD_REACTORS
330
D
102
}
330
D
100
AcDbGroup
300

 70
     3
 71
     1
  0
GROUP
  5
9117
102
{ACAD_REACTORS
330
D
102
}
330
D
100
AcDbGroup
300

 70
     1
 71
     1
  0
GROUP
  5
8CB4
102
{ACAD_REACTORS
330
D
102
}
330
D
100
AcDbGroup
300

 70
     1
 71
     1
  0
GROUP
  5
90A4
102
{ACAD_REACTORS
330
D
102
}
330
D
100
AcDbGroup
300

 70
     3
 71
     1
  0
GROUP
  5
8C1F
102
{ACAD_REACTORS
330
D
102
}
330
D
100
AcDbGroup
300

 70
     1
 71
     1
  0
GROUP
  5
8C0B
102
{ACAD_REACTORS
330
D
102
}
330
D
100
AcDbGroup
300

 70
     3
 71
     1
  0
GROUP
  5
8F97
102
{ACAD_REACTORS
330
D
102
}
330
D
100
AcDbGroup
300

 70
     1
 71
     1
  0
GROUP
  5
8CCE
102
{ACAD_REACTORS
330
D
102
}
330
D
100
AcDbGroup
300

 70
     1
 71
     1
  0
GROUP
  5
9118
102
{ACAD_REACTORS
330
D
102
}
330
D
100
AcDbGroup
300
Ghiera autofrenante M20x1
 70
     1
 71
     1
  0
GROUP
  5
8CA9
102
{ACAD_REACTORS
330
D
102
}
330
D
100
AcDbGroup
300
Vite UNI 5931 M8X25
 70
     3
 71
     1
  0
GROUP
  5
9119
102
{ACAD_REACTORS
330
D
102
}
330
D
100
AcDbGroup
300

 70
     3
 71
     1
  0
GROUP
  5
8F9E
102
{ACAD_REACTORS
330
D
102
}
330
D
100
AcDbGroup
300

 70
     3
 71
     1
  0
GROUP
  5
8C7F
102
{ACAD_REACTORS
330
D
102
}
330
D
100
AcDbGroup
300

 70
     3
 71
     1
  0
GROUP
  5
911A
102
{ACAD_REACTORS
330
D
102
}
330
D
100
AcDbGroup
300

 70
     3
 71
     1
  0
GROUP
  5
911B
102
{ACAD_REACTORS
330
D
102
}
330
D
100
AcDbGroup
300

 70
     1
 71
     1
  0
GROUP
  5
9052
102
{ACAD_REACTORS
330
D
102
}
330
D
100
AcDbGroup
300

 70
     3
 71
     1
  0
GROUP
  5
90D0
102
{ACAD_REACTORS
330
D
102
}
330
D
100
AcDbGroup
300
Vite UNI 5933 M6X16
 70
     3
 71
     1
  0
GROUP
  5
8C27
102
{ACAD_REACTORS
330
D
102
}
330
D
100
AcDbGroup
300
Ghiera autofrenante M20x1
 70
     3
 71
     1
  0
GROUP
  5
8BE9
102
{ACAD_REACTORS
330
D
102
}
330
D
100
AcDbGroup
300

 70
     1
 71
     1
  0
GROUP
  5
9045
102
{ACAD_REACTORS
330
D
102
}
330
D
100
AcDbGroup
300
Vite UNI 5933 M6X16
 70
     1
 71
     1
  0
GROUP
  5
8C6F
102
{ACAD_REACTORS
330
D
102
}
330
D
100
AcDbGroup
300

 70
     3
 71
     1
  0
GROUP
  5
8CAF
102
{ACAD_REACTORS
330
D
102
}
330
D
100
AcDbGroup
300

 70
     3
 71
     1
  0
GROUP
  5
8CAE
102
{ACAD_REACTORS
330
D
102
}
330
D
100
AcDbGroup
300
Rosetta UNI 1751 A 3.1
 70
     1
 71
     1
  0
GROUP
  5
901C
102
{ACAD_REACTORS
330
D
102
}
330
D
100
AcDbGroup
300

 70
     3
 71
     1
  0
GROUP
  5
8C28
102
{ACAD_REACTORS
330
D
102
}
330
D
100
AcDbGroup
300
Vite UNI 5933 M6X16
 70
     1
 71
     1
  0
GROUP
  5
8C29
102
{ACAD_REACTORS
330
D
102
}
330
D
100
AcDbGroup
300

 70
     1
 71
     1
  0
GROUP
  5
8C2A
102
{ACAD_REACTORS
330
D
102
}
330
D
100
AcDbGroup
300

 70
     1
 71
     1
  0
GROUP
  5
8CCF
102
{ACAD_REACTORS
330
D
102
}
330
D
100
AcDbGroup
300

 70
     3
 71
     1
  0
GROUP
  5
8BF1
102
{ACAD_REACTORS
330
D
102
}
330
D
100
AcDbGroup
300

 70
     3
 71
     1
  0
GROUP
  5
8FA2
102
{ACAD_REACTORS
330
D
102
}
330
D
100
AcDbGroup
300
Ghiera KM4
 70
     3
 71
     1
  0
GROUP
  5
8C2B
102
{ACAD_REACTORS
330
D
102
}
330
D
100
AcDbGroup
300

 70
     1
 71
     1
  0
GROUP
  5
9053
102
{ACAD_REACTORS
330
D
102
}
330
D
100
AcDbGroup
300

 70
     3
 71
     1
  0
GROUP
  5
909F
102
{ACAD_REACTORS
330
D
102
}
330
D
100
AcDbGroup
300

 70
     1
 71
     1
  0
GROUP
  5
90F5
102
{ACAD_REACTORS
330
D
102
}
330
D
100
AcDbGroup
300

 70
     1
 71
     1
  0
GROUP
  5
90AC
102
{ACAD_REACTORS
330
D
102
}
330
D
100
AcDbGroup
300

 70
     1
 71
     1
  0
GROUP
  5
8C2C
102
{ACAD_REACTORS
330
D
102
}
330
D
100
AcDbGroup
300

 70
     1
 71
     1
  0
GROUP
  5
9080
102
{ACAD_REACTORS
330
D
102
}
330
D
100
AcDbGroup
300

 70
     3
 71
     1
  0
GROUP
  5
8C2D
102
{ACAD_REACTORS
330
D
102
}
330
D
100
AcDbGroup
300

 70
     1
 71
     1
  0
GROUP
  5
8C80
102
{ACAD_REACTORS
330
D
102
}
330
D
100
AcDbGroup
300

 70
     3
 71
     1
  0
GROUP
  5
8C2E
102
{ACAD_REACTORS
330
D
102
}
330
D
100
AcDbGroup
300
Rosetta UNI 1751 A 6.1
 70
     1
 71
     1
  0
GROUP
  5
90D1
102
{ACAD_REACTORS
330
D
102
}
330
D
100
AcDbGroup
300
Vite UNI 5931 M8X25
 70
     3
 71
     1
  0
GROUP
  5
8C65
102
{ACAD_REACTORS
330
D
102
}
330
D
100
AcDbGroup
300

 70
     3
 71
     1
  0
GROUP
  5
8FE3
102
{ACAD_REACTORS
330
D
102
}
330
D
100
AcDbGroup
300

 70
     3
 71
     1
  0
GROUP
  5
8C2F
102
{ACAD_REACTORS
330
D
102
}
330
D
100
AcDbGroup
300
Ghiera autofrenante M20x1
 70
     3
 71
     1
  0
GROUP
  5
8C5F
102
{ACAD_REACTORS
330
D
102
}
330
D
100
AcDbGroup
300

 70
     3
 71
     1
  0
GROUP
  5
8C30
102
{ACAD_REACTORS
330
D
102
}
330
D
100
AcDbGroup
300

 70
     1
 71
     1
  0
GROUP
  5
8C31
102
{ACAD_REACTORS
330
D
102
}
330
D
100
AcDbGroup
300
Vite UNI 5933 M6X16
 70
     3
 71
     1
  0
GROUP
  5
90AD
102
{ACAD_REACTORS
330
D
102
}
330
D
100
AcDbGroup
300

 70
     3
 71
     1
  0
GROUP
  5
8BEA
102
{ACAD_REACTORS
330
D
102
}
330
D
100
AcDbGroup
300
Vite UNI 5931 M8X25
 70
     3
 71
     1
  0
GROUP
  5
8C6B
102
{ACAD_REACTORS
330
D
102
}
330
D
100
AcDbGroup
300

 70
     1
 71
     1
  0
GROUP
  5
9081
102
{ACAD_REACTORS
330
D
102
}
330
D
100
AcDbGroup
300

 70
     1
 71
     1
  0
GROUP
  5
8C32
102
{ACAD_REACTORS
330
D
102
}
330
D
100
AcDbGroup
300

 70
     1
 71
     1
  0
GROUP
  5
8C73
102
{ACAD_REACTORS
330
D
102
}
330
D
100
AcDbGroup
300

 70
     3
 71
     1
  0
GROUP
  5
8FA3
102
{ACAD_REACTORS
330
D
102
}
330
D
100
AcDbGroup
300

 70
     3
 71
     1
  0
GROUP
  5
8CD0
102
{ACAD_REACTORS
330
D
102
}
330
D
100
AcDbGroup
300
Rosetta UNI 1751 A 6.1
 70
     1
 71
     1
  0
GROUP
  5
9075
102
{ACAD_REACTORS
330
D
102
}
330
D
100
AcDbGroup
300

 70
     3
 71
     1
  0
GROUP
  5
8C33
102
{ACAD_REACTORS
330
D
102
}
330
D
100
AcDbGroup
300

 70
     3
 71
     1
  0
GROUP
  5
8C34
102
{ACAD_REACTORS
330
D
102
}
330
D
100
AcDbGroup
300

 70
     3
 71
     1
  0
GROUP
  5
8CB2
102
{ACAD_REACTORS
330
D
102
}
330
D
100
AcDbGroup
300

 70
     1
 71
     1
  0
GROUP
  5
901D
102
{ACAD_REACTORS
330
D
102
}
330
D
100
AcDbGroup
300
Ghiera autofrenante M20x1
 70
     1
 71
     1
  0
GROUP
  5
8F87
102
{ACAD_REACTORS
330
D
102
}
330
D
100
AcDbGroup
300

 70
     1
 71
     1
  0
GROUP
  5
8C35
102
{ACAD_REACTORS
330
D
102
}
330
D
100
AcDbGroup
300

 70
     3
 71
     1
  0
GROUP
  5
8FE4
102
{ACAD_REACTORS
330
D
102
}
330
D
100
AcDbGroup
300

 70
     3
 71
     1
  0
GROUP
  5
8C36
102
{ACAD_REACTORS
330
D
102
}
330
D
100
AcDbGroup
300
Vite UNI 5931 M8X25
 70
     1
 71
     1
  0
GROUP
  5
90D2
102
{ACAD_REACTORS
330
D
102
}
330
D
100
AcDbGroup
300
Ghiera KM4
 70
     3
 71
     1
  0
GROUP
  5
9082
102
{ACAD_REACTORS
330
D
102
}
330
D
100
AcDbGroup
300

 70
     1
 71
     1
  0
GROUP
  5
90A6
102
{ACAD_REACTORS
330
D
102
}
330
D
100
AcDbGroup
300
Vite UNI 5933 M6X16
 70
     3
 71
     1
  0
GROUP
  5
8CEF
102
{ACAD_REACTORS
330
D
102
}
330
D
100
AcDbGroup
300
Vite UNI 5933 M6X16
 70
     3
 71
     1
  0
GROUP
  5
8C81
102
{ACAD_REACTORS
330
D
102
}
330
D
100
AcDbGroup
300

 70
     1
 71
     1
  0
GROUP
  5
8C37
102
{ACAD_REACTORS
330
D
102
}
330
D
100
AcDbGroup
300

 70
     1
 71
     1
  0
GROUP
  5
8C38
102
{ACAD_REACTORS
330
D
102
}
330
D
100
AcDbGroup
300
Rosetta UNI 1751 A 6.1
 70
     1
 71
     1
  0
GROUP
  5
8C39
102
{ACAD_REACTORS
330
D
102
}
330
D
100
AcDbGroup
300

 70
     1
 71
     1
  0
GROUP
  5
8C3A
102
{ACAD_REACTORS
330
D
102
}
330
D
100
AcDbGroup
300

 70
     3
 71
     1
  0
GROUP
  5
8FD7
102
{ACAD_REACTORS
330
D
102
}
330
D
100
AcDbGroup
300

 70
     1
 71
     1
  0
GROUP
  5
8CF0
102
{ACAD_REACTORS
330
D
102
}
330
D
100
AcDbGroup
300

 70
     1
 71
     1
  0
GROUP
  5
8C01
102
{ACAD_REACTORS
330
D
102
}
330
D
100
AcDbGroup
300

 70
     3
 71
     1
  0
GROUP
  5
90D3
102
{ACAD_REACTORS
330
D
102
}
330
D
100
AcDbGroup
300

 70
     1
 71
     1
  0
GROUP
  5
8FC8
102
{ACAD_REACTORS
330
D
102
}
330
D
100
AcDbGroup
300
Rosetta UNI 1751 A 6.1
 70
     1
 71
     1
  0
GROUP
  5
901E
102
{ACAD_REACTORS
330
D
102
}
330
D
100
AcDbGroup
300

 70
     1
 71
     1
  0
GROUP
  5
8C3B
102
{ACAD_REACTORS
330
D
102
}
330
D
100
AcDbGroup
300

 70
     1
 71
     1
  0
GROUP
  5
8CB3
102
{ACAD_REACTORS
330
D
102
}
330
D
100
AcDbGroup
300
Vite UNI 5933 M6X16
 70
     3
 71
     1
  0
GROUP
  5
9083
102
{ACAD_REACTORS
330
D
102
}
330
D
100
AcDbGroup
300

 70
     3
 71
     1
  0
GROUP
  5
8CD1
102
{ACAD_REACTORS
330
D
102
}
330
D
100
AcDbGroup
300

 70
     1
 71
     1
  0
GROUP
  5
9009
102
{ACAD_REACTORS
330
D
102
}
330
D
100
AcDbGroup
300

 70
     1
 71
     1
  0
GROUP
  5
8FE5
102
{ACAD_REACTORS
330
D
102
}
330
D
100
AcDbGroup
300
Ghiera KM4
 70
     3
 71
     1
  0
GROUP
  5
8BEB
102
{ACAD_REACTORS
330
D
102
}
330
D
100
AcDbGroup
300

 70
     3
 71
     1
  0
GROUP
  5
8C74
102
{ACAD_REACTORS
330
D
102
}
330
D
100
AcDbGroup
300

 70
     3
 71
     1
  0
GROUP
  5
8C3C
102
{ACAD_REACTORS
330
D
102
}
330
D
100
AcDbGroup
300

 70
     1
 71
     1
  0
GROUP
  5
8CBE
102
{ACAD_REACTORS
330
D
102
}
330
D
100
AcDbGroup
300

 70
     3
 71
     1
  0
GROUP
  5
90D4
102
{ACAD_REACTORS
330
D
102
}
330
D
100
AcDbGroup
300

 70
     3
 71
     1
  0
GROUP
  5
8C3D
102
{ACAD_REACTORS
330
D
102
}
330
D
100
AcDbGroup
300

 70
     1
 71
     1
  0
GROUP
  5
8C3E
102
{ACAD_REACTORS
330
D
102
}
330
D
100
AcDbGroup
300

 70
     3
 71
     1
  0
GROUP
  5
8C3F
102
{ACAD_REACTORS
330
D
102
}
330
D
100
AcDbGroup
300

 70
     1
 71
     1
  0
GROUP
  5
8BF2
102
{ACAD_REACTORS
330
D
102
}
330
D
100
AcDbGroup
300
Vite UNI 5933 M6X16
 70
     3
 71
     1
  0
GROUP
  5
8C40
102
{ACAD_REACTORS
330
D
102
}
330
D
100
AcDbGroup
300
Rosetta UNI 1751 A 6.1
 70
     1
 71
     1
  0
GROUP
  5
900D
102
{ACAD_REACTORS
330
D
102
}
330
D
100
AcDbGroup
300

 70
     3
 71
     1
  0
GROUP
  5
901F
102
{ACAD_REACTORS
330
D
102
}
330
D
100
AcDbGroup
300

 70
     1
 71
     1
  0
GROUP
  5
8C41
102
{ACAD_REACTORS
330
D
102
}
330
D
100
AcDbGroup
300

 70
     1
 71
     1
  0
GROUP
  5
8F8E
102
{ACAD_REACTORS
330
D
102
}
330
D
100
AcDbGroup
300

 70
     3
 71
     1
  0
GROUP
  5
90CE
102
{ACAD_REACTORS
330
D
102
}
330
D
100
AcDbGroup
300
Rosetta UNI 1751 A 3.1
 70
     1
 71
     1
  0
GROUP
  5
8C7B
102
{ACAD_REACTORS
330
D
102
}
330
D
100
AcDbGroup
300

 70
     3
 71
     1
  0
GROUP
  5
8C69
102
{ACAD_REACTORS
330
D
102
}
330
D
100
AcDbGroup
300
Ghiera KM4
 70
     3
 71
     1
  0
GROUP
  5
8FDC
102
{ACAD_REACTORS
330
D
102
}
330
D
100
AcDbGroup
300

 70
     3
 71
     1
  0
GROUP
  5
8FA4
102
{ACAD_REACTORS
330
D
102
}
330
D
100
AcDbGroup
300

 70
     3
 71
     1
  0
GROUP
  5
8C42
102
{ACAD_REACTORS
330
D
102
}
330
D
100
AcDbGroup
300

 70
     3
 71
     1
  0
GROUP
  5
8F84
102
{ACAD_REACTORS
330
D
102
}
330
D
100
AcDbGroup
300

 70
     3
 71
     1
  0
GROUP
  5
8C43
102
{ACAD_REACTORS
330
D
102
}
330
D
100
AcDbGroup
300

 70
     3
 71
     1
  0
GROUP
  5
8BFA
102
{ACAD_REACTORS
330
D
102
}
330
D
100
AcDbGroup
300

 70
     3
 71
     1
  0
GROUP
  5
8C44
102
{ACAD_REACTORS
330
D
102
}
330
D
100
AcDbGroup
300

 70
     1
 71
     1
  0
GROUP
  5
8C45
102
{ACAD_REACTORS
330
D
102
}
330
D
100
AcDbGroup
300

 70
     1
 71
     1
  0
GROUP
  5
9084
102
{ACAD_REACTORS
330
D
102
}
330
D
100
AcDbGroup
300

 70
     3
 71
     1
  0
GROUP
  5
90F6
102
{ACAD_REACTORS
330
D
102
}
330
D
100
AcDbGroup
300

 70
     1
 71
     1
  0
GROUP
  5
8C82
102
{ACAD_REACTORS
330
D
102
}
330
D
100
AcDbGroup
300
Vite UNI 5933 M6X16
 70
     3
 71
     1
  0
GROUP
  5
8C4A
102
{ACAD_REACTORS
330
D
102
}
330
D
100
AcDbGroup
300
Vite UNI 5931 M8X25
 70
     3
 71
     1
  0
GROUP
  5
9078
102
{ACAD_REACTORS
330
D
102
}
330
D
100
AcDbGroup
300

 70
     3
 71
     1
  0
GROUP
  5
8CC3
102
{ACAD_REACTORS
330
D
102
}
330
D
100
AcDbGroup
300

 70
     1
 71
     1
  0
GROUP
  5
8F89
102
{ACAD_REACTORS
330
D
102
}
330
D
100
AcDbGroup
300

 70
     3
 71
     1
  0
GROUP
  5
9054
102
{ACAD_REACTORS
330
D
102
}
330
D
100
AcDbGroup
300

 70
     3
 71
     1
  0
GROUP
  5
8C83
102
{ACAD_REACTORS
330
D
102
}
330
D
100
AcDbGroup
300

 70
     1
 71
     1
  0
GROUP
  5
8C84
102
{ACAD_REACTORS
330
D
102
}
330
D
100
AcDbGroup
300

 70
     3
 71
     1
  0
GROUP
  5
8C85
102
{ACAD_REACTORS
330
D
102
}
330
D
100
AcDbGroup
300

 70
     3
 71
     1
  0
GROUP
  5
8FA5
102
{ACAD_REACTORS
330
D
102
}
330
D
100
AcDbGroup
300

 70
     3
 71
     1
  0
GROUP
  5
8C51
102
{ACAD_REACTORS
330
D
102
}
330
D
100
AcDbGroup
300

 70
     1
 71
     1
  0
GROUP
  5
8FE6
102
{ACAD_REACTORS
330
D
102
}
330
D
100
AcDbGroup
300

 70
     3
 71
     1
  0
GROUP
  5
8C86
102
{ACAD_REACTORS
330
D
102
}
330
D
100
AcDbGroup
300

 70
     3
 71
     1
  0
GROUP
  5
9085
102
{ACAD_REACTORS
330
D
102
}
330
D
100
AcDbGroup
300

 70
     3
 71
     1
  0
GROUP
  5
90C9
102
{ACAD_REACTORS
330
D
102
}
330
D
100
AcDbGroup
300

 70
     3
 71
     1
  0
GROUP
  5
90D5
102
{ACAD_REACTORS
330
D
102
}
330
D
100
AcDbGroup
300

 70
     1
 71
     1
  0
GROUP
  5
8C87
102
{ACAD_REACTORS
330
D
102
}
330
D
100
AcDbGroup
300

 70
     3
 71
     1
  0
GROUP
  5
90AE
102
{ACAD_REACTORS
330
D
102
}
330
D
100
AcDbGroup
300

 70
     1
 71
     1
  0
GROUP
  5
8C88
102
{ACAD_REACTORS
330
D
102
}
330
D
100
AcDbGroup
300

 70
     3
 71
     1
  0
GROUP
  5
8CD2
102
{ACAD_REACTORS
330
D
102
}
330
D
100
AcDbGroup
300

 70
     3
 71
     1
  0
GROUP
  5
8C89
102
{ACAD_REACTORS
330
D
102
}
330
D
100
AcDbGroup
300

 70
     1
 71
     1
  0
GROUP
  5
90F7
102
{ACAD_REACTORS
330
D
102
}
330
D
100
AcDbGroup
300

 70
     3
 71
     1
  0
GROUP
  5
8CBA
102
{ACAD_REACTORS
330
D
102
}
330
D
100
AcDbGroup
300

 70
     1
 71
     1
  0
GROUP
  5
9020
102
{ACAD_REACTORS
330
D
102
}
330
D
100
AcDbGroup
300

 70
     3
 71
     1
  0
GROUP
  5
8C8A
102
{ACAD_REACTORS
330
D
102
}
330
D
100
AcDbGroup
300

 70
     3
 71
     1
  0
GROUP
  5
8C8B
102
{ACAD_REACTORS
330
D
102
}
330
D
100
AcDbGroup
300

 70
     3
 71
     1
  0
GROUP
  5
8BF3
102
{ACAD_REACTORS
330
D
102
}
330
D
100
AcDbGroup
300
Vite UNI 5933 M6X16
 70
     1
 71
     1
  0
GROUP
  5
90D6
102
{ACAD_REACTORS
330
D
102
}
330
D
100
AcDbGroup
300

 70
     3
 71
     1
  0
GROUP
  5
8C4B
102
{ACAD_REACTORS
330
D
102
}
330
D
100
AcDbGroup
300

 70
     3
 71
     1
  0
GROUP
  5
8CBF
102
{ACAD_REACTORS
330
D
102
}
330
D
100
AcDbGroup
300

 70
     1
 71
     1
  0
GROUP
  5
90AF
102
{ACAD_REACTORS
330
D
102
}
330
D
100
AcDbGroup
300
Vite UNI 5933 M6X16
 70
     3
 71
     1
  0
GROUP
  5
8C8C
102
{ACAD_REACTORS
330
D
102
}
330
D
100
AcDbGroup
300

 70
     3
 71
     1
  0
GROUP
  5
8CC7
102
{ACAD_REACTORS
330
D
102
}
330
D
100
AcDbGroup
300

 70
     3
 71
     1
  0
GROUP
  5
8FE7
102
{ACAD_REACTORS
330
D
102
}
330
D
100
AcDbGroup
300

 70
     1
 71
     1
  0
GROUP
  5
8FA6
102
{ACAD_REACTORS
330
D
102
}
330
D
100
AcDbGroup
300

 70
     3
 71
     1
  0
GROUP
  5
8C8D
102
{ACAD_REACTORS
330
D
102
}
330
D
100
AcDbGroup
300

 70
     3
 71
     1
  0
GROUP
  5
8C8E
102
{ACAD_REACTORS
330
D
102
}
330
D
100
AcDbGroup
300

 70
     1
 71
     1
  0
GROUP
  5
8F8C
102
{ACAD_REACTORS
330
D
102
}
330
D
100
AcDbGroup
300

 70
     3
 71
     1
  0
GROUP
  5
9055
102
{ACAD_REACTORS
330
D
102
}
330
D
100
AcDbGroup
300

 70
     3
 71
     1
  0
GROUP
  5
8FCD
102
{ACAD_REACTORS
330
D
102
}
330
D
100
AcDbGroup
300

 70
     3
 71
     1
  0
GROUP
  5
8C8F
102
{ACAD_REACTORS
330
D
102
}
330
D
100
AcDbGroup
300

 70
     3
 71
     1
  0
GROUP
  5
9021
102
{ACAD_REACTORS
330
D
102
}
330
D
100
AcDbGroup
300

 70
     1
 71
     1
  0
GROUP
  5
8C90
102
{ACAD_REACTORS
330
D
102
}
330
D
100
AcDbGroup
300

 70
     3
 71
     1
  0
GROUP
  5
8C23
102
{ACAD_REACTORS
330
D
102
}
330
D
100
AcDbGroup
300

 70
     1
 71
     1
  0
GROUP
  5
90B0
102
{ACAD_REACTORS
330
D
102
}
330
D
100
AcDbGroup
300

 70
     3
 71
     1
  0
GROUP
  5
8FC2
102
{ACAD_REACTORS
330
D
102
}
330
D
100
AcDbGroup
300

 70
     1
 71
     1
  0
GROUP
  5
8CD3
102
{ACAD_REACTORS
330
D
102
}
330
D
100
AcDbGroup
300

 70
     3
 71
     1
  0
GROUP
  5
8C91
102
{ACAD_REACTORS
330
D
102
}
330
D
100
AcDbGroup
300

 70
     3
 71
     1
  0
GROUP
  5
8C92
102
{ACAD_REACTORS
330
D
102
}
330
D
100
AcDbGroup
300

 70
     3
 71
     1
  0
GROUP
  5
8C93
102
{ACAD_REACTORS
330
D
102
}
330
D
100
AcDbGroup
300

 70
     3
 71
     1
  0
GROUP
  5
8C94
102
{ACAD_REACTORS
330
D
102
}
330
D
100
AcDbGroup
300

 70
     3
 71
     1
  0
GROUP
  5
9015
102
{ACAD_REACTORS
330
D
102
}
330
D
100
AcDbGroup
300

 70
     3
 71
     1
  0
GROUP
  5
8FC3
102
{ACAD_REACTORS
330
D
102
}
330
D
100
AcDbGroup
300

 70
     1
 71
     1
  0
GROUP
  5
8C60
102
{ACAD_REACTORS
330
D
102
}
330
D
100
AcDbGroup
300

 70
     3
 71
     1
  0
GROUP
  5
90F8
102
{ACAD_REACTORS
330
D
102
}
330
D
100
AcDbGroup
300

 70
     3
 71
     1
  0
GROUP
  5
9056
102
{ACAD_REACTORS
330
D
102
}
330
D
100
AcDbGroup
300

 70
     3
 71
     1
  0
GROUP
  5
8C95
102
{ACAD_REACTORS
330
D
102
}
330
D
100
AcDbGroup
300
Vite UNI 5931 M8X25
 70
     3
 71
     1
  0
GROUP
  5
8F8D
102
{ACAD_REACTORS
330
D
102
}
330
D
100
AcDbGroup
300

 70
     1
 71
     1
  0
GROUP
  5
90B1
102
{ACAD_REACTORS
330
D
102
}
330
D
100
AcDbGroup
300

 70
     1
 71
     1
  0
GROUP
  5
8FA7
102
{ACAD_REACTORS
330
D
102
}
330
D
100
AcDbGroup
300

 70
     3
 71
     1
  0
GROUP
  5
9043
102
{ACAD_REACTORS
330
D
102
}
330
D
100
AcDbGroup
300

 70
     3
 71
     1
  0
GROUP
  5
9022
102
{ACAD_REACTORS
330
D
102
}
330
D
100
AcDbGroup
300

 70
     1
 71
     1
  0
GROUP
  5
8C4C
102
{ACAD_REACTORS
330
D
102
}
330
D
100
AcDbGroup
300
Vite UNI 5933 M6X16
 70
     3
 71
     1
  0
GROUP
  5
8BF9
102
{ACAD_REACTORS
330
D
102
}
330
D
100
AcDbGroup
300

 70
     1
 71
     1
  0
GROUP
  5
8BF4
102
{ACAD_REACTORS
330
D
102
}
330
D
100
AcDbGroup
300

 70
     3
 71
     1
  0
GROUP
  5
90F9
102
{ACAD_REACTORS
330
D
102
}
330
D
100
AcDbGroup
300

 70
     1
 71
     1
  0
GROUP
  5
8C96
102
{ACAD_REACTORS
330
D
102
}
330
D
100
AcDbGroup
300

 70
     3
 71
     1
  0
GROUP
  5
8C97
102
{ACAD_REACTORS
330
D
102
}
330
D
100
AcDbGroup
300

 70
     1
 71
     1
  0
GROUP
  5
8C98
102
{ACAD_REACTORS
330
D
102
}
330
D
100
AcDbGroup
300

 70
     3
 71
     1
  0
GROUP
  5
8C52
102
{ACAD_REACTORS
330
D
102
}
330
D
100
AcDbGroup
300

 70
     3
 71
     1
  0
GROUP
  5
8C99
102
{ACAD_REACTORS
330
D
102
}
330
D
100
AcDbGroup
300

 70
     1
 71
     1
  0
GROUP
  5
9046
102
{ACAD_REACTORS
330
D
102
}
330
D
100
AcDbGroup
300

 70
     3
 71
     1
  0
GROUP
  5
9057
102
{ACAD_REACTORS
330
D
102
}
330
D
100
AcDbGroup
300
Rosetta UNI 1751 A 6.1
 70
     1
 71
     1
  0
GROUP
  5
8C9A
102
{ACAD_REACTORS
330
D
102
}
330
D
100
AcDbGroup
300

 70
     3
 71
     1
  0
GROUP
  5
8FD4
102
{ACAD_REACTORS
330
D
102
}
330
D
100
AcDbGroup
300

 70
     3
 71
     1
  0
GROUP
  5
8BF8
102
{ACAD_REACTORS
330
D
102
}
330
D
100
AcDbGroup
300
Vite UNI 5933 M6X16
 70
     3
 71
     1
  0
GROUP
  5
901A
102
{ACAD_REACTORS
330
D
102
}
330
D
100
AcDbGroup
300
Vite UNI 5931 M8X25
 70
     3
 71
     1
  0
GROUP
  5
8FE8
102
{ACAD_REACTORS
330
D
102
}
330
D
100
AcDbGroup
300
Rosetta UNI 1751 A 6.1
 70
     1
 71
     1
  0
GROUP
  5
8C9B
102
{ACAD_REACTORS
330
D
102
}
330
D
100
AcDbGroup
300

 70
     3
 71
     1
  0
GROUP
  5
8FCB
102
{ACAD_REACTORS
330
D
102
}
330
D
100
AcDbGroup
300

 70
     1
 71
     1
  0
GROUP
  5
8C9C
102
{ACAD_REACTORS
330
D
102
}
330
D
100
AcDbGroup
300

 70
     3
 71
     1
  0
GROUP
  5
8BEE
102
{ACAD_REACTORS
330
D
102
}
330
D
100
AcDbGroup
300

 70
     3
 71
     1
  0
GROUP
  5
8C9D
102
{ACAD_REACTORS
330
D
102
}
330
D
100
AcDbGroup
300

 70
     3
 71
     1
  0
GROUP
  5
8C9E
102
{ACAD_REACTORS
330
D
102
}
330
D
100
AcDbGroup
300

 70
     3
 71
     1
  0
GROUP
  5
8C1C
102
{ACAD_REACTORS
330
D
102
}
330
D
100
AcDbGroup
300

 70
     3
 71
     1
  0
GROUP
  5
8CD4
102
{ACAD_REACTORS
330
D
102
}
330
D
100
AcDbGroup
300
Vite UNI 5931 M8X25
 70
     3
 71
     1
  0
GROUP
  5
8CA2
102
{ACAD_REACTORS
330
D
102
}
330
D
100
AcDbGroup
300

 70
     3
 71
     1
  0
GROUP
  5
90A7
102
{ACAD_REACTORS
330
D
102
}
330
D
100
AcDbGroup
300

 70
     3
 71
     1
  0
GROUP
  5
8F9A
102
{ACAD_REACTORS
330
D
102
}
330
D
100
AcDbGroup
300

 70
     3
 71
     1
  0
GROUP
  5
8FCF
102
{ACAD_REACTORS
330
D
102
}
330
D
100
AcDbGroup
300

 70
     3
 71
     1
  0
GROUP
  5
9086
102
{ACAD_REACTORS
330
D
102
}
330
D
100
AcDbGroup
300
Rosetta UNI 1751 A 3.1
 70
     1
 71
     1
  0
GROUP
  5
8CD5
102
{ACAD_REACTORS
330
D
102
}
330
D
100
AcDbGroup
300

 70
     3
 71
     1
  0
GROUP
  5
8CD6
102
{ACAD_REACTORS
330
D
102
}
330
D
100
AcDbGroup
300

 70
     1
 71
     1
  0
GROUP
  5
8CD7
102
{ACAD_REACTORS
330
D
102
}
330
D
100
AcDbGroup
300

 70
     3
 71
     1
  0
GROUP
  5
8FE9
102
{ACAD_REACTORS
330
D
102
}
330
D
100
AcDbGroup
300

 70
     3
 71
     1
  0
GROUP
  5
9023
102
{ACAD_REACTORS
330
D
102
}
330
D
100
AcDbGroup
300
Vite UNI 5931 M8X25
 70
     3
 71
     1
  0
GROUP
  5
8CD8
102
{ACAD_REACTORS
330
D
102
}
330
D
100
AcDbGroup
300

 70
     3
 71
     1
  0
GROUP
  5
90B2
102
{ACAD_REACTORS
330
D
102
}
330
D
100
AcDbGroup
300

 70
     1
 71
     1
  0
GROUP
  5
90EF
102
{ACAD_REACTORS
330
D
102
}
330
D
100
AcDbGroup
300
Vite UNI 5933 M6X16
 70
     3
 71
     1
  0
GROUP
  5
90FA
102
{ACAD_REACTORS
330
D
102
}
330
D
100
AcDbGroup
300

 70
     3
 71
     1
  0
GROUP
  5
8CD9
102
{ACAD_REACTORS
330
D
102
}
330
D
100
AcDbGroup
300

 70
     1
 71
     1
  0
GROUP
  5
90D7
102
{ACAD_REACTORS
330
D
102
}
330
D
100
AcDbGroup
300

 70
     3
 71
     1
  0
GROUP
  5
8CDA
102
{ACAD_REACTORS
330
D
102
}
330
D
100
AcDbGroup
300
Rosetta UNI 1751 A 6.1
 70
     1
 71
     1
  0
GROUP
  5
8FA8
102
{ACAD_REACTORS
330
D
102
}
330
D
100
AcDbGroup
300
Vite UNI 5931 M8X25
 70
     3
 71
     1
  0
GROUP
  5
8CDB
102
{ACAD_REACTORS
330
D
102
}
330
D
100
AcDbGroup
300

 70
     3
 71
     1
  0
GROUP
  5
8F93
102
{ACAD_REACTORS
330
D
102
}
330
D
100
AcDbGroup
300

 70
     3
 71
     1
  0
GROUP
  5
8C13
102
{ACAD_REACTORS
330
D
102
}
330
D
100
AcDbGroup
300
Vite UNI 5933 M6X16
 70
     3
 71
     1
  0
GROUP
  5
8BFB
102
{ACAD_REACTORS
330
D
102
}
330
D
100
AcDbGroup
300

 70
     3
 71
     1
  0
GROUP
  5
8CDC
102
{ACAD_REACTORS
330
D
102
}
330
D
100
AcDbGroup
300

 70
     3
 71
     1
  0
GROUP
  5
8C53
102
{ACAD_REACTORS
330
D
102
}
330
D
100
AcDbGroup
300

 70
     3
 71
     1
  0
GROUP
  5
90FB
102
{ACAD_REACTORS
330
D
102
}
330
D
100
AcDbGroup
300

 70
     1
 71
     1
  0
GROUP
  5
8CA3
102
{ACAD_REACTORS
330
D
102
}
330
D
100
AcDbGroup
300

 70
     1
 71
     1
  0
GROUP
  5
8F98
102
{ACAD_REACTORS
330
D
102
}
330
D
100
AcDbGroup
300

 70
     3
 71
     1
  0
GROUP
  5
90D8
102
{ACAD_REACTORS
330
D
102
}
330
D
100
AcDbGroup
300

 70
     3
 71
     1
  0
GROUP
  5
8CDD
102
{ACAD_REACTORS
330
D
102
}
330
D
100
AcDbGroup
300

 70
     1
 71
     1
  0
GROUP
  5
9024
102
{ACAD_REACTORS
330
D
102
}
330
D
100
AcDbGroup
300

 70
     3
 71
     1
  0
GROUP
  5
8C08
102
{ACAD_REACTORS
330
D
102
}
330
D
100
AcDbGroup
300

 70
     3
 71
     1
  0
GROUP
  5
8CDE
102
{ACAD_REACTORS
330
D
102
}
330
D
100
AcDbGroup
300

 70
     3
 71
     1
  0
GROUP
  5
8CDF
102
{ACAD_REACTORS
330
D
102
}
330
D
100
AcDbGroup
300

 70
     3
 71
     1
  0
GROUP
  5
8FD2
102
{ACAD_REACTORS
330
D
102
}
330
D
100
AcDbGroup
300

 70
     1
 71
     1
  0
GROUP
  5
9087
102
{ACAD_REACTORS
330
D
102
}
330
D
100
AcDbGroup
300

 70
     3
 71
     1
  0
GROUP
  5
900C
102
{ACAD_REACTORS
330
D
102
}
330
D
100
AcDbGroup
300

 70
     1
 71
     1
  0
GROUP
  5
8CE0
102
{ACAD_REACTORS
330
D
102
}
330
D
100
AcDbGroup
300

 70
     1
 71
     1
  0
GROUP
  5
9058
102
{ACAD_REACTORS
330
D
102
}
330
D
100
AcDbGroup
300

 70
     1
 71
     1
  0
GROUP
  5
8CE1
102
{ACAD_REACTORS
330
D
102
}
330
D
100
AcDbGroup
300

 70
     1
 71
     1
  0
GROUP
  5
90D9
102
{ACAD_REACTORS
330
D
102
}
330
D
100
AcDbGroup
300

 70
     1
 71
     1
  0
GROUP
  5
9002
102
{ACAD_REACTORS
330
D
102
}
330
D
100
AcDbGroup
300

 70
     3
 71
     1
  0
GROUP
  5
8FA9
102
{ACAD_REACTORS
330
D
102
}
330
D
100
AcDbGroup
300

 70
     3
 71
     1
  0
GROUP
  5
8CE2
102
{ACAD_REACTORS
330
D
102
}
330
D
100
AcDbGroup
300

 70
     1
 71
     1
  0
GROUP
  5
8CE3
102
{ACAD_REACTORS
330
D
102
}
330
D
100
AcDbGroup
300

 70
     1
 71
     1
  0
GROUP
  5
8CE4
102
{ACAD_REACTORS
330
D
102
}
330
D
100
AcDbGroup
300
Vite UNI 5931 M8X25
 70
     3
 71
     1
  0
GROUP
  5
8CE5
102
{ACAD_REACTORS
330
D
102
}
330
D
100
AcDbGroup
300

 70
     3
 71
     1
  0
GROUP
  5
8C12
102
{ACAD_REACTORS
330
D
102
}
330
D
100
AcDbGroup
300

 70
     3
 71
     1
  0
GROUP
  5
9003
102
{ACAD_REACTORS
330
D
102
}
330
D
100
AcDbGroup
300

 70
     1
 71
     1
  0
GROUP
  5
8CB5
102
{ACAD_REACTORS
330
D
102
}
330
D
100
AcDbGroup
300

 70
     3
 71
     1
  0
GROUP
  5
9088
102
{ACAD_REACTORS
330
D
102
}
330
D
100
AcDbGroup
300

 70
     3
 71
     1
  0
GROUP
  5
8BFC
102
{ACAD_REACTORS
330
D
102
}
330
D
100
AcDbGroup
300

 70
     1
 71
     1
  0
GROUP
  5
8FD3
102
{ACAD_REACTORS
330
D
102
}
330
D
100
AcDbGroup
300
Vite UNI 5933 M6X16
 70
     3
 71
     1
  0
GROUP
  5
8C20
102
{ACAD_REACTORS
330
D
102
}
330
D
100
AcDbGroup
300

 70
     1
 71
     1
  0
GROUP
  5
8FEA
102
{ACAD_REACTORS
330
D
102
}
330
D
100
AcDbGroup
300
Vite UNI 5931 M8X25
 70
     3
 71
     1
  0
GROUP
  5
9076
102
{ACAD_REACTORS
330
D
102
}
330
D
100
AcDbGroup
300

 70
     3
 71
     1
  0
GROUP
  5
9059
102
{ACAD_REACTORS
330
D
102
}
330
D
100
AcDbGroup
300

 70
     3
 71
     1
  0
GROUP
  5
8CA4
102
{ACAD_REACTORS
330
D
102
}
330
D
100
AcDbGroup
300

 70
     3
 71
     1
  0
GROUP
  5
8C59
102
{ACAD_REACTORS
330
D
102
}
330
D
100
AcDbGroup
300

 70
     3
 71
     1
  0
GROUP
  5
8C54
102
{ACAD_REACTORS
330
D
102
}
330
D
100
AcDbGroup
300

 70
     3
 71
     1
  0
GROUP
  5
8CE6
102
{ACAD_REACTORS
330
D
102
}
330
D
100
AcDbGroup
300
Vite UNI 5933 M6X16
 70
     1
 71
     1
  0
GROUP
  5
8CE7
102
{ACAD_REACTORS
330
D
102
}
330
D
100
AcDbGroup
300
Vite UNI 5933 M6X16
 70
     3
 71
     1
  0
GROUP
  5
8CE8
102
{ACAD_REACTORS
330
D
102
}
330
D
100
AcDbGroup
300

 70
     1
 71
     1
  0
GROUP
  5
8BE4
102
{ACAD_REACTORS
330
D
102
}
330
D
100
AcDbGroup
300

 70
     1
 71
     1
  0
GROUP
  5
8CE9
102
{ACAD_REACTORS
330
D
102
}
330
D
100
AcDbGroup
300

 70
     3
 71
     1
  0
GROUP
  5
9079
102
{ACAD_REACTORS
330
D
102
}
330
D
100
AcDbGroup
300
Vite UNI 5933 M6X16
 70
     1
 71
     1
  0
GROUP
  5
9089
102
{ACAD_REACTORS
330
D
102
}
330
D
100
AcDbGroup
300

 70
     1
 71
     1
  0
GROUP
  5
8CEA
102
{ACAD_REACTORS
330
D
102
}
330
D
100
AcDbGroup
300
Ghiera autofrenante M20x1
 70
     1
 71
     1
  0
GROUP
  5
9012
102
{ACAD_REACTORS
330
D
102
}
330
D
100
AcDbGroup
300

 70
     1
 71
     1
  0
GROUP
  5
8C58
102
{ACAD_REACTORS
330
D
102
}
330
D
100
AcDbGroup
300

 70
     3
 71
     1
  0
GROUP
  5
9025
102
{ACAD_REACTORS
330
D
102
}
330
D
100
AcDbGroup
300
Ghiera autofrenante M20x1
 70
     3
 71
     1
  0
GROUP
  5
8CEB
102
{ACAD_REACTORS
330
D
102
}
330
D
100
AcDbGroup
300

 70
     3
 71
     1
  0
GROUP
  5
900A
102
{ACAD_REACTORS
330
D
102
}
330
D
100
AcDbGroup
300

 70
     1
 71
     1
  0
GROUP
  5
8CEC
102
{ACAD_REACTORS
330
D
102
}
330
D
100
AcDbGroup
300

 70
     3
 71
     1
  0
GROUP
  5
8C4F
102
{ACAD_REACTORS
330
D
102
}
330
D
100
AcDbGroup
300

 70
     3
 71
     1
  0
GROUP
  5
8CED
102
{ACAD_REACTORS
330
D
102
}
330
D
100
AcDbGroup
300

 70
     3
 71
     1
  0
GROUP
  5
8CEE
102
{ACAD_REACTORS
330
D
102
}
330
D
100
AcDbGroup
300

 70
     3
 71
     1
  0
GROUP
  5
8C78
102
{ACAD_REACTORS
330
D
102
}
330
D
100
AcDbGroup
300

 70
     1
 71
     1
  0
GROUP
  5
8FAA
102
{ACAD_REACTORS
330
D
102
}
330
D
100
AcDbGroup
300

 70
     3
 71
     1
  0
GROUP
  5
8CF1
102
{ACAD_REACTORS
330
D
102
}
330
D
100
AcDbGroup
300

 70
     1
 71
     1
  0
GROUP
  5
8FDF
102
{ACAD_REACTORS
330
D
102
}
330
D
100
AcDbGroup
300

 70
     1
 71
     1
  0
GROUP
  5
900E
102
{ACAD_REACTORS
330
D
102
}
330
D
100
AcDbGroup
300

 70
     3
 71
     1
  0
GROUP
  5
90B3
102
{ACAD_REACTORS
330
D
102
}
330
D
100
AcDbGroup
300

 70
     3
 71
     1
  0
GROUP
  5
8FAB
102
{ACAD_REACTORS
330
D
102
}
330
D
100
AcDbGroup
300

 70
     1
 71
     1
  0
GROUP
  5
8FAC
102
{ACAD_REACTORS
330
D
102
}
330
D
100
AcDbGroup
300

 70
     3
 71
     1
  0
GROUP
  5
8FAD
102
{ACAD_REACTORS
330
D
102
}
330
D
100
AcDbGroup
300

 70
     3
 71
     1
  0
GROUP
  5
8C0E
102
{ACAD_REACTORS
330
D
102
}
330
D
100
AcDbGroup
300

 70
     3
 71
     1
  0
GROUP
  5
905A
102
{ACAD_REACTORS
330
D
102
}
330
D
100
AcDbGroup
300

 70
     3
 71
     1
  0
GROUP
  5
8C02
102
{ACAD_REACTORS
330
D
102
}
330
D
100
AcDbGroup
300

 70
     3
 71
     1
  0
GROUP
  5
90DA
102
{ACAD_REACTORS
330
D
102
}
330
D
100
AcDbGroup
300

 70
     3
 71
     1
  0
GROUP
  5
8FAE
102
{ACAD_REACTORS
330
D
102
}
330
D
100
AcDbGroup
300

 70
     3
 71
     1
  0
GROUP
  5
90FC
102
{ACAD_REACTORS
330
D
102
}
330
D
100
AcDbGroup
300

 70
     3
 71
     1
  0
GROUP
  5
8FAF
102
{ACAD_REACTORS
330
D
102
}
330
D
100
AcDbGroup
300

 70
     3
 71
     1
  0
GROUP
  5
8FEB
102
{ACAD_REACTORS
330
D
102
}
330
D
100
AcDbGroup
300

 70
     3
 71
     1
  0
GROUP
  5
8FB0
102
{ACAD_REACTORS
330
D
102
}
330
D
100
AcDbGroup
300

 70
     1
 71
     1
  0
GROUP
  5
8FD8
102
{ACAD_REACTORS
330
D
102
}
330
D
100
AcDbGroup
300
Rosetta UNI 1751 A 6.1
 70
     1
 71
     1
  0
GROUP
  5
8C70
102
{ACAD_REACTORS
330
D
102
}
330
D
100
AcDbGroup
300

 70
     1
 71
     1
  0
GROUP
  5
8C5A
102
{ACAD_REACTORS
330
D
102
}
330
D
100
AcDbGroup
300
Vite UNI 5933 M6X16
 70
     3
 71
     1
  0
GROUP
  5
8FB1
102
{ACAD_REACTORS
330
D
102
}
330
D
100
AcDbGroup
300

 70
     1
 71
     1
  0
GROUP
  5
8BF6
102
{ACAD_REACTORS
330
D
102
}
330
D
100
AcDbGroup
300

 70
     1
 71
     1
  0
GROUP
  5
8CF2
102
{ACAD_REACTORS
330
D
102
}
330
D
100
AcDbGroup
300

 70
     3
 71
     1
  0
GROUP
  5
8FDD
102
{ACAD_REACTORS
330
D
102
}
330
D
100
AcDbGroup
300

 70
     3
 71
     1
  0
GROUP
  5
90FD
102
{ACAD_REACTORS
330
D
102
}
330
D
100
AcDbGroup
300

 70
     3
 71
     1
  0
GROUP
  5
8FB2
102
{ACAD_REACTORS
330
D
102
}
330
D
100
AcDbGroup
300

 70
     1
 71
     1
  0
GROUP
  5
905B
102
{ACAD_REACTORS
330
D
102
}
330
D
100
AcDbGroup
300

 70
     3
 71
     1
  0
GROUP
  5
8C66
102
{ACAD_REACTORS
330
D
102
}
330
D
100
AcDbGroup
300

 70
     3
 71
     1
  0
GROUP
  5
8FB3
102
{ACAD_REACTORS
330
D
102
}
330
D
100
AcDbGroup
300

 70
     1
 71
     1
  0
GROUP
  5
8FB4
102
{ACAD_REACTORS
330
D
102
}
330
D
100
AcDbGroup
300

 70
     1
 71
     1
  0
GROUP
  5
9011
102
{ACAD_REACTORS
330
D
102
}
330
D
100
AcDbGroup
300

 70
     3
 71
     1
  0
GROUP
  5
90B4
102
{ACAD_REACTORS
330
D
102
}
330
D
100
AcDbGroup
300

 70
     3
 71
     1
  0
GROUP
  5
8FB5
102
{ACAD_REACTORS
330
D
102
}
330
D
100
AcDbGroup
300

 70
     3
 71
     1
  0
GROUP
  5
8C18
102
{ACAD_REACTORS
330
D
102
}
330
D
100
AcDbGroup
300

 70
     3
 71
     1
  0
GROUP
  5
8FB6
102
{ACAD_REACTORS
330
D
102
}
330
D
100
AcDbGroup
300

 70
     1
 71
     1
  0
GROUP
  5
90FE
102
{ACAD_REACTORS
330
D
102
}
330
D
100
AcDbGroup
300

 70
     1
 71
     1
  0
GROUP
  5
903C
102
{ACAD_REACTORS
330
D
102
}
330
D
100
AcDbGroup
300

 70
     1
 71
     1
  0
GROUP
  5
8FEC
102
{ACAD_REACTORS
330
D
102
}
330
D
100
AcDbGroup
300

 70
     3
 71
     1
  0
GROUP
  5
8FB7
102
{ACAD_REACTORS
330
D
102
}
330
D
100
AcDbGroup
300

 70
     3
 71
     1
  0
GROUP
  5
8C03
102
{ACAD_REACTORS
330
D
102
}
330
D
100
AcDbGroup
300

 70
     1
 71
     1
  0
GROUP
  5
8FB8
102
{ACAD_REACTORS
330
D
102
}
330
D
100
AcDbGroup
300

 70
     1
 71
     1
  0
GROUP
  5
8FB9
102
{ACAD_REACTORS
330
D
102
}
330
D
100
AcDbGroup
300

 70
     3
 71
     1
  0
GROUP
  5
903D
102
{ACAD_REACTORS
330
D
102
}
330
D
100
AcDbGroup
300

 70
     3
 71
     1
  0
GROUP
  5
8F8F
102
{ACAD_REACTORS
330
D
102
}
330
D
100
AcDbGroup
300
Vite UNI 5933 M6X16
 70
     1
 71
     1
  0
GROUP
  5
90B5
102
{ACAD_REACTORS
330
D
102
}
330
D
100
AcDbGroup
300

 70
     1
 71
     1
  0
GROUP
  5
8C5B
102
{ACAD_REACTORS
330
D
102
}
330
D
100
AcDbGroup
300

 70
     3
 71
     1
  0
GROUP
  5
8C0C
102
{ACAD_REACTORS
330
D
102
}
330
D
100
AcDbGroup
300

 70
     3
 71
     1
  0
GROUP
  5
8C7C
102
{ACAD_REACTORS
330
D
102
}
330
D
100
AcDbGroup
300

 70
     3
 71
     1
  0
GROUP
  5
9026
102
{ACAD_REACTORS
330
D
102
}
330
D
100
AcDbGroup
300

 70
     3
 71
     1
  0
GROUP
  5
90A5
102
{ACAD_REACTORS
330
D
102
}
330
D
100
AcDbGroup
300

 70
     3
 71
     1
  0
GROUP
  5
908A
102
{ACAD_REACTORS
330
D
102
}
330
D
100
AcDbGroup
300
Vite UNI 5933 M6X16
 70
     1
 71
     1
  0
GROUP
  5
8CF3
102
{ACAD_REACTORS
330
D
102
}
330
D
100
AcDbGroup
300

 70
     3
 71
     1
  0
GROUP
  5
8CAA
102
{ACAD_REACTORS
330
D
102
}
330
D
100
AcDbGroup
300

 70
     3
 71
     1
  0
GROUP
  5
8FBA
102
{ACAD_REACTORS
330
D
102
}
330
D
100
AcDbGroup
300

 70
     1
 71
     1
  0
GROUP
  5
8FBB
102
{ACAD_REACTORS
330
D
102
}
330
D
100
AcDbGroup
300

 70
     1
 71
     1
  0
GROUP
  5
8FBC
102
{ACAD_REACTORS
330
D
102
}
330
D
100
AcDbGroup
300
Ghiera autofrenante M20x1
 70
     3
 71
     1
  0
GROUP
  5
8BEC
102
{ACAD_REACTORS
330
D
102
}
330
D
100
AcDbGroup
300

 70
     3
 71
     1
  0
GROUP
  5
8FBD
102
{ACAD_REACTORS
330
D
102
}
330
D
100
AcDbGroup
300

 70
     3
 71
     1
  0
GROUP
  5
8C1B
102
{ACAD_REACTORS
330
D
102
}
330
D
100
AcDbGroup
300

 70
     3
 71
     1
  0
GROUP
  5
90B6
102
{ACAD_REACTORS
330
D
102
}
330
D
100
AcDbGroup
300

 70
     3
 71
     1
  0
GROUP
  5
8FBE
102
{ACAD_REACTORS
330
D
102
}
330
D
100
AcDbGroup
300
Vite UNI 5931 M8X25
 70
     3
 71
     1
  0
GROUP
  5
904B
102
{ACAD_REACTORS
330
D
102
}
330
D
100
AcDbGroup
300

 70
     1
 71
     1
  0
GROUP
  5
905C
102
{ACAD_REACTORS
330
D
102
}
330
D
100
AcDbGroup
300

 70
     3
 71
     1
  0
GROUP
  5
8FBF
102
{ACAD_REACTORS
330
D
102
}
330
D
100
AcDbGroup
300

 70
     1
 71
     1
  0
GROUP
  5
8C11
102
{ACAD_REACTORS
330
D
102
}
330
D
100
AcDbGroup
300

 70
     3
 71
     1
  0
GROUP
  5
8FC0
102
{ACAD_REACTORS
330
D
102
}
330
D
100
AcDbGroup
300
Vite UNI 5933 M6X16
 70
     1
 71
     1
  0
GROUP
  5
8CA7
102
{ACAD_REACTORS
330
D
102
}
330
D
100
AcDbGroup
300

 70
     3
 71
     1
  0
GROUP
  5
8FC1
102
{ACAD_REACTORS
330
D
102
}
330
D
100
AcDbGroup
300

 70
     1
 71
     1
  0
GROUP
  5
8C04
102
{ACAD_REACTORS
330
D
102
}
330
D
100
AcDbGroup
300
Vite UNI 5931 M8X25
 70
     1
 71
     1
  0
GROUP
  5
8CCB
102
{ACAD_REACTORS
330
D
102
}
330
D
100
AcDbGroup
300

 70
     1
 71
     1
  0
GROUP
  5
8FED
102
{ACAD_REACTORS
330
D
102
}
330
D
100
AcDbGroup
300

 70
     1
 71
     1
  0
GROUP
  5
8FC4
102
{ACAD_REACTORS
330
D
102
}
330
D
100
AcDbGroup
300

 70
     1
 71
     1
  0
GROUP
  5
9047
102
{ACAD_REACTORS
330
D
102
}
330
D
100
AcDbGroup
300

 70
     1
 71
     1
  0
GROUP
  5
90DB
102
{ACAD_REACTORS
330
D
102
}
330
D
100
AcDbGroup
300

 70
     3
 71
     1
  0
GROUP
  5
8FEE
102
{ACAD_REACTORS
330
D
102
}
330
D
100
AcDbGroup
300

 70
     1
 71
     1
  0
GROUP
  5
8FEF
102
{ACAD_REACTORS
330
D
102
}
330
D
100
AcDbGroup
300

 70
     1
 71
     1
  0
GROUP
  5
8FF0
102
{ACAD_REACTORS
330
D
102
}
330
D
100
AcDbGroup
300

 70
     3
 71
     1
  0
GROUP
  5
8C6C
102
{ACAD_REACTORS
330
D
102
}
330
D
100
AcDbGroup
300

 70
     3
 71
     1
  0
GROUP
  5
908B
102
{ACAD_REACTORS
330
D
102
}
330
D
100
AcDbGroup
300

 70
     3
 71
     1
  0
GROUP
  5
8C61
102
{ACAD_REACTORS
330
D
102
}
330
D
100
AcDbGroup
300

 70
     3
 71
     1
  0
GROUP
  5
90FF
102
{ACAD_REACTORS
330
D
102
}
330
D
100
AcDbGroup
300

 70
     3
 71
     1
  0
GROUP
  5
8FF1
102
{ACAD_REACTORS
330
D
102
}
330
D
100
AcDbGroup
300

 70
     3
 71
     1
  0
GROUP
  5
8FF2
102
{ACAD_REACTORS
330
D
102
}
330
D
100
AcDbGroup
300

 70
     1
 71
     1
  0
GROUP
  5
9027
102
{ACAD_REACTORS
330
D
102
}
330
D
100
AcDbGroup
300
Vite UNI 5933 M6X16
 70
     1
 71
     1
  0
GROUP
  5
8FF3
102
{ACAD_REACTORS
330
D
102
}
330
D
100
AcDbGroup
300

 70
     3
 71
     1
  0
GROUP
  5
9016
102
{ACAD_REACTORS
330
D
102
}
330
D
100
AcDbGroup
300

 70
     1
 71
     1
  0
GROUP
  5
8CC4
102
{ACAD_REACTORS
330
D
102
}
330
D
100
AcDbGroup
300

 70
     3
 71
     1
  0
GROUP
  5
8CB0
102
{ACAD_REACTORS
330
D
102
}
330
D
100
AcDbGroup
300

 70
     3
 71
     1
  0
GROUP
  5
8C09
102
{ACAD_REACTORS
330
D
102
}
330
D
100
AcDbGroup
300

 70
     3
 71
     1
  0
GROUP
  5
8C56
102
{ACAD_REACTORS
330
D
102
}
330
D
100
AcDbGroup
300

 70
     3
 71
     1
  0
GROUP
  5
8FC5
102
{ACAD_REACTORS
330
D
102
}
330
D
100
AcDbGroup
300

 70
     1
 71
     1
  0
GROUP
  5
901B
102
{ACAD_REACTORS
330
D
102
}
330
D
100
AcDbGroup
300

 70
     3
 71
     1
  0
GROUP
  5
8FF4
102
{ACAD_REACTORS
330
D
102
}
330
D
100
AcDbGroup
300
Vite UNI 5933 M6X16
 70
     1
 71
     1
  0
GROUP
  5
908C
102
{ACAD_REACTORS
330
D
102
}
330
D
100
AcDbGroup
300

 70
     1
 71
     1
  0
GROUP
  5
8CBB
102
{ACAD_REACTORS
330
D
102
}
330
D
100
AcDbGroup
300

 70
     1
 71
     1
  0
GROUP
  5
8FF5
102
{ACAD_REACTORS
330
D
102
}
330
D
100
AcDbGroup
300

 70
     1
 71
     1
  0
GROUP
  5
8FF6
102
{ACAD_REACTORS
330
D
102
}
330
D
100
AcDbGroup
300

 70
     3
 71
     1
  0
GROUP
  5
904A
102
{ACAD_REACTORS
330
D
102
}
330
D
100
AcDbGroup
300

 70
     3
 71
     1
  0
GROUP
  5
90DC
102
{ACAD_REACTORS
330
D
102
}
330
D
100
AcDbGroup
300
Vite UNI 5931 M8X25
 70
     1
 71
     1
  0
GROUP
  5
8FF7
102
{ACAD_REACTORS
330
D
102
}
330
D
100
AcDbGroup
300

 70
     3
 71
     1
  0
GROUP
  5
8C75
102
{ACAD_REACTORS
330
D
102
}
330
D
100
AcDbGroup
300

 70
     3
 71
     1
  0
GROUP
  5
8FF8
102
{ACAD_REACTORS
330
D
102
}
330
D
100
AcDbGroup
300

 70
     1
 71
     1
  0
GROUP
  5
9070
102
{ACAD_REACTORS
330
D
102
}
330
D
100
AcDbGroup
300

 70
     3
 71
     1
  0
GROUP
  5
9028
102
{ACAD_REACTORS
330
D
102
}
330
D
100
AcDbGroup
300

 70
     3
 71
     1
  0
GROUP
  5
8FF9
102
{ACAD_REACTORS
330
D
102
}
330
D
100
AcDbGroup
300

 70
     1
 71
     1
  0
GROUP
  5
8C62
102
{ACAD_REACTORS
330
D
102
}
330
D
100
AcDbGroup
300

 70
     3
 71
     1
  0
GROUP
  5
8FFA
102
{ACAD_REACTORS
330
D
102
}
330
D
100
AcDbGroup
300

 70
     1
 71
     1
  0
GROUP
  5
8FFB
102
{ACAD_REACTORS
330
D
102
}
330
D
100
AcDbGroup
300
Vite UNI 5933 M6X16
 70
     3
 71
     1
  0
GROUP
  5
9071
102
{ACAD_REACTORS
330
D
102
}
330
D
100
AcDbGroup
300

 70
     1
 71
     1
  0
GROUP
  5
8FD5
102
{ACAD_REACTORS
330
D
102
}
330
D
100
AcDbGroup
300
Vite UNI 5931 M8X25
 70
     1
 71
     1
  0
GROUP
  5
90DD
102
{ACAD_REACTORS
330
D
102
}
330
D
100
AcDbGroup
300

 70
     3
 71
     1
  0
GROUP
  5
8CB1
102
{ACAD_REACTORS
330
D
102
}
330
D
100
AcDbGroup
300

 70
     1
 71
     1
  0
GROUP
  5
905D
102
{ACAD_REACTORS
330
D
102
}
330
D
100
AcDbGroup
300

 70
     3
 71
     1
  0
GROUP
  5
90CF
102
{ACAD_REACTORS
330
D
102
}
330
D
100
AcDbGroup
300
Vite UNI 5931 M8X25
 70
     3
 71
     1
  0
GROUP
  5
90B7
102
{ACAD_REACTORS
330
D
102
}
330
D
100
AcDbGroup
300
Vite UNI 5931 M8X25
 70
     3
 71
     1
  0
GROUP
  5
8FC6
102
{ACAD_REACTORS
330
D
102
}
330
D
100
AcDbGroup
300

 70
     1
 71
     1
  0
GROUP
  5
8F85
102
{ACAD_REACTORS
330
D
102
}
330
D
100
AcDbGroup
300

 70
     3
 71
     1
  0
GROUP
  5
8FFC
102
{ACAD_REACTORS
330
D
102
}
330
D
100
AcDbGroup
300
Ghiera autofrenante M20x1
 70
     3
 71
     1
  0
GROUP
  5
8FFD
102
{ACAD_REACTORS
330
D
102
}
330
D
100
AcDbGroup
300

 70
     1
 71
     1
  0
GROUP
  5
8BE6
102
{ACAD_REACTORS
330
D
102
}
330
D
100
AcDbGroup
300

 70
     3
 71
     1
  0
GROUP
  5
8C4D
102
{ACAD_REACTORS
330
D
102
}
330
D
100
AcDbGroup
300

 70
     1
 71
     1
  0
GROUP
  5
8C0A
102
{ACAD_REACTORS
330
D
102
}
330
D
100
AcDbGroup
300
Vite UNI 5933 M6X16
 70
     1
 71
     1
  0
GROUP
  5
90DE
102
{ACAD_REACTORS
330
D
102
}
330
D
100
AcDbGroup
300

 70
     3
 71
     1
  0
GROUP
  5
8FFE
102
{ACAD_REACTORS
330
D
102
}
330
D
100
AcDbGroup
300

 70
     1
 71
     1
  0
GROUP
  5
907E
102
{ACAD_REACTORS
330
D
102
}
330
D
100
AcDbGroup
300

 70
     3
 71
     1
  0
GROUP
  5
908D
102
{ACAD_REACTORS
330
D
102
}
330
D
100
AcDbGroup
300

 70
     3
 71
     1
  0
GROUP
  5
8FFF
102
{ACAD_REACTORS
330
D
102
}
330
D
100
AcDbGroup
300

 70
     3
 71
     1
  0
GROUP
  5
8C6E
102
{ACAD_REACTORS
330
D
102
}
330
D
100
AcDbGroup
300

 70
     3
 71
     1
  0
GROUP
  5
9000
102
{ACAD_REACTORS
330
D
102
}
330
D
100
AcDbGroup
300

 70
     3
 71
     1
  0
GROUP
  5
8F82
102
{ACAD_REACTORS
330
D
102
}
330
D
100
AcDbGroup
300

 70
     1
 71
     1
  0
GROUP
  5
9001
102
{ACAD_REACTORS
330
D
102
}
330
D
100
AcDbGroup
300
Rosetta UNI 1751 A 6.1
 70
     1
 71
     1
  0
GROUP
  5
8C63
102
{ACAD_REACTORS
330
D
102
}
330
D
100
AcDbGroup
300
Ghiera autofrenante M20x1
 70
     3
 71
     1
  0
GROUP
  5
9029
102
{ACAD_REACTORS
330
D
102
}
330
D
100
AcDbGroup
300

 70
     1
 71
     1
  0
GROUP
  5
9004
102
{ACAD_REACTORS
330
D
102
}
330
D
100
AcDbGroup
300

 70
     1
 71
     1
  0
GROUP
  5
907A
102
{ACAD_REACTORS
330
D
102
}
330
D
100
AcDbGroup
300

 70
     3
 71
     1
  0
GROUP
  5
9100
102
{ACAD_REACTORS
330
D
102
}
330
D
100
AcDbGroup
300

 70
     1
 71
     1
  0
GROUP
  5
902A
102
{ACAD_REACTORS
330
D
102
}
330
D
100
AcDbGroup
300

 70
     3
 71
     1
  0
GROUP
  5
902B
102
{ACAD_REACTORS
330
D
102
}
330
D
100
AcDbGroup
300
Vite UNI 5933 M6X16
 70
     3
 71
     1
  0
GROUP
  5
902C
102
{ACAD_REACTORS
330
D
102
}
330
D
100
AcDbGroup
300

 70
     1
 71
     1
  0
GROUP
  5
8CC0
102
{ACAD_REACTORS
330
D
102
}
330
D
100
AcDbGroup
300

 70
     1
 71
     1
  0
GROUP
  5
90B8
102
{ACAD_REACTORS
330
D
102
}
330
D
100
AcDbGroup
300

 70
     1
 71
     1
  0
GROUP
  5
8CB6
102
{ACAD_REACTORS
330
D
102
}
330
D
100
AcDbGroup
300

 70
     3
 71
     1
  0
GROUP
  5
902D
102
{ACAD_REACTORS
330
D
102
}
330
D
100
AcDbGroup
300

 70
     3
 71
     1
  0
GROUP
  5
902E
102
{ACAD_REACTORS
330
D
102
}
330
D
100
AcDbGroup
300

 70
     3
 71
     1
  0
GROUP
  5
905E
102
{ACAD_REACTORS
330
D
102
}
330
D
100
AcDbGroup
300

 70
     3
 71
     1
  0
GROUP
  5
902F
102
{ACAD_REACTORS
330
D
102
}
330
D
100
AcDbGroup
300

 70
     3
 71
     1
  0
GROUP
  5
904E
102
{ACAD_REACTORS
330
D
102
}
330
D
100
AcDbGroup
300

 70
     1
 71
     1
  0
GROUP
  5
8F9B
102
{ACAD_REACTORS
330
D
102
}
330
D
100
AcDbGroup
300
Vite UNI 5933 M6X16
 70
     3
 71
     1
  0
GROUP
  5
8F8A
102
{ACAD_REACTORS
330
D
102
}
330
D
100
AcDbGroup
300

 70
     1
 71
     1
  0
GROUP
  5
8C67
102
{ACAD_REACTORS
330
D
102
}
330
D
100
AcDbGroup
300

 70
     3
 71
     1
  0
GROUP
  5
8CAC
102
{ACAD_REACTORS
330
D
102
}
330
D
100
AcDbGroup
300

 70
     1
 71
     1
  0
GROUP
  5
9005
102
{ACAD_REACTORS
330
D
102
}
330
D
100
AcDbGroup
300

 70
     3
 71
     1
  0
GROUP
  5
8C0F
102
{ACAD_REACTORS
330
D
102
}
330
D
100
AcDbGroup
300
Vite UNI 5933 M6X16
 70
     3
 71
     1
  0
GROUP
  5
90B9
102
{ACAD_REACTORS
330
D
102
}
330
D
100
AcDbGroup
300

 70
     3
 71
     1
  0
GROUP
  5
8F94
102
{ACAD_REACTORS
330
D
102
}
330
D
100
AcDbGroup
300

 70
     3
 71
     1
  0
GROUP
  5
9030
102
{ACAD_REACTORS
330
D
102
}
330
D
100
AcDbGroup
300

 70
     3
 71
     1
  0
GROUP
  5
9031
102
{ACAD_REACTORS
330
D
102
}
330
D
100
AcDbGroup
300
Vite UNI 5933 M6X16
 70
     3
 71
     1
  0
GROUP
  5
907D
102
{ACAD_REACTORS
330
D
102
}
330
D
100
AcDbGroup
300

 70
     3
 71
     1
  0
GROUP
  5
9101
102
{ACAD_REACTORS
330
D
102
}
330
D
100
AcDbGroup
300

 70
     3
 71
     1
  0
GROUP
  5
9032
102
{ACAD_REACTORS
330
D
102
}
330
D
100
AcDbGroup
300

 70
     3
 71
     1
  0
GROUP
  5
8CC8
102
{ACAD_REACTORS
330
D
102
}
330
D
100
AcDbGroup
300
Rosetta UNI 1751 A 6.1
 70
     1
 71
     1
  0
GROUP
  5
9033
102
{ACAD_REACTORS
330
D
102
}
330
D
100
AcDbGroup
300

 70
     3
 71
     1
  0
GROUP
  5
905F
102
{ACAD_REACTORS
330
D
102
}
330
D
100
AcDbGroup
300

 70
     3
 71
     1
  0
GROUP
  5
9034
102
{ACAD_REACTORS
330
D
102
}
330
D
100
AcDbGroup
300

 70
     1
 71
     1
  0
GROUP
  5
8CB7
102
{ACAD_REACTORS
330
D
102
}
330
D
100
AcDbGroup
300

 70
     1
 71
     1
  0
GROUP
  5
9035
102
{ACAD_REACTORS
330
D
102
}
330
D
100
AcDbGroup
300

 70
     3
 71
     1
  0
GROUP
  5
9036
102
{ACAD_REACTORS
330
D
102
}
330
D
100
AcDbGroup
300

 70
     1
 71
     1
  0
GROUP
  5
90A0
102
{ACAD_REACTORS
330
D
102
}
330
D
100
AcDbGroup
300

 70
     1
 71
     1
  0
GROUP
  5
9013
102
{ACAD_REACTORS
330
D
102
}
330
D
100
AcDbGroup
300

 70
     1
 71
     1
  0
GROUP
  5
8C24
102
{ACAD_REACTORS
330
D
102
}
330
D
100
AcDbGroup
300

 70
     1
 71
     1
  0
GROUP
  5
8F8B
102
{ACAD_REACTORS
330
D
102
}
330
D
100
AcDbGroup
300

 70
     3
 71
     1
  0
GROUP
  5
908E
102
{ACAD_REACTORS
330
D
102
}
330
D
100
AcDbGroup
300

 70
     3
 71
     1
  0
GROUP
  5
90DF
102
{ACAD_REACTORS
330
D
102
}
330
D
100
AcDbGroup
300

 70
     3
 71
     1
  0
GROUP
  5
9006
102
{ACAD_REACTORS
330
D
102
}
330
D
100
AcDbGroup
300
Rosetta UNI 1751 A 6.1
 70
     1
 71
     1
  0
GROUP
  5
8C05
102
{ACAD_REACTORS
330
D
102
}
330
D
100
AcDbGroup
300

 70
     3
 71
     1
  0
GROUP
  5
9037
102
{ACAD_REACTORS
330
D
102
}
330
D
100
AcDbGroup
300

 70
     3
 71
     1
  0
GROUP
  5
9038
102
{ACAD_REACTORS
330
D
102
}
330
D
100
AcDbGroup
300

 70
     1
 71
     1
  0
GROUP
  5
8C47
102
{ACAD_REACTORS
330
D
102
}
330
D
100
AcDbGroup
300

 70
     3
 71
     1
  0
GROUP
  5
8CA5
102
{ACAD_REACTORS
330
D
102
}
330
D
100
AcDbGroup
300

 70
     3
 71
     1
  0
GROUP
  5
8C68
102
{ACAD_REACTORS
330
D
102
}
330
D
100
AcDbGroup
300

 70
     3
 71
     1
  0
GROUP
  5
9102
102
{ACAD_REACTORS
330
D
102
}
330
D
100
AcDbGroup
300

 70
     1
 71
     1
  0
GROUP
  5
9039
102
{ACAD_REACTORS
330
D
102
}
330
D
100
AcDbGroup
300
Vite UNI 5933 M6X16
 70
     3
 71
     1
  0
GROUP
  5
90BA
102
{ACAD_REACTORS
330
D
102
}
330
D
100
AcDbGroup
300

 70
     3
 71
     1
  0
GROUP
  5
8C10
102
{ACAD_REACTORS
330
D
102
}
330
D
100
AcDbGroup
300

 70
     3
 71
     1
  0
GROUP
  5
8CC2
102
{ACAD_REACTORS
330
D
102
}
330
D
100
AcDbGroup
300

 70
     3
 71
     1
  0
GROUP
  5
903A
102
{ACAD_REACTORS
330
D
102
}
330
D
100
AcDbGroup
300

 70
     1
 71
     1
  0
GROUP
  5
8FC9
102
{ACAD_REACTORS
330
D
102
}
330
D
100
AcDbGroup
300

 70
     1
 71
     1
  0
GROUP
  5
903B
102
{ACAD_REACTORS
330
D
102
}
330
D
100
AcDbGroup
300

 70
     3
 71
     1
  0
GROUP
  5
8CB8
102
{ACAD_REACTORS
330
D
102
}
330
D
100
AcDbGroup
300

 70
     1
 71
     1
  0
GROUP
  5
9060
102
{ACAD_REACTORS
330
D
102
}
330
D
100
AcDbGroup
300

 70
     1
 71
     1
  0
GROUP
  5
903E
102
{ACAD_REACTORS
330
D
102
}
330
D
100
AcDbGroup
300

 70
     3
 71
     1
  0
GROUP
  5
90A8
102
{ACAD_REACTORS
330
D
102
}
330
D
100
AcDbGroup
300

 70
     3
 71
     1
  0
GROUP
  5
9061
102
{ACAD_REACTORS
330
D
102
}
330
D
100
AcDbGroup
300

 70
     3
 71
     1
  0
GROUP
  5
8BE7
102
{ACAD_REACTORS
330
D
102
}
330
D
100
AcDbGroup
300
Ghiera autofrenante M20x1
 70
     3
 71
     1
  0
GROUP
  5
8C14
102
{ACAD_REACTORS
330
D
102
}
330
D
100
AcDbGroup
300

 70
     3
 71
     1
  0
GROUP
  5
8F99
102
{ACAD_REACTORS
330
D
102
}
330
D
100
AcDbGroup
300

 70
     3
 71
     1
  0
GROUP
  5
90E0
102
{ACAD_REACTORS
330
D
102
}
330
D
100
AcDbGroup
300

 70
     1
 71
     1
  0
GROUP
  5
8BFF
102
{ACAD_REACTORS
330
D
102
}
330
D
100
AcDbGroup
300

 70
     3
 71
     1
  0
GROUP
  5
9062
102
{ACAD_REACTORS
330
D
102
}
330
D
100
AcDbGroup
300

 70
     3
 71
     1
  0
GROUP
  5
9063
102
{ACAD_REACTORS
330
D
102
}
330
D
100
AcDbGroup
300

 70
     3
 71
     1
  0
GROUP
  5
908F
102
{ACAD_REACTORS
330
D
102
}
330
D
100
AcDbGroup
300

 70
     3
 71
     1
  0
GROUP
  5
9064
102
{ACAD_REACTORS
330
D
102
}
330
D
100
AcDbGroup
300

 70
     1
 71
     1
  0
GROUP
  5
8C07
102
{ACAD_REACTORS
330
D
102
}
330
D
100
AcDbGroup
300

 70
     3
 71
     1
  0
GROUP
  5
8FD0
102
{ACAD_REACTORS
330
D
102
}
330
D
100
AcDbGroup
300

 70
     3
 71
     1
  0
GROUP
  5
8CBC
102
{ACAD_REACTORS
330
D
102
}
330
D
100
AcDbGroup
300

 70
     1
 71
     1
  0
GROUP
  5
8F86
102
{ACAD_REACTORS
330
D
102
}
330
D
100
AcDbGroup
300

 70
     3
 71
     1
  0
GROUP
  5
903F
102
{ACAD_REACTORS
330
D
102
}
330
D
100
AcDbGroup
300

 70
     3
 71
     1
  0
GROUP
  5
8C6D
102
{ACAD_REACTORS
330
D
102
}
330
D
100
AcDbGroup
300

 70
     1
 71
     1
  0
GROUP
  5
90E1
102
{ACAD_REACTORS
330
D
102
}
330
D
100
AcDbGroup
300

 70
     1
 71
     1
  0
GROUP
  5
8FD9
102
{ACAD_REACTORS
330
D
102
}
330
D
100
AcDbGroup
300

 70
     3
 71
     1
  0
GROUP
  5
9065
102
{ACAD_REACTORS
330
D
102
}
330
D
100
AcDbGroup
300

 70
     3
 71
     1
  0
GROUP
  5
9066
102
{ACAD_REACTORS
330
D
102
}
330
D
100
AcDbGroup
300

 70
     1
 71
     1
  0
GROUP
  5
9067
102
{ACAD_REACTORS
330
D
102
}
330
D
100
AcDbGroup
300

 70
     3
 71
     1
  0
GROUP
  5
8F9F
102
{ACAD_REACTORS
330
D
102
}
330
D
100
AcDbGroup
300

 70
     1
 71
     1
  0
GROUP
  5
9068
102
{ACAD_REACTORS
330
D
102
}
330
D
100
AcDbGroup
300

 70
     3
 71
     1
  0
GROUP
  5
9090
102
{ACAD_REACTORS
330
D
102
}
330
D
100
AcDbGroup
300

 70
     1
 71
     1
  0
GROUP
  5
9069
102
{ACAD_REACTORS
330
D
102
}
330
D
100
AcDbGroup
300

 70
     3
 71
     1
  0
GROUP
  5
8F90
102
{ACAD_REACTORS
330
D
102
}
330
D
100
AcDbGroup
300
Vite UNI 5933 M6X16
 70
     3
 71
     1
  0
GROUP
  5
906A
102
{ACAD_REACTORS
330
D
102
}
330
D
100
AcDbGroup
300

 70
     3
 71
     1
  0
GROUP
  5
906B
102
{ACAD_REACTORS
330
D
102
}
330
D
100
AcDbGroup
300

 70
     3
 71
     1
  0
GROUP
  5
90CA
102
{ACAD_REACTORS
330
D
102
}
330
D
100
AcDbGroup
300

 70
     3
 71
     1
  0
GROUP
  5
904C
102
{ACAD_REACTORS
330
D
102
}
330
D
100
AcDbGroup
300
Vite UNI 5931 M8X25
 70
     3
 71
     1
  0
GROUP
  5
8FD1
102
{ACAD_REACTORS
330
D
102
}
330
D
100
AcDbGroup
300

 70
     1
 71
     1
  0
GROUP
  5
90BB
102
{ACAD_REACTORS
330
D
102
}
330
D
100
AcDbGroup
300

 70
     1
 71
     1
  0
GROUP
  5
9103
102
{ACAD_REACTORS
330
D
102
}
330
D
100
AcDbGroup
300

 70
     3
 71
     1
  0
GROUP
  5
9040
102
{ACAD_REACTORS
330
D
102
}
330
D
100
AcDbGroup
300

 70
     1
 71
     1
  0
GROUP
  5
8BEF
102
{ACAD_REACTORS
330
D
102
}
330
D
100
AcDbGroup
300

 70
     3
 71
     1
  0
GROUP
  5
8C15
102
{ACAD_REACTORS
330
D
102
}
330
D
100
AcDbGroup
300

 70
     3
 71
     1
  0
GROUP
  5
906C
102
{ACAD_REACTORS
330
D
102
}
330
D
100
AcDbGroup
300

 70
     3
 71
     1
  0
GROUP
  5
8BF5
102
{ACAD_REACTORS
330
D
102
}
330
D
100
AcDbGroup
300

 70
     3
 71
     1
  0
GROUP
  5
8CF4
102
{ACAD_REACTORS
330
D
102
}
330
D
100
AcDbGroup
300

 70
     3
 71
     1
  0
GROUP
  5
8CBD
102
{ACAD_REACTORS
330
D
102
}
330
D
100
AcDbGroup
300
Vite UNI 5933 M6X16
 70
     1
 71
     1
  0
GROUP
  5
906D
102
{ACAD_REACTORS
330
D
102
}
330
D
100
AcDbGroup
300

 70
     3
 71
     1
  0
GROUP
  5
90E2
102
{ACAD_REACTORS
330
D
102
}
330
D
100
AcDbGroup
300

 70
     3
 71
     1
  0
GROUP
  5
8BF0
102
{ACAD_REACTORS
330
D
102
}
330
D
100
AcDbGroup
300
Vite UNI 5933 M6X16
 70
     1
 71
     1
  0
GROUP
  5
8C00
102
{ACAD_REACTORS
330
D
102
}
330
D
100
AcDbGroup
300

 70
     3
 71
     1
  0
GROUP
  5
906E
102
{ACAD_REACTORS
330
D
102
}
330
D
100
AcDbGroup
300

 70
     1
 71
     1
  0
GROUP
  5
9008
102
{ACAD_REACTORS
330
D
102
}
330
D
100
AcDbGroup
300
Vite UNI 5931 M8X25
 70
     1
 71
     1
  0
GROUP
  5
906F
102
{ACAD_REACTORS
330
D
102
}
330
D
100
AcDbGroup
300

 70
     3
 71
     1
  0
GROUP
  5
8F91
102
{ACAD_REACTORS
330
D
102
}
330
D
100
AcDbGroup
300

 70
     3
 71
     1
  0
GROUP
  5
9091
102
{ACAD_REACTORS
330
D
102
}
330
D
100
AcDbGroup
300

 70
     3
 71
     1
  0
GROUP
  5
9072
102
{ACAD_REACTORS
330
D
102
}
330
D
100
AcDbGroup
300

 70
     3
 71
     1
  0
GROUP
  5
9092
102
{ACAD_REACTORS
330
D
102
}
330
D
100
AcDbGroup
300

 70
     3
 71
     1
  0
GROUP
  5
8C48
102
{ACAD_REACTORS
330
D
102
}
330
D
100
AcDbGroup
300
Vite UNI 5933 M6X16
 70
     3
 71
     1
  0
GROUP
  5
8C71
102
{ACAD_REACTORS
330
D
102
}
330
D
100
AcDbGroup
300

 70
     3
 71
     1
  0
GROUP
  5
8FDE
102
{ACAD_REACTORS
330
D
102
}
330
D
100
AcDbGroup
300

 70
     1
 71
     1
  0
GROUP
  5
9104
102
{ACAD_REACTORS
330
D
102
}
330
D
100
AcDbGroup
300

 70
     3
 71
     1
  0
GROUP
  5
8C5E
102
{ACAD_REACTORS
330
D
102
}
330
D
100
AcDbGroup
300

 70
     1
 71
     1
  0
GROUP
  5
9093
102
{ACAD_REACTORS
330
D
102
}
330
D
100
AcDbGroup
300
Vite UNI 5933 M6X16
 70
     3
 71
     1
  0
GROUP
  5
8C19
102
{ACAD_REACTORS
330
D
102
}
330
D
100
AcDbGroup
300

 70
     3
 71
     1
  0
GROUP
  5
8C1D
102
{ACAD_REACTORS
330
D
102
}
330
D
100
AcDbGroup
300

 70
     1
 71
     1
  0
GROUP
  5
9094
102
{ACAD_REACTORS
330
D
102
}
330
D
100
AcDbGroup
300

 70
     1
 71
     1
  0
GROUP
  5
900F
102
{ACAD_REACTORS
330
D
102
}
330
D
100
AcDbGroup
300
Rosetta UNI 1751 A 6.1
 70
     1
 71
     1
  0
GROUP
  5
8F95
102
{ACAD_REACTORS
330
D
102
}
330
D
100
AcDbGroup
300

 70
     3
 71
     1
  0
GROUP
  5
8FCC
102
{ACAD_REACTORS
330
D
102
}
330
D
100
AcDbGroup
300

 70
     1
 71
     1
  0
GROUP
  5
9073
102
{ACAD_REACTORS
330
D
102
}
330
D
100
AcDbGroup
300

 70
     3
 71
     1
  0
GROUP
  5
8CC1
102
{ACAD_REACTORS
330
D
102
}
330
D
100
AcDbGroup
300

 70
     1
 71
     1
  0
GROUP
  5
9105
102
{ACAD_REACTORS
330
D
102
}
330
D
100
AcDbGroup
300

 70
     3
 71
     1
  0
GROUP
  5
9017
102
{ACAD_REACTORS
330
D
102
}
330
D
100
AcDbGroup
300

 70
     3
 71
     1
  0
GROUP
  5
9095
102
{ACAD_REACTORS
330
D
102
}
330
D
100
AcDbGroup
300

 70
     3
 71
     1
  0
GROUP
  5
9096
102
{ACAD_REACTORS
330
D
102
}
330
D
100
AcDbGroup
300

 70
     3
 71
     1
  0
GROUP
  5
9097
102
{ACAD_REACTORS
330
D
102
}
330
D
100
AcDbGroup
300
Rosetta UNI 1751 A 3.1
 70
     1
 71
     1
  0
GROUP
  5
9098
102
{ACAD_REACTORS
330
D
102
}
330
D
100
AcDbGroup
300

 70
     3
 71
     1
  0
GROUP
  5
90BC
102
{ACAD_REACTORS
330
D
102
}
330
D
100
AcDbGroup
300
Rosetta UNI 1751 A 6.1
 70
     1
 71
     1
  0
GROUP
  5
9099
102
{ACAD_REACTORS
330
D
102
}
330
D
100
AcDbGroup
300

 70
     3
 71
     1
  0
GROUP
  5
8C06
102
{ACAD_REACTORS
330
D
102
}
330
D
100
AcDbGroup
300

 70
     1
 71
     1
  0
GROUP
  5
909A
102
{ACAD_REACTORS
330
D
102
}
330
D
100
AcDbGroup
300
Vite UNI 5931 M8X25
 70
     3
 71
     1
  0
GROUP
  5
909B
102
{ACAD_REACTORS
330
D
102
}
330
D
100
AcDbGroup
300

 70
     3
 71
     1
  0
GROUP
  5
90F0
102
{ACAD_REACTORS
330
D
102
}
330
D
100
AcDbGroup
300

 70
     3
 71
     1
  0
GROUP
  5
907F
102
{ACAD_REACTORS
330
D
102
}
330
D
100
AcDbGroup
300

 70
     3
 71
     1
  0
GROUP
  5
9010
102
{ACAD_REACTORS
330
D
102
}
330
D
100
AcDbGroup
300

 70
     1
 71
     1
  0
GROUP
  5
90E3
102
{ACAD_REACTORS
330
D
102
}
330
D
100
AcDbGroup
300

 70
     3
 71
     1
  0
GROUP
  5
9074
102
{ACAD_REACTORS
330
D
102
}
330
D
100
AcDbGroup
300

 70
     3
 71
     1
  0
GROUP
  5
8BED
102
{ACAD_REACTORS
330
D
102
}
330
D
100
AcDbGroup
300

 70
     3
 71
     1
  0
GROUP
  5
8C72
102
{ACAD_REACTORS
330
D
102
}
330
D
100
AcDbGroup
300

 70
     3
 71
     1
  0
GROUP
  5
909C
102
{ACAD_REACTORS
330
D
102
}
330
D
100
AcDbGroup
300

 70
     3
 71
     1
  0
GROUP
  5
8C55
102
{ACAD_REACTORS
330
D
102
}
330
D
100
AcDbGroup
300

 70
     3
 71
     1
  0
GROUP
  5
8FC7
102
{ACAD_REACTORS
330
D
102
}
330
D
100
AcDbGroup
300

 70
     1
 71
     1
  0
GROUP
  5
8F96
102
{ACAD_REACTORS
330
D
102
}
330
D
100
AcDbGroup
300
Vite UNI 5933 M6X16
 70
     3
 71
     1
  0
GROUP
  5
909D
102
{ACAD_REACTORS
330
D
102
}
330
D
100
AcDbGroup
300

 70
     3
 71
     1
  0
GROUP
  5
9106
102
{ACAD_REACTORS
330
D
102
}
330
D
100
AcDbGroup
300

 70
     3
 71
     1
  0
GROUP
  5
8C50
102
{ACAD_REACTORS
330
D
102
}
330
D
100
AcDbGroup
300

 70
     3
 71
     1
  0
GROUP
  5
8C1A
102
{ACAD_REACTORS
330
D
102
}
330
D
100
AcDbGroup
300

 70
     3
 71
     1
  0
GROUP
  5
9042
102
{ACAD_REACTORS
330
D
102
}
330
D
100
AcDbGroup
300

 70
     3
 71
     1
  0
GROUP
  5
909E
102
{ACAD_REACTORS
330
D
102
}
330
D
100
AcDbGroup
300
Vite UNI 5933 M6X16
 70
     3
 71
     1
  0
GROUP
  5
8FD6
102
{ACAD_REACTORS
330
D
102
}
330
D
100
AcDbGroup
300

 70
     3
 71
     1
  0
GROUP
  5
90BD
102
{ACAD_REACTORS
330
D
102
}
330
D
100
AcDbGroup
300

 70
     1
 71
     1
  0
GROUP
  5
90A1
102
{ACAD_REACTORS
330
D
102
}
330
D
100
AcDbGroup
300

 70
     3
 71
     1
  0
GROUP
  5
90BE
102
{ACAD_REACTORS
330
D
102
}
330
D
100
AcDbGroup
300

 70
     3
 71
     1
  0
GROUP
  5
8CA0
102
{ACAD_REACTORS
330
D
102
}
330
D
100
AcDbGroup
300

 70
     3
 71
     1
  0
GROUP
  5
8CC5
102
{ACAD_REACTORS
330
D
102
}
330
D
100
AcDbGroup
300

 70
     1
 71
     1
  0
GROUP
  5
8C0D
102
{ACAD_REACTORS
330
D
102
}
330
D
100
AcDbGroup
300

 70
     3
 71
     1
  0
GROUP
  5
8BF7
102
{ACAD_REACTORS
330
D
102
}
330
D
100
AcDbGroup
300

 70
     3
 71
     1
  0
GROUP
  5
90BF
102
{ACAD_REACTORS
330
D
102
}
330
D
100
AcDbGroup
300

 70
     1
 71
     1
  0
GROUP
  5
8C76
102
{ACAD_REACTORS
330
D
102
}
330
D
100
AcDbGroup
300

 70
     3
 71
     1
  0
GROUP
  5
8C79
102
{ACAD_REACTORS
330
D
102
}
330
D
100
AcDbGroup
300

 70
     3
 71
     1
  0
GROUP
  5
90C0
102
{ACAD_REACTORS
330
D
102
}
330
D
100
AcDbGroup
300

 70
     3
 71
     1
  0
GROUP
  5
9048
102
{ACAD_REACTORS
330
D
102
}
330
D
100
AcDbGroup
300
Vite UNI 5931 M8X25
 70
     1
 71
     1
  0
GROUP
  5
8FDA
102
{ACAD_REACTORS
330
D
102
}
330
D
100
AcDbGroup
300

 70
     3
 71
     1
  0
GROUP
  5
900B
102
{ACAD_REACTORS
330
D
102
}
330
D
100
AcDbGroup
300

 70
     3
 71
     1
  0
GROUP
  5
90A2
102
{ACAD_REACTORS
330
D
102
}
330
D
100
AcDbGroup
300

 70
     1
 71
     1
  0
GROUP
  5
8BE5
102
{ACAD_REACTORS
330
D
102
}
330
D
100
AcDbGroup
300

 70
     3
 71
     1
  0
GROUP
  5
904F
102
{ACAD_REACTORS
330
D
102
}
330
D
100
AcDbGroup
300

 70
     3
 71
     1
  0
GROUP
  5
90C1
102
{ACAD_REACTORS
330
D
102
}
330
D
100
AcDbGroup
300

 70
     3
 71
     1
  0
GROUP
  5
90C2
102
{ACAD_REACTORS
330
D
102
}
330
D
100
AcDbGroup
300

 70
     3
 71
     1
  0
GROUP
  5
90C3
102
{ACAD_REACTORS
330
D
102
}
330
D
100
AcDbGroup
300

 70
     3
 71
     1
  0
GROUP
  5
90C4
102
{ACAD_REACTORS
330
D
102
}
330
D
100
AcDbGroup
300

 70
     3
 71
     1
  0
GROUP
  5
8C21
102
{ACAD_REACTORS
330
D
102
}
330
D
100
AcDbGroup
300

 70
     1
 71
     1
  0
GROUP
  5
90C5
102
{ACAD_REACTORS
330
D
102
}
330
D
100
AcDbGroup
300

 70
     1
 71
     1
  0
GROUP
  5
8C64
102
{ACAD_REACTORS
330
D
102
}
330
D
100
AcDbGroup
300

 70
     3
 71
     1
  0
GROUP
  5
8BE8
102
{ACAD_REACTORS
330
D
102
}
330
D
100
AcDbGroup
300

 70
     3
 71
     1
  0
GROUP
  5
8C1E
102
{ACAD_REACTORS
330
D
102
}
330
D
100
AcDbGroup
300

 70
     1
 71
     1
  0
GROUP
  5
9049
102
{ACAD_REACTORS
330
D
102
}
330
D
100
AcDbGroup
300

 70
     3
 71
     1
  0
GROUP
  5
9107
102
{ACAD_REACTORS
330
D
102
}
330
D
100
AcDbGroup
300

 70
     3
 71
     1
  0
GROUP
  5
90A3
102
{ACAD_REACTORS
330
D
102
}
330
D
100
AcDbGroup
300

 70
     3
 71
     1
  0
GROUP
  5
8C4E
102
{ACAD_REACTORS
330
D
102
}
330
D
100
AcDbGroup
300
Rosetta UNI 1751 A 3.1
 70
     1
 71
     1
  0
GROUP
  5
8CC6
102
{ACAD_REACTORS
330
D
102
}
330
D
100
AcDbGroup
300
Vite UNI 5931 M8X25
 70
     3
 71
     1
  0
GROUP
  5
90C6
102
{ACAD_REACTORS
330
D
102
}
330
D
100
AcDbGroup
300

 70
     3
 71
     1
  0
GROUP
  5
8CAB
102
{ACAD_REACTORS
330
D
102
}
330
D
100
AcDbGroup
300
Ghiera autofrenante M20x1
 70
     1
 71
     1
  0
GROUP
  5
9007
102
{ACAD_REACTORS
330
D
102
}
330
D
100
AcDbGroup
300

 70
     3
 71
     1
  0
GROUP
  5
8FDB
102
{ACAD_REACTORS
330
D
102
}
330
D
100
AcDbGroup
300

 70
     1
 71
     1
  0
GROUP
  5
90C7
102
{ACAD_REACTORS
330
D
102
}
330
D
100
AcDbGroup
300

 70
     3
 71
     1
  0
GROUP
  5
8CA8
102
{ACAD_REACTORS
330
D
102
}
330
D
100
AcDbGroup
300
Vite UNI 5931 M8X25
 70
     3
 71
     1
  0
GROUP
  5
8C77
102
{ACAD_REACTORS
330
D
102
}
330
D
100
AcDbGroup
300

 70
     3
 71
     1
  0
GROUP
  5
8C16
102
{ACAD_REACTORS
330
D
102
}
330
D
100
AcDbGroup
300
Ghiera KM4
 70
     3
 71
     1
  0
GROUP
  5
90C8
102
{ACAD_REACTORS
330
D
102
}
330
D
100
AcDbGroup
300

 70
     3
 71
     1
  0
GROUP
  5
9014
102
{ACAD_REACTORS
330
D
102
}
330
D
100
AcDbGroup
300

 70
     3
 71
     1
  0
GROUP
  5
90E4
102
{ACAD_REACTORS
330
D
102
}
330
D
100
AcDbGroup
300

 70
     1
 71
     1
  0
GROUP
  5
90CB
102
{ACAD_REACTORS
330
D
102
}
330
D
100
AcDbGroup
300

 70
     3
 71
     1
  0
GROUP
  5
90E5
102
{ACAD_REACTORS
330
D
102
}
330
D
100
AcDbGroup
300

 70
     3
 71
     1
  0
GROUP
  5
8BFD
102
{ACAD_REACTORS
330
D
102
}
330
D
100
AcDbGroup
300

 70
     3
 71
     1
  0
GROUP
  5
8F9C
102
{ACAD_REACTORS
330
D
102
}
330
D
100
AcDbGroup
300

 70
     1
 71
     1
  0
GROUP
  5
8C57
102
{ACAD_REACTORS
330
D
102
}
330
D
100
AcDbGroup
300

 70
     3
 71
     1
  0
GROUP
  5
90E6
102
{ACAD_REACTORS
330
D
102
}
330
D
100
AcDbGroup
300

 70
     1
 71
     1
  0
GROUP
  5
8CC9
102
{ACAD_REACTORS
330
D
102
}
330
D
100
AcDbGroup
300

 70
     3
 71
     1
  0
GROUP
  5
8CCC
102
{ACAD_REACTORS
330
D
102
}
330
D
100
AcDbGroup
300

 70
     3
 71
     1
  0
GROUP
  5
90E7
102
{ACAD_REACTORS
330
D
102
}
330
D
100
AcDbGroup
300

 70
     3
 71
     1
  0
GROUP
  5
907B
102
{ACAD_REACTORS
330
D
102
}
330
D
100
AcDbGroup
300
Ghiera autofrenante M20x1
 70
     3
 71
     1
  0
GROUP
  5
9018
102
{ACAD_REACTORS
330
D
102
}
330
D
100
AcDbGroup
300

 70
     3
 71
     1
  0
GROUP
  5
9044
102
{ACAD_REACTORS
330
D
102
}
330
D
100
AcDbGroup
300

 70
     1
 71
     1
  0
GROUP
  5
90CC
102
{ACAD_REACTORS
330
D
102
}
330
D
100
AcDbGroup
300

 70
     3
 71
     1
  0
GROUP
  5
8C46
102
{ACAD_REACTORS
330
D
102
}
330
D
100
AcDbGroup
300

 70
     1
 71
     1
  0
GROUP
  5
90E8
102
{ACAD_REACTORS
330
D
102
}
330
D
100
AcDbGroup
300

 70
     3
 71
     1
  0
GROUP
  5
90E9
102
{ACAD_REACTORS
330
D
102
}
330
D
100
AcDbGroup
300
Vite UNI 5933 M6X16
 70
     3
 71
     1
  0
GROUP
  5
90EA
102
{ACAD_REACTORS
330
D
102
}
330
D
100
AcDbGroup
300

 70
     3
 71
     1
  0
GROUP
  5
90EB
102
{ACAD_REACTORS
330
D
102
}
330
D
100
AcDbGroup
300
Vite UNI 5933 M6X16
 70
     1
 71
     1
  0
GROUP
  5
8C7D
102
{ACAD_REACTORS
330
D
102
}
330
D
100
AcDbGroup
300

 70
     3
 71
     1
  0
GROUP
  5
90EC
102
{ACAD_REACTORS
330
D
102
}
330
D
100
AcDbGroup
300

 70
     3
 71
     1
  0
GROUP
  5
8CB9
102
{ACAD_REACTORS
330
D
102
}
330
D
100
AcDbGroup
300

 70
     1
 71
     1
  0
GROUP
  5
8C49
102
{ACAD_REACTORS
330
D
102
}
330
D
100
AcDbGroup
300

 70
     1
 71
     1
  0
GROUP
  5
8C7A
102
{ACAD_REACTORS
330
D
102
}
330
D
100
AcDbGroup
300

 70
     3
 71
     1
  0
GROUP
  5
907C
102
{ACAD_REACTORS
330
D
102
}
330
D
100
AcDbGroup
300

 70
     3
 71
     1
  0
GROUP
  5
90CD
102
{ACAD_REACTORS
330
D
102
}
330
D
100
AcDbGroup
300

 70
     3
 71
     1
  0
GROUP
  5
8CA6
102
{ACAD_REACTORS
330
D
102
}
330
D
100
AcDbGroup
300

 70
     3
 71
     1
  0
GROUP
  5
8F9D
102
{ACAD_REACTORS
330
D
102
}
330
D
100
AcDbGroup
300
Ghiera autofrenante M20x1
 70
     3
 71
     1
  0
GROUP
  5
90ED
102
{ACAD_REACTORS
330
D
102
}
330
D
100
AcDbGroup
300

 70
     3
 71
     1
  0
GROUP
  5
8BFE
102
{ACAD_REACTORS
330
D
102
}
330
D
100
AcDbGroup
300

 70
     3
 71
     1
  0
GROUP
  5
9041
102
{ACAD_REACTORS
330
D
102
}
330
D
100
AcDbGroup
300
Vite UNI 5931 M8X25
 70
     3
 71
     1
  0
GROUP
  5
9019
102
{ACAD_REACTORS
330
D
102
}
330
D
100
AcDbGroup
300
Rosetta UNI 1751 A 6.1
 70
     1
 71
     1
  0
GROUP
  5
8C22
102
{ACAD_REACTORS
330
D
102
}
330
D
100
AcDbGroup
300

 70
     1
 71
     1
  0
GROUP
  5
8F83
102
{ACAD_REACTORS
330
D
102
}
330
D
100
AcDbGroup
300

 70
     3
 71
     1
  0
GROUP
  5
8CCA
102
{ACAD_REACTORS
330
D
102
}
330
D
100
AcDbGroup
300

 70
     1
 71
     1
  0
GROUP
  5
90EE
102
{ACAD_REACTORS
330
D
102
}
330
D
100
AcDbGroup
300

 70
     3
 71
     1
  0
GROUP
  5
904D
102
{ACAD_REACTORS
330
D
102
}
330
D
100
AcDbGroup
300

 70
     3
 71
     1
  0
GROUP
  5
9108
102
{ACAD_REACTORS
330
D
102
}
330
D
100
AcDbGroup
300

 70
     3
 71
     1
  0
GROUP
  5
90F1
102
{ACAD_REACTORS
330
D
102
}
330
D
100
AcDbGroup
300

 70
     3
 71
     1
  0
GROUP
  5
9109
102
{ACAD_REACTORS
330
D
102
}
330
D
100
AcDbGroup
300

 70
     3
 71
     1
  0
GROUP
  5
8C5C
102
{ACAD_REACTORS
330
D
102
}
330
D
100
AcDbGroup
300

 70
     3
 71
     1
  0
GROUP
  5
8FE0
102
{ACAD_REACTORS
330
D
102
}
330
D
100
AcDbGroup
300
Ghiera autofrenante M20x1
 70
     1
 71
     1
  0
GROUP
  5
8CAD
102
{ACAD_REACTORS
330
D
102
}
330
D
100
AcDbGroup
300

 70
     3
 71
     1
  0
GROUP
  5
910A
102
{ACAD_REACTORS
330
D
102
}
330
D
100
AcDbGroup
300

 70
     3
 71
     1
  0
GROUP
  5
8FA0
102
{ACAD_REACTORS
330
D
102
}
330
D
100
AcDbGroup
300
Vite UNI 5931 M8X25
 70
     1
 71
     1
  0
GROUP
  5
910B
102
{ACAD_REACTORS
330
D
102
}
330
D
100
AcDbGroup
300

 70
     3
 71
     1
  0
GROUP
  5
90A9
102
{ACAD_REACTORS
330
D
102
}
330
D
100
AcDbGroup
300

 70
     3
 71
     1
  0
GROUP
  5
9050
102
{ACAD_REACTORS
330
D
102
}
330
D
100
AcDbGroup
300
Vite UNI 5933 M6X16
 70
     3
 71
     1
  0
GROUP
  5
9077
102
{ACAD_REACTORS
330
D
102
}
330
D
100
AcDbGroup
300

 70
     1
 71
     1
  0
GROUP
  5
90F2
102
{ACAD_REACTORS
330
D
102
}
330
D
100
AcDbGroup
300

 70
     1
 71
     1
  0
GROUP
  5
8C9F
102
{ACAD_REACTORS
330
D
102
}
330
D
100
AcDbGroup
300

 70
     1
 71
     1
  0
GROUP
  5
8C25
102
{ACAD_REACTORS
330
D
102
}
330
D
100
AcDbGroup
300

 70
     1
 71
     1
  0
GROUP
  5
910C
102
{ACAD_REACTORS
330
D
102
}
330
D
100
AcDbGroup
300

 70
     3
 71
     1
  0
GROUP
  5
910D
102
{ACAD_REACTORS
330
D
102
}
330
D
100
AcDbGroup
300

 70
     3
 71
     1
  0
GROUP
  5
910E
102
{ACAD_REACTORS
330
D
102
}
330
D
100
AcDbGroup
300

 70
     3
 71
     1
  0
GROUP
  5
910F
102
{ACAD_REACTORS
330
D
102
}
330
D
100
AcDbGroup
300

 70
     3
 71
     1
  0
GROUP
  5
8F92
102
{ACAD_REACTORS
330
D
102
}
330
D
100
AcDbGroup
300

 70
     3
 71
     1
  0
GROUP
  5
8CA1
102
{ACAD_REACTORS
330
D
102
}
330
D
100
AcDbGroup
300

 70
     3
 71
     1
  0
GROUP
  5
8CCD
102
{ACAD_REACTORS
330
D
102
}
330
D
100
AcDbGroup
300
Vite UNI 5931 M8X25
 70
     1
 71
     1
  0
GROUP
  5
90AA
102
{ACAD_REACTORS
330
D
102
}
330
D
100
AcDbGroup
300

 70
     3
 71
     1
  0
GROUP
  5
90F3
102
{ACAD_REACTORS
330
D
102
}
330
D
100
AcDbGroup
300
Vite UNI 5931 M8X25
 70
     3
 71
     1
  0
GROUP
  5
8F81
102
{ACAD_REACTORS
330
D
102
}
330
D
100
AcDbGroup
300
Vite UNI 5931 M8X25
 70
     1
 71
     1
  0
GROUP
  5
8FE1
102
{ACAD_REACTORS
330
D
102
}
330
D
100
AcDbGroup
300

 70
     3
 71
     1
  0
GROUP
  5
9110
102
{ACAD_REACTORS
330
D
102
}
330
D
100
AcDbGroup
300

 70
     3
 71
     1
  0
GROUP
  5
8C5D
102
{ACAD_REACTORS
330
D
102
}
330
D
100
AcDbGroup
300

 70
     3
 71
     1
  0
GROUP
  5
9051
102
{ACAD_REACTORS
330
D
102
}
330
D
100
AcDbGroup
300
Vite UNI 5933 M6X16
 70
     3
 71
     1
  0
GROUP
  5
8C7E
102
{ACAD_REACTORS
330
D
102
}
330
D
100
AcDbGroup
300

 70
     3
 71
     1
  0
GROUP
  5
8FCA
102
{ACAD_REACTORS
330
D
102
}
330
D
100
AcDbGroup
300
Ghiera autofrenante M20x1
 70
     3
 71
     1
  0
GROUP
  5
8FA1
102
{ACAD_REACTORS
330
D
102
}
330
D
100
AcDbGroup
300

 70
     1
 71
     1
  0
GROUP
  5
9111
102
{ACAD_REACTORS
330
D
102
}
330
D
100
AcDbGroup
300

 70
     3
 71
     1
  0
GROUP
  5
8C17
102
{ACAD_REACTORS
330
D
102
}
330
D
100
AcDbGroup
300

 70
     3
 71
     1
  0
MLINESTYLE
  5
1C
102
{ACAD_REACTORS
330
1B
102
}
330
1B
100
AcDbMlineStyle
  2
STANDARD
 70
     0
  3

 62
   256
 51
90.0
 52
90.0
 71
     2
 49
0.5
 62
   256
  6
BYLAYER
 49
-0.5
 62
   256
  6
BYLAYER
  0
ACDBPLACEHOLDER
  5
A22
102
{ACAD_REACTORS
330
A21
102
}
330
A21
100
AcDbPlaceHolder
280
     0
  0
DICTIONARYVAR
  5
20A7
102
{ACAD_REACTORS
330
20A5
102
}
330
20A5
100
DictionaryVariables
280
     0
  1
1
  0
DICTIONARYVAR
  5
20A6
102
{ACAD_REACTORS
330
20A5
102
}
330
20A5
100
DictionaryVariables
280
     0
  1
1
  0
DICTIONARYVAR
  5
B9A2
102
{ACAD_REACTORS
330
20A5
102
}
330
20A5
100
DictionaryVariables
280
     0
  1
112
  0
ACAD_PROXY_OBJECT
  5
A45
102
{ACAD_REACTORS
330
A44
102
}
330
A44
100
AcDbProxyObject
 90
      499
 91
      568
 93
      118
310
405010040CA904C415CD5B0757128A
350
A46
 94
        0
1001
ACAD
1000
AcadProxyRoundTripData
1071
      522
1071
   393239
1070
     0
  0
DICTIONARY
  5
A4A
102
{ACAD_REACTORS
330
A44
102
}
330
A44
100
AcDbDictionary
  3
ANSI
350
1363
  3
ISO
350
A4B
  0
ACAD_PROXY_OBJECT
  5
A34
330
0
100
AcDbProxyObject
 90
      499
 91
      568
 93
      156
310
00010143D050D351505391D5531054925390D499
330
A31
 94
        0
1001
ACAD
1000
AcadProxyRoundTripData
1071
      509
1071
   393239
1070
     0
  0
ACAD_PROXY_OBJECT
  5
A35
330
0
100
AcDbProxyObject
 90
      499
 91
      568
 93
      148
310
000101439050D351531253915054925390D490
330
A31
 94
        0
1001
ACAD
1000
AcadProxyRoundTripData
1071
      509
1071
   393239
1070
     0
  0
ACAD_PROXY_OBJECT
  5
A36
330
0
100
AcDbProxyObject
 90
      499
 91
      568
 93
      156
310
000101439050D35154D6535093D314D256915089
330
A31
 94
        0
1001
ACAD
1000
AcadProxyRoundTripData
1071
      510
1071
   393239
1070
     0
  0
ACAD_PROXY_OBJECT
  5
A38
330
0
100
AcDbProxyObject
 90
      499
 91
      568
 93
      216
310
00010145111A5CDD1A5B9D184818DBDB5C1BDB995B9D1A4C402B0001
330
A31
330
0
330
0
 94
        0
1001
ACAD
1000
AcadProxyRoundTripData
1071
      512
1071
   393239
1070
     0
  0
ACAD_PROXY_OBJECT
  5
A49
330
0
100
AcDbProxyObject
 90
      499
 91
      568
 93
      140
310
00010142105350D55494D5110050349534F0
330
A31
 94
        0
1001
ACAD
1000
AcadProxyRoundTripData
1071
      524
1071
   393239
1070
     0
  0
ACAD_PROXY_OBJECT
  5
F237
330
0
100
AcDbProxyObject
 90
      499
 91
      568
 93
       28
310
00014060
330
A31
 94
        0
1001
ACAD
1000
AcadProxyRoundTripData
1071
      555
1071
   393239
1070
     0
  0
DICTIONARY
  5
A2B
102
{ACAD_REACTORS
330
A2A
102
}
330
A2A
100
AcDbDictionary
  3
BEHIND
350
570F
  3
DWGSETTINGS
350
A2C
  3
SHAFT
350
3C75
  3
TRANSSETTINGS
350
A2D
  0
ACAD_PROXY_OBJECT
  5
A4C
102
{ACAD_REACTORS
330
A2A
102
}
330
A2A
100
AcDbProxyObject
 90
      499
 91
      568
 93
    12938
310
41102491013041105357CC1074CA404C504414D5F31439329013241105357CC9054CA404CD04414D5F33419199013441105357CD103466404D504414D5F3540D199013641105357CD90248E404DD04414D5F37411199013841105357CE101466404E504414D5F397F641102324141505357CC4C1074CA408D10505414D5F31
310
3140D19902495041505357CC4C9074C902408C13905414D5F304E41D32902314E41505357CC5390E4CA408C93905414D5F324E41532902334E41505357CCD3906466408D13905414D5F344E40D19902354E41505357CD53903466408D93905414D5F364E40923902374E41505357CDD3904466408E13905414D5F384E40519
310
902394E41505357CE539FD90440CC9053906414D5F31304E41D3290334414E41905357CC4C5390346640D25413906414D5F31324E41D32409044B4C494E41505357D0D3101465094112539193D08414D5F50415245464111942D055241484D3541905357D093D49074C9094115925155D08414D5F56494557534051942D064
310
24548494E4441905357D253959FD90D415514905253105414D5F545240D194250348494441905357D212511074650940D59254D06414D5F56495341D324250650415244494D42505357D410549112535034650941949151911253509414D5F52454644494D4111942553411092139590139CFFFFFFFF415092139594D06424
310
548494E44CFFFFFFFF411093D48C9055241484D3540519411093D48CD055241484D3540923411093D48D5055241484D35CFFFFFFFF4110D0530C90134CFFFFFFFF4110D0530CD0134409234110D0530D5013441D324110D0530DD0134479464110D1539390137CFFFFFFFF4110D15395D0137CFFFFFFFF4110D312539044B4
310
C494ECFFFFFFFF4110D3D38C50130CFFFFFFFF4110D3D38C90131CFFFFFFFF4110D3D38CD0132CFFFFFFFF4110D3D38D10132CFFFFFFFF411111551050134CFFFFFFFF4111125051D0135CFFFFFFFF411112531250135CFFFFFFFF411112535410650415244494DCFFFFFFFF411112535490652454644494DCFFFFFFFF4111
310
91535390138CFFFFFFFF4151915354139013840CFFFFFFFF4151915354D41023441CFFFFFFFF4151915354D5102344140D1941519153559390132CFFFFFFFF4151915355951013240D194112105510D0138CFFFFFFFF411212511390133CFFFFFFFF4112125115D0133CFFFFFFFF411213125390134CFFFFFFFF411213D0D3
310
90137CFFFFFFFF411213D0D5D0137CFFFFFFFF4112539193D04494E464FCFFFFFFFF411311505110135CFFFFFFFF419397D0921395902394ECFFFFFFFF419397D0D3D38C502304ECFFFFFFFF419397D0D3D38C902314ECFFFFFFFF419397D0D3D38CD02324ECFFFFFFFF419397D0D3D38D102324ECFFFFFFFF419397D0D153
310
93902374ECFFFFFFFF419397D0D15395D02374ECFFFFFFFF419397D1125312502354ECFFFFFFFF419397D2105510D02384ECFFFFFFFF419397D2125113902334ECFFFFFFFF419397D2125115D02334ECFFFFFFFF419397D3115051102354ECFFFFFFFF419397D391D25410349504ECFFFFFFFF419397D412105390334414EC
310
FFFFFFFF419397D510D3D3902304ECFFFFFFFF419397D5121312502344ECFFFFFFFF419397D5131153902304ECFFFFFFFF419397D594131250332414ECFFFFFFFF411391D2541024950CFFFFFFFF411410530C9055241484D3540519411410530CD055241484D3540923411410530D5055241484D35CFFFFFFFF4114121053
310
9023441CFFFFFFFF411413D4D390135CFFFFFFFF411490D1D390137CFFFFFFFF411490D1D5D0137CFFFFFFFF4114D09492D0134CFFFFFFFF4114D150D510134CFFFFFFFF4114D6508CD013540923411354D6535013540923411510D3D390130CFFFFFFFF411512131250134CFFFFFFFF411512550C9055241484D354051941
310
1512550CD055241484D3540923411512550D5055241484D35CFFFFFFFF411513115390130CFFFFFFFF415514905253105545241494CCFFFFFFFF411514931250134CFFFFFFFF411516150C5013640D19411516150C9013640D19411516150CD0136CFFFFFFFF411516150D5013641D32411516150DD0136479464115925155
310
D0456494557CFFFFFFFF4115915112103484944CFFFFFFFF4115915115903564953CFFFFFFFF41159413125023241CFFFFFFFF411692569050134CFFFFFFFFAA9FD404FE4290E4C9074C906465054C904465034650248D014651E519FD9C
340
14
340
14
340
14
340
A4D
340
14
340
14
340
14
340
A4E
340
14
340
14
340
A4E
340
A4F
340
14
340
14
340
14
340
14
340
A4D
340
14
340
14
340
14
340
A4E
340
14
340
14
340
A4E
340
A4F
340
14
340
A50
340
14
340
14
340
14
340
14
340
14
340
A4D
340
14
340
14
340
14
340
13
340
13
340
13
340
13
340
13
340
13
340
13
340
13
340
13
340
A51
340
13
340
13
340
13
340
13
340
13
340
13
340
13
340
13
340
13
340
13
340
13
340
13
340
13
340
14
340
13
340
13
340
13
340
13
340
A52
340
13
340
13
340
A51
340
13
340
13
340
13
340
13
340
13
340
13
340
13
340
13
340
A51
340
13
340
13
340
13
340
A52
340
13
340
13
340
13
340
13
340
13
340
13
340
13
340
13
340
13
340
13
340
13
340
13
340
13
340
13
340
A51
340
13
340
13
340
13
340
13
340
13
340
13
340
13
340
13
340
13
340
13
340
13
340
13
340
13
340
13
340
13
340
13
340
13
340
13
340
13
340
13
340
13
340
13
340
A55
 94
        0
1001
ACAD
1000
AcadProxyRoundTripData
1071
      526
1071
   393239
1070
     0
  0
ACAD_PROXY_OBJECT
  5
A7C
102
{ACAD_REACTORS
330
A77
102
}
330
A77
100
AcDbProxyObject
 90
      499
 91
      568
 93
      253
310
43D1444494D454E53494F4E2C414D44545F2A5F44494D404A9012A404A9012AA
 94
        0
1001
ACAD
1000
AcadProxyRoundTripData
1071
      542
1071
   393239
1070
     0
  0
ACAD_PROXY_OBJECT
  5
A7B
102
{ACAD_REACTORS
330
A77
102
}
330
A77
100
AcDbProxyObject
 90
      499
 91
      568
 93
      181
310
43D012A42D05357D191504B505357CA9012A404A9012AC
 94
        0
1001
ACAD
1000
AcadProxyRoundTripData
1071
      542
1071
   393239
1070
     0
  0
ACAD_PROXY_OBJECT
  5
A78
102
{ACAD_REACTORS
330
A77
102
}
330
A77
100
AcDbProxyObject
 90
      499
 91
      568
 93
      133
310
43D054841544348404A9012A404A9012A8
 94
        0
1001
ACAD
1000
AcadProxyRoundTripData
1071
      542
1071
   393239
1070
     0
  0
ACAD_PROXY_OBJECT
  5
A79
102
{ACAD_REACTORS
330
A77
102
}
330
A77
100
AcDbProxyObject
 90
      499
 91
      568
 93
      549
310
43D044C494E4549CE0B0E138B0A8B4E0B0A8B4E138B105357CE0B105357CE138B0A8B505357CE0B0A8B505357CE139012A404A910494E534552542C535444504152543244C
 94
        0
1001
ACAD
1000
AcadProxyRoundTripData
1071
      542
1071
   393239
1070
     0
  0
ACAD_PROXY_OBJECT
  5
A7D
102
{ACAD_REACTORS
330
A77
102
}
330
A77
100
AcDbProxyObject
 90
      499
 91
      568
 93
      181
310
43D0341524341105357CD5012A404C906494E534552542
 94
        0
1001
ACAD
1000
AcadProxyRoundTripData
1071
      542
1071
   393239
1070
     0
  0
ACAD_PROXY_OBJECT
  5
A7A
102
{ACAD_REACTORS
330
A77
102
}
330
A77
100
AcDbProxyObject
 90
      499
 91
      568
 93
     1053
310
43D7841434D46434652414D452C41434D444154554D5441524745542C41434D444154554D49442C41434D57454C4453594D2C41434D5355524653594D2C41434D4645415449442C41434D504152545245462C41434D42414C4C4F4F4E2C414D44544544474553594D2C414D47534352455743414C435441424C45404A9012A
310
404A9012AD
 94
        0
1001
ACAD
1000
AcadProxyRoundTripData
1071
      542
1071
   393239
1070
     0
  0
XRECORD
  5
F55E
102
{ACAD_REACTORS
330
F55C
102
}
330
F55C
100
AcDbXrecord
  0
XRECORD
  5
F5C1
102
{ACAD_REACTORS
330
F5C0
102
}
330
F5C0
100
AcDbXrecord
 90
        1
  0
XRECORD
  5
F5C2
102
{ACAD_REACTORS
330
F5C0
102
}
330
F5C0
100
AcDbXrecord
 90
       70
  0
XRECORD
  5
F5C3
102
{ACAD_REACTORS
330
F5C0
102
}
330
F5C0
100
AcDbXrecord
  1

  0
XRECORD
  5
F5C4
102
{ACAD_REACTORS
330
F5C0
102
}
330
F5C0
100
AcDbXrecord
  1
TecnoCenter_stampante.ctb
  0
XRECORD
  5
F5C5
102
{ACAD_REACTORS
330
F5C0
102
}
330
F5C0
100
AcDbXrecord
340
A23
  0
XRECORD
  5
F5C6
102
{ACAD_REACTORS
330
F5C0
102
}
330
F5C0
100
AcDbXrecord
340
A24
  0
XRECORD
  5
F5C7
102
{ACAD_REACTORS
330
F5C0
102
}
330
F5C0
100
AcDbXrecord
340
A21
  0
XRECORD
  5
F5C8
102
{ACAD_REACTORS
330
F5C0
102
}
330
F5C0
100
AcDbXrecord
 90
    10781
  0
XRECORD
  5
F5C9
102
{ACAD_REACTORS
330
F5C0
102
}
330
F5C0
100
AcDbXrecord
 90
        0
  0
XRECORD
  5
F5CA
102
{ACAD_REACTORS
330
F5C0
102
}
330
F5C0
100
AcDbXrecord
 90
        0
  0
XRECORD
  5
F5CB
102
{ACAD_REACTORS
330
F5C0
102
}
330
F5C0
100
AcDbXrecord
  1
{A4E3B0BD-8385-11D6-9A29-000102212E7C}
  0
XRECORD
  5
F5CC
102
{ACAD_REACTORS
330
F5C0
102
}
330
F5C0
100
AcDbXrecord
  1
{C56347B7-4627-4CCE-9A33-5DC2E7AEFEE6}
  0
XRECORD
  5
F5CD
102
{ACAD_REACTORS
330
F5C0
102
}
330
F5C0
100
AcDbXrecord
 40
0.0
  0
XRECORD
  5
F5CE
102
{ACAD_REACTORS
330
F5C0
102
}
330
F5C0
100
AcDbXrecord
340
0
  0
XRECORD
  5
F5CF
102
{ACAD_REACTORS
330
F5C0
102
}
330
F5C0
100
AcDbXrecord
 70
     0
  0
XRECORD
  5
F5D0
102
{ACAD_REACTORS
330
F5C0
102
}
330
F5C0
100
AcDbXrecord
340
0
  0
XRECORD
  5
F5D1
102
{ACAD_REACTORS
330
F5C0
102
}
330
F5C0
100
AcDbXrecord
 10
0.0
 20
0.0
 30
0.0
  0
XRECORD
  5
F5D2
102
{ACAD_REACTORS
330
F5C0
102
}
330
F5C0
100
AcDbXrecord
 10
0.0
 20
0.0
 30
0.0
  0
XRECORD
  5
F5D3
102
{ACAD_REACTORS
330
F5C0
102
}
330
F5C0
100
AcDbXrecord
 10
0.0
 20
0.0
 30
0.0
  0
XRECORD
  5
F5D4
102
{ACAD_REACTORS
330
F5C0
102
}
330
F5C0
100
AcDbXrecord
 10
0.0
 20
0.0
 30
0.0
  0
XRECORD
  5
F5D5
102
{ACAD_REACTORS
330
F5C0
102
}
330
F5C0
100
AcDbXrecord
 10
0.0
 20
0.0
 30
0.0
  0
XRECORD
  5
F5D6
102
{ACAD_REACTORS
330
F5C0
102
}
330
F5C0
100
AcDbXrecord
 10
0.0
 20
0.0
 30
0.0
  0
XRECORD
  5
F5D7
102
{ACAD_REACTORS
330
F5C0
102
}
330
F5C0
100
AcDbXrecord
340
0
  0
XRECORD
  5
F5D8
102
{ACAD_REACTORS
330
F5C0
102
}
330
F5C0
100
AcDbXrecord
 70
     0
  0
XRECORD
  5
F5D9
102
{ACAD_REACTORS
330
F5C0
102
}
330
F5C0
100
AcDbXrecord
340
0
  0
XRECORD
  5
F5DA
102
{ACAD_REACTORS
330
F5C0
102
}
330
F5C0
100
AcDbXrecord
 10
0.0
 20
0.0
 30
0.0
  0
XRECORD
  5
F5DB
102
{ACAD_REACTORS
330
F5C0
102
}
330
F5C0
100
AcDbXrecord
 10
0.0
 20
0.0
 30
0.0
  0
XRECORD
  5
F5DC
102
{ACAD_REACTORS
330
F5C0
102
}
330
F5C0
100
AcDbXrecord
 10
0.0
 20
0.0
 30
0.0
  0
XRECORD
  5
F5DD
102
{ACAD_REACTORS
330
F5C0
102
}
330
F5C0
100
AcDbXrecord
 10
0.0
 20
0.0
 30
0.0
  0
XRECORD
  5
F5DE
102
{ACAD_REACTORS
330
F5C0
102
}
330
F5C0
100
AcDbXrecord
 10
0.0
 20
0.0
 30
0.0
  0
XRECORD
  5
F5DF
102
{ACAD_REACTORS
330
F5C0
102
}
330
F5C0
100
AcDbXrecord
 10
0.0
 20
0.0
 30
0.0
  0
XRECORD
  5
238C
102
{ACAD_REACTORS
330
238B
102
}
330
238B
100
AcDbXrecord
  1
PIPPO
  1
*
  1
7
  1
*
 70
     0
  1
*
  1
*
  0
LAYER_INDEX
  5
EF9E
102
{ACAD_REACTORS
330
EF9D
102
}
330
EF9D
100
AcDbIndex
 40
2453142.663631539
100
AcDbLayerIndex
  8
0
360
EF9F
 90
       12
  8
DISEGNO
360
EFA0
 90
      405
  8
ASSI
360
EFA1
 90
       42
  8
NORMALI
360
EFA2
 90
       88
  8
Defpoints
360
EFA3
 90
        0
  8
TRATTEGGI
360
EFA4
 90
        5
  0
ACAD_PROXY_OBJECT
  5
A46
102
{ACAD_REACTORS
330
A45
102
}
330
A45
100
AcDbProxyObject
 90
      499
 91
      568
 93
      139
310
057356C1D5C406406AA8FFFFFFFF0AE24050
330
18
330
0
330
0
 94
        0
1001
ACAD
1000
AcadProxyRoundTripData
1071
      523
1071
   393239
1070
     0
  0
ACAD_PROXY_OBJECT
  5
1363
102
{ACAD_REACTORS
330
A4A
102
}
330
A4A
100
AcDbProxyObject
 90
      499
 91
      568
 93
     2109
310
570B81E85EB51B8BE3FD04414E5349405901409022E07A17AD46E2F8FD2208721C82C6DAA6EAE4CCA8CAF0E8A6E8C88120284A0B1B6A321A329BA3220480A1A82C6DAAECAD8C8D2DCCEA6E8C8812028420B1B6A4B229BA3220480A1682C6DA88C2E8EADAA6E8C88120284A0B1B6A127A6A9BA3220480A2082DAC8E888CAE8C
310
2D2D8A6F2DAA6E8C88120288A0B6B23A29B2B1BA34B7B729BCB6A9BA3220480A2282DAC8E886CADCE8CAE498D2DCCAA6E8C88120285A0B6B23A2737BA32A9BA3220480A1682C682DACE98C2F2A6E8C88120285A0B1A0B6B3A234B6A9BA3220480A2282C682DACE90DED8CA86D0C2E4E8A6E8C88120286A0B1A0B6B3AA34BA3
310
632A9BA3220480A02810
340
BF4
360
1364
360
1365
360
1366
360
1367
360
1368
360
1369
360
136A
360
136B
360
136C
360
136D
360
136E
360
136F
360
1370
360
1371
 94
        0
1001
ACAD
1000
AcadProxyRoundTripData
1071
      543
1071
   393239
1070
     0
  0
ACAD_PROXY_OBJECT
  5
A4B
102
{ACAD_REACTORS
330
A4A
102
}
330
A4A
100
AcDbProxyObject
 90
      499
 91
      568
 93
     2211
310
5700000000000000C40D0349534F405901409020000000000000310322287A1682DAC8E88AC8CECAA6E8C8812028720B1B6A9BAB9332A32BC3A29BA3220480A1282C6DA8C868CA6E8C88120286A0B1B6ABB2B63234B733A9BA3220480A1082C6DA92C8A6E8C88120285A0B1B6A230BA3AB6A9BA3220480A1282C6DA849E9AA
310
6E8C8812028820B6B23A2232BA30B4B629BCB6A9BA3220480A2282DAC8E8A6CAC6E8D2DEDCA6F2DAA6E8C88120288A0B6B23A21B2B73A32B92634B732A9BA3220480A1682DAC8E89CDEE8CAA6E8C88120285A0B1A0B6B3A630BCA9BA3220480A1682C682DACE88D2DAA6E8C88120288A0B1A0B6B3A437B632A1B430B93A29B
310
A3220480A1A82C682DACEA8D2E8D8CAA6E8C8812032050
340
A56
360
A57
360
A58
360
A59
360
A5A
360
A5B
360
A5C
360
A5D
360
A5E
360
A5F
360
A60
360
A61
360
A67
360
A68
360
A74
360
A75
 94
        0
1001
ACAD
1000
AcadProxyRoundTripData
1071
      525
1071
   393239
1070
     0
  0
ACAD_PROXY_OBJECT
  5
570F
102
{ACAD_REACTORS
330
A2B
102
}
330
A2B
100
AcDbProxyObject
 90
      499
 91
      568
 93
      429
310
40506426568696E642229ADEC8D2CCD2C6C2E8D2DEDC98CAECCAD8940EA2E4555FB202880883DA22BA3A9A2AA2A24A723A9A2A7223E8
 94
        0
1001
ACAD
1000
AcadProxyRoundTripData
1071
      505
1071
   393239
1070
     0
  0
ACAD_PROXY_OBJECT
  5
A2C
102
{ACAD_REACTORS
330
A2B
102
}
330
A2B
100
AcDbProxyObject
 90
      499
 91
      568
 93
     2340
310
4050B44574753455454494E4753A1286829C8E82A4A482B282A106660F8686AF86C608321A2A720A723A0A849A1ABE1C983E18999AA0C868A9C889282940000000000000488083A1A2A72224A0A9A0A8418983E19183E199820E868A9C8892A6A894000000000000010808321A2A72622A7250000000000000122020C868A9
310
C9E8C8C940000000000000488084A1A624A720A92920ACA0A8099A108698929C8AA8B2A082A0AB098929C8A84A22BA3AAA9A1A0A622A50A0E9882A6A89E849482A02608426A0A5A2AB24A2ABA7E8120CA0A68682988A0C00800010652455649534941501304154D0D0531150540CC4E8C90954494D455354414D504A0832B1
310
BC2621A734141D5915494D253D3905414C4D4B8C0C1107B44574753455454494E4753454E447D4
 94
        0
1001
ACAD
1000
AcadProxyRoundTripData
1071
      505
1071
   393239
1070
     0
  0
ACAD_PROXY_OBJECT
  5
3C75
102
{ACAD_REACTORS
330
A2B
102
}
330
A2B
100
AcDbProxyObject
 90
      499
 91
      568
 93
      199
310
405055368616674220F688AE8EA68AA8A8929C8EA68A9C88FA
 94
        0
1001
ACAD
1000
AcadProxyRoundTripData
1071
      505
1071
   393239
1070
     0
  0
ACAD_PROXY_OBJECT
  5
A2D
102
{ACAD_REACTORS
330
A2B
102
}
330
A2B
100
AcDbProxyObject
 90
      499
 91
      568
 93
      852
310
4050D5452414E5353455454494E4753A2488A482AE929C8EA8A4829CA69882A8929E9C0C00800050D4F524947494E414C4C595F4F4E0600400008529A7AAA921A2A620A723A0A81A4AA20A12AAA0A48AA68AA4AC8A0C0080001107B44574753455454494E4753454E447DD
 94
        0
1001
ACAD
1000
AcadProxyRoundTripData
1071
      505
1071
   393239
1070
     0
  0
IDBUFFER
  5
EF9F
330
0
100
AcDbIdBuffer
330
88B
330
5831
330
5900
330
5953
330
9346
330
97C9
330
97CA
330
97CB
330
97CC
330
F250
330
F25C
330
F25E
  0
IDBUFFER
  5
EFA0
330
0
100
AcDbIdBuffer
330
F436
330
F437
330
F438
330
F439
330
F43A
330
F43B
330
F43C
330
F43D
330
F43E
330
F43F
330
F440
330
F441
330
F442
330
F443
330
F444
330
F445
330
F446
330
F447
330
F448
330
F449
330
F44A
330
F44B
330
F44C
330
F44D
330
F44E
330
F44F
330
F450
330
F451
330
F452
330
F453
330
F454
330
F455
330
F456
330
F457
330
F458
330
F459
330
F45A
330
F45B
330
F45C
330
F45D
330
F45E
330
F45F
330
F460
330
F461
330
F462
330
F463
330
F464
330
F465
330
F466
330
F467
330
F468
330
F469
330
F46A
330
F46B
330
F46C
330
F46D
330
F46E
330
F46F
330
F50B
330
F50C
330
F50D
330
F50F
330
F521
330
F524
330
F525
330
40B
330
40E
330
40F
330
415
330
416
330
417
330
41C
330
41D
330
422
330
423
330
430
330
431
330
435
330
436
330
437
330
438
330
451
330
45F
330
4C3
330
4FB
330
512
330
516
330
517
330
54E
330
54F
330
550
330
564
330
565
330
56F
330
572
330
57A
330
57B
330
586
330
589
330
58B
330
599
330
59A
330
5A3
330
5BB
330
5BC
330
5BE
330
5BF
330
5C0
330
5C3
330
5CF
330
5D7
330
5DE
330
5E1
330
5E2
330
5E5
330
5EA
330
5F2
330
5FB
330
608
330
609
330
60D
330
610
330
612
330
623
330
626
330
8D5
330
8D6
330
8D7
330
8D8
330
995
330
997
330
998
330
99E
330
9A0
330
9A2
330
9A3
330
9A6
330
AA9
330
3ABC
330
3ABD
330
3ABE
330
3ABF
330
3AC1
330
5283
330
5284
330
52D7
330
52D8
330
52D9
330
5533
330
5803
330
580B
330
5814
330
5853
330
585A
330
585B
330
585C
330
5867
330
5884
330
58D6
330
59F4
330
5A72
330
5A73
330
5A74
330
5AA3
330
5B09
330
5B32
330
5B3E
330
5B5B
330
5B5C
330
5B73
330
5B7A
330
5B90
330
5E79
330
5EBC
330
5EBD
330
5EC0
330
5EC1
330
5EC4
330
5ECB
330
5ED5
330
5ED7
330
5ED8
330
5ED9
330
5EDA
330
5EDB
330
5EDC
330
5EDD
330
5EDE
330
5EDF
330
5EE0
330
5EE1
330
5EE2
330
5EE3
330
5EE4
330
5EE6
330
5EE7
330
5EE8
330
5EE9
330
5EEA
330
5EEB
330
5EEC
330
5EED
330
5EEE
330
5EEF
330
5EF0
330
5EF1
330
5EF2
330
5EF3
330
5EF5
330
5EF6
330
5EF7
330
5EF8
330
5EFA
330
5EFB
330
6A10
330
6A12
330
6A62
330
6A92
330
6B2F
330
6B30
330
6B31
330
6B32
330
6B33
330
6B34
330
931A
330
9347
330
D162
330
D163
330
F22C
330
F22D
330
F22F
330
F232
330
F235
330
F24B
330
F24E
330
F251
330
F252
330
F253
330
F254
330
F257
330
F25A
330
F25F
330
F264
330
F265
330
F266
330
F268
330
F269
330
F26A
330
F26B
330
F26C
330
F26D
330
F26E
330
F26F
330
F271
330
F272
330
F273
330
F274
330
F275
330
F279
330
F27A
330
F27B
330
F27C
330
F27D
330
F27E
330
F27F
330
F280
330
F281
330
F282
330
F283
330
F284
330
F285
330
F286
330
F287
330
F288
330
F289
330
F28A
330
F28B
330
F28C
330
F28D
330
F28E
330
F28F
330
F290
330
F291
330
F292
330
F293
330
F294
330
F295
330
F296
330
F297
330
F298
330
F299
330
F29A
330
F29B
330
F29C
330
F2A5
330
F2A7
330
F2A9
330
F2AA
330
F2AC
330
F2AD
330
F2AF
330
F2B2
330
F2B5
330
F3C0
330
F3C1
330
F3C2
330
F3C3
330
F3C4
330
F3C5
330
F3C6
330
F3C7
330
F3C8
330
F3C9
330
F3CA
330
F3CB
330
F3CC
330
F3CD
330
F3CE
330
F3CF
330
F3D0
330
F3D1
330
F3D2
330
F3D3
330
F3D4
330
F3D5
330
F3D6
330
F3D7
330
F3E8
330
F3E9
330
F3EA
330
F3EB
330
F3EC
330
F3ED
330
F3EE
330
F3EF
330
F3F0
330
F3F1
330
F3F2
330
F3F3
330
F3F4
330
F3F5
330
F3F6
330
F3F7
330
F3F8
330
F3F9
330
F3FA
330
F3FB
330
F3FC
330
F3FD
330
F3FE
330
F3FF
330
F400
330
F401
330
F402
330
F403
330
F404
330
F405
330
F406
330
F407
330
F408
330
F409
330
F40A
330
F40B
330
F40C
330
F40D
330
F40E
330
F40F
330
F410
330
F411
330
F412
330
F413
330
F414
330
F415
330
F416
330
F417
330
F418
330
F419
330
F41A
330
F41B
330
F41C
330
F41D
330
F41E
330
F41F
330
F420
330
F421
330
F422
330
F423
330
F424
330
F425
330
F426
330
F427
330
F428
330
F429
330
F42A
330
F42B
330
F42C
330
F42D
330
F42E
330
F42F
330
F430
330
F431
330
F432
330
F433
330
F434
330
F435
  0
IDBUFFER
  5
EFA1
330
0
100
AcDbIdBuffer
330
412
330
554
330
557
330
21F4
330
21FB
330
3A96
330
3A97
330
580D
330
5829
330
5A12
330
5A15
330
5A2E
330
5A31
330
5A9B
330
5B7B
330
97C8
330
BBC7
330
BBE6
330
D14B
330
D164
330
F24D
330
F24F
330
F267
330
F270
330
F2A8
330
F2AB
330
F3BE
330
F3BF
330
F3D8
330
F3D9
330
F3DA
330
F3DB
330
F3DC
330
F3DD
330
F3DE
330
F3DF
330
F4EF
330
F4F0
330
F4F1
330
F4F2
330
F522
330
F523
  0
IDBUFFER
  5
EFA2
330
0
100
AcDbIdBuffer
330
43B
330
43C
330
43D
330
43E
330
43F
330
440
330
441
330
445
330
446
330
447
330
448
330
449
330
44A
330
44B
330
59D
330
59E
330
5A4
330
5A9
330
5C2
330
5C6
330
5C7
330
5C8
330
5C9
330
5CA
330
5CB
330
5D1
330
5D2
330
5D3
330
5D4
330
5D5
330
5D6
330
5D8
330
5E6
330
5E7
330
5EE
330
5EF
330
5FC
330
5FD
330
60E
330
60F
330
611
330
624
330
625
330
8CE
330
8CF
330
8D0
330
8D1
330
8D2
330
8D3
330
AAA
330
AAB
330
AAC
330
AAD
330
AB2
330
3A94
330
3A95
330
587F
330
5888
330
5890
330
58E1
330
5925
330
5B8C
330
5B8D
330
5B8E
330
5B8F
330
6A63
330
6A6C
330
6A91
330
6A9F
330
6BB8
330
F22E
330
F230
330
F231
330
F233
330
F234
330
F236
330
F256
330
F258
330
F259
330
F25B
330
F25D
330
F2AE
330
F2B0
330
F2B1
330
F2B3
330
F2B4
330
F510
330
F511
  0
IDBUFFER
  5
EFA3
330
0
100
AcDbIdBuffer
  0
IDBUFFER
  5
EFA4
330
0
100
AcDbIdBuffer
330
F52F
330
F535
330
F54A
330
F550
330
F55A
  0
ACAD_PROXY_OBJECT
  5
1364
330
1363
100
AcDbProxyObject
 90
      499
 91
      568
 93
       96
310
57020E80A0280A0280A0280805
 94
        0
1001
ACAD
1000
AcadProxyRoundTripData
1071
      544
1071
   393239
1070
     0
  0
ACAD_PROXY_OBJECT
  5
1365
330
1363
100
AcDbProxyObject
 90
      499
 91
      568
 93
      332
310
5710E4050140501405014050140501405014050142501405014050140501405012000000000000000404
340
BF5
 94
        0
1001
ACAD
1000
AcadProxyRoundTripData
1071
      545
1071
   393239
1070
     0
  0
ACAD_PROXY_OBJECT
  5
1366
330
1363
100
AcDbProxyObject
 90
      499
 91
      568
 93
      402
310
570C199999999999E99F91F4050140501405014050140501405014050140501405014050140501405014050140501405014044
340
0
 94
        0
1001
ACAD
1000
AcadProxyRoundTripData
1071
      546
1071
   393239
1070
     0
  0
ACAD_PROXY_OBJECT
  5
1367
330
1363
100
AcDbProxyObject
 90
      499
 91
      568
 93
       10
310
5702
 94
        0
1001
ACAD
1000
AcadProxyRoundTripData
1071
      547
1071
   393239
1070
     0
  0
ACAD_PROXY_OBJECT
  5
1368
330
1363
100
AcDbProxyObject
 90
      499
 91
      568
 93
      223
310
572290EA22A7D90F49F9353333333333727F44D4CCCCCCCCCDC9FA04
340
BE9
340
BEA
 94
        0
1001
ACAD
1000
AcadProxyRoundTripData
1071
      548
1071
   393239
1070
     0
  0
ACAD_PROXY_OBJECT
  5
1369
330
1363
100
AcDbProxyObject
 90
      499
 91
      568
 93
    13188
310
5710F4112551153501411413D4CB901405014069011349A4F2590CB64FD3347454E545241434F2C4954412C302C504F532E2C47454E54524154582C25732C2847454E4D53472067656E647767203232322940690120281A8AA2CA0281A8AA602028120280A03202269349E4B2196C9FA648E8A9CA8A482869E5892A8825860
310
58A2A980588E8A9CA8A482A8B0584AE658508E8A9C9AA68E40CECADCC8EECE406464665280D202405044E414D45405044E4F4D454051C40640A8BA5C2E97CBE502404CD1D15395149050D3CB1255104B0C0B1393D3514B11D15395149055160B095CCB0A11D1539354D1C819D95B991DD9C80C8C8D8A50190B3D424C4F434B
310
3A4E414D4540480A0A888AA686A480A16888AA686A492B4929E9C8A80A3A80C81D10782C06030180C809D23A2A72A2920A1A79624AA209618162222A9A1A924AD24A7A7229623A2A72A2920AA2C1612B9961423A2A726A9A39033B2B7323BB39019189B94A034809014214D51053911054911014214D510539110549110147
310
501904A383BFDFEFF5FBFCFD3747454E545241434F2C4954412C302C5354414E444152442C47454E54524154582C25732C2847454E4D53472067656E64776720323138294069012028426A0AA22A924A0A620284A6A0AA22A924A0A622A028EA0320B41416D838E9017D9FA708E8A9CA8A482869E5892A8825860589A82A88
310
AA49282988A588E8A9CA8A482A8B0584AE658508E8A9C9AA68E40CECADCC8EECE406464625280D202405044E4F5445405044E4F54414051D40641A8BA5C2E97CBE5F23F4CD1D15395149050D3CB1255104B0C0B1393D5104B11D15395149055160B095CCB0A11D1539354D1C819D95B991DD9C80C8C8D4A501A40480A0CAC8
310
A9C889EA480A128C9EA49C92A89EA48A80A3A80C83D174B85D2F97CBE47E9C23A2A72A2920A1A79624AA209618162327A92724AA27A9229623A2A72A2920AA2C1612B9961423A2A726A9A39033B2B7323BB39019191A14A0348090141911154D0D48C90143511154D0D492569253D391480C90147501908A20F0580C060301
310
9013B47454E545241434F2C4954412C302C4445534352495A494F4E4520322C47454E54524154582C25732C2847454E4D53472067656E6477672033362940490120284A9AA20A72220A922192028529AA20A72220A92210192028EA0321347077FBFDFEBF7F9FA728E8A9CA8A482869E5892A882586058A6A8829C8882A488
310
4064588E8A9CA8A482A8B0584AE658508E8A9C9AA68E40CECADCC8EECE4064646052809202405094D4154455249414C324050B4D4154455249414C4520324051D40642A8282DB071D202FB3F4E51D15395149050D3CB1255104B0C0B135055115492505311480C8B11D15395149055160B095CCB0A11D1539354D1C819D95B
310
991DD9C80D0C0A501240480A089A82A6A680A0A9A82A6A68280A3A80A0485A0681174B85D2F97CBE47E99A3A2A72A2920A1A79624AA2096181626A0A9A9A09623A2A72A2920AA2C1612B9961423A2A726A9A39033B2B7323BB3901A1914A024809014154149250D150141941491569693D01475014090C409022E970BA5F2F
310
97C8FD3447454E545241434F2C4954412C302C5052455A5A4F2C47454E54524154582C25732C2847454E4D53472067656E6477672034332940490120281A224A6A028326A4A9AAA920A028EA028121A81A045D2E174BE5F2F91FA688E8A9CA8A482869E5892A8825860589A92A6AAA482588E8A9CA8A482A8B0584AE658508
310
E8A9C9AA68E40CECADCC8EECE4068685280920240506555345524944405094E756D65726F2049444051D4050143A883C16030180CF63F901A40480A1E882045C0F42F5A8DC671FA3C0080C566AB55AAD56FB1F959AAD56AB55BEC7E839E9E24AA22A69F20280C566AB55AAD56FB1F959AAD56AB55BEC7E839E9E24AA22A69F
310
20280C4863F1F8BC1E771F9218FC7E2F079DC7E839E9E24AA22A69F20280C4863F1F8BC1E771F9218FC7E2F079DC7E839E9E24AA22A69F20281480959AAD56AB55BEC7E566AB55AAD56FB1FA0E7A7892A88A9A7C80A0C7A78A2A8B27C80A03159AAD56AB55BEC7E566AB55AAD56FB1FA0E7A7892A88A9A7C80C8080159AAD5
310
6AB55BEC7E566AB55AAD56FB1FD10000000000000041034110340D02409014064410A42244101A42901A4229014290A4290A40A000000000000785F8000000000001E17E80A0483877BE9F1B2EDD447E1DEFA7C6CBB7511F9703D0BD6A3717C7F901A0D2028120A83A0D2034B81E85EB51B8BE3F409074090131405010
340
0
340
0
 94
        0
1001
ACAD
1000
AcadProxyRoundTripData
1071
      549
1071
   393239
1070
     0
  0
ACAD_PROXY_OBJECT
  5
136A
330
1363
100
AcDbProxyObject
 90
      499
 91
      568
 93
      960
310
5700B81E85EB51B8CE3F4BCF511155105253080F11115510525317D3105091530F971414D0D05311480F11115510525317D05094D4D0D053114F92341C9A9999999999B93F26A666666666724FC000000000000E03F40000000000000040000000000000051000000000000002440478B81E85EB51B8CE3F30
340
BE5
340
BF4
 94
        0
1001
ACAD
1000
AcadProxyRoundTripData
1071
      550
1071
   393239
1070
     0
  0
ACAD_PROXY_OBJECT
  5
136B
330
1363
100
AcDbProxyObject
 90
      499
 91
      568
 93
      745
310
570031703D0BD6A3719C7E999EA9A2A1AA24A7A7101E29A2A1AA24A7A72FA620A122A62FA324A929AA1F169E29A2A1AA24A7A72FA620A122A62FA620A9AA1F1353333333333B27EFF41C8823C4D4CCCCCCCCCEC9FC5C0F42F5A8DC671FC2
340
BE5
340
BF4
 94
        0
1001
ACAD
1000
AcadProxyRoundTripData
1071
      551
1071
   393239
1070
     0
  0
ACAD_PROXY_OBJECT
  5
136C
330
1363
100
AcDbProxyObject
 90
      499
 91
      568
 93
      279
310
5702B8716D9CEF7C33F0A5723F0BD4A2F0FC295C8FC2F528BC3FA199999999999F99FC
 94
        0
1001
ACAD
1000
AcadProxyRoundTripData
1071
      552
1071
   393239
1070
     0
  0
ACAD_PROXY_OBJECT
  5
136D
330
1363
100
AcDbProxyObject
 90
      499
 91
      568
 93
     5890
310
571084050B90142A40502405094D6F64656C6C6F2031405EA3D3C696628657175616C28486F6C653A7461707065642C223022292C222525632220486F6C653A6469612C20486F6C653A6E6F6D696E616C2022202220696628657175616C28486F6C653A756E6974732C223122292C2278222C222D22292022202220486F6C6
310
53A706974636864657363293E207B5C46414D4744543B787D203C696628657175616C28486F6C653A7465726D696E6174696F6E2C223022292C486F6C653A64657074682C225448525522293E5C507B5C46414D4744543B767D2525633C486F6C653A63746469613E207B5C46414D4744543B787D203C486F6C653A6374646
310
57074683E40640503405094D6F64656C6C6F2031405E33D3C696628657175616C28486F6C653A7461707065642C223022292C222525632220486F6C653A6469612C20486F6C653A6E6F6D696E616C2022202220696628657175616C28486F6C653A756E6974732C223122292C2278222C222D22292022202220486F6C653A7
310
06974636864657363293E207B5C46414D4744543B787D203C696628657175616C28486F6C653A7465726D696E6174696F6E2C223022292C486F6C653A64657074682C225448525522293E5C507B5C46414D4744543B777D2525633C486F6C653A63746469613E2058203C486F6C653A6374616E676C653E252564406405014
310
05094D6F64656C6C6F2031405B43D3C696628657175616C28486F6C653A7461707065642C223022292C222525632220486F6C653A6469612C20486F6C653A6E6F6D696E616C2022202220696628657175616C28486F6C653A756E6974732C223122292C2278222C222D22292022202220486F6C653A7069746368646573632
310
93E5C507B5C46414D4744543B787D203C696628657175616C28486F6C653A7465726D696E6174696F6E2C223022292C486F6C653A64657074682C225448525522293E4064051E405094D6F64656C6C6F20314050C3D3C535444503A444553433E40640515A88
 94
        0
1001
ACAD
1000
AcadProxyRoundTripData
1071
      553
1071
   393239
1070
     0
  0
ACAD_PROXY_OBJECT
  5
136E
330
1363
100
AcDbProxyObject
 90
      499
 91
      568
 93
       20
310
571018
340
0
 94
        0
1001
ACAD
1000
AcadProxyRoundTripData
1071
      538
1071
   393239
1070
     0
  0
ACAD_PROXY_OBJECT
  5
136F
330
1363
100
AcDbProxyObject
 90
      499
 91
      568
 93
      258
310
57102000000000000380FC000000000000E03F408F0F9023C3E40DB18CCCFFFFB8
340
BF7
340
0
340
0
340
BF8
340
BF9
340
0
340
BFA
340
BFB
340
BFC
340
0
 94
        0
1001
ACAD
1000
AcadProxyRoundTripData
1071
      539
1071
   393239
1070
     0
  0
ACAD_PROXY_OBJECT
  5
1370
330
1363
100
AcDbProxyObject
 90
      499
 91
      568
 93
    13409
310
5711A023FFFFFFFD010300002E07A17AD46E2F8FC09010300002E07A17AD46E2F8FC080511454C454E434F20434F4F5244494E415445015011D15395149050D3CB1255104B0C0B1153115390D3C810D3D3D49112539055114B11D15395149055160B095CCB0A11D1539354D1C819D95B991A5B5E880CCC0A78000C00000000
310
0000000000000000000000007B14AE47E17AA43F2E07A17AD46E2F8FD021EC52B91F85EA90FCB81E85EB51B8BE3F40A014315105091531310481193D4924053B47454E545241434F2C4954412C302C544142454C4C4120464F52492C47454E54524154582C25732C2847454E4D53472067656E64696D7A20333129E0003000
310
000000000000000000000000000001EC52B91F85EA90FCB81E85EB51B8BE3F4087B14AE47E17AA43F2E07A17AD46E2F8FD0290B4410F4450240D04415014391244D05449074510C4350F000141D3D49251D253914053547454E545241434F2C4954412C302C4F524947494E452C47454E54524154582C25732C2847454E4D5
310
3472067656E64696D7A20312900010105002214000283A7A924A3A4A72280A6A8E8A9CA8A482869E5892A8825860589EA4928E929C8A588E8A9CA8A482A8B0584AE658508E8A9C9AA68E40CECADCC8D2DAF4406252000202080043E8000504464F524F014C91D15395149050D3CB1255104B0C0B1193D493CB11D153951490
310
55160B095CCB0A11D1539354D1C819D95B991A5B5E880C8A405163D3C486F6C654974656D3E3C486F6C65496E6465783E010104002234000280AC00A5E8E8A9CA8A482869E5892A882586058B0588E8A9CA8A482A8B0584AE658508E8A9C9AA68E40CECADCC8D2DAF4406652000202000040A800050159014BD1D153951490
310
50D3CB1255104B0C0B164B11D15395149055160B095CCB0A11D1539354D1C819D95B991A5B5E880D0A4000404000081D0000A02A40297A3A2A72A2920A1A79624AA20961816291623A2A72A2920AA2C1612B9961423A2A726A9A39033B2B73234B6BD101B148000808000104A000141954ACC0D0D0D0053447454E54524143
310
4F2C4954412C302C552B303434342C47454E54524154582C25732C2847454E4D53472067656E64696D7A203729000101030020B40002822827A99700A668E8A9CA8A482869E5892A882586058A09EA65C588E8A9CA8A482A8B0584AE658508E8A9C9AA68E40CECADCC8D2DAF4406268520002020A004068000506494E44494
310
345014D51D15395149050D3CB1255104B0C0B1253911250D14B11D15395149055160B095CCB0A11D1539354D1C819D95B991A5B5E880C4D4A400040414008750000A088C9EA49E0299A3A2A72A2920A1A79624AA209618162327A9279623A2A72A2920AA2C1612B9961423A2A726A9A39033B2B73234B6BD10189B14800080
310
8200112A000142D253911250D1481193D493C053A47454E545241434F2C4954412C302C494E4449434520464F524F2C47454E54524154582C25732C2847454E4D53472067656E64696D7A20313729000101050022740002819292A180A628E8A9CA8A482869E5892A8825860584A4A86588E8A9CA8A482A8B0584AE658508E
310
8A9C9AA68E40CECADCC8D2DAF4407052000202020041E80005035154C0014C91D15395149050D3CB1255104B0C0B1455300B11D15395149055160B095CCB0A11D1539354D1C819D95B991A5B5E880C4E4A400040418008A50000A16888AA686A492B4929E9C8A029D23A2A72A2920A1A79624AA209618162222A9A1A924AD2
310
4A7A7229623A2A72A2920AA2C1612B9961423A2A726A9A39033B2B73234B6BD10191814800080020010CA00014214D51053911054910053747454E545241434F2C4954412C302C5354414E444152442C47454E54524154582C25732C2847454E4D53472067656E64696D7A20323129000100040021B4878030026A66666666
310
67A4FE064D4CCCCCCCCCF49FC049A9999999999E93F809353333333333D27F0226A6666666667A4FE044D4CCCCCCCCCF49FC009A9999999999D93F801353333333333D27F0026A6666666667A4FE004D4CCCCCCCCCF49FC0D819703D0BD6A371BC7F03000000000000001020633B333333333032050F006004D4CCCCCCCCCF
310
49FC0C9A9999999999E93F819353333333333D27F0326A6666666667A4FE064D4CCCCCCCCCF49FC0C9A9999999999E93F801353333333333B27F0026A6666666667A4FE064D4CCCCCCCCCF49FC009A9999999999E93F81B032E07A17AD46E378FE06000000000000002040C6766666666660640A088800000021E000000890
310
000002260000008220E000200890000002060002008100008006
340
0
340
0
340
0
340
0
 94
        0
1001
ACAD
1000
AcadProxyRoundTripData
1071
      554
1071
   393239
1070
     0
  0
ACAD_PROXY_OBJECT
  5
1371
330
1363
100
AcDbProxyObject
 90
      499
 91
      568
 93
     5766
310
5719741105394D2506414E53495F4342905394D257D512551554D15414E53495F54525F5265766973696F6E6C697374614191243202831372E307832322E30706F6C6C2E2941905394D257D0D1246202832382E307834302E30706F6C6C2E2941905394D257D1911412028382E357831312E30706F6C6C2E2941905394D257
310
D051242202831312E307831372E30706F6C6C2E2941905394D257D091244202832322E307833342E30706F6C6C2E2941905394D257D111245202833342E307834342E30706F6C6C2E2941905394D257D150544505394D24810D85C9D1A59DB1A5BC81050D0C414E53495F5449544C4541434310D85C9D1A59DB1A5BC81554D
310
0A414E53495F544954555344105394D24810D85C9D1A59DB1A5BC81050B414E53495F5449544C454144105394D24810D85C9D1A59DB1A5BC81110B414E53495F5449544C454444505394D24810D85C9D1A59DB1A5BC81110D0C414E53495F5449544C45444342116456C656E636F207265766973696F6E6920445F54525F45
310
505394D257D51497D4995D9A5CDA5BDB9B1A5CDD19116456C656E636F207265766973696F6E6920415F424C5F45505394D257D09317D4995D9A5CDA5BDB9B1A5CDD18516456C656E636F207265766973696F6E6920415F544C5F45505394D257D51317D4995D9A5CDA5BDB9B1A5CDD18516456C656E636F207265766973696
310
F6E6920445F424C5F45505394D257D09317D4995D9A5CDA5BDB9B1A5CDD19116456C656E636F207265766973696F6E6920445F544C5F45505394D257D51317D4995D9A5CDA5BDB9B1A5CDD19116456C656E636F207265766973696F6E6920415F42525F45505394D257D09497D4995D9A5CDA5BDB9B1A5CDD18516456C656E
310
636F207265766973696F6E6920415F54525F45505394D257D51497D4995D9A5CDA5BDB9B1A5CDD18516456C656E636F207265766973696F6E6920445F42525F45505394D257D09497D4995D9A5CDA5BDB9B1A5CDD190
 94
        0
1001
ACAD
1000
AcadProxyRoundTripData
1071
      541
1071
   393239
1070
     0
  0
ACAD_PROXY_OBJECT
  5
A57
330
A4B
100
AcDbProxyObject
 90
      499
 91
      568
 93
       12
310
5712
 94
        0
1001
ACAD
1000
AcadProxyRoundTripData
1071
      527
1071
   393239
1070
     0
  0
ACAD_PROXY_OBJECT
  5
A58
330
A4B
100
AcDbProxyObject
 90
      499
 91
      568
 93
       96
310
572A0E80A0280A0280A0280F01
 94
        0
1001
ACAD
1000
AcadProxyRoundTripData
1071
      528
1071
   393239
1070
     0
  0
ACAD_PROXY_OBJECT
  5
A59
330
A4B
100
AcDbProxyObject
 90
      499
 91
      568
 93
      272
310
5710E4050140501405014050140501405014050140D01405012C000000000000004090
340
A62
 94
        0
1001
ACAD
1000
AcadProxyRoundTripData
1071
      529
1071
   393239
1070
     0
  0
ACAD_PROXY_OBJECT
  5
A5A
330
A4B
100
AcDbProxyObject
 90
      499
 91
      568
 93
      496
310
5728666666666667A67E199999999999E99FD22405014050140501405014050140501405014050140501405014050140501405014050140501405014050104
340
A63
 94
        0
1001
ACAD
1000
AcadProxyRoundTripData
1071
      530
1071
   393239
1070
     0
  0
ACAD_PROXY_OBJECT
  5
A5B
330
A4B
100
AcDbProxyObject
 90
      499
 91
      568
 93
       10
310
5702
 94
        0
1001
ACAD
1000
AcadProxyRoundTripData
1071
      531
1071
   393239
1070
     0
  0
ACAD_PROXY_OBJECT
  5
A5C
330
A4B
100
AcDbProxyObject
 90
      499
 91
      568
 93
      223
310
572290EA22A7D90F49F8000000000000108140000000000000420205
340
A64
340
A65
 94
        0
1001
ACAD
1000
AcadProxyRoundTripData
1071
      532
1071
   393239
1070
     0
  0
ACAD_PROXY_OBJECT
  5
A5D
330
A4B
100
AcDbProxyObject
 90
      499
 91
      568
 93
    13186
310
5710F411255115350141141BDCCB90140501406901000000000000091013347454E545241434F2C4954412C302C506F732E2C47454E54524154582C25732C2847454E4D53472067656E647767203232322940690120281A8AA2CA0281A8BA702028120280A0320200000000000012202648E8A9CA8A482869E5892A8825860
310
58A2E9C0588E8A9CA8A482A8B0584AE658508E8A9C9AA68E40CECADCC8EECE406464665280D202405044E414D45405044E6F6D654051C40640A80000000000004E404CD1D15395149050D3CB1255104B0C0B139BDB594B11D15395149055160B095CCB0A11D1539354D1C819D95B991DD9C80C8C8D8A50190B3D424C4F434B
310
3A4E414D4540480A0A888AA686A480A1688CAE6C6E4D2F4D2DEDCCA80A3A80C81D0000000000100A2809D23A2A72A2920A1A79624AA209618162232B9B1B934BD34B7B7329623A2A72A2920AA2C1612B9961423A2A726A9A39033B2B7323BB39019189B94A034809014214D51053911054911014214DD185B99185C9910147
310
501904A000000000000125013747454E545241434F2C4954412C302C5374616E646172642C47454E54524154582C25732C2847454E4D53472067656E64776720323138294069012028426A0AA22A924A0A620284A6B0BA32B934B0B632A028EA0320B40000000000001CA02708E8A9CA8A482869E5892A8825860589AC2E8C
310
AE4D2C2D8CA588E8A9CA8A482A8B0584AE658508E8A9C9AA68E40CECADCC8EECE406464625280D202405044E4F5445405044E6F74614051D40641A80000000000003E404CD1D15395149050D3CB1255104B0C0B139BDD184B11D15395149055160B095CCB0A11D1539354D1C819D95B991DD9C80C8C8D4A501240480A0CAC8
310
A9C889EA480A128CDEE4DCD2E8DEE4CA80A3A80C83D00000000000007C809C23A2A72A2920A1A79624AA209618162337B93734BA37B9329623A2A72A2920AA2C1612B9961423A2A726A9A39033B2B7323BB39019191A14A0348090141911154D0D48C9014351195CD8DC9A5E9A5BDB99480C90147501908A00000000002014
310
5013B47454E545241434F2C4954412C302C4465736372697A696F6E6520322C47454E54524154582C25732C2847454E4D53472067656E6477672033362940490120284A9AA20A72220A922192028529BA30B73230B93210192028EA03213400000000000024A02728E8A9CA8A482869E5892A882586058A6E8C2DCC8C2E4C8
310
4064588E8A9CA8A482A8B0584AE658508E8A9C9AA68E40CECADCC8EECE4064646052809202405094D4154455249414C324050B4D6174657269616C6520324051D40642A8713D0AD7A37045404E51D15395149050D3CB1255104B0C0B13585D195C9A585B19480C8B11D15395149055160B095CCB0A11D1539354D1C819D95B
310
991DD9C80D0C0A501240480A089A82A6A680A0A9AC2E6E6C280A3A80A0485A068100000000000007C8099A3A2A72A2920A1A79624AA2096181626B0B9B9B09623A2A72A2920AA2C1612B9961423A2A726A9A39033B2B7323BB3901A1914A024809014154149250D150141941C995E9E9BD01475014090C4090200000000000
310
00F9013447454E545241434F2C4954412C302C5072657A7A6F2C47454E54524154582C25732C2847454E4D53472067656E6477672034332940490120281A224A6A028326B4B9BAB930A028EA028121A81A040000000000001F202688E8A9CA8A482869E5892A8825860589AD2E6EAE4C2588E8A9CA8A482A8B0584AE658508
310
E8A9C9AA68E40CECADCC8EECE4068685280920240506555345524944405094E756D65726F2049444051D4050143A80000000000804140901A40480A1E88A040000000000000A2020E0080C0000000000001F2000000000000007C80839E9E24AA22A69F20280C0000000000001F2000000000000007C80839E9E24AA22A69F
310
20280C0000000000001A2000000000000006880839E9E24AA22A69F20280C0000000000001A2000000000000006880839E9E24AA22A69F2028148080000000000007C800000000000001F2020E7A7892A88A9A7C80A0C7A78A2A8B27C80A0300000000000007C800000000000001F2020E7A7892A88A9A7C80C80800000000
310
0000007C800000000000001F2051100000000000004101034110340D02409014064410A42244101A42901A4229014290A4290A40A000000000000785F8000000000001E17E80A048399B9999999999D87E66E666666666761F80000000000001880901A0B20281A0882C80D000000000000031010240901404C5014040
340
0
340
0
 94
        0
1001
ACAD
1000
AcadProxyRoundTripData
1071
      533
1071
   393239
1070
     0
  0
ACAD_PROXY_OBJECT
  5
A5E
330
A4B
100
AcDbProxyObject
 90
      499
 91
      568
 93
      864
310
5704000000000000144048CF4F11115510525317D3105091530F880A0F11115510525317D05094D4D0D053114F8A51141C9A9999999999B93F26A666666666724FC000000000000E03F4000000000000004000000000000005100000000000000244041C000000000000144000
340
14
340
A56
 94
        0
1001
ACAD
1000
AcadProxyRoundTripData
1071
      534
1071
   393239
1070
     0
  0
ACAD_PROXY_OBJECT
  5
A5F
330
A4B
100
AcDbProxyObject
 90
      499
 91
      568
 93
      745
310
5700B00000000000002880959E9E29A2A1AA24A7A72FA620A122A62FA324A929AA1F169E29A2A1AA24A7A72FA620A122A62FA620A9AA1F00000000000004880FF41C88A0E0000000000001220000000000000028800000000000000A2022
340
97
340
A56
 94
        0
1001
ACAD
1000
AcadProxyRoundTripData
1071
      535
1071
   393239
1070
     0
  0
ACAD_PROXY_OBJECT
  5
A60
330
A4B
100
AcDbProxyObject
 90
      499
 91
      568
 93
      151
310
57280000000000000840A3D0A5723F0BD1F200
 94
        0
1001
ACAD
1000
AcadProxyRoundTripData
1071
      536
1071
   393239
1070
     0
  0
ACAD_PROXY_OBJECT
  5
A61
330
A4B
100
AcDbProxyObject
 90
      499
 91
      568
 93
     5762
310
571084050B90142A40502405094D6F64656C6C6F2031405DC3D2525633C486F6C653A63746469613E2078203C486F6C653A637464657074683E20555C503C696628657175616C28486F6C653A7461707065642C223022292C222525632220486F6C653A6469612C20486F6C653A6E6F6D696E616C20222078202220486F6C6
310
53A70697463686465736320696628657175616C28486F6C653A7461707065642C223122292C222078202220486F6C653A74617064657074682C222229293E203C696628657175616C28486F6C653A7465726D696E6174696F6E2C223022292C22202F202220486F6C653A64657074682C222022293E40640503405094D6F64
310
656C6C6F2031405DD3D2525633C486F6C653A63746469613E2078203C486F6C653A6374616E676C653E2525645C503C696628657175616C28486F6C653A7461707065642C223022292C222525632220486F6C653A6469612C20486F6C653A6E6F6D696E616C20222078202220486F6C653A706974636864657363206966286
310
57175616C28486F6C653A7461707065642C223122292C222078202220486F6C653A74617064657074682C222229293E203C696628657175616C28486F6C653A7465726D696E6174696F6E2C223022292C22202F202220486F6C653A64657074682C222022293E40640501405094D6F64656C6C6F2031405B83D3C696628657
310
175616C28486F6C653A7461707065642C223022292C222525632220486F6C653A6469612C20486F6C653A6E6F6D696E616C20222078202220486F6C653A70697463686465736320696628657175616C28486F6C653A7461707065642C223122292C222078202220486F6C653A74617064657074682C222229293E203C69662
310
8657175616C28486F6C653A7465726D696E6174696F6E2C223022292C22202F202220486F6C653A64657074682C222022293E4064051E405094D6F64656C6C6F20314050C3D3C535444503A444553433E40640515AA2
 94
        0
1001
ACAD
1000
AcadProxyRoundTripData
1071
      537
1071
   393239
1070
     0
  0
ACAD_PROXY_OBJECT
  5
A67
330
A4B
100
AcDbProxyObject
 90
      499
 91
      568
 93
       20
310
571018
340
A4C
 94
        0
1001
ACAD
1000
AcadProxyRoundTripData
1071
      538
1071
   393239
1070
     0
  0
ACAD_PROXY_OBJECT
  5
A68
330
A4B
100
AcDbProxyObject
 90
      499
 91
      568
 93
      250
310
571020000000000000A1000000000000002440408F0F9023C3E409A0DCFFFF80
340
A69
340
0
340
0
340
A6A
340
A6B
340
A6C
340
A6D
340
A6E
340
A73
340
0
 94
        0
1001
ACAD
1000
AcadProxyRoundTripData
1071
      539
1071
   393239
1070
     0
  0
ACAD_PROXY_OBJECT
  5
A74
330
A4B
100
AcDbProxyObject
 90
      499
 91
      568
 93
    13755
310
5711A003FFFFFFFD0303000300000000000003100090303000300000000000003100080511456C656E636F20636F6F7264696E617465015011D15395149050D3CB1255104B0C0B115B195B98DBC818DBDBDC991A5B985D194B11D15395149055160B095CCB0A11D1539354D1C819D95B991A5B5E880CCC0A78000C00000000
310
000000000000000000000001000000000000031010240000000000000C4040A0143151858995B1B1848199BDC9A4053B47454E545241434F2C4954412C302C546162656C6C6120666F72692C47454E54524154582C25732C2847454E4D53472067656E64696D7A20333129E000300000000000000000000000000000000400
310
00000000000C40409000000000000031010290D44111409034110541D0C4350F4050E44D03449074510F000141D3DC9A59DA5B994053547454E545241434F2C4954412C302C4F726967696E652C47454E54524154582C25732C2847454E4D53472067656E64696D7A203129000101050022140002822337B93780A648E8A9C
310
A8A482869E5892A8825860588CDEE4DE588E8A9CA8A482A8B0584AE658508E8A9C9AA68E40CECADCC8D2DAF4406452029F9E9E27B934B3B4B71F1E24A31427A91424A9A12620A7259427B934B3B4B7149624A9A12620A7259424B73232BC149496111116111711149F1E24B73232BC1F00808200111A000140560052F47454
310
E545241434F2C4954412C302C582C47454E54524154582C25732C2847454E4D53472067656E64696D7A20332900010100002054000280AC80A5E8E8A9CA8A482869E5892A882586058B2588E8A9CA8A482A8B0584AE658508E8A9C9AA68E40CECADCC8D2DAF4406852000202000040E800050172014BD1D15395149050D3CB
310
1255104B0C0B1C8B11D15395149055160B095CCB0A11D1539354D1C819D95B991A5B5E880D8A400040400008250000A0CAA5660686868029A23A2A72A2920A1A79624AA209618162A95981A1A1A1623A2A72A2920AA2C1612B9961423A2A726A9A39033B2B73234B6BD101B948000808180105A000140C94958C053147454E
310
545241434F2C4954412C302C2525632C47454E54524154582C25732C2847454E4D53472067656E64696D7A203829000101010020F4000285A232B9B1B934BD34B7B73280A748E8A9CA8A482869E5892A88258605888CAE6C6E4D2F4D2DEDCCA588E8A9CA8A482A8B0584AE658508E8A9C9AA68E40CECADCC8D2DAF44064605
310
2000200080043280005085374616E64617264014DD1D15395149050D3CB1255104B0C0B14DD185B99185C990B11D15395149055160B095CCB0A11D1539354D1C819D95B991A5B5E880C8C4A4000400100086D0000A0E9EE4D2CED2DCCA029AA3A2A72A2920A1A79624AA2096181627B934B3B4B7329623A2A72A2920AA2C16
310
12B9961423A2A726A9A39033B2B73234B6BD10189480A026202020A0043E8000504506F732E014CD1D15395149050D3CB1255104B0C0B141BDCCB8B11D15395149055160B095CCB0A11D1539354D1C819D95B991A5B5E880C4D0A4000404140080D0000A0C92DCC8D2C6CA029AA3A2A72A2920A1A79624AA2096181624B732
310
34B1B29623A2A72A2920AA2C1612B9961423A2A726A9A39033B2B73234B6BD10189A94800080828010EA000142D25B991A58D948199BDC9BC053A47454E545241434F2C4954412C302C496E6469636520666F726F2C47454E54524154582C25732C2847454E4D53472067656E64696D7A20313729000101050022740002822
310
337B93780A668E8A9CA8A482869E5892A8825860588CDEE4DE588E8A9CA8A482A8B0584AE658508E8A9C9AA68E40CECADCC8D2DAF440626C52000202080044A80005035174E0014C91D15395149050D3CB1255104B0C0B145D380B11D15395149055160B095CCB0A11D1539354D1C819D95B991A5B5E880C4E4A4000404180
310
08A521E000000000000001CA040C00000000000034408080000000000006881010000000000000D102040000000000001A204080000000000003440818000000000000728103000000000000125020600000000004028A040000000000000034408000000000000004881000000000000000D102000000000000001A204000
310
000000000003440818000000000000508143C0000000000000039408180000000000006881030000000000000D102060000000000001A2040C00000000000034408180000000000006881030000000000000E5020600000000000024A040C00000000008051408000000000000006881000000000000000910200000000000
310
0001A2040000000000000034408180000000000006881030000000000000A10283A2000000087800000204000000818000002080000008280000020E00000080A240000008
340
0
340
0
340
0
340
0
 94
        0
1001
ACAD
1000
AcadProxyRoundTripData
1071
      540
1071
   393239
1070
     0
  0
ACAD_PROXY_OBJECT
  5
A75
330
A4B
100
AcDbProxyObject
 90
      499
 91
      568
 93
     7258
310
5719740D254D3D0649534F5F4133429254D3D7D5125513115051349534F5F42525F5265766973696F6E6C69737446111413478342028323937783834316D6D2920421254D3D7D04D1E0D11141327835202835393478323130326D6D29421254D3D7D04C9E0D51141347839202832393778313839326D6D29421254D3D7D04D
310
1E0E51141337837202834323078323038306D6D29421254D3D7D04CDE0DD1141347838202832393778313638326D6D29421254D3D7D04D1E0E11141327834202835393478313638326D6D29421254D3D7D04C9E0D10E41312028353934783834316D6D29419254D3D7D04C51141347837202832393778313437316D6D29421
310
254D3D7D04D1E0DD1141347836202832393778313236316D6D29421254D3D7D04D1E0D91141347835202832393778313035316D6D29421254D3D7D04D1E0D5104130202838343078313138396D6D2920419254D3D7D04C10E41332028323937783432306D6D29419254D3D7D04CD1141327833202835393478313236316D6D
310
29421254D3D7D04C9E0CD10413478332028323937783633306D6D29421254D3D7D04D1E0CD1141337834202834323078313138396D6D29421254D3D7D04CDE0D11141337836202834323078313738336D6D29421254D3D7D04CDE0D91141337835202834323078313438366D6D29421254D3D7D04CDE0D50E4132202834323
310
0783539346D6D29419254D3D7D04C910413378332028343230783839316D6D29421254D3D7D04CDE0CD0E41342028323937783231306D6D29419254D3D7D04D1124130783220283131383978313638326D6D29421254D3D7D04C1E0C9124130783320283131383978323532336D6D29421254D3D7D04C1E0CD114131783420
310
2838343178323337386D6D29421254D3D7D04C5E0D11141317833202838343178313738336D6D29421254D3D7D04C5E0CD0243D254D3C810D85C9D1A59DB1A5BC81050A49534F5F5449544C454143D254D3C810D85C9D1A59DB1A5BC81090A49534F5F5449544C454241114456C656E636F207265766973696F6E695F54525
310
F44D254D3D7D51497D4995D9A5CDA5BDB9B1A5CDD114456C656E636F207265766973696F6E695F424C5F44D254D3D7D09317D4995D9A5CDA5BDB9B1A5CDD114456C656E636F207265766973696F6E695F544C5F44D254D3D7D51317D4995D9A5CDA5BDB9B1A5CDD114456C656E636F207265766973696F6E695F42525F44D2
310
54D3D7D09497D4995D9A5CDA5BDB9B1A5CDD1C
 94
        0
1001
ACAD
1000
AcadProxyRoundTripData
1071
      541
1071
   393239
1070
     0
  0
ENDSEC
  0
EOF
