  0
SECTION
  2
HEADER
  9
$ACADVER
  1
AC1018
  9
$ACADMAINTVER
 70
   104
  9
$DWGCODEPAGE
  3
ANSI_1252
  9
$LASTSAVEDBY
  1
Achim
  9
$CUSTOMPROPERTYTAG
  1
AmdtFileType
  9
$CUSTOMPROPERTY
  1
84
  9
$INSBASE
 10
0.0
 20
0.0
 30
0.0
  9
$EXTMIN
 10
-1357.489841538299
 20
-458.815020431127
 30
0.0
  9
$EXTMAX
 10
443.5188577243193
 20
349.8618367768616
 30
0.0
  9
$LIMMIN
 10
0.0
 20
0.0
  9
$LIMMAX
 10
420.0
 20
297.0
  9
$ORTHOMODE
 70
     1
  9
$REGENMODE
 70
     1
  9
$FILLMODE
 70
     1
  9
$QTEXTMODE
 70
     0
  9
$MIRRTEXT
 70
     1
  9
$LTSCALE
 40
20.0
  9
$ATTMODE
 70
     1
  9
$TEXTSIZE
 40
2.5
  9
$TRACEWID
 40
1.0
  9
$TEXTSTYLE
  7
STANDARD
  9
$CLAYER
  8
DISEGNO
  9
$CELTYPE
  6
BYLAYER
  9
$CECOLOR
 62
   256
  9
$CELTSCALE
 40
1.0
  9
$DISPSILH
 70
     0
  9
$DIMSCALE
 40
1.0
  9
$DIMASZ
 40
2.5
  9
$DIMEXO
 40
0.625
  9
$DIMDLI
 40
3.75
  9
$DIMRND
 40
0.0
  9
$DIMDLE
 40
0.0
  9
$DIMEXE
 40
1.25
  9
$DIMTP
 40
0.0
  9
$DIMTM
 40
0.0
  9
$DIMTXT
 40
2.5
  9
$DIMCEN
 40
2.5
  9
$DIMTSZ
 40
0.0
  9
$DIMTOL
 70
     0
  9
$DIMLIM
 70
     0
  9
$DIMTIH
 70
     0
  9
$DIMTOH
 70
     0
  9
$DIMSE1
 70
     0
  9
$DIMSE2
 70
     0
  9
$DIMTAD
 70
     1
  9
$DIMZIN
 70
     8
  9
$DIMBLK
  1

  9
$DIMASO
 70
     1
  9
$DIMSHO
 70
     1
  9
$DIMPOST
  1

  9
$DIMAPOST
  1

  9
$DIMALT
 70
     0
  9
$DIMALTD
 70
     4
  9
$DIMALTF
 40
0.0394
  9
$DIMLFAC
 40
1.0
  9
$DIMTOFL
 70
     1
  9
$DIMTVP
 40
0.0
  9
$DIMTIX
 70
     0
  9
$DIMSOXD
 70
     0
  9
$DIMSAH
 70
     0
  9
$DIMBLK1
  1

  9
$DIMBLK2
  1

  9
$DIMSTYLE
  2
STANDARD
  9
$DIMCLRD
 70
     0
  9
$DIMCLRE
 70
     0
  9
$DIMCLRT
 70
     0
  9
$DIMTFAC
 40
1.0
  9
$DIMGAP
 40
0.625
  9
$DIMJUST
 70
     0
  9
$DIMSD1
 70
     0
  9
$DIMSD2
 70
     0
  9
$DIMTOLJ
 70
     1
  9
$DIMTZIN
 70
     0
  9
$DIMALTZ
 70
     0
  9
$DIMALTTZ
 70
     0
  9
$DIMUPT
 70
     0
  9
$DIMDEC
 70
     4
  9
$DIMTDEC
 70
     4
  9
$DIMALTU
 70
     8
  9
$DIMALTTD
 70
     4
  9
$DIMTXSTY
  7
STANDARD
  9
$DIMAUNIT
 70
     0
  9
$DIMADEC
 70
     0
  9
$DIMALTRND
 40
0.0
  9
$DIMAZIN
 70
     0
  9
$DIMDSEP
 70
    46
  9
$DIMATFIT
 70
     3
  9
$DIMFRAC
 70
     0
  9
$DIMLDRBLK
  1

  9
$DIMLUNIT
 70
     6
  9
$DIMLWD
 70
    -2
  9
$DIMLWE
 70
    -2
  9
$DIMTMOVE
 70
     0
  9
$LUNITS
 70
     2
  9
$LUPREC
 70
     4
  9
$SKETCHINC
 40
1.0
  9
$FILLETRAD
 40
10.0
  9
$AUNITS
 70
     0
  9
$AUPREC
 70
     0
  9
$MENU
  1
.
  9
$ELEVATION
 40
0.0
  9
$PELEVATION
 40
0.0
  9
$THICKNESS
 40
0.0
  9
$LIMCHECK
 70
     0
  9
$CHAMFERA
 40
5.0
  9
$CHAMFERB
 40
5.0
  9
$CHAMFERC
 40
20.0
  9
$CHAMFERD
 40
0.0
  9
$SKPOLY
 70
     0
  9
$TDCREATE
 40
2452088.782487165
  9
$TDUCREATE
 40
2452088.699153831
  9
$TDUPDATE
 40
2455405.392797419
  9
$TDUUPDATE
 40
2455405.309464086
  9
$TDINDWG
 40
0.2954524769
  9
$TDUSRTIMER
 40
0.2954524769
  9
$USRTIMER
 70
     1
  9
$ANGBASE
 50
0.0
  9
$ANGDIR
 70
     0
  9
$PDMODE
 70
     0
  9
$PDSIZE
 40
0.0
  9
$PLINEWID
 40
0.0
  9
$SPLFRAME
 70
     0
  9
$SPLINETYPE
 70
     6
  9
$SPLINESEGS
 70
     8
  9
$HANDSEED
  5
2EC2
  9
$SURFTAB1
 70
     6
  9
$SURFTAB2
 70
     6
  9
$SURFTYPE
 70
     6
  9
$SURFU
 70
     6
  9
$SURFV
 70
     6
  9
$UCSBASE
  2

  9
$UCSNAME
  2

  9
$UCSORG
 10
0.0
 20
0.0
 30
0.0
  9
$UCSXDIR
 10
1.0
 20
0.0
 30
0.0
  9
$UCSYDIR
 10
0.0
 20
1.0
 30
0.0
  9
$UCSORTHOREF
  2

  9
$UCSORTHOVIEW
 70
     0
  9
$UCSORGTOP
 10
0.0
 20
0.0
 30
0.0
  9
$UCSORGBOTTOM
 10
0.0
 20
0.0
 30
0.0
  9
$UCSORGLEFT
 10
0.0
 20
0.0
 30
0.0
  9
$UCSORGRIGHT
 10
0.0
 20
0.0
 30
0.0
  9
$UCSORGFRONT
 10
0.0
 20
0.0
 30
0.0
  9
$UCSORGBACK
 10
0.0
 20
0.0
 30
0.0
  9
$PUCSBASE
  2

  9
$PUCSNAME
  2

  9
$PUCSORG
 10
0.0
 20
0.0
 30
0.0
  9
$PUCSXDIR
 10
1.0
 20
0.0
 30
0.0
  9
$PUCSYDIR
 10
0.0
 20
1.0
 30
0.0
  9
$PUCSORTHOREF
  2

  9
$PUCSORTHOVIEW
 70
     0
  9
$PUCSORGTOP
 10
0.0
 20
0.0
 30
0.0
  9
$PUCSORGBOTTOM
 10
0.0
 20
0.0
 30
0.0
  9
$PUCSORGLEFT
 10
0.0
 20
0.0
 30
0.0
  9
$PUCSORGRIGHT
 10
0.0
 20
0.0
 30
0.0
  9
$PUCSORGFRONT
 10
0.0
 20
0.0
 30
0.0
  9
$PUCSORGBACK
 10
0.0
 20
0.0
 30
0.0
  9
$USERI1
 70
     0
  9
$USERI2
 70
     0
  9
$USERI3
 70
     0
  9
$USERI4
 70
     0
  9
$USERI5
 70
     0
  9
$USERR1
 40
0.0
  9
$USERR2
 40
0.0
  9
$USERR3
 40
0.0
  9
$USERR4
 40
0.0
  9
$USERR5
 40
0.0
  9
$WORLDVIEW
 70
     1
  9
$SHADEDGE
 70
     3
  9
$SHADEDIF
 70
    70
  9
$TILEMODE
 70
     1
  9
$MAXACTVP
 70
    48
  9
$PINSBASE
 10
0.0
 20
0.0
 30
0.0
  9
$PLIMCHECK
 70
     0
  9
$PEXTMIN
 10
1.000000000000000E+20
 20
1.000000000000000E+20
 30
1.000000000000000E+20
  9
$PEXTMAX
 10
-1.000000000000000E+20
 20
-1.000000000000000E+20
 30
-1.000000000000000E+20
  9
$PLIMMIN
 10
0.0
 20
0.0
  9
$PLIMMAX
 10
420.0
 20
297.0
  9
$UNITMODE
 70
     0
  9
$VISRETAIN
 70
     1
  9
$PLINEGEN
 70
     0
  9
$PSLTSCALE
 70
     1
  9
$TREEDEPTH
 70
  3020
  9
$CMLSTYLE
  2
STANDARD
  9
$CMLJUST
 70
     0
  9
$CMLSCALE
 40
20.0
  9
$PROXYGRAPHICS
 70
     1
  9
$MEASUREMENT
 70
     1
  9
$CELWEIGHT
370
    -1
  9
$ENDCAPS
280
     0
  9
$JOINSTYLE
280
     0
  9
$LWDISPLAY
290
     0
  9
$INSUNITS
 70
     0
  9
$HYPERLINKBASE
  1

  9
$STYLESHEET
  1

  9
$XEDIT
290
     1
  9
$CEPSNTYPE
380
     0
  9
$PSTYLEMODE
290
     1
  9
$FINGERPRINTGUID
  2
{50BB8086-841C-11D6-9A2A-000102212E7C}
  9
$VERSIONGUID
  2
{D8A4A3AE-A30C-43FC-9F49-49250DD74BD3}
  9
$EXTNAMES
290
     1
  9
$PSVPSCALE
 40
0.0
  9
$OLESTARTUP
290
     0
  9
$SORTENTS
280
   127
  9
$INDEXCTL
280
     1
  9
$HIDETEXT
280
     0
  9
$XCLIPFRAME
290
     0
  9
$HALOGAP
280
     0
  9
$OBSCOLOR
 70
   257
  9
$OBSLTYPE
280
     0
  9
$INTERSECTIONDISPLAY
280
     0
  9
$INTERSECTIONCOLOR
 70
   257
  9
$DIMASSOC
280
     1
  9
$PROJECTNAME
  1

  0
ENDSEC
  0
SECTION
  2
CLASSES
  0
CLASS
  1
ACDBDICTIONARYWDFLT
  2
AcDbDictionaryWithDefault
  3
ObjectDBX Classes
 90
        0
 91
        1
280
     0
281
     0
  0
CLASS
  1
ACDBPLACEHOLDER
  2
AcDbPlaceHolder
  3
ObjectDBX Classes
 90
        0
 91
        1
280
     0
281
     0
  0
CLASS
  1
LAYOUT
  2
AcDbLayout
  3
ObjectDBX Classes
 90
        0
 91
        2
280
     0
281
     0
  0
CLASS
  1
ACME_DOCUMENT
  2
AcMeDbDoc
  3
AcMeServices
 90
        0
 91
        0
280
     0
281
     0
  0
CLASS
  1
AMGSETTINGSOBJ
  2
AmgSettingsObj
  3
"AcadM|Product Description: AutoCAD Mechanical 2000|Company: Autodesk"
 90
        0
 91
        2
280
     0
281
     0
  0
CLASS
  1
ACMESCOPE
  2
AcMeScope
  3
AcMeServices
 90
        0
 91
        1
280
     0
281
     0
  0
CLASS
  1
ACMECOMMANDHISTORY
  2
AcMeCommandHistory
  3
AcMeServices
 90
        0
 91
        1
280
     0
281
     0
  0
CLASS
  1
ACIMSYSVARMAN
  2
AcImSysVarManager
  3
AcMeServices
 90
        0
 91
        2
280
     0
281
     0
  0
CLASS
  1
ACIMREALSYSVAR
  2
AcImRealSysVar
  3
AcMeServices
 90
        0
 91
        2
280
     0
281
     0
  0
CLASS
  1
ACIMINTSYSVAR
  2
AcImIntSysVar
  3
AcMeServices
 90
        0
 91
        1
280
     0
281
     0
  0
CLASS
  1
ACMEDRAWINGMAN
  2
AcMeDrawingMan
  3
AcMeServices
 90
        0
 91
        1
280
     0
281
     0
  0
CLASS
  1
ACMEVIEW
  2
AcMeView
  3
AcMeServices
 90
        0
 91
        1
280
     0
281
     0
  0
CLASS
  1
ACDBENTITYCACHE
  2
AcMeEntityCache
  3
AcMeServices
 90
        0
 91
        0
280
     0
281
     0
  0
CLASS
  1
GSMANAGER
  2
AcMeGSManager
  3
AcMeServices
 90
        0
 91
        0
280
     0
281
     0
  0
CLASS
  1
AMDTINTERNALREACTOR
  2
AmdtInternalReactor
  3
AcMeServices
 90
        0
 91
        0
280
     0
281
     0
  0
CLASS
  1
ACMESTATEMGR
  2
AcMeStateMgr
  3
AcMeServices
 90
        0
 91
        1
280
     0
281
     0
  0
CLASS
  1
ACGREFMASTER
  2
AcGrefMaster
  3
AcAttribServices
 90
        0
 91
        1
280
     0
281
     0
  0
CLASS
  1
ACME_DATABASE
  2
AcMeDbDatabase
  3
AcMeServices
 90
        0
 91
        0
280
     0
281
     0
  0
CLASS
  1
ACRFINSADJUSTERMGR
  2
AcRfInsAdjusterMgr
  3
AcMeServices
 90
        0
 91
        0
280
     0
281
     0
  0
CLASS
  1
ACGREFACADMASTER
  2
AcGrefacadMaster
  3
AcGrefServices
 90
        0
 91
        1
280
     0
281
     0
  0
CLASS
  1
AMIMASTER
  2
AmiMaster
  3
AmiServices
 90
        0
 91
        1
280
     0
281
     0
  0
CLASS
  1
ACMDATADICTIONARY
  2
AcmDataDictionary
  3
"AcmSymBB|Product Description: AutoCAD Mechanical 2000|Company: Autodesk"
 90
        0
 91
        1
280
     0
281
     0
  0
CLASS
  1
ACMDATAENTRYBLOCK
  2
AcmDataEntryBlock
  3
"AcmSymBB|Product Description: AutoCAD Mechanical 2000|Company: Autodesk"
 90
        0
 91
        1
280
     0
281
     0
  0
CLASS
  1
ACIMSTRSYSVAR
  2
AcImStrSysVar
  3
AcMeServices
 90
        0
 91
        1
280
     0
281
     0
  0
CLASS
  1
ACMSTANDARDISO
  2
AcmStandardISO
  3
"Amdt_StdImp|Product Description: AutoCAD Mechanical 2000|Company: Autodesk"
 90
        0
 91
        1
280
     0
281
     0
  0
CLASS
  1
AMGOBJPROPCFG
  2
AmgObjPropCfg
  3
"AmgLay|Product Description: AutoCAD Mechanical 2000|Company: Autodesk"
 90
        1
 91
        1
280
     0
281
     0
  0
CLASS
  1
AMDTEDGESTANDARDISO
  2
AmdtEdgeStdISO
  3
"Amdt_StdImp|Product Description: AutoCAD Mechanical 2000|Company: Autodesk"
 90
        0
 91
        1
280
     0
281
     0
  0
CLASS
  1
ACMSURFSTANDARDISO
  2
AcmSurfTextStdISO
  3
"Amdt_StdImp|Product Description: AutoCAD Mechanical 2000|Company: Autodesk"
 90
        0
 91
        1
280
     0
281
     0
  0
CLASS
  1
ACMFCFSTANDARDISO
  2
AcmFCFStdISO
  3
"Amdt_StdImp|Product Description: AutoCAD Mechanical 2000|Company: Autodesk"
 90
        0
 91
        1
280
     0
281
     0
  0
CLASS
  1
ACMWELDSTANDARDISO
  2
AcmWeldingStdISO
  3
"Amdt_StdImp|Product Description: AutoCAD Mechanical 2000|Company: Autodesk"
 90
        0
 91
        1
280
     0
281
     0
  0
CLASS
  1
ACMIDSTANDARDISO
  2
AcmIdStdISO
  3
"Amdt_StdImp|Product Description: AutoCAD Mechanical 2000|Company: Autodesk"
 90
        0
 91
        1
280
     0
281
     0
  0
CLASS
  1
ACMDATUMSTANDARDISO
  2
AcmDatumStdISO
  3
"Amdt_StdImp|Product Description: AutoCAD Mechanical 2000|Company: Autodesk"
 90
        0
 91
        1
280
     0
281
     0
  0
CLASS
  1
ACMBOMSTANDARDISO
  2
AcmBOMStdISO
  3
"Amdt_StdImp|Product Description: AutoCAD Mechanical 2000|Company: Autodesk"
 90
        0
 91
        1
280
     0
281
     0
  0
CLASS
  1
ACMDETAILSTANDARDISO
  2
AmdtDetailSymStdISO
  3
"Amdt_StdImp|Product Description: AutoCAD Mechanical 2000|Company: Autodesk"
 90
        0
 91
        1
280
     0
281
     0
  0
CLASS
  1
ACMSECTIONSTANDARDISO
  2
AmdtSectionSymStdISO
  3
"Amdt_StdImp|Product Description: AutoCAD Mechanical 2000|Company: Autodesk"
 90
        0
 91
        1
280
     0
281
     0
  0
CLASS
  1
ACMCENTERLINESTANDARDISO
  2
AmdtCenterLineStdISO
  3
"Amdt_StdImp|Product Description: AutoCAD Mechanical 2000|Company: Autodesk"
 90
        0
 91
        1
280
     0
281
     0
  0
CLASS
  1
ACMNOTESTANDARDISO
  2
AmdtNoteStdISO
  3
"Amdt_StdImp|Product Description: AutoCAD Mechanical 2000|Company: Autodesk"
 90
        0
 91
        1
280
     0
281
     0
  0
CLASS
  1
ACAMGLAYSTD
  2
AcAmgLayStd
  3
"AcAmgLayStd|Product Description: AutoCAD Mechanical 2000|Company: Autodesk"
 90
        0
 91
        2
280
     0
281
     0
  0
CLASS
  1
ACAMGDIMSTD
  2
AcAmgDimStd
  3
"AcAmgDimStd|Product Description: AutoCAD Mechanical 2000|Company: Autodesk"
 90
        0
 91
        2
280
     0
281
     0
  0
CLASS
  1
ACAMGHOLECHARTSTDISO
  2
AcAmgHoleChartStdISO
  3
ACMSYMBB_MODULE_NAME
 90
        0
 91
        1
280
     0
281
     0
  0
CLASS
  1
ACAMGTITLESTD
  2
AcAmgTitleStd
  3
"TITLEAPP"
 90
        0
 91
        2
280
     0
281
     0
  0
CLASS
  1
ACAMGFILTERDAT
  2
AcAmgFilterDat
  3
"AcadM|Product Description: AutoCAD Mechanical 2000|Company: Autodesk"
 90
        0
 91
        6
280
     0
281
     0
  0
CLASS
  1
ACMSTANDARDANSI
  2
AcmStandardANSI
  3
"Amdt_StdImp|Product Description: AutoCAD Mechanical 2000|Company: Autodesk"
 90
        0
 91
        1
280
     0
281
     0
  0
CLASS
  1
ACMSURFSTANDARDANSI
  2
AcmSurfTextStdANSI
  3
"Amdt_StdImp|Product Description: AutoCAD Mechanical 2000|Company: Autodesk"
 90
        0
 91
        1
280
     0
281
     0
  0
CLASS
  1
ACMFCFSTANDARDANSI
  2
AcmFCFStdANSI
  3
"Amdt_StdImp|Product Description: AutoCAD Mechanical 2000|Company: Autodesk"
 90
        0
 91
        1
280
     0
281
     0
  0
CLASS
  1
ACMWELDSTANDARDANSI
  2
AcmWeldingStdANSI
  3
"Amdt_StdImp|Product Description: AutoCAD Mechanical 2000|Company: Autodesk"
 90
        0
 91
        1
280
     0
281
     0
  0
CLASS
  1
ACMIDSTANDARDANSI
  2
AcmIdStdANSI
  3
"Amdt_StdImp|Product Description: AutoCAD Mechanical 2000|Company: Autodesk"
 90
        0
 91
        1
280
     0
281
     0
  0
CLASS
  1
ACMDATUMSTANDARDANSI
  2
AcmDatumStdANSI
  3
"Amdt_StdImp|Product Description: AutoCAD Mechanical 2000|Company: Autodesk"
 90
        0
 91
        1
280
     0
281
     0
  0
CLASS
  1
ACMBOMSTANDARDANSI
  2
AcmBOMStdANSI
  3
"Amdt_StdImp|Product Description: AutoCAD Mechanical 2000|Company: Autodesk"
 90
        0
 91
        1
280
     0
281
     0
  0
CLASS
  1
ACMDETAILSTANDARDANSI
  2
AmdtDetailSymStdANSI
  3
"Amdt_StdImp|Product Description: AutoCAD Mechanical 2000|Company: Autodesk"
 90
        0
 91
        1
280
     0
281
     0
  0
CLASS
  1
ACMSECTIONSTANDARDANSI
  2
AmdtSectionSymStdANSI
  3
"Amdt_StdImp|Product Description: AutoCAD Mechanical 2000|Company: Autodesk"
 90
        0
 91
        1
280
     0
281
     0
  0
CLASS
  1
ACMCENTERLINESTANDARDANSI
  2
AmdtCenterLineStdANSI
  3
"Amdt_StdImp|Product Description: AutoCAD Mechanical 2000|Company: Autodesk"
 90
        0
 91
        1
280
     0
281
     0
  0
CLASS
  1
ACMNOTESTANDARDANSI
  2
AmdtNoteStdANSI
  3
"Amdt_StdImp|Product Description: AutoCAD Mechanical 2000|Company: Autodesk"
 90
        0
 91
        1
280
     0
281
     0
  0
CLASS
  1
ACAMGHOLECHARTSTDANSI
  2
AcAmgHoleChartStdANSI
  3
ACMSYMBB_MODULE_NAME
 90
        0
 91
        1
280
     0
281
     0
  0
CLASS
  1
AMDTFORMULAUPDATEDISPATCHER
  2
AmdtFormulaUpdateDispatcher
  3
AcMeServices
 90
        0
 91
        1
280
     0
281
     0
  0
CLASS
  1
LAYER_INDEX
  2
AcDbLayerIndex
  3
ObjectDBX Classes
 90
        0
 91
        1
280
     0
281
     0
  0
CLASS
  1
IDBUFFER
  2
AcDbIdBuffer
  3
ObjectDBX Classes
 90
        0
 91
       18
280
     0
281
     0
  0
CLASS
  1
DICTIONARYVAR
  2
AcDbDictionaryVar
  3
ObjectDBX Classes
 90
        0
 91
        5
280
     0
281
     0
  0
CLASS
  1
STDPART2D
  2
AmgStdPart
  3
"AmgStdPart|Product Description: AutoCAD Mechanical 2000|Company: Autodesk"
 90
     1023
 91
        0
280
     0
281
     1
  0
CLASS
  1
ACMDATAENTRYPART
  2
AcmDataEntryPart
  3
"AcmSymBB|Product Description: AutoCAD Mechanical 2000|Company: Autodesk"
 90
        0
 91
        0
280
     0
281
     0
  0
CLASS
  1
ACMPARTREF
  2
AcmPartRef
  3
"AcmSymBB|Product Description: AutoCAD Mechanical 2000|Company: Autodesk"
 90
     1023
 91
        0
280
     0
281
     1
  0
CLASS
  1
ACDBSTDPARTRES_LINE
  2
AcDbStdPartRes_Line
  3
"AcDbStdPartRes_Line|Product Description: AutoCAD Mechanical 2000|Company: Autodesk"
 90
        0
 91
        0
280
     0
281
     0
  0
CLASS
  1
MATERIAL
  2
AcDbMaterial
  3
ObjectDBX Classes
 90
     1153
 91
        3
280
     0
281
     0
  0
CLASS
  1
VISUALSTYLE
  2
AcDbVisualStyle
  3
ObjectDBX Classes
 90
     4095
 91
       16
280
     0
281
     0
  0
CLASS
  1
TABLESTYLE
  2
AcDbTableStyle
  3
ObjectDBX Classes
 90
     4095
 91
        1
280
     0
281
     0
  0
CLASS
  1
SCALE
  2
AcDbScale
  3
ObjectDBX Classes
 90
     1153
 91
       33
280
     0
281
     0
  0
CLASS
  1
MLEADERSTYLE
  2
AcDbMLeaderStyle
  3
ACDB_MLEADERSTYLE_CLASS
 90
     4095
 91
        1
280
     0
281
     0
  0
CLASS
  1
CELLSTYLEMAP
  2
AcDbCellStyleMap
  3
ObjectDBX Classes
 90
     1152
 91
        1
280
     0
281
     0
  0
ENDSEC
  0
SECTION
  2
TABLES
  0
TABLE
  2
VPORT
  5
8
330
0
100
AcDbSymbolTable
 70
     1
  0
VPORT
  5
2E5D
330
8
100
AcDbSymbolTableRecord
100
AcDbViewportTableRecord
  2
*Active
 70
     0
 10
0.0
 20
0.0
 11
1.0
 21
1.0
 12
-365.2044495011942
 22
-54.47366483991903
 13
0.0
 23
0.0
 14
10.0
 24
10.0
 15
10.0
 25
10.0
 16
0.0
 26
0.0
 36
1.0
 17
0.0
 27
0.0
 37
0.0
 40
1145.650230579795
 41
1.739910313901345
 42
50.0
 43
0.0
 44
0.0
 50
0.0
 51
0.0
 71
     0
 72
  1234
 73
     1
 74
     1
 75
     0
 76
     0
 77
     0
 78
     0
281
     0
 65
     1
110
0.0
120
0.0
130
0.0
111
1.0
121
0.0
131
0.0
112
0.0
122
1.0
132
0.0
 79
     0
146
0.0
  0
ENDTAB
  0
TABLE
  2
LTYPE
  5
5
330
0
100
AcDbSymbolTable
 70
    16
  0
LTYPE
  5
12
330
5
100
AcDbSymbolTableRecord
100
AcDbLinetypeTableRecord
  2
BYBLOCK
 70
     0
  3

 72
    65
 73
     0
 40
0.0
  0
LTYPE
  5
13
330
5
100
AcDbSymbolTableRecord
100
AcDbLinetypeTableRecord
  2
BYLAYER
 70
     0
  3

 72
    65
 73
     0
 40
0.0
  0
LTYPE
  5
14
330
5
100
AcDbSymbolTableRecord
100
AcDbLinetypeTableRecord
  2
CONTINUOUS
 70
     0
  3
Solid line
 72
    65
 73
     0
 40
0.0
  0
LTYPE
  5
163
330
5
100
AcDbSymbolTableRecord
100
AcDbLinetypeTableRecord
  2
CENTER
 70
     0
  3
____ _ ____ _ ____ _ ____ _ ____ _ ____ _ ____ 
 72
    65
 73
     4
 40
2.0
 49
1.25
 74
     0
 49
-0.25
 74
     0
 49
0.25
 74
     0
 49
-0.25
 74
     0
  0
LTYPE
  5
166
330
5
100
AcDbSymbolTableRecord
100
AcDbLinetypeTableRecord
  2
DASHED
 70
     0
  3
__ __ __ __ __ __ __ __ __ __ __ __ __ __ __ __
 72
    65
 73
     2
 40
0.75
 49
0.5
 74
     0
 49
-0.25
 74
     0
  0
LTYPE
  5
D25
330
5
100
AcDbSymbolTableRecord
100
AcDbLinetypeTableRecord
  2
AM_ISO02W050
 70
     0
  3
__ __ __ __ __ __ __ __ __ __ __ __ __ __ __
 72
    65
 73
     2
 40
7.5
 49
6.0
 74
     0
 49
-1.5
 74
     0
  0
LTYPE
  5
D26
330
5
100
AcDbSymbolTableRecord
100
AcDbLinetypeTableRecord
  2
AM_ISO08W050
 70
     0
  3
____ . ____ . ____ . ____ . ____ . ____ . ____
 72
    65
 73
     4
 40
18.0
 49
12.0
 74
     0
 49
-1.5
 74
     0
 49
3.0
 74
     0
 49
-1.5
 74
     0
  0
LTYPE
  5
D27
330
5
100
AcDbSymbolTableRecord
100
AcDbLinetypeTableRecord
  2
AM_ISO09W050
 70
     0
  3
_____ . . _____ . . _____ . . ____ .. ____
 72
    65
 73
     6
 40
22.5
 49
12.0
 74
     0
 49
-1.5
 74
     0
 49
3.0
 74
     0
 49
-1.5
 74
     0
 49
3.0
 74
     0
 49
-1.5
 74
     0
  0
LTYPE
  5
D28
330
5
100
AcDbSymbolTableRecord
100
AcDbLinetypeTableRecord
  2
Amconstr
 70
     0
  3
_______________________
 72
    65
 73
     2
 40
9999.0
 49
9999.0
 74
     0
 49
0.0
 74
     0
  0
LTYPE
  5
D29
330
5
100
AcDbSymbolTableRecord
100
AcDbLinetypeTableRecord
  2
AM_ISO08W050x2
 70
     0
  3
__ . __ . __ . __ . __ . __
 72
    65
 73
     4
 40
9.0
 49
6.0
 74
     0
 49
-0.75
 74
     0
 49
1.5
 74
     0
 49
-0.75
 74
     0
  0
LTYPE
  5
D2A
330
5
100
AcDbSymbolTableRecord
100
AcDbLinetypeTableRecord
  2
AM_ISO02W050x2
 70
     0
  3
 _ _ _ _ _ _ _ _ _ _ _ _
 72
    65
 73
     2
 40
3.75
 49
3.0
 74
     0
 49
-0.75
 74
     0
  0
LTYPE
  5
D2D
330
5
100
AcDbSymbolTableRecord
100
AcDbLinetypeTableRecord
  2
Amzigzag
 70
     0
  3
/\/-/\/-/\/-/\/-/\/-/\/
 72
    65
 73
     2
 40
11.0001
 49
0.0001
 74
     4
 75
   135
340
D2C
 46
0.04
 50
0.0
 44
0.0
 45
0.0
 49
-11.0
 74
     0
  0
LTYPE
  5
D3B
330
5
100
AcDbSymbolTableRecord
100
AcDbLinetypeTableRecord
  2
ACISOWELD
 70
     0
  3
_ _ _ _ _
 72
    65
 73
     2
 40
2.0
 49
2.0
 74
     0
 49
-1.0
 74
     0
  0
LTYPE
  5
D3C
330
5
100
AcDbSymbolTableRecord
100
AcDbLinetypeTableRecord
  2
ACISOTGB
 70
     0
  3
__ . . __ . .
 72
    65
 73
     6
 40
9.0
 49
4.0
 74
     0
 49
-1.0
 74
     0
 49
1.0
 74
     0
 49
-1.0
 74
     0
 49
1.0
 74
     0
 49
-1.0
 74
     0
  0
LTYPE
  5
D3D
330
5
100
AcDbSymbolTableRecord
100
AcDbLinetypeTableRecord
  2
ACISOTGL
 70
     0
  3
_ _ _ _ _
 72
    65
 73
     2
 40
3.0
 49
2.0
 74
     0
 49
-1.0
 74
     0
  0
LTYPE
  5
E47
330
5
100
AcDbSymbolTableRecord
100
AcDbLinetypeTableRecord
  2
PHANTOM2
 70
     0
  3
Phantom (.5x) ___ _ _ ___ _ _ ___ _ _ ___ _ _
 72
    65
 73
     6
 40
1.25
 49
0.625
 74
     0
 49
-0.125
 74
     0
 49
0.125
 74
     0
 49
-0.125
 74
     0
 49
0.125
 74
     0
 49
-0.125
 74
     0
  0
LTYPE
  5
E4B
330
5
100
AcDbSymbolTableRecord
100
AcDbLinetypeTableRecord
  2
ACANSTGB
 70
     0
  3
__ . . __ . .
 72
    65
 73
     6
 40
0.35433070866
 49
0.15748031496
 74
     0
 49
-0.03937007874
 74
     0
 49
0.03937007874
 74
     0
 49
-0.03937007874
 74
     0
 49
0.03937007874
 74
     0
 49
-0.03937007874
 74
     0
  0
LTYPE
  5
E4C
330
5
100
AcDbSymbolTableRecord
100
AcDbLinetypeTableRecord
  2
ACANSTGL
 70
     0
  3
_ _ _ _ _
 72
    65
 73
     2
 40
0.11811023622
 49
0.07874015748
 74
     0
 49
-0.03937007874
 74
     0
  0
ENDTAB
  0
TABLE
  2
LAYER
  5
2
330
0
100
AcDbSymbolTable
 70
    18
  0
LAYER
  5
E
330
2
100
AcDbSymbolTableRecord
100
AcDbLayerTableRecord
  2
0
 70
     0
 62
     7
  6
CONTINUOUS
370
    -3
390
CFA
  0
LAYER
  5
169
330
2
100
AcDbSymbolTableRecord
100
AcDbLayerTableRecord
  2
DISEGNO
 70
     0
 62
     7
  6
CONTINUOUS
370
    -3
390
CFA
  0
LAYER
  5
16A
330
2
100
AcDbSymbolTableRecord
100
AcDbLayerTableRecord
  2
ASSI
 70
     0
 62
     2
  6
CENTER
370
    -3
390
CFA
  0
LAYER
  5
16B
330
2
100
AcDbSymbolTableRecord
100
AcDbLayerTableRecord
  2
NORMALI
 70
     0
 62
     6
  6
CONTINUOUS
370
    -3
390
CFA
  0
LAYER
  5
16E
330
2
100
AcDbSymbolTableRecord
100
AcDbLayerTableRecord
  2
COMPONENTI
 70
     0
 62
     6
  6
CONTINUOUS
370
    -3
390
CFA
  0
LAYER
  5
171
330
2
100
AcDbSymbolTableRecord
100
AcDbLayerTableRecord
  2
BASE
 70
     0
 62
     7
  6
CONTINUOUS
370
    -3
390
CFA
  0
LAYER
  5
172
330
2
100
AcDbSymbolTableRecord
100
AcDbLayerTableRecord
  2
AX
 70
     0
 62
     2
  6
CENTER
370
    -3
390
CFA
  0
LAYER
  5
173
330
2
100
AcDbSymbolTableRecord
100
AcDbLayerTableRecord
  2
TRATTEGGI
 70
     0
 62
     8
  6
DASHED
370
    -3
390
CFA
  0
LAYER
  5
E51
330
2
100
AcDbSymbolTableRecord
100
AcDbLayerTableRecord
  2
DEFPOINTS
 70
     0
 62
     7
  6
CONTINUOUS
290
     0
370
    -3
390
CFA
  0
LAYER
  5
2DEE
330
2
100
AcDbSymbolTableRecord
100
AcDbLayerTableRecord
  2
AM_0
 70
     0
 62
     7
  6
CONTINUOUS
370
    50
390
CFA
  0
LAYER
  5
2DF9
330
2
100
AcDbSymbolTableRecord
100
AcDbLayerTableRecord
  2
AM_4
 70
     0
 62
     3
  6
CONTINUOUS
370
    25
390
CFA
  0
LAYER
  5
2DFA
330
2
100
AcDbSymbolTableRecord
100
AcDbLayerTableRecord
  2
AM_7
 70
     0
 62
     4
  6
AM_ISO08W050
370
    25
390
CFA
  0
LAYER
  5
2DFB
330
2
100
AcDbSymbolTableRecord
100
AcDbLayerTableRecord
  2
AM_3
 70
     0
 62
     6
  6
AM_ISO02W050
370
    25
390
CFA
  0
LAYER
  5
2DFC
330
2
100
AcDbSymbolTableRecord
100
AcDbLayerTableRecord
  2
AM_9
 70
     0
 62
  -253
  6
CONTINUOUS
370
     0
390
CFA
  0
LAYER
  5
2DFD
330
2
100
AcDbSymbolTableRecord
100
AcDbLayerTableRecord
  2
AM_5
 70
     0
 62
     3
  6
CONTINUOUS
370
    25
390
CFA
  0
LAYER
  5
2DFF
330
2
100
AcDbSymbolTableRecord
100
AcDbLayerTableRecord
  2
AM_12
 70
     0
 62
     7
  6
CONTINUOUS
290
     0
370
    50
390
CFA
  0
LAYER
  5
2E00
330
2
100
AcDbSymbolTableRecord
100
AcDbLayerTableRecord
  2
AM_PAREF
 70
     0
 62
     4
  6
CONTINUOUS
290
     0
370
    25
390
CFA
  0
LAYER
  5
2E01
330
2
100
AcDbSymbolTableRecord
100
AcDbLayerTableRecord
  2
AM_12N
 70
     0
 62
     7
  6
CONTINUOUS
290
     0
370
    50
390
CFA
  0
ENDTAB
  0
TABLE
  2
STYLE
  5
3
330
0
100
AcDbSymbolTable
 70
     6
  0
STYLE
  5
F
330
3
100
AcDbSymbolTableRecord
100
AcDbTextStyleTableRecord
  2
STANDARD
 70
     0
 40
0.0
 41
1.0
 50
0.0
 71
     0
 42
2.5
  3
txt
  4

  0
STYLE
  5
D2C
330
3
100
AcDbSymbolTableRecord
100
AcDbTextStyleTableRecord
  2

 70
     1
 40
0.0
 41
1.0
 50
0.0
 71
     0
 42
2.5
  3
ltypeshp.shx
  4

  0
STYLE
  5
D2E
330
3
100
AcDbSymbolTableRecord
100
AcDbTextStyleTableRecord
  2
ACISOTS
 70
     0
 40
1.0
 41
1.0
 50
0.0
 71
     0
 42
2.5
  3
isocp.shx
  4

  0
STYLE
  5
D3A
330
3
100
AcDbSymbolTableRecord
100
AcDbTextStyleTableRecord
  2
ACISOGDT
 70
     0
 40
0.0
 41
1.0
 50
0.0
 71
     0
 42
2.5
  3
amgdt.shx
  4

  0
STYLE
  5
E55
330
3
100
AcDbSymbolTableRecord
100
AcDbTextStyleTableRecord
  2
ACANSTS
 70
     0
 40
1.0
 41
1.0
 50
0.0
 71
     0
 42
2.5
  3
romans.shx
  4

  0
STYLE
  5
E56
330
3
100
AcDbSymbolTableRecord
100
AcDbTextStyleTableRecord
  2
ACANSGDT
 70
     0
 40
0.0
 41
1.0
 50
0.0
 71
     0
 42
2.5
  3
amgdtans.shx
  4

  0
ENDTAB
  0
TABLE
  2
VIEW
  5
6
330
0
100
AcDbSymbolTable
 70
     0
  0
ENDTAB
  0
TABLE
  2
UCS
  5
7
330
0
100
AcDbSymbolTable
 70
     0
  0
ENDTAB
  0
TABLE
  2
APPID
  5
9
330
0
100
AcDbSymbolTable
 70
    18
  0
APPID
  5
10
330
9
100
AcDbSymbolTableRecord
100
AcDbRegAppTableRecord
  2
ACAD
 70
     0
  0
APPID
  5
20
330
9
100
AcDbSymbolTableRecord
100
AcDbRegAppTableRecord
  2
ZIMM
 70
     0
  0
APPID
  5
177
330
9
100
AcDbSymbolTableRecord
100
AcDbRegAppTableRecord
  2
COMAU_ACADLIB
 70
     0
  0
APPID
  5
D07
330
9
100
AcDbSymbolTableRecord
100
AcDbRegAppTableRecord
  2
MCAD_NO_VIS
 70
     0
  0
APPID
  5
D08
330
9
100
AcDbSymbolTableRecord
100
AcDbRegAppTableRecord
  2
ACAD_TEMP_GRAPHIC
 70
     0
  0
APPID
  5
D19
330
9
100
AcDbSymbolTableRecord
100
AcDbRegAppTableRecord
  2
ACATTRIBSERVICES
 70
     0
  0
APPID
  5
2DE9
330
9
100
AcDbSymbolTableRecord
100
AcDbRegAppTableRecord
  2
GEVID1026979496
 70
     0
  0
APPID
  5
2DEA
330
9
100
AcDbSymbolTableRecord
100
AcDbRegAppTableRecord
  2
GEVDC
 70
     0
  0
APPID
  5
2DEB
330
9
100
AcDbSymbolTableRecord
100
AcDbRegAppTableRecord
  2
GEVCON
 70
     0
  0
APPID
  5
2DEF
330
9
100
AcDbSymbolTableRecord
100
AcDbRegAppTableRecord
  2
GENIUS_GENBH_13
 70
     0
  0
APPID
  5
2DF2
330
9
100
AcDbSymbolTableRecord
100
AcDbRegAppTableRecord
  2
GENIUS_GENOENT_13
 70
     0
  0
APPID
  5
2DF3
330
9
100
AcDbSymbolTableRecord
100
AcDbRegAppTableRecord
  2
GENIUS_GENOBJ-NBEHI-BHF_13
 70
     0
  0
APPID
  5
2DF4
330
9
100
AcDbSymbolTableRecord
100
AcDbRegAppTableRecord
  2
GENIUS_GENODEF_13
 70
     0
  0
APPID
  5
2DF5
330
9
100
AcDbSymbolTableRecord
100
AcDbRegAppTableRecord
  2
GENIUS_GENOLIS_13
 70
     0
  0
APPID
  5
2DF6
330
9
100
AcDbSymbolTableRecord
100
AcDbRegAppTableRecord
  2
GENIUS_GENOREF_13
 70
     0
  0
APPID
  5
2DF8
330
9
100
AcDbSymbolTableRecord
100
AcDbRegAppTableRecord
  2
GENIUS_GENOBJ-NBEHI-BHB_13
 70
     0
  0
APPID
  5
2E10
330
9
100
AcDbSymbolTableRecord
100
AcDbRegAppTableRecord
  2
GEVID1026979497
 70
     0
  0
APPID
  5
2EB0
330
9
100
AcDbSymbolTableRecord
100
AcDbRegAppTableRecord
  2
ACAD_MLEADERVER
 70
     0
  0
ENDTAB
  0
TABLE
  2
DIMSTYLE
  5
A
330
0
100
AcDbSymbolTable
 70
    14
100
AcDbDimStyleTable
 71
     1
340
1D
  0
DIMSTYLE
105
1D
330
A
100
AcDbSymbolTableRecord
100
AcDbDimStyleTableRecord
  2
STANDARD
 70
     0
340
F
  0
DIMSTYLE
105
D41
330
A
100
AcDbSymbolTableRecord
100
AcDbDimStyleTableRecord
  2
AM_ISO
 70
     0
  4
"
 41
2.5
 42
1.0
 43
10.0
 44
1.0
 47
0.1
 48
0.1
 73
     0
 74
     0
 77
     1
 78
     8
 79
     2
140
3.5
141
0.0
143
0.0393701
146
0.71
147
1.5
172
     1
176
   256
177
   256
178
     2
271
     2
272
     3
274
     4
283
     0
284
     8
340
F
371
    -1
372
    -1
  0
DIMSTYLE
105
D42
330
A
100
AcDbSymbolTableRecord
100
AcDbDimStyleTableRecord
  2
AM_ISO$3
 70
     0
  4
"
 41
2.5
 42
1.0
 43
10.0
 44
1.0
 47
0.1
 48
0.1
 73
     0
 77
     1
 78
     8
 79
     2
140
3.5
141
0.0
143
0.0393701
146
0.71
147
1.5
176
   256
177
   256
178
     2
271
     2
272
     3
274
     4
283
     0
284
     8
288
     1
289
     0
340
F
371
    -1
372
    -1
  0
DIMSTYLE
105
D43
330
A
100
AcDbSymbolTableRecord
100
AcDbDimStyleTableRecord
  2
AM_ISO$4
 70
     0
  4
"
 41
2.5
 42
1.0
 43
10.0
 44
1.0
 47
0.1
 48
0.1
 73
     0
 77
     1
 78
     8
 79
     2
140
3.5
141
0.0
143
0.0393701
146
0.71
147
1.5
176
   256
177
   256
178
     2
271
     2
272
     3
274
     4
283
     0
284
     8
288
     1
289
     0
340
F
371
    -1
372
    -1
  0
DIMSTYLE
105
D44
330
A
100
AcDbSymbolTableRecord
100
AcDbDimStyleTableRecord
  2
AM_ISO$6
 70
     0
  4
"
 41
2.5
 42
1.0
 43
10.0
 44
1.0
 47
0.1
 48
0.1
 73
     0
 74
     0
 78
     8
 79
     2
140
3.5
141
0.0
143
0.0393701
146
0.71
147
1.5
172
     1
176
   256
177
   256
178
     2
271
     2
272
     3
274
     4
283
     0
284
     8
340
F
371
    -1
372
    -1
  0
DIMSTYLE
105
D45
330
A
100
AcDbSymbolTableRecord
100
AcDbDimStyleTableRecord
  2
AM_ISO$7
 70
     0
  4
"
 41
2.5
 42
1.0
 43
10.0
 44
1.0
 47
0.1
 48
0.1
 73
     0
 74
     0
 77
     1
 78
     8
 79
     2
140
5.0
141
0.0
143
0.0393701
146
0.71
147
1.5
172
     1
176
   256
177
   256
178
     2
271
     2
272
     3
274
     4
283
     0
284
     8
340
F
371
    -1
372
    -1
  0
DIMSTYLE
105
D46
330
A
100
AcDbSymbolTableRecord
100
AcDbDimStyleTableRecord
  2
AM_ISO$SF
 70
     0
  4
"
 41
2.5
 42
1.0
 43
10.0
 44
1.0
 47
0.1
 48
0.1
 73
     0
 74
     0
 75
     1
 76
     1
 77
     1
 78
     8
 79
     2
140
3.5
141
0.0
143
0.0393701
146
0.71
147
1.5
172
     1
176
   256
177
   256
178
     2
271
     2
272
     3
274
     4
283
     0
284
     8
340
F
371
    -1
372
    -1
  0
DIMSTYLE
105
D4B
330
A
100
AcDbSymbolTableRecord
100
AcDbDimStyleTableRecord
  2
AM_ISO$SH
 70
     0
  4
"
 41
2.5
 42
1.0
 43
10.0
 44
1.0
 47
0.1
 48
0.1
 73
     0
 74
     0
 75
     1
 76
     1
 77
     1
 78
     8
 79
     2
140
3.5
141
0.0
143
0.0393701
144
2.0
146
0.71
147
1.5
172
     1
173
     1
176
   256
177
   256
178
     2
271
     2
272
     3
274
     4
283
     0
284
     8
340
F
343
D47
371
    -1
372
    -1
  0
DIMSTYLE
105
E58
330
A
100
AcDbSymbolTableRecord
100
AcDbDimStyleTableRecord
  2
AM_ANSI
 70
     0
  4
mm
 41
0.1
 42
0.05
 43
0.5
 44
0.1
 47
0.1
 48
0.1
 78
     7
 79
     2
140
0.12
141
0.0
146
0.71
147
0.06
176
   256
177
   256
178
     2
274
     4
284
     7
340
F
371
    -1
372
    -1
  0
DIMSTYLE
105
E59
330
A
100
AcDbSymbolTableRecord
100
AcDbDimStyleTableRecord
  2
AM_ANSI$3
 70
     0
  4
mm
 41
0.1
 42
0.05
 43
0.5
 44
0.1
 47
0.1
 48
0.1
 78
     7
 79
     2
140
0.12
141
0.0
146
0.71
147
0.06
176
   256
177
   256
178
     2
274
     4
284
     7
288
     1
289
     0
340
F
371
    -1
372
    -1
  0
DIMSTYLE
105
E5A
330
A
100
AcDbSymbolTableRecord
100
AcDbDimStyleTableRecord
  2
AM_ANSI$4
 70
     0
  4
mm
 41
0.1
 42
0.05
 43
0.5
 44
0.1
 47
0.1
 48
0.1
 78
     7
 79
     2
140
0.12
141
0.0
146
0.71
147
0.06
176
   256
177
   256
178
     2
274
     4
284
     7
288
     1
289
     0
340
F
371
    -1
372
    -1
  0
DIMSTYLE
105
E5B
330
A
100
AcDbSymbolTableRecord
100
AcDbDimStyleTableRecord
  2
AM_ANSI$7
 70
     0
  4
mm
 41
0.1
 42
0.05
 43
0.5
 44
0.1
 47
0.1
 48
0.1
 78
     7
 79
     2
140
0.24
141
0.0
146
0.71
147
0.06
176
   256
177
   256
178
     2
274
     4
284
     7
340
F
371
    -1
372
    -1
  0
DIMSTYLE
105
E5C
330
A
100
AcDbSymbolTableRecord
100
AcDbDimStyleTableRecord
  2
AM_ANSI$SF
 70
     0
  4
mm
 41
0.1
 42
0.05
 43
0.5
 44
0.1
 47
0.1
 48
0.1
 75
     1
 76
     1
 78
     7
 79
     2
140
0.12
141
0.0
146
0.71
147
0.06
176
   256
177
   256
178
     2
274
     4
284
     7
340
F
371
    -1
372
    -1
  0
DIMSTYLE
105
E5D
330
A
100
AcDbSymbolTableRecord
100
AcDbDimStyleTableRecord
  2
AM_ANSI$SH
 70
     0
  4
mm
 41
0.1
 42
0.05
 43
0.5
 44
0.1
 47
0.1
 48
0.1
 75
     1
 76
     1
 78
     7
 79
     2
140
0.12
141
0.0
146
0.71
147
0.06
173
     1
176
   256
177
   256
178
     2
274
     4
284
     7
340
F
343
D47
371
    -1
372
    -1
  0
ENDTAB
  0
TABLE
  2
BLOCK_RECORD
  5
1
330
0
100
AcDbSymbolTable
 70
     2
  0
BLOCK_RECORD
  5
18
102
{ACAD_XDICTIONARY
360
2CA9
102
}
330
1
100
AcDbSymbolTableRecord
100
AcDbBlockTableRecord
  2
*MODEL_SPACE
340
CFD
  0
BLOCK_RECORD
  5
15
330
1
100
AcDbSymbolTableRecord
100
AcDbBlockTableRecord
  2
*PAPER_SPACE
340
CFE
  0
BLOCK_RECORD
  5
C96
330
1
100
AcDbSymbolTableRecord
100
AcDbBlockTableRecord
  2

340
0
  0
BLOCK_RECORD
  5
D47
330
1
100
AcDbSymbolTableRecord
100
AcDbBlockTableRecord
  2
GENAXEH
340
0
  0
ENDTAB
  0
ENDSEC
  0
SECTION
  2
BLOCKS
  0
BLOCK
  5
19
330
18
100
AcDbEntity
  8
0
100
AcDbBlockBegin
  2
*MODEL_SPACE
 70
     0
 10
0.0
 20
0.0
 30
0.0
  3
*MODEL_SPACE
  1

  0
ENDBLK
  5
1A
330
18
100
AcDbEntity
  8
0
100
AcDbBlockEnd
  0
BLOCK
  5
16
330
15
100
AcDbEntity
 67
     1
  8
0
100
AcDbBlockBegin
  2
*PAPER_SPACE
 70
     0
 10
0.0
 20
0.0
 30
0.0
  3
*PAPER_SPACE
  1

  0
ENDBLK
  5
17
330
15
100
AcDbEntity
 67
     1
  8
0
100
AcDbBlockEnd
  0
BLOCK
  5
C97
330
C96
100
AcDbEntity
  8
0
100
AcDbBlockBegin
  2

 70
     0
 10
0.0
 20
0.0
 30
0.0
  3

  1

  0
ENDBLK
  5
C98
330
C96
100
AcDbEntity
  8
0
100
AcDbBlockEnd
  0
BLOCK
  5
D49
330
D47
100
AcDbEntity
  8
0
100
AcDbBlockBegin
  2
GENAXEH
 70
     0
 10
0.0
 20
0.0
 30
0.0
  3
GENAXEH
  1

  0
LINE
  5
D48
330
D47
100
AcDbEntity
  8
0
100
AcDbLine
 10
-1.0
 20
0.0
 30
0.0
 11
1.0
 21
0.0
 31
0.0
  0
ENDBLK
  5
D4A
330
D47
100
AcDbEntity
  8
0
100
AcDbBlockEnd
  0
ENDSEC
  0
SECTION
  2
ENTITIES
  0
LINE
  5
570
330
18
100
AcDbEntity
  8
COMPONENTI
100
AcDbLine
 10
-264.5226417498681
 20
145.0000000000003
 30
0.0
 11
-106.272635453378
 21
145.0000000000003
 31
0.0
  0
LINE
  5
571
330
18
100
AcDbEntity
  8
BASE
100
AcDbLine
 10
-16.37263545337657
 20
169.9999999303276
 30
0.0
 11
-263.7555070670161
 21
169.9999999303276
 31
0.0
  0
LINE
  5
572
330
18
100
AcDbEntity
  8
COMPONENTI
100
AcDbLine
 10
-116.3726354533764
 20
176.4999999303276
 30
0.0
 11
-264.5226417498681
 21
176.4999999303276
 31
0.0
  0
LINE
  5
573
330
18
100
AcDbEntity
  8
COMPONENTI
100
AcDbLine
 10
-116.3726354533764
 20
171.9999999303267
 30
0.0
 11
-260.6573256502971
 21
171.9999999303267
 31
0.0
  0
LINE
  5
574
330
18
100
AcDbEntity
  8
AX
100
AcDbLine
 10
-0.8378117037765377
 20
135.0000000000003
 30
0.0
 11
-841.2726354533765
 21
134.9999999999994
 31
0.0
  0
LINE
  5
577
330
18
100
AcDbEntity
  8
BASE
100
AcDbLine
 10
-264.5226417498681
 20
41.25000000000079
 30
0.0
 11
-16.37263545337657
 21
41.24999999999988
 31
0.0
  0
LINE
  5
578
330
18
100
AcDbEntity
  8
BASE
100
AcDbLine
 10
-264.5226417498681
 20
28.74999999999898
 30
0.0
 11
-16.37263545337657
 21
28.74999999999989
 31
0.0
  0
LINE
  5
579
330
18
100
AcDbEntity
  8
COMPONENTI
100
AcDbLine
 10
-281.2726354533763
 20
125.0000000000002
 30
0.0
 11
-106.272635453378
 21
125.0000000000003
 31
0.0
  0
LINE
  5
57E
330
18
100
AcDbEntity
  8
AX
100
AcDbLine
 10
-841.2726354533761
 20
34.99999999999898
 30
0.0
 11
-4.334460055244676
 21
34.99999999999989
 31
0.0
  0
LINE
  5
580
330
18
100
AcDbEntity
  8
COMPONENTI
100
AcDbLine
 10
-106.3726354533759
 20
-392.2278469557952
 30
0.0
 11
-265.4171211729619
 21
-392.2278469557952
 31
0.0
  0
LINE
  5
581
330
18
100
AcDbEntity
  8
BASE
100
AcDbLine
 10
-6.372635453376346
 20
-256.7278469557948
 30
0.0
 11
-281.2726354533762
 21
-256.7278469557952
 31
0.0
  0
LINE
  5
582
330
18
100
AcDbEntity
  8
BASE
100
AcDbLine
 10
-6.372635453376346
 20
-376.7278469557948
 30
0.0
 11
-281.2726354533762
 21
-376.7278469557953
 31
0.0
  0
LINE
  5
583
330
18
100
AcDbEntity
  8
COMPONENTI
100
AcDbLine
 10
-116.4726354533743
 20
-291.7278469557953
 30
0.0
 11
-265.4171211729619
 21
-291.7278469557953
 31
0.0
  0
LINE
  5
584
330
18
100
AcDbEntity
  8
COMPONENTI
100
AcDbLine
 10
-116.4726354533743
 20
-341.7278469557953
 30
0.0
 11
-265.4171211729619
 21
-341.7278469557953
 31
0.0
  0
LINE
  5
585
330
18
100
AcDbEntity
  8
COMPONENTI
100
AcDbLine
 10
-106.3726354533759
 20
-241.2278469557953
 30
0.0
 11
-265.4171211729619
 21
-241.2278469557953
 31
0.0
  0
LINE
  5
586
330
18
100
AcDbEntity
  8
AX
100
AcDbLine
 10
2.827127258838686
 20
-316.7278469557953
 30
0.0
 11
-1034.003468364581
 21
-316.7278469557953
 31
0.0
  0
LINE
  5
589
330
18
100
AcDbEntity
  8
BASE
100
AcDbLine
 10
-281.2726354533762
 20
-178.7278469557952
 30
0.0
 11
-281.2726354533762
 21
-454.7278469557961
 31
0.0
  0
LINE
  5
58A
330
18
100
AcDbEntity
  8
AX
100
AcDbLine
 10
-651.2726354533762
 20
-174.6406734804643
 30
0.0
 11
-651.2726354533753
 21
-217.8150204311262
 31
0.0
  0
LINE
  5
58D
330
18
100
AcDbEntity
  8
AX
100
AcDbLine
 10
-821.2726354533762
 20
-174.6406734804643
 30
0.0
 11
-821.2726354533762
 21
-217.8150204311262
 31
0.0
  0
LINE
  5
58E
330
18
100
AcDbEntity
  8
BASE
100
AcDbLine
 10
-841.2726354533761
 20
-178.7278469557952
 30
0.0
 11
-841.2726354533761
 21
-454.7278469557952
 31
0.0
  0
LINE
  5
595
330
18
100
AcDbEntity
  8
BASE
100
AcDbLine
 10
-283.2726354533762
 20
-456.7278469557952
 30
0.0
 11
-839.2726354533762
 21
-456.7278469557952
 31
0.0
  0
LINE
  5
596
330
18
100
AcDbEntity
  8
ASSI
100
AcDbLine
 10
-263.7632255062328
 20
-236.2278469557953
 30
0.0
 11
-847.9473661125304
 21
-236.2278469557953
 31
0.0
  0
LINE
  5
597
330
18
100
AcDbEntity
  8
ASSI
100
AcDbLine
 10
-263.3126088513501
 20
-397.2278469557953
 30
0.0
 11
-847.0223588388872
 21
-397.2278469557953
 31
0.0
  0
LINE
  5
59B
330
18
100
AcDbEntity
  8
AX
100
AcDbLine
 10
-821.2726354533762
 20
-458.815020431127
 30
0.0
 11
-821.2726354533762
 21
-415.6406734804652
 31
0.0
  0
LINE
  5
59C
330
18
100
AcDbEntity
  8
AX
100
AcDbLine
 10
-830.5602259551434
 20
-449.7278469557961
 30
0.0
 11
-812.1854619780453
 21
-449.7278469557961
 31
0.0
  0
LINE
  5
59D
330
18
100
AcDbEntity
  8
BASE
100
AcDbLine
 10
-841.2726354533761
 20
-454.7278469557952
 30
0.0
 11
-839.2726354533762
 21
-456.7278469557952
 31
0.0
  0
LINE
  5
59F
330
18
100
AcDbEntity
  8
AX
100
AcDbLine
 10
-830.3598089287071
 20
-424.7278469557961
 30
0.0
 11
-812.1854619780453
 21
-424.7278469557961
 31
0.0
  0
LINE
  5
5A0
330
18
100
AcDbEntity
  8
AX
100
AcDbLine
 10
-830.3598089287071
 20
-437.2278469557961
 30
0.0
 11
-812.1854619780453
 21
-437.2278469557961
 31
0.0
  0
LINE
  5
5A2
330
18
100
AcDbEntity
  8
AX
100
AcDbLine
 10
-651.2726354533762
 20
-458.815020431127
 30
0.0
 11
-651.2726354533753
 21
-415.6406734804652
 31
0.0
  0
LINE
  5
5A4
330
18
100
AcDbEntity
  8
AX
100
AcDbLine
 10
-660.3598089287071
 20
-449.7278469557961
 30
0.0
 11
-642.1854619780453
 21
-449.7278469557961
 31
0.0
  0
LINE
  5
5A6
330
18
100
AcDbEntity
  8
AX
100
AcDbLine
 10
-660.3598089287062
 20
-424.7278469557961
 30
0.0
 11
-642.1854619780453
 21
-424.7278469557961
 31
0.0
  0
LINE
  5
5A7
330
18
100
AcDbEntity
  8
AX
100
AcDbLine
 10
-660.3598089287071
 20
-437.2278469557961
 30
0.0
 11
-642.1854619780453
 21
-437.2278469557961
 31
0.0
  0
LINE
  5
5A9
330
18
100
AcDbEntity
  8
DISEGNO
100
AcDbLine
 10
-981.3726354533768
 20
-256.7278469557954
 30
0.0
 11
-981.372635453375
 21
-376.7278469557953
 31
0.0
  0
LINE
  5
5AA
330
18
100
AcDbEntity
  8
BASE
100
AcDbLine
 10
-1016.372635453376
 20
-256.7278469557954
 30
0.0
 11
-1016.372635453376
 21
-375.7278469557927
 31
0.0
  0
LINE
  5
5AB
330
18
100
AcDbEntity
  8
NORMALI
100
AcDbLine
 10
-961.372635453376
 20
-287.2278469557959
 30
0.0
 11
-961.372635453376
 21
-305.2278469557959
 31
0.0
  0
LINE
  5
5AC
330
18
100
AcDbEntity
  8
NORMALI
100
AcDbLine
 10
-962.372635453376
 20
-286.227846955796
 30
0.0
 11
-962.372635453376
 21
-306.227846955796
 31
0.0
  0
LINE
  5
5AD
330
18
100
AcDbEntity
  8
NORMALI
100
AcDbLine
 10
-981.3726354533759
 20
-306.227846955796
 30
0.0
 11
-962.372635453376
 21
-306.227846955796
 31
0.0
  0
LINE
  5
5AE
330
18
100
AcDbEntity
  8
NORMALI
100
AcDbLine
 10
-981.3726354533759
 20
-347.227846955795
 30
0.0
 11
-962.372635453376
 21
-347.227846955795
 31
0.0
  0
LINE
  5
5AF
330
18
100
AcDbEntity
  8
NORMALI
100
AcDbLine
 10
-981.3726354533759
 20
-327.227846955795
 30
0.0
 11
-962.372635453376
 21
-327.227846955795
 31
0.0
  0
LINE
  5
5B0
330
18
100
AcDbEntity
  8
BASE
100
AcDbLine
 10
-841.2726354533759
 20
-376.7278469557948
 30
0.0
 11
-1015.372635453373
 21
-376.7278469557953
 31
0.0
  0
LINE
  5
5B1
330
18
100
AcDbEntity
  8
BASE
100
AcDbLine
 10
-1015.372635453373
 20
-376.7278469557953
 30
0.0
 11
-1016.372635453373
 21
-375.7278469557953
 31
0.0
  0
LINE
  5
5B5
330
18
100
AcDbEntity
  8
ASSI
100
AcDbLine
 10
-816.2726354533752
 20
-408.7261898204507
 30
0.0
 11
-816.2726354533752
 21
-385.4551249938179
 31
0.0
  0
LINE
  5
5BF
330
18
100
AcDbEntity
  8
NORMALI
100
AcDbLine
 10
-962.372635453376
 20
-347.227846955795
 30
0.0
 11
-961.372635453376
 21
-346.227846955795
 31
0.0
  0
LINE
  5
5C0
330
18
100
AcDbEntity
  8
NORMALI
100
AcDbLine
 10
-962.372635453376
 20
-347.227846955795
 30
0.0
 11
-962.372635453376
 21
-327.227846955795
 31
0.0
  0
LINE
  5
5C1
330
18
100
AcDbEntity
  8
NORMALI
100
AcDbLine
 10
-962.372635453376
 20
-327.227846955795
 30
0.0
 11
-961.372635453376
 21
-328.227846955795
 31
0.0
  0
LINE
  5
5C2
330
18
100
AcDbEntity
  8
NORMALI
100
AcDbLine
 10
-961.372635453376
 20
-346.227846955795
 30
0.0
 11
-961.372635453376
 21
-328.227846955795
 31
0.0
  0
LINE
  5
5C3
330
18
100
AcDbEntity
  8
NORMALI
100
AcDbLine
 10
-962.372635453376
 20
-306.227846955796
 30
0.0
 11
-961.372635453376
 21
-305.2278469557959
 31
0.0
  0
LINE
  5
5C4
330
18
100
AcDbEntity
  8
NORMALI
100
AcDbLine
 10
-981.3726354533759
 20
-286.227846955796
 30
0.0
 11
-962.372635453376
 21
-286.227846955796
 31
0.0
  0
LINE
  5
5C5
330
18
100
AcDbEntity
  8
BASE
100
AcDbLine
 10
-841.2726354533759
 20
-256.7278469557952
 30
0.0
 11
-1015.372635453373
 21
-256.7278469557952
 31
0.0
  0
LINE
  5
5C6
330
18
100
AcDbEntity
  8
BASE
100
AcDbLine
 10
-1016.372635453373
 20
-257.7278469557953
 30
0.0
 11
-1015.372635453373
 21
-256.7278469557952
 31
0.0
  0
LINE
  5
5C8
330
18
100
AcDbEntity
  8
ASSI
100
AcDbLine
 10
-816.2726354533752
 20
-224.7295040911397
 30
0.0
 11
-816.2726354533752
 21
-248.0005689177726
 31
0.0
  0
LINE
  5
5CB
330
18
100
AcDbEntity
  8
NORMALI
100
AcDbLine
 10
-962.372635453376
 20
-286.227846955796
 30
0.0
 11
-961.372635453376
 21
-287.2278469557959
 31
0.0
  0
LINE
  5
5D6
330
18
100
AcDbEntity
  8
AX
100
AcDbLine
 10
-830.5602259551434
 20
-183.7278469557952
 30
0.0
 11
-812.1854619780453
 21
-183.7278469557952
 31
0.0
  0
LINE
  5
5D7
330
18
100
AcDbEntity
  8
AX
100
AcDbLine
 10
-830.3598089287071
 20
-196.2278469557952
 30
0.0
 11
-812.1854619780453
 21
-196.2278469557952
 31
0.0
  0
LINE
  5
5D8
330
18
100
AcDbEntity
  8
AX
100
AcDbLine
 10
-830.3598089287071
 20
-208.7278469557952
 30
0.0
 11
-812.1854619780453
 21
-208.7278469557952
 31
0.0
  0
LINE
  5
5DD
330
18
100
AcDbEntity
  8
ASSI
100
AcDbLine
 10
-746.2726354533762
 20
-408.7261898204507
 30
0.0
 11
-746.2726354533762
 21
-385.4551249938179
 31
0.0
  0
LINE
  5
5F1
330
18
100
AcDbEntity
  8
ASSI
100
AcDbLine
 10
-676.2726354533762
 20
-408.7261898204513
 30
0.0
 11
-676.2726354533762
 21
-385.4551249938183
 31
0.0
  0
LINE
  5
5F2
330
18
100
AcDbEntity
  8
ASSI
100
AcDbLine
 10
-746.2726354533762
 20
-224.7295040911397
 30
0.0
 11
-746.2726354533762
 21
-248.0005689177726
 31
0.0
  0
LINE
  5
600
330
18
100
AcDbEntity
  8
ASSI
100
AcDbLine
 10
-676.2726354533762
 20
-224.7295040911392
 30
0.0
 11
-676.2726354533762
 21
-248.0005689177722
 31
0.0
  0
LINE
  5
60B
330
18
100
AcDbEntity
  8
AX
100
AcDbLine
 10
-660.3598089287062
 20
-208.7278469557952
 30
0.0
 11
-642.1854619780453
 21
-208.7278469557952
 31
0.0
  0
LINE
  5
60C
330
18
100
AcDbEntity
  8
AX
100
AcDbLine
 10
-660.3598089287071
 20
-196.2278469557952
 30
0.0
 11
-642.1854619780453
 21
-196.2278469557952
 31
0.0
  0
LINE
  5
60D
330
18
100
AcDbEntity
  8
AX
100
AcDbLine
 10
-660.3598089287071
 20
-183.7278469557952
 30
0.0
 11
-642.1854619780453
 21
-183.7278469557952
 31
0.0
  0
LINE
  5
60F
330
18
100
AcDbEntity
  8
BASE
100
AcDbLine
 10
-286.2726354533762
 20
-411.7278469557953
 30
0.0
 11
-385.7726354533757
 21
-411.7278469557954
 31
0.0
  0
LINE
  5
614
330
18
100
AcDbEntity
  8
BASE
100
AcDbLine
 10
-286.2726354533762
 20
-221.7278469557952
 30
0.0
 11
-385.7726354533759
 21
-221.7278469557952
 31
0.0
  0
LINE
  5
615
330
18
100
AcDbEntity
  8
BASE
100
AcDbLine
 10
-631.2726354533761
 20
-226.7278469557953
 30
0.0
 11
-631.2726354533761
 21
-406.7278469557952
 31
0.0
  0
LINE
  5
633
330
18
100
AcDbEntity
  8
ASSI
100
AcDbLine
 10
-606.2726354533761
 20
-385.5187901724974
 30
0.0
 11
-606.2726354533753
 21
-408.9368996727118
 31
0.0
  0
LINE
  5
64F
330
18
100
AcDbEntity
  8
ASSI
100
AcDbLine
 10
-536.272635453378
 20
-385.8269242623321
 30
0.0
 11
-536.272635453378
 21
-408.6287696492483
 31
0.0
  0
LINE
  5
651
330
18
100
AcDbEntity
  8
ASSI
100
AcDbLine
 10
-606.2726354533761
 20
-247.9369037390932
 30
0.0
 11
-606.2726354533753
 21
-224.5187942388782
 31
0.0
  0
LINE
  5
664
330
18
100
AcDbEntity
  8
ASSI
100
AcDbLine
 10
-536.272635453378
 20
-247.6287696492584
 30
0.0
 11
-536.272635453378
 21
-224.8269242623421
 31
0.0
  0
LINE
  5
682
330
18
100
AcDbEntity
  8
ASSI
100
AcDbLine
 10
-376.272635453378
 20
-385.8269242623358
 30
0.0
 11
-376.272635453378
 21
-408.628769649252
 31
0.0
  0
LINE
  5
696
330
18
100
AcDbEntity
  8
ASSI
100
AcDbLine
 10
-376.272635453378
 20
-247.6287696492543
 30
0.0
 11
-376.272635453378
 21
-224.826924262338
 31
0.0
  0
LINE
  5
6AA
330
18
100
AcDbEntity
  8
BASE
100
AcDbLine
 10
-283.2726354533762
 20
-456.7278469557961
 30
0.0
 11
-281.2726354533762
 21
-454.7278469557961
 31
0.0
  0
LINE
  5
6B4
330
18
100
AcDbEntity
  8
ASSI
100
AcDbLine
 10
-306.272635453378
 20
-385.8269242623371
 30
0.0
 11
-306.272635453378
 21
-408.6287696492534
 31
0.0
  0
LINE
  5
6C7
330
18
100
AcDbEntity
  8
COMPONENTI
100
AcDbLine
 10
-265.41712117296
 20
-392.2278469557952
 30
0.0
 11
-281.2726354533762
 21
-392.2278469557952
 31
0.0
  0
LINE
  5
6C8
330
18
100
AcDbEntity
  8
COMPONENTI
100
AcDbLine
 10
-265.4171211729619
 20
-341.7278469557953
 30
0.0
 11
-281.2726354533762
 21
-341.7278469557953
 31
0.0
  0
LINE
  5
6C9
330
18
100
AcDbEntity
  8
ASSI
100
AcDbLine
 10
-306.272635453378
 20
-247.6287696492534
 30
0.0
 11
-306.272635453378
 21
-224.8269242623371
 31
0.0
  0
LINE
  5
6DC
330
18
100
AcDbEntity
  8
COMPONENTI
100
AcDbLine
 10
-265.4171211729619
 20
-291.7278469557953
 30
0.0
 11
-281.2726354533762
 21
-291.7278469557953
 31
0.0
  0
LINE
  5
6DD
330
18
100
AcDbEntity
  8
COMPONENTI
100
AcDbLine
 10
-265.4171211729619
 20
-241.2278469557961
 30
0.0
 11
-281.2726354533762
 21
-241.2278469557953
 31
0.0
  0
LINE
  5
6E1
330
18
100
AcDbEntity
  8
BASE
100
AcDbLine
 10
-281.2726354533762
 20
184.9999999303267
 30
0.0
 11
-841.2726354533761
 21
184.9999999303267
 31
0.0
  0
LINE
  5
6E4
330
18
100
AcDbEntity
  8
BASE
100
AcDbLine
 10
-841.2726354533761
 20
28.74999999999989
 30
0.0
 11
-264.5226417498676
 21
28.74999999999898
 31
0.0
  0
LINE
  5
6E5
330
18
100
AcDbEntity
  8
BASE
100
AcDbLine
 10
-841.2726354533761
 20
41.25000000000011
 30
0.0
 11
-264.5226417498676
 21
41.24999999999897
 31
0.0
  0
LINE
  5
6E9
330
18
100
AcDbEntity
  8
DISEGNO
100
AcDbLine
 10
-281.2726354533744
 20
113.9999999999994
 30
0.0
 11
-841.2726354533761
 21
113.9999999999994
 31
0.0
  0
LINE
  5
6EA
330
18
100
AcDbEntity
  8
BASE
100
AcDbLine
 10
-281.2726354533762
 20
111.0000000000003
 30
0.0
 11
-841.2726354533761
 21
111.0000000000003
 31
0.0
  0
LINE
  5
6EB
330
18
100
AcDbEntity
  8
BASE
100
AcDbLine
 10
-283.2726354533762
 20
-176.7278469557952
 30
0.0
 11
-839.2726354533762
 21
-176.7278469557952
 31
0.0
  0
LINE
  5
6EC
330
18
100
AcDbEntity
  8
BASE
100
AcDbLine
 10
-841.2726354533761
 20
198.9999999303267
 30
0.0
 11
-841.2726354533761
 21
111.0000000000003
 31
0.0
  0
LINE
  5
6ED
330
18
100
AcDbEntity
  8
DISEGNO
100
AcDbLine
 10
-838.2726354533762
 20
184.9999999303267
 30
0.0
 11
-838.2726354533753
 21
114.0000000000003
 31
0.0
  0
LINE
  5
6EE
330
18
100
AcDbEntity
  8
BASE
100
AcDbLine
 10
-1016.372635453376
 20
182.0001994148109
 30
0.0
 11
-1016.372635453376
 21
0.0
 31
0.0
  0
LINE
  5
6F1
330
18
100
AcDbEntity
  8
BASE
100
AcDbLine
 10
-839.2726354533762
 20
-176.7278469557952
 30
0.0
 11
-841.2726354533761
 21
-178.7278469557952
 31
0.0
  0
LINE
  5
6F9
330
18
100
AcDbEntity
  8
AX
100
AcDbLine
 10
-1031.907459202976
 20
34.99989941481124
 30
0.0
 11
-841.2726354533761
 21
34.99989941481124
 31
0.0
  0
LINE
  5
6FA
330
18
100
AcDbEntity
  8
BASE
100
AcDbLine
 10
-1016.372635453376
 20
28.74999999999989
 30
0.0
 11
-841.2726354533761
 21
28.74999999999989
 31
0.0
  0
LINE
  5
6FB
330
18
100
AcDbEntity
  8
BASE
100
AcDbLine
 10
-1016.372635453376
 20
41.24999999999988
 30
0.0
 11
-841.2726354533761
 21
41.24999999999988
 31
0.0
  0
LINE
  5
6FC
330
18
100
AcDbEntity
  8
COMPONENTI
100
AcDbLine
 10
-981.3726354533754
 20
203.0001994148132
 30
0.0
 11
-962.3726354533753
 21
203.0001994148132
 31
0.0
  0
LINE
  5
6FD
330
18
100
AcDbEntity
  8
COMPONENTI
100
AcDbLine
 10
-981.3726354533754
 20
183.0001994148132
 30
0.0
 11
-962.3726354533753
 21
183.0001994148132
 31
0.0
  0
LINE
  5
6FE
330
18
100
AcDbEntity
  8
BASE
100
AcDbLine
 10
-961.544378049199
 20
141.2499999999999
 30
0.0
 11
-1016.372635453376
 21
141.2499999999999
 31
0.0
  0
LINE
  5
6FF
330
18
100
AcDbEntity
  8
BASE
100
AcDbLine
 10
-961.5443780491997
 20
128.7499999999999
 30
0.0
 11
-1016.372635453376
 21
128.7499999999999
 31
0.0
  0
LINE
  5
700
330
18
100
AcDbEntity
  8
BASE
100
AcDbLine
 10
-1016.372635453376
 20
170.0001994148114
 30
0.0
 11
-841.2726354533758
 21
170.0001994148114
 31
0.0
  0
LINE
  5
701
330
18
100
AcDbEntity
  8
AX
100
AcDbLine
 10
-1031.907459202976
 20
134.9998994148112
 30
0.0
 11
-841.2726354533758
 21
134.9998994148112
 31
0.0
  0
LINE
  5
702
330
18
100
AcDbEntity
  8
0
100
AcDbLine
 10
-1016.372635453376
 20
182.0001994148109
 30
0.0
 11
-841.2726354533759
 21
182.0001994148109
 31
0.0
  0
LINE
  5
703
330
18
100
AcDbEntity
  8
DISEGNO
100
AcDbLine
 10
-981.3726354533754
 20
204.0001994148132
 30
0.0
 11
-981.3726354533754
 21
182.0001994148109
 31
0.0
  0
LINE
  5
704
330
18
100
AcDbEntity
  8
BASE
100
AcDbLine
 10
-1016.372635453375
 20
201.0001994148137
 30
0.0
 11
-1016.372635453376
 21
182.0001994148109
 31
0.0
  0
LINE
  5
705
330
18
100
AcDbEntity
  8
BASE
100
AcDbLine
 10
-981.3726354533754
 20
204.0001994148132
 30
0.0
 11
-1013.372635453376
 21
204.0001994148132
 31
0.0
  0
LINE
  5
706
330
18
100
AcDbEntity
  8
BASE
100
AcDbLine
 10
-1013.372635453376
 20
204.0001994148132
 30
0.0
 11
-1016.372635453376
 21
201.0001994148132
 31
0.0
  0
LINE
  5
708
330
18
100
AcDbEntity
  8
BASE
100
AcDbLine
 10
-841.2726354533758
 20
170.0001994148114
 30
0.0
 11
-841.2726354533758
 21
170.0001994148114
 31
0.0
  0
LINE
  5
709
330
18
100
AcDbEntity
  8
COMPONENTI
100
AcDbLine
 10
-962.3726354533753
 20
203.0001994148132
 30
0.0
 11
-961.3726354533753
 21
202.0001994148132
 31
0.0
  0
LINE
  5
70A
330
18
100
AcDbEntity
  8
COMPONENTI
100
AcDbLine
 10
-961.3726354533753
 20
202.0001994148132
 30
0.0
 11
-961.3726354533753
 21
184.0001994148132
 31
0.0
  0
LINE
  5
70B
330
18
100
AcDbEntity
  8
COMPONENTI
100
AcDbLine
 10
-962.3726354533753
 20
183.0001994148132
 30
0.0
 11
-961.3726354533753
 21
184.0001994148132
 31
0.0
  0
LINE
  5
70C
330
18
100
AcDbEntity
  8
COMPONENTI
100
AcDbLine
 10
-962.3726354533753
 20
203.0001994148132
 30
0.0
 11
-962.3726354533753
 21
183.0001994148132
 31
0.0
  0
LINE
  5
70D
330
18
100
AcDbEntity
  8
DISEGNO
100
AcDbLine
 10
-284.2726354533753
 20
184.9999999303267
 30
0.0
 11
-284.2726354533744
 21
114.0000000000003
 31
0.0
  0
LINE
  5
70E
330
18
100
AcDbEntity
  8
DISEGNO
100
AcDbLine
 10
-281.2726354533776
 20
318.9999999303277
 30
0.0
 11
-281.2726354533762
 21
111.0000000000003
 31
0.0
  0
LINE
  5
70F
330
18
100
AcDbEntity
  8
BASE
100
AcDbLine
 10
-283.2726354533762
 20
-176.7278469557952
 30
0.0
 11
-281.2726354533762
 21
-178.7278469557952
 31
0.0
  0
LINE
  5
729
330
18
100
AcDbEntity
  8
ASSI
100
AcDbLine
 10
-366.61413326794
 20
226.4999999303267
 30
0.0
 11
-335.9311376388124
 21
226.4999999303267
 31
0.0
  0
LINE
  5
72B
330
18
100
AcDbEntity
  8
BASE
100
AcDbLine
 10
-281.2726354533762
 20
198.9999999303267
 30
0.0
 11
-631.272635453376
 21
198.9999999303264
 31
0.0
  0
LINE
  5
72C
330
18
100
AcDbEntity
  8
BASE
100
AcDbLine
 10
-281.2726354533762
 20
208.9999999303276
 30
0.0
 11
-390.7726354533761
 21
208.9999999303276
 31
0.0
  0
LINE
  5
72E
330
18
100
AcDbEntity
  8
DISEGNO
100
AcDbLine
 10
-281.2726354533776
 20
318.9999999303277
 30
0.0
 11
-631.2726354533761
 21
318.9999999303272
 31
0.0
  0
LINE
  5
733
330
18
100
AcDbEntity
  8
DISEGNO
100
AcDbLine
 10
-521.2726354533762
 20
213.035586005972
 30
0.0
 11
-521.2726354533762
 21
316.9999999303272
 31
0.0
  0
LINE
  5
734
330
18
100
AcDbEntity
  8
ASSI
100
AcDbLine
 10
-561.2726354533761
 20
217.4731653867411
 30
0.0
 11
-561.2726354533761
 21
236.1102191210918
 31
0.0
  0
LINE
  5
73D
330
18
100
AcDbEntity
  8
DISEGNO
100
AcDbLine
 10
-631.2726354533761
 20
198.9999999303267
 30
0.0
 11
-631.2726354533761
 21
318.9999999303272
 31
0.0
  0
LINE
  5
740
330
18
100
AcDbEntity
  8
ASSI
100
AcDbLine
 10
-576.61413326794
 20
226.4999999303267
 30
0.0
 11
-545.9311376388123
 21
226.4999999303267
 31
0.0
  0
LINE
  5
751
330
18
100
AcDbEntity
  8
ASSI
100
AcDbLine
 10
-606.2726354533771
 20
191.6502326951967
 30
0.0
 11
-606.2726354533761
 21
220.4813447286241
 31
0.0
  0
LINE
  5
767
330
18
100
AcDbEntity
  8
ASSI
100
AcDbLine
 10
-536.2726354533789
 20
191.9583667850314
 30
0.0
 11
-536.2726354533789
 21
220.1959196274864
 31
0.0
  0
LINE
  5
77A
330
18
100
AcDbEntity
  8
DISEGNO
100
AcDbLine
 10
-521.2726354533762
 20
316.9999999303272
 30
0.0
 11
-519.2726354533761
 21
318.9999999303272
 31
0.0
  0
LINE
  5
77F
330
18
100
AcDbEntity
  8
DISEGNO
100
AcDbLine
 10
-391.2726354533762
 20
213.0355860059725
 30
0.0
 11
-391.2726354533762
 21
316.9999999303272
 31
0.0
  0
LINE
  5
78F
330
18
100
AcDbEntity
  8
ASSI
100
AcDbLine
 10
-376.272635453379
 20
191.9583667850355
 30
0.0
 11
-376.272635453379
 21
217.8923877901679
 31
0.0
  0
CIRCLE
  5
7A4
330
18
100
AcDbEntity
  8
NORMALI
100
AcDbCircle
 10
-456.2726354533761
 20
262.9999999303267
 30
0.0
 40
12.5
  0
LINE
  5
7AC
330
18
100
AcDbEntity
  8
DISEGNO
100
AcDbLine
 10
-391.2726354533762
 20
316.9999999303272
 30
0.0
 11
-393.2726354533762
 21
318.9999999303272
 31
0.0
  0
LINE
  5
7AD
330
18
100
AcDbEntity
  8
ASSI
100
AcDbLine
 10
-351.2726354533762
 20
219.1212789759602
 30
0.0
 11
-351.2726354533762
 21
241.8652436656544
 31
0.0
  0
LINE
  5
7B7
330
18
100
AcDbEntity
  8
ASSI
100
AcDbLine
 10
-306.2726354533789
 20
191.9583667850364
 30
0.0
 11
-306.2726354533789
 21
218.6068662452298
 31
0.0
  0
LINE
  5
7C7
330
18
100
AcDbEntity
  8
COMPONENTI
100
AcDbLine
 10
-281.2726354533771
 20
145.0000000000003
 30
0.0
 11
-264.5226417498681
 21
145.0000000000003
 31
0.0
  0
LINE
  5
7C8
330
18
100
AcDbEntity
  8
COMPONENTI
100
AcDbLine
 10
-264.5226417498681
 20
176.4999999303276
 30
0.0
 11
-281.2726354533753
 21
176.4999999303276
 31
0.0
  0
LINE
  5
7C9
330
18
100
AcDbEntity
  8
COMPONENTI
100
AcDbLine
 10
-260.6573256502981
 20
171.9999999303267
 30
0.0
 11
-281.2726354533753
 21
171.9999999303267
 31
0.0
  0
LINE
  5
7CA
330
18
100
AcDbEntity
  8
BASE
100
AcDbLine
 10
-263.7555070670161
 20
169.9999999303276
 30
0.0
 11
-281.2726354533762
 21
169.9999999303267
 31
0.0
  0
LINE
  5
7D8
330
18
100
AcDbEntity
  8
BASE
100
AcDbLine
 10
-16.37263545337634
 20
-257.7293070490897
 30
0.0
 11
-16.37263545337634
 21
-375.7278469557953
 31
0.0
  0
LINE
  5
7D9
330
18
100
AcDbEntity
  8
BASE
100
AcDbLine
 10
-6.372635453376346
 20
-256.7278469557949
 30
0.0
 11
-6.372635453376346
 21
-376.7278469557948
 31
0.0
  0
LINE
  5
7DA
330
18
100
AcDbEntity
  8
BASE
100
AcDbLine
 10
-19.37268419057443
 20
-256.7278469557949
 30
0.0
 11
-19.3726841905742
 21
-376.7278469557948
 31
0.0
  0
LINE
  5
7DB
330
18
100
AcDbEntity
  8
DISEGNO
100
AcDbLine
 10
-81.37263545337679
 20
-256.727846955795
 30
0.0
 11
-81.37263545337679
 21
-376.727846955795
 31
0.0
  0
LINE
  5
7DC
330
18
100
AcDbEntity
  8
NORMALI
100
AcDbLine
 10
-101.372635453375
 20
-287.2278469557944
 30
0.0
 11
-101.372635453375
 21
-305.2278469557943
 31
0.0
  0
LINE
  5
7DD
330
18
100
AcDbEntity
  8
NORMALI
100
AcDbLine
 10
-100.372635453375
 20
-286.2278469557944
 30
0.0
 11
-100.372635453375
 21
-306.2278469557944
 31
0.0
  0
LINE
  5
7DE
330
18
100
AcDbEntity
  8
BASE
100
AcDbLine
 10
-116.4726354533743
 20
-257.7278469557953
 30
0.0
 11
-116.4726354533743
 21
-375.7278469557953
 31
0.0
  0
LINE
  5
7DF
330
18
100
AcDbEntity
  8
COMPONENTI
100
AcDbLine
 10
-106.3726354533759
 20
-392.2278469557952
 30
0.0
 11
-106.3726354533759
 21
-376.7278469557953
 31
0.0
  0
LINE
  5
7E0
330
18
100
AcDbEntity
  8
BASE
100
AcDbLine
 10
-116.4726354533743
 20
-375.7278469557953
 30
0.0
 11
-115.4726354533743
 21
-376.7278469557953
 31
0.0
  0
LINE
  5
7E1
330
18
100
AcDbEntity
  8
NORMALI
100
AcDbLine
 10
-81.37263545337498
 20
-306.2278469557944
 30
0.0
 11
-100.372635453375
 21
-306.2278469557944
 31
0.0
  0
LINE
  5
7E2
330
18
100
AcDbEntity
  8
NORMALI
100
AcDbLine
 10
-81.37263545337498
 20
-327.2278469557944
 30
0.0
 11
-100.372635453375
 21
-327.2278469557944
 31
0.0
  0
LINE
  5
7E3
330
18
100
AcDbEntity
  8
NORMALI
100
AcDbLine
 10
-81.37263545337498
 20
-347.2278469557943
 30
0.0
 11
-100.372635453375
 21
-347.2278469557943
 31
0.0
  0
LINE
  5
7E5
330
18
100
AcDbEntity
  8
NORMALI
100
AcDbLine
 10
-101.372635453375
 20
-346.2278469557944
 30
0.0
 11
-101.372635453375
 21
-328.2278469557943
 31
0.0
  0
LINE
  5
7E6
330
18
100
AcDbEntity
  8
NORMALI
100
AcDbLine
 10
-100.372635453375
 20
-347.2278469557943
 30
0.0
 11
-100.372635453375
 21
-327.2278469557944
 31
0.0
  0
LINE
  5
7E7
330
18
100
AcDbEntity
  8
NORMALI
100
AcDbLine
 10
-100.372635453375
 20
-327.2278469557944
 30
0.0
 11
-101.372635453375
 21
-328.2278469557943
 31
0.0
  0
LINE
  5
7E8
330
18
100
AcDbEntity
  8
NORMALI
100
AcDbLine
 10
-100.3726354533759
 20
-347.2278469557943
 30
0.0
 11
-101.3726354533759
 21
-346.2278469557944
 31
0.0
  0
LINE
  5
7E9
330
18
100
AcDbEntity
  8
NORMALI
100
AcDbLine
 10
-100.372635453375
 20
-306.2278469557944
 30
0.0
 11
-101.372635453375
 21
-305.2278469557943
 31
0.0
  0
LINE
  5
7EA
330
18
100
AcDbEntity
  8
BASE
100
AcDbLine
 10
-17.37263545337635
 20
-376.7278469557953
 30
0.0
 11
-16.37263545337634
 21
-375.7278469557953
 31
0.0
  0
LINE
  5
7EB
330
18
100
AcDbEntity
  8
NORMALI
100
AcDbLine
 10
-81.37263545337498
 20
-286.2278469557944
 30
0.0
 11
-100.372635453375
 21
-286.2278469557944
 31
0.0
  0
LINE
  5
7ED
330
18
100
AcDbEntity
  8
NORMALI
100
AcDbLine
 10
-100.3726354533759
 20
-286.2278469557944
 30
0.0
 11
-101.3726354533759
 21
-287.2278469557944
 31
0.0
  0
LINE
  5
7EE
330
18
100
AcDbEntity
  8
BASE
100
AcDbLine
 10
-115.4726354533743
 20
-256.7278469557952
 30
0.0
 11
-116.4726354533743
 21
-257.7278469557953
 31
0.0
  0
LINE
  5
7EF
330
18
100
AcDbEntity
  8
COMPONENTI
100
AcDbLine
 10
-106.3726354533759
 20
-241.2278469557953
 30
0.0
 11
-106.3726354533759
 21
-256.7278469557952
 31
0.0
  0
LINE
  5
7F0
330
18
100
AcDbEntity
  8
BASE
100
AcDbLine
 10
-16.37263545337634
 20
-257.7293070490898
 30
0.0
 11
-17.37263545337635
 21
-256.7293070490898
 31
0.0
  0
LINE
  5
7F2
330
18
100
AcDbEntity
  8
BASE
100
AcDbLine
 10
-16.37263545337657
 20
182.9999999303275
 30
0.0
 11
-16.37263545337634
 21
0.0000000000001137
 31
0.0
  0
LINE
  5
7F3
330
18
100
AcDbEntity
  8
BASE
100
AcDbLine
 10
-6.372635453375664
 20
184.9999999303267
 30
0.0
 11
-6.372635453376346
 21
0.0000000000001137
 31
0.0
  0
LINE
  5
7F4
330
18
100
AcDbEntity
  8
COMPONENTI
100
AcDbLine
 10
-106.272635453378
 20
145.0000000000003
 30
0.0
 11
-106.2726354533771
 21
125.0000000000003
 31
0.0
  0
LINE
  5
7F6
330
18
100
AcDbEntity
  8
BASE
100
AcDbLine
 10
-16.37263545337657
 20
182.9999999303266
 30
0.0
 11
-116.3726354533764
 21
182.9999999303266
 31
0.0
  0
LINE
  5
7F7
330
18
100
AcDbEntity
  8
DISEGNO
100
AcDbLine
 10
-81.27263545337894
 20
207.9999999303294
 30
0.0
 11
-19.37263545337657
 21
207.9999999303294
 31
0.0
  0
LINE
  5
7F8
330
18
100
AcDbEntity
  8
BASE
100
AcDbLine
 10
-16.37263545337657
 20
141.2499999999999
 30
0.0
 11
-106.3676354533783
 21
141.2499999999999
 31
0.0
  0
LINE
  5
7F9
330
18
100
AcDbEntity
  8
BASE
100
AcDbLine
 10
-16.37263545337657
 20
128.7499999999999
 30
0.0
 11
-106.3676354533783
 21
128.7499999999999
 31
0.0
  0
LINE
  5
7FA
330
18
100
AcDbEntity
  8
BASE
100
AcDbLine
 10
-116.3726354533764
 20
169.9999999303276
 30
0.0
 11
-116.3726354533764
 21
182.9999999303266
 31
0.0
  0
LINE
  5
7FB
330
18
100
AcDbEntity
  8
NORMALI
100
AcDbLine
 10
-81.27263545337894
 20
186.9999999303294
 30
0.0
 11
-100.1776354533786
 21
186.9999999303294
 31
0.0
  0
LINE
  5
7FC
330
18
100
AcDbEntity
  8
NORMALI
100
AcDbLine
 10
-81.27263545337894
 20
206.9999999303294
 30
0.0
 11
-100.2726354533789
 21
206.9999999303294
 31
0.0
  0
LINE
  5
7FE
330
18
100
AcDbEntity
  8
NORMALI
100
AcDbLine
 10
-100.2726354533789
 20
206.9999999303294
 30
0.0
 11
-100.2726354533789
 21
186.9999999303294
 31
0.0
  0
LINE
  5
7FF
330
18
100
AcDbEntity
  8
NORMALI
100
AcDbLine
 10
-101.2726354533789
 20
205.9999999303294
 30
0.0
 11
-101.2726354533789
 21
187.9999999303294
 31
0.0
  0
LINE
  5
800
330
18
100
AcDbEntity
  8
NORMALI
100
AcDbLine
 10
-100.1776354533786
 20
186.9999999303294
 30
0.0
 11
-101.1776354533787
 21
187.9999999303294
 31
0.0
  0
LINE
  5
801
330
18
100
AcDbEntity
  8
NORMALI
100
AcDbLine
 10
-100.2726354533789
 20
206.9999999303294
 30
0.0
 11
-101.2726354533789
 21
205.9999999303294
 31
0.0
  0
LINE
  5
802
330
18
100
AcDbEntity
  8
DISEGNO
100
AcDbLine
 10
-81.27263545337894
 20
207.9999999303294
 30
0.0
 11
-81.27263545337894
 21
182.9999999303275
 31
0.0
  0
LINE
  5
803
330
18
100
AcDbEntity
  8
BASE
100
AcDbLine
 10
-6.372635453375664
 20
184.9999999303267
 30
0.0
 11
-16.37263545337657
 21
184.9999999303267
 31
0.0
  0
LINE
  5
804
330
18
100
AcDbEntity
  8
DISEGNO
100
AcDbLine
 10
-19.37263545337748
 20
207.9999999303294
 30
0.0
 11
-16.37263545337748
 21
204.9999999303294
 31
0.0
  0
LINE
  5
805
330
18
100
AcDbEntity
  8
DISEGNO
100
AcDbLine
 10
-16.37263545337748
 20
204.9999999303294
 30
0.0
 11
-16.37263545337657
 21
182.9999999303275
 31
0.0
  0
LINE
  5
808
330
18
100
AcDbEntity
  8
DISEGNO
100
AcDbLine
 10
-1315.490841538299
 20
111.0000000000003
 30
0.0
 11
-1315.490841538299
 21
184.9999999303267
 31
0.0
  0
LINE
  5
80E
330
18
100
AcDbEntity
  8
COMPONENTI
100
AcDbLine
 10
-1277.596751538299
 20
126.1800000000006
 30
0.0
 11
-1278.776751538299
 21
125.0000000000003
 31
0.0
  0
LINE
  5
81D
330
18
100
AcDbEntity
  8
ASSI
100
AcDbLine
 10
-1217.489841538299
 20
349.8618367768616
 30
0.0
 11
-1217.489841538298
 21
-31.55962807460651
 31
0.0
  0
LINE
  5
825
330
18
100
AcDbEntity
  8
BASE
100
AcDbLine
 10
-1315.490841538299
 20
111.0000000000003
 30
0.0
 11
-1279.490141538299
 21
111.0000000000003
 31
0.0
  0
LINE
  5
826
330
18
100
AcDbEntity
  8
BASE
100
AcDbLine
 10
-1315.490841538299
 20
114.0000000000003
 30
0.0
 11
-1279.490141538299
 21
114.0000000000003
 31
0.0
  0
LINE
  5
857
330
18
100
AcDbEntity
  8
BASE
100
AcDbLine
 10
-1286.589641538299
 20
111.0000000000003
 30
0.0
 11
-1305.490841538299
 21
111.0000000000003
 31
0.0
  0
LINE
  5
867
330
18
100
AcDbEntity
  8
BASE
100
AcDbLine
 10
-1279.490141538299
 20
184.9999999303265
 30
0.0
 11
-1279.490141538299
 21
145.0000000000003
 31
0.0
  0
LINE
  5
868
330
18
100
AcDbEntity
  8
COMPONENTI
100
AcDbLine
 10
-1293.096751538299
 20
125.0000000000003
 30
0.0
 11
-1278.776751538299
 21
125.0000000000003
 31
0.0
  0
LINE
  5
8B6
330
18
100
AcDbEntity
  8
AX
100
AcDbLine
 10
-1160.39681846457
 20
262.9999999303276
 30
0.0
 11
-1276.822445463421
 21
262.9999999303276
 31
0.0
  0
LINE
  5
8B7
330
18
100
AcDbEntity
  8
BASE
  6
Continuous
100
AcDbLine
 10
-1077.489841538299
 20
184.9999999303276
 30
0.0
 11
-1157.597101538299
 21
184.9999999303262
 31
0.0
  0
LINE
  5
8B8
330
18
100
AcDbEntity
  8
BASE
100
AcDbLine
 10
-1077.489841538299
 20
198.9999999303276
 30
0.0
 11
-1157.597101538299
 21
198.9999999303276
 31
0.0
  0
LINE
  5
8BA
330
18
100
AcDbEntity
  8
0
100
AcDbLine
 10
-1277.589038167882
 20
184.9999999303267
 30
0.0
 11
-1157.586763352432
 21
184.9999999303267
 31
0.0
  0
LINE
  5
8BB
330
18
100
AcDbEntity
  8
DISEGNO
100
AcDbLine
 10
-1157.597101538299
 20
206.9996999303283
 30
0.0
 11
-1277.598101538299
 21
206.9996999303288
 31
0.0
  0
LINE
  5
8BC
330
18
100
AcDbEntity
  8
BASE
100
AcDbLine
 10
-1163.382581538301
 20
318.9999999303277
 30
0.0
 11
-1271.382581538298
 21
318.9999999303277
 31
0.0
  0
LINE
  5
8BE
330
18
100
AcDbEntity
  8
BASE
  6
DASHED
 62
     8
100
AcDbLine
 10
-1265.382581538298
 20
297.9999999303277
 30
0.0
 11
-1265.382581538298
 21
227.9999999303276
 31
0.0
  0
LINE
  5
8BF
330
18
100
AcDbEntity
  8
BASE
100
AcDbLine
 10
-1262.5825815383
 20
318.9999999303277
 30
0.0
 11
-1262.5825815383
 21
223.9999999303249
 31
0.0
  0
LINE
  5
8C0
330
18
100
AcDbEntity
  8
BASE
100
AcDbLine
 10
-1271.382581538298
 20
210.9999999303276
 30
0.0
 11
-1271.382581538298
 21
318.9999999303277
 31
0.0
  0
LINE
  5
8C1
330
18
100
AcDbEntity
  8
BASE
100
AcDbLine
 10
-1252.582581538299
 20
207.000111002891
 30
0.0
 11
-1252.582581538297
 21
318.9999999303277
 31
0.0
  0
LINE
  5
8C8
330
18
100
AcDbEntity
  8
BASE
100
AcDbLine
 10
-1293.7815815383
 20
208.9999999303276
 30
0.0
 11
-1310.5825815383
 21
208.9999999303276
 31
0.0
  0
LINE
  5
8C9
330
18
100
AcDbEntity
  8
BASE
  6
Continuous
100
AcDbLine
 10
-1277.598101538299
 20
184.9999999303267
 30
0.0
 11
-1357.489841538299
 21
184.9999999303267
 31
0.0
  0
LINE
  5
8CA
330
18
100
AcDbEntity
  8
BASE
100
AcDbLine
 10
-1277.598101538299
 20
198.9999999303271
 30
0.0
 11
-1357.489841538299
 21
198.9999999303276
 31
0.0
  0
LINE
  5
8CB
330
18
100
AcDbEntity
  8
BASE
100
AcDbLine
 10
-1357.489841538299
 20
184.9999999303267
 30
0.0
 11
-1357.489841538299
 21
198.9999999303276
 31
0.0
  0
LINE
  5
8CC
330
18
100
AcDbEntity
  8
BASE
100
AcDbLine
 10
-1312.5825815383
 20
206.9999999303276
 30
0.0
 11
-1312.5825815383
 21
198.9999999303276
 31
0.0
  0
ARC
  5
8CD
330
18
100
AcDbEntity
  8
BASE
100
AcDbCircle
 10
-1310.5825815383
 20
206.9999999303276
 30
0.0
 40
2.0
100
AcDbArc
 50
90.0
 51
180.0
  0
LINE
  5
8CF
330
18
100
AcDbEntity
  8
ASSI
100
AcDbLine
 10
-1297.989841538299
 20
220.108380792862
 30
0.0
 11
-1297.989841538299
 21
166.7403287325932
 31
0.0
  0
LINE
  5
8E2
330
18
100
AcDbEntity
  8
COMPONENTI
100
AcDbLine
 10
-1293.096751538299
 20
145.0000000000003
 30
0.0
 11
-1293.096751538299
 21
125.0000000000003
 31
0.0
  0
LINE
  5
8E7
330
18
100
AcDbEntity
  8
COMPONENTI
100
AcDbLine
 10
-1277.596751538299
 20
143.8200000000009
 30
0.0
 11
-1278.776751538299
 21
145.0000000000003
 31
0.0
  0
LINE
  5
8E8
330
18
100
AcDbEntity
  8
COMPONENTI
100
AcDbLine
 10
-1293.096751538299
 20
145.0000000000003
 30
0.0
 11
-1278.776751538299
 21
145.0000000000003
 31
0.0
  0
LINE
  5
8FC
330
18
100
AcDbEntity
  8
BASE
  6
DASHED
 62
     8
100
AcDbLine
 10
-1265.382581538298
 20
227.9999999303276
 30
0.0
 11
-1271.382581538298
 21
227.9999999303276
 31
0.0
  0
ARC
  5
8FD
330
18
100
AcDbEntity
  8
BASE
100
AcDbCircle
 10
-1277.582581538303
 20
223.9999999303276
 30
0.0
 40
15.00000000000006
100
AcDbArc
 50
270.0000000000108
 51
359.9999999999883
  0
LINE
  5
908
330
18
100
AcDbEntity
  8
BASE
100
AcDbLine
 10
-1277.5825815383
 20
208.9999999303276
 30
0.0
 11
-1291.383581538299
 21
208.9999999303276
 31
0.0
  0
LINE
  5
909
330
18
100
AcDbEntity
  8
BASE
100
AcDbLine
 10
-1302.182581538299
 20
199.4999999303276
 30
0.0
 11
-1277.598101538299
 21
199.4999999303276
 31
0.0
  0
ARC
  5
90A
330
18
100
AcDbEntity
  8
BASE
100
AcDbCircle
 10
-1302.182581538297
 20
199.0999999303261
 30
0.0
 40
0.4000000000017394
100
AcDbArc
 50
90.00000000023614
 51
179.9999999997394
  0
LINE
  5
90B
330
18
100
AcDbEntity
  8
BASE
100
AcDbLine
 10
-1293.5815815383
 20
208.7999999303278
 30
0.0
 11
-1293.7815815383
 21
208.9999999303276
 31
0.0
  0
LINE
  5
90C
330
18
100
AcDbEntity
  8
BASE
100
AcDbLine
 10
-1291.383581538299
 20
208.9999999303276
 30
0.0
 11
-1291.583581538299
 21
208.7999999303278
 31
0.0
  0
LINE
  5
90D
330
18
100
AcDbEntity
  8
BASE
100
AcDbLine
 10
-1291.583581538299
 20
208.7999999303278
 30
0.0
 11
-1293.5815815383
 21
208.7999999303278
 31
0.0
  0
LINE
  5
90F
330
18
100
AcDbEntity
  8
BASE
  6
DASHED
 62
     8
100
AcDbLine
 10
-1265.382581538298
 20
297.9999999303277
 30
0.0
 11
-1271.382581538298
 21
297.9999999303277
 31
0.0
  0
ARC
  5
910
330
18
100
AcDbEntity
  8
BASE
100
AcDbCircle
 10
-1260.5825815383
 20
316.9999999303277
 30
0.0
 40
2.0
100
AcDbArc
 50
90.0
 51
180.0
  0
LINE
  5
911
330
18
100
AcDbEntity
  8
BASE
  6
DASHED
 62
     8
100
AcDbLine
 10
-1169.382581538302
 20
297.9999999303277
 30
0.0
 11
-1169.382581538296
 21
227.9999999303276
 31
0.0
  0
LINE
  5
912
330
18
100
AcDbEntity
  8
BASE
100
AcDbLine
 10
-1172.182581538302
 20
318.9999999303277
 30
0.0
 11
-1172.182581538267
 21
223.9999999303222
 31
0.0
  0
LINE
  5
913
330
18
100
AcDbEntity
  8
BASE
100
AcDbLine
 10
-1182.182581538299
 20
206.9999999303285
 30
0.0
 11
-1182.182581538302
 21
318.9999999303277
 31
0.0
  0
LINE
  5
914
330
18
100
AcDbEntity
  8
BASE
100
AcDbLine
 10
-1163.382581538302
 20
210.9999999303276
 30
0.0
 11
-1163.382581538302
 21
318.9999999303277
 31
0.0
  0
LINE
  5
915
330
18
100
AcDbEntity
  8
BASE
  6
DASHED
 62
     8
100
AcDbLine
 10
-1169.382581538302
 20
227.9999999303276
 30
0.0
 11
-1163.382581538302
 21
227.9999999303276
 31
0.0
  0
ARC
  5
916
330
18
100
AcDbEntity
  8
BASE
100
AcDbCircle
 10
-1157.182581538299
 20
223.9999999303276
 30
0.0
 40
15.00000000000001
100
AcDbArc
 50
180.0000000000209
 51
270.0000000000005
  0
LINE
  5
918
330
18
100
AcDbEntity
  8
ASSI
100
AcDbLine
 10
-1136.989841538299
 20
219.3386473926488
 30
0.0
 11
-1136.989841538299
 21
166.075978196627
 31
0.0
  0
LINE
  5
945
330
18
100
AcDbEntity
  8
BASE
100
AcDbLine
 10
-1140.9835815383
 20
208.9999999303276
 30
0.0
 11
-1124.182581538299
 21
208.9999999303276
 31
0.0
  0
LINE
  5
955
330
18
100
AcDbEntity
  8
BASE
100
AcDbLine
 10
-1132.5825815383
 20
199.4999999303276
 30
0.0
 11
-1157.597101538298
 21
199.4999999303276
 31
0.0
  0
LINE
  5
957
330
18
100
AcDbEntity
  8
BASE
100
AcDbLine
 10
-1157.182581538299
 20
208.9999999303276
 30
0.0
 11
-1143.3815815383
 21
208.9999999303276
 31
0.0
  0
LINE
  5
958
330
18
100
AcDbEntity
  8
BASE
100
AcDbLine
 10
-1143.181581538299
 20
208.7999999303278
 30
0.0
 11
-1141.1835815383
 21
208.7999999303278
 31
0.0
  0
LINE
  5
959
330
18
100
AcDbEntity
  8
BASE
100
AcDbLine
 10
-1141.1835815383
 20
208.7999999303278
 30
0.0
 11
-1140.9835815383
 21
208.9999999303276
 31
0.0
  0
LINE
  5
95A
330
18
100
AcDbEntity
  8
BASE
100
AcDbLine
 10
-1143.3815815383
 20
208.9999999303276
 30
0.0
 11
-1143.181581538299
 21
208.7999999303278
 31
0.0
  0
LINE
  5
95C
330
18
100
AcDbEntity
  8
BASE
100
AcDbLine
 10
-1122.182581538299
 20
206.9999999303276
 30
0.0
 11
-1122.182581538299
 21
198.9999999303276
 31
0.0
  0
ARC
  5
95D
330
18
100
AcDbEntity
  8
BASE
100
AcDbCircle
 10
-1124.182581538299
 20
206.9999999303276
 30
0.0
 40
2.0
100
AcDbArc
 50
0.000000000000007
 51
90.0
  0
ARC
  5
95E
330
18
100
AcDbEntity
  8
BASE
100
AcDbCircle
 10
-1132.582581538301
 20
199.0999999303261
 30
0.0
 40
0.4000000000017394
100
AcDbArc
 50
0.0000000002605581
 51
89.99999999976386
  0
LINE
  5
95F
330
18
100
AcDbEntity
  8
BASE
  6
DASHED
 62
     8
100
AcDbLine
 10
-1169.382581538302
 20
297.9999999303277
 30
0.0
 11
-1163.382581538302
 21
297.9999999303277
 31
0.0
  0
LINE
  5
960
330
18
100
AcDbEntity
  8
BASE
100
AcDbLine
 10
-1182.3825815383
 20
318.9999999303277
 30
0.0
 11
-1174.182581538299
 21
318.9999999303277
 31
0.0
  0
ARC
  5
961
330
18
100
AcDbEntity
  8
BASE
100
AcDbCircle
 10
-1174.182581538299
 20
316.9999999303277
 30
0.0
 40
2.0
100
AcDbArc
 50
0.000000000000007
 51
90.0
  0
LINE
  5
962
330
18
100
AcDbEntity
  8
BASE
100
AcDbLine
 10
-1077.489841538299
 20
184.9999999303276
 30
0.0
 11
-1077.489841538299
 21
198.9999999303276
 31
0.0
  0
LINE
  5
BC0
330
18
100
AcDbEntity
  8
ASSI
100
AcDbLine
 10
-1242.489841538299
 20
125.1536922642973
 30
0.0
 11
-1242.489841538299
 21
144.8463077357024
 31
0.0
  0
LINE
  5
BC1
330
18
100
AcDbEntity
  8
ASSI
100
AcDbLine
 10
-1192.489841538299
 20
125.1536922642973
 30
0.0
 11
-1192.489841538299
 21
144.8463077357024
 31
0.0
  0
LINE
  5
BC2
330
18
100
AcDbEntity
  8
ASSI
100
AcDbLine
 10
-1242.489841538299
 20
25.15369226429732
 30
0.0
 11
-1242.489841538299
 21
44.84630773570245
 31
0.0
  0
LINE
  5
BC3
330
18
100
AcDbEntity
  8
ASSI
100
AcDbLine
 10
-1232.643533802597
 20
34.99999999999989
 30
0.0
 11
-1252.336149274001
 21
34.99999999999989
 31
0.0
  0
CIRCLE
  5
BC5
330
18
100
AcDbEntity
  8
NORMALI
100
AcDbCircle
 10
-1242.489841538299
 20
34.99999999999989
 30
0.0
 40
4.250294107470684
  0
LINE
  5
BC6
330
18
100
AcDbEntity
  8
ASSI
100
AcDbLine
 10
-1202.336149274001
 20
34.99999999999989
 30
0.0
 11
-1182.643533802597
 21
34.99999999999989
 31
0.0
  0
LINE
  5
BC7
330
18
100
AcDbEntity
  8
ASSI
100
AcDbLine
 10
-1192.489841538299
 20
25.15369226429732
 30
0.0
 11
-1192.489841538299
 21
44.84630773570245
 31
0.0
  0
CIRCLE
  5
BC8
330
18
100
AcDbEntity
  8
NORMALI
100
AcDbCircle
 10
-1192.486841538299
 20
34.99999999999989
 30
0.0
 40
4.250294107470684
  0
CIRCLE
  5
BCB
330
18
100
AcDbEntity
  8
NORMALI
100
AcDbCircle
 10
-1242.492841538299
 20
134.9999999999999
 30
0.0
 40
4.250294107470684
  0
LINE
  5
BCD
330
18
100
AcDbEntity
  8
ASSI
100
AcDbLine
 10
-1324.736093109941
 20
134.9999999999999
 30
0.0
 11
-1109.107137791965
 21
134.9999999999999
 31
0.0
  0
CIRCLE
  5
BCF
330
18
100
AcDbEntity
  8
NORMALI
100
AcDbCircle
 10
-1192.489841538299
 20
134.9999999999999
 30
0.0
 40
4.250294107470684
  0
LINE
  5
BD0
330
18
100
AcDbEntity
  8
0
100
AcDbLine
 10
-6.372635453376346
 20
0.0
 30
0.0
 11
-1016.372635453376
 21
0.0
 31
0.0
  0
LINE
  5
BD6
330
18
100
AcDbEntity
  8
0
100
AcDbLine
 10
-1277.598101538299
 20
0.0
 30
0.0
 11
-1157.597101538299
 21
0.0
 31
0.0
  0
LINE
  5
BD7
330
18
100
AcDbEntity
  8
0
100
AcDbLine
 10
-1157.597101538299
 20
206.9996999303283
 30
0.0
 11
-1157.597101538299
 21
0.0
 31
0.0
  0
LINE
  5
BD8
330
18
100
AcDbEntity
  8
0
100
AcDbLine
 10
-1277.598101538299
 20
206.9996999303288
 30
0.0
 11
-1277.598101538299
 21
0.0
 31
0.0
  0
LINE
  5
BDB
330
18
100
AcDbEntity
  8
BASE
100
AcDbLine
 10
-1279.490141538299
 20
125.0000000000003
 30
0.0
 11
-1279.490141538299
 21
111.0000000000003
 31
0.0
  0
LINE
  5
BDE
330
18
100
AcDbEntity
  8
COMPONENTI
100
AcDbLine
 10
-1142.098451538299
 20
145.0000000000003
 30
0.0
 11
-1142.098451538299
 21
125.0000000000003
 31
0.0
  0
LINE
  5
BDF
330
18
100
AcDbEntity
  8
DISEGNO
100
AcDbLine
 10
-1119.488841538298
 20
111.0000000000003
 30
0.0
 11
-1119.488841538298
 21
184.9999999303267
 31
0.0
  0
LINE
  5
BE2
330
18
100
AcDbEntity
  8
BASE
100
AcDbLine
 10
-1119.488841538298
 20
114.0000000000003
 30
0.0
 11
-1155.489541538299
 21
114.0000000000003
 31
0.0
  0
LINE
  5
BE3
330
18
100
AcDbEntity
  8
BASE
100
AcDbLine
 10
-1119.488841538298
 20
111.0000000000003
 30
0.0
 11
-1155.489541538299
 21
111.0000000000003
 31
0.0
  0
LINE
  5
BE4
330
18
100
AcDbEntity
  8
BASE
100
AcDbLine
 10
-1148.390041538299
 20
111.0000000000003
 30
0.0
 11
-1129.488841538298
 21
111.0000000000003
 31
0.0
  0
LINE
  5
BEE
330
18
100
AcDbEntity
  8
BASE
100
AcDbLine
 10
-1155.489541538299
 20
125.0000000000003
 30
0.0
 11
-1155.489541538299
 21
111.0000000000003
 31
0.0
  0
LINE
  5
BF5
330
18
100
AcDbEntity
  8
COMPONENTI
100
AcDbLine
 10
-1142.098451538299
 20
125.0000000000003
 30
0.0
 11
-1156.418451538298
 21
125.0000000000003
 31
0.0
  0
LINE
  5
BF7
330
18
100
AcDbEntity
  8
COMPONENTI
100
AcDbLine
 10
-1157.598451538299
 20
126.1800000000006
 30
0.0
 11
-1156.418451538298
 21
125.0000000000003
 31
0.0
  0
LINE
  5
C04
330
18
100
AcDbEntity
  8
BASE
100
AcDbLine
 10
-1155.489541538299
 20
184.9999999303265
 30
0.0
 11
-1155.489541538299
 21
145.0000000000003
 31
0.0
  0
LINE
  5
C0C
330
18
100
AcDbEntity
  8
COMPONENTI
100
AcDbLine
 10
-1142.098451538299
 20
145.0000000000003
 30
0.0
 11
-1156.418451538298
 21
145.0000000000003
 31
0.0
  0
LINE
  5
C0D
330
18
100
AcDbEntity
  8
COMPONENTI
100
AcDbLine
 10
-1157.598451538299
 20
143.8200000000009
 30
0.0
 11
-1156.418451538298
 21
145.0000000000003
 31
0.0
  0
LINE
  5
C1D
330
18
100
AcDbEntity
  8
0
100
AcDbLine
 10
-841.2726354533761
 20
198.9999999303272
 30
0.0
 11
-631.2726354533761
 21
198.9999999303264
 31
0.0
  0
LINE
  5
CB2
330
18
100
AcDbEntity
  8
DISEGNO
100
AcDbLine
 10
-281.272635453376
 20
-351.7278469557953
 30
0.0
 11
-631.2726354533761
 21
-351.7278469557953
 31
0.0
  0
LINE
  5
CB3
330
18
100
AcDbEntity
  8
DISEGNO
100
AcDbLine
 10
-281.272635453376
 20
-361.7278469557955
 30
0.0
 11
-631.2726354533761
 21
-361.7278469557955
 31
0.0
  0
LINE
  5
CB4
330
18
100
AcDbEntity
  8
TRATTEGGI
 62
     8
100
AcDbLine
 10
-421.2726354533761
 20
-364.7278469557913
 30
0.0
 11
-491.272635453376
 21
-364.7278469557913
 31
0.0
  0
LINE
  5
CB5
330
18
100
AcDbEntity
  8
DISEGNO
100
AcDbLine
 10
-391.2726354533762
 20
-370.7278469557956
 30
0.0
 11
-521.2726354533762
 21
-370.7278469557956
 31
0.0
  0
LINE
  5
CB6
330
18
100
AcDbEntity
  8
DISEGNO
100
AcDbLine
 10
-391.2726354533762
 20
-370.7278469557956
 30
0.0
 11
-391.2726354533762
 21
-361.7278469557955
 31
0.0
  0
LINE
  5
CB7
330
18
100
AcDbEntity
  8
TRATTEGGI
 62
     8
100
AcDbLine
 10
-421.2726354533761
 20
-364.7278469557913
 30
0.0
 11
-421.2726354533761
 21
-370.3278469557913
 31
0.0
  0
LINE
  5
CB8
330
18
100
AcDbEntity
  8
TRATTEGGI
100
AcDbLine
 10
-468.7726354533761
 20
-364.7278469557913
 30
0.0
 11
-468.7726354533761
 21
-316.7278469557953
 31
0.0
  0
LINE
  5
CB9
330
18
100
AcDbEntity
  8
TRATTEGGI
100
AcDbLine
 10
-443.7726354533761
 20
-364.7278469557913
 30
0.0
 11
-443.7726354533761
 21
-316.7278469557953
 31
0.0
  0
LINE
  5
CBA
330
18
100
AcDbEntity
  8
ASSI
100
AcDbLine
 10
-456.2726354533761
 20
-258.5150334563697
 30
0.0
 11
-456.2726354533761
 21
-374.9406604552211
 31
0.0
  0
LINE
  5
CBB
330
18
100
AcDbEntity
  8
TRATTEGGI
 62
     8
100
AcDbLine
 10
-491.272635453376
 20
-364.7278469557913
 30
0.0
 11
-491.2726354533762
 21
-370.7278469557956
 31
0.0
  0
LINE
  5
CBC
330
18
100
AcDbEntity
  8
DISEGNO
100
AcDbLine
 10
-521.2726354533762
 20
-370.7278469557956
 30
0.0
 11
-521.2726354533762
 21
-361.7278469557955
 31
0.0
  0
LINE
  5
CBD
330
18
100
AcDbEntity
  8
DISEGNO
100
AcDbLine
 10
-281.272635453376
 20
-281.7278469557953
 30
0.0
 11
-631.2726354533761
 21
-281.7278469557953
 31
0.0
  0
LINE
  5
CBE
330
18
100
AcDbEntity
  8
DISEGNO
100
AcDbLine
 10
-281.272635453376
 20
-271.727846955795
 30
0.0
 11
-631.2726354533761
 21
-271.727846955795
 31
0.0
  0
LINE
  5
CBF
330
18
100
AcDbEntity
  8
TRATTEGGI
 62
     8
100
AcDbLine
 10
-421.2726354533761
 20
-268.727846955795
 30
0.0
 11
-491.272635453376
 21
-268.7278469557904
 31
0.0
  0
LINE
  5
CC0
330
18
100
AcDbEntity
  8
DISEGNO
100
AcDbLine
 10
-391.2726354533762
 20
-262.727846955795
 30
0.0
 11
-521.2726354533762
 21
-262.727846955795
 31
0.0
  0
LINE
  5
CC1
330
18
100
AcDbEntity
  8
DISEGNO
100
AcDbLine
 10
-391.2726354533762
 20
-262.727846955795
 30
0.0
 11
-391.2726354533762
 21
-271.727846955795
 31
0.0
  0
LINE
  5
CC2
330
18
100
AcDbEntity
  8
TRATTEGGI
 62
     8
100
AcDbLine
 10
-421.2726354533761
 20
-268.727846955795
 30
0.0
 11
-421.2726354533761
 21
-262.727846955795
 31
0.0
  0
LINE
  5
CC3
330
18
100
AcDbEntity
  8
TRATTEGGI
 62
     8
100
AcDbLine
 10
-491.272635453376
 20
-268.727846955795
 30
0.0
 11
-491.272635453376
 21
-262.727846955795
 31
0.0
  0
LINE
  5
CC4
330
18
100
AcDbEntity
  8
DISEGNO
100
AcDbLine
 10
-521.2726354533762
 20
-262.727846955795
 30
0.0
 11
-521.2726354533762
 21
-271.727846955795
 31
0.0
  0
LINE
  5
CC7
330
18
100
AcDbEntity
  8
TRATTEGGI
100
AcDbLine
 10
-1265.382581538298
 20
275.4999999303277
 30
0.0
 11
-1217.489841538299
 21
275.4999999303277
 31
0.0
  0
LINE
  5
CC9
330
18
100
AcDbEntity
  8
TRATTEGGI
100
AcDbLine
 10
-1265.382581538298
 20
250.4999999303275
 30
0.0
 11
-1217.489841538299
 21
250.4999999303275
 31
0.0
  0
LINE
  5
D56
330
18
100
AcDbEntity
  8
TRATTEGGI
100
AcDbLine
 10
-1169.3825815383
 20
278.9999999303276
 30
0.0
 11
-1217.489841538299
 21
278.9999999303276
 31
0.0
  0
LINE
  5
D57
330
18
100
AcDbEntity
  8
TRATTEGGI
100
AcDbLine
 10
-1169.382581538298
 20
246.9999999303276
 30
0.0
 11
-1217.489841538299
 21
246.9999999303276
 31
0.0
  0
LINE
  5
1BE5
330
18
100
AcDbEntity
  8
BASE
  6
Continuous
100
AcDbLine
 10
363.6271177243193
 20
184.9999999303265
 30
0.0
 11
443.5188577243193
 21
184.9999999303265
 31
0.0
  0
LINE
  5
1BE6
330
18
100
AcDbEntity
  8
BASE
100
AcDbLine
 10
241.8544044060668
 20
198.999999930327
 30
0.0
 11
443.5188577243193
 21
198.9999999303275
 31
0.0
  0
LINE
  5
1BE7
330
18
100
AcDbEntity
  8
BASE
100
AcDbLine
 10
443.5188577243193
 20
184.9999999303265
 30
0.0
 11
443.5188577243193
 21
198.9999999303275
 31
0.0
  0
LINE
  5
1BE9
330
18
100
AcDbEntity
  8
ASSI
100
AcDbLine
 10
384.0188577243194
 20
220.1083807928619
 30
0.0
 11
384.0188577243194
 21
166.7403287325931
 31
0.0
  0
LINE
  5
1BEA
330
18
100
AcDbEntity
  8
ASSI
100
AcDbLine
 10
223.0188577243193
 20
219.3386473926487
 30
0.0
 11
223.0188577243193
 21
166.0759781966269
 31
0.0
  0
LINE
  5
1BEB
330
18
100
AcDbEntity
  8
BASE
100
AcDbLine
 10
163.5188577243193
 20
184.9999999303275
 30
0.0
 11
163.5188577243193
 21
198.9999999303275
 31
0.0
  0
LINE
  5
1BEE
330
18
100
AcDbEntity
  8
BASE
  6
Continuous
100
AcDbLine
 10
163.5188577243193
 20
184.9999999303275
 30
0.0
 11
243.6261177243191
 21
184.9999999303261
 31
0.0
  0
LINE
  5
1BF8
330
18
100
AcDbEntity
  8
0
100
AcDbLine
 10
363.6180543539022
 20
184.9999999303265
 30
0.0
 11
243.615779538452
 21
184.9999999303265
 31
0.0
  0
LINE
  5
1BF9
330
18
100
AcDbEntity
  8
COMPONENTI
100
AcDbLine
 10
379.1257677243193
 20
145.0000000000002
 30
0.0
 11
379.1257677243193
 21
125.0000000000003
 31
0.0
  0
LINE
  5
1BFA
330
18
100
AcDbEntity
  8
DISEGNO
100
AcDbLine
 10
401.5198577243195
 20
111.0000000000003
 30
0.0
 11
401.5198577243195
 21
184.9999999303265
 31
0.0
  0
LINE
  5
1BFE
330
18
100
AcDbEntity
  8
BASE
100
AcDbLine
 10
372.6186577243193
 20
111.0000000000003
 30
0.0
 11
391.5198577243195
 21
111.0000000000003
 31
0.0
  0
LINE
  5
1BFF
330
18
100
AcDbEntity
  8
BASE
100
AcDbLine
 10
401.5198577243195
 20
111.0000000000003
 30
0.0
 11
365.519157724319
 21
111.0000000000003
 31
0.0
  0
LINE
  5
1C00
330
18
100
AcDbEntity
  8
BASE
100
AcDbLine
 10
401.5198577243195
 20
114.0000000000003
 30
0.0
 11
365.519157724319
 21
114.0000000000003
 31
0.0
  0
LINE
  5
1C01
330
18
100
AcDbEntity
  8
BASE
100
AcDbLine
 10
365.519157724319
 20
125.0000000000003
 30
0.0
 11
365.519157724319
 21
111.0000000000003
 31
0.0
  0
LINE
  5
1C02
330
18
100
AcDbEntity
  8
COMPONENTI
100
AcDbLine
 10
379.1257677243193
 20
125.0000000000003
 30
0.0
 11
364.8057677243196
 21
125.0000000000003
 31
0.0
  0
LINE
  5
1C03
330
18
100
AcDbEntity
  8
COMPONENTI
100
AcDbLine
 10
363.6257677243193
 20
126.1800000000005
 30
0.0
 11
364.8057677243196
 21
125.0000000000003
 31
0.0
  0
LINE
  5
1C05
330
18
100
AcDbEntity
  8
BASE
100
AcDbLine
 10
365.519157724319
 20
184.9999999303265
 30
0.0
 11
365.519157724319
 21
145.0000000000002
 31
0.0
  0
LINE
  5
1C06
330
18
100
AcDbEntity
  8
COMPONENTI
100
AcDbLine
 10
379.1257677243193
 20
145.0000000000002
 30
0.0
 11
364.8057677243196
 21
145.0000000000002
 31
0.0
  0
LINE
  5
1C07
330
18
100
AcDbEntity
  8
COMPONENTI
100
AcDbLine
 10
363.6257677243193
 20
143.8200000000008
 30
0.0
 11
364.8057677243196
 21
145.0000000000002
 31
0.0
  0
LINE
  5
1C08
330
18
100
AcDbEntity
  8
COMPONENTI
100
AcDbLine
 10
228.1274677243191
 20
145.0000000000002
 30
0.0
 11
228.1274677243191
 21
125.0000000000003
 31
0.0
  0
LINE
  5
1C0C
330
18
100
AcDbEntity
  8
DISEGNO
100
AcDbLine
 10
205.5178577243187
 20
111.0000000000003
 30
0.0
 11
205.5178577243187
 21
184.9999999303265
 31
0.0
  0
LINE
  5
1C0D
330
18
100
AcDbEntity
  8
COMPONENTI
100
AcDbLine
 10
228.1274677243191
 20
125.0000000000003
 30
0.0
 11
242.4474677243188
 21
125.0000000000003
 31
0.0
  0
LINE
  5
1C0E
330
18
100
AcDbEntity
  8
BASE
100
AcDbLine
 10
205.5178577243187
 20
114.0000000000003
 30
0.0
 11
241.5185577243192
 21
114.0000000000003
 31
0.0
  0
LINE
  5
1C0F
330
18
100
AcDbEntity
  8
BASE
100
AcDbLine
 10
205.5178577243187
 20
111.0000000000003
 30
0.0
 11
241.5185577243192
 21
111.0000000000003
 31
0.0
  0
LINE
  5
1C11
330
18
100
AcDbEntity
  8
BASE
100
AcDbLine
 10
241.5185577243192
 20
125.0000000000003
 30
0.0
 11
241.5185577243192
 21
111.0000000000003
 31
0.0
  0
LINE
  5
1C12
330
18
100
AcDbEntity
  8
COMPONENTI
100
AcDbLine
 10
243.6274677243191
 20
126.1800000000005
 30
0.0
 11
242.4474677243188
 21
125.0000000000003
 31
0.0
  0
LINE
  5
1C13
330
18
100
AcDbEntity
  8
BASE
100
AcDbLine
 10
234.4190577243189
 20
111.0000000000003
 30
0.0
 11
215.5178577243187
 21
111.0000000000003
 31
0.0
  0
LINE
  5
1C14
330
18
100
AcDbEntity
  8
COMPONENTI
100
AcDbLine
 10
228.1274677243191
 20
145.0000000000002
 30
0.0
 11
242.4474677243188
 21
145.0000000000002
 31
0.0
  0
LINE
  5
1C15
330
18
100
AcDbEntity
  8
BASE
100
AcDbLine
 10
241.5185577243192
 20
184.9999999303265
 30
0.0
 11
241.5185577243192
 21
145.0000000000002
 31
0.0
  0
LINE
  5
1C16
330
18
100
AcDbEntity
  8
COMPONENTI
100
AcDbLine
 10
243.6274677243191
 20
143.8200000000008
 30
0.0
 11
242.4474677243188
 21
145.0000000000002
 31
0.0
  0
LINE
  5
1C17
330
18
100
AcDbEntity
  8
BASE
100
AcDbLine
 10
163.5188577243193
 20
198.9999999303275
 30
0.0
 11
243.6261177243191
 21
198.9999999303275
 31
0.0
  0
LINE
  5
1C18
330
18
100
AcDbEntity
  8
TRATTEGGI
100
AcDbLine
 10
255.4115977243207
 20
278.9999999303275
 30
0.0
 11
303.5188577243193
 21
278.9999999303275
 31
0.0
  0
LINE
  5
1C19
330
18
100
AcDbEntity
  8
TRATTEGGI
100
AcDbLine
 10
255.4115977243184
 20
246.9999999303277
 30
0.0
 11
303.5188577243193
 21
246.9999999303277
 31
0.0
  0
LINE
  5
1C1A
330
18
100
AcDbEntity
  8
AX
100
AcDbLine
 10
246.4258346505908
 20
262.9999999303275
 30
0.0
 11
362.8514616494417
 21
262.9999999303275
 31
0.0
  0
LINE
  5
1C1C
330
18
100
AcDbEntity
  8
BASE
100
AcDbLine
 10
249.4115977243214
 20
318.9999999303277
 30
0.0
 11
357.4115977243187
 21
318.9999999303277
 31
0.0
  0
LINE
  5
1C1D
330
18
100
AcDbEntity
  8
BASE
  6
DASHED
 62
     8
100
AcDbLine
 10
351.4115977243187
 20
297.9999999303277
 30
0.0
 11
351.4115977243187
 21
227.9999999303275
 31
0.0
  0
LINE
  5
1C1E
330
18
100
AcDbEntity
  8
BASE
100
AcDbLine
 10
348.6115977243203
 20
318.9999999303277
 30
0.0
 11
348.6115977243203
 21
223.9999999303247
 31
0.0
  0
LINE
  5
1C1F
330
18
100
AcDbEntity
  8
BASE
100
AcDbLine
 10
357.4115977243187
 20
210.9999999303275
 30
0.0
 11
357.4115977243187
 21
318.9999999303277
 31
0.0
  0
LINE
  5
1C20
330
18
100
AcDbEntity
  8
BASE
100
AcDbLine
 10
338.6115977243194
 20
199.4999999303274
 30
0.0
 11
338.6115977243175
 21
318.9999999303277
 31
0.0
  0
ARC
  5
1C21
330
18
100
AcDbEntity
  8
BASE
100
AcDbCircle
 10
363.611597724323
 20
223.9999999303275
 30
0.0
 40
15.00000000000006
100
AcDbArc
 50
180.0000000000117
 51
269.9999999999891
  0
LINE
  5
1C28
330
18
100
AcDbEntity
  8
BASE
100
AcDbLine
 10
379.8105977243199
 20
208.9999999303275
 30
0.0
 11
396.6115977243203
 21
208.9999999303275
 31
0.0
  0
LINE
  5
1C31
330
18
100
AcDbEntity
  8
BASE
100
AcDbLine
 10
398.6115977243203
 20
206.9999999303275
 30
0.0
 11
398.6115977243203
 21
198.9999999303275
 31
0.0
  0
ARC
  5
1C32
330
18
100
AcDbEntity
  8
BASE
100
AcDbCircle
 10
396.6115977243203
 20
206.9999999303275
 30
0.0
 40
2.0
100
AcDbArc
 50
0.000000000000007
 51
90.0
  0
LINE
  5
1C35
330
18
100
AcDbEntity
  8
BASE
100
AcDbLine
 10
363.6115977243203
 20
208.9999999303275
 30
0.0
 11
377.4125977243198
 21
208.9999999303275
 31
0.0
  0
LINE
  5
1C36
330
18
100
AcDbEntity
  8
BASE
100
AcDbLine
 10
388.2115977243198
 20
199.4999999303274
 30
0.0
 11
241.8544044060668
 21
199.4999999303274
 31
0.0
  0
ARC
  5
1C37
330
18
100
AcDbEntity
  8
BASE
100
AcDbCircle
 10
388.2115977243179
 20
199.099999930326
 30
0.0
 40
0.4000000000017394
100
AcDbArc
 50
0.0000000002605581
 51
89.99999999976386
  0
LINE
  5
1C38
330
18
100
AcDbEntity
  8
BASE
100
AcDbLine
 10
379.6105977243201
 20
208.7999999303276
 30
0.0
 11
379.8105977243199
 21
208.9999999303275
 31
0.0
  0
LINE
  5
1C39
330
18
100
AcDbEntity
  8
BASE
100
AcDbLine
 10
377.4125977243198
 20
208.9999999303275
 30
0.0
 11
377.6125977243196
 21
208.7999999303276
 31
0.0
  0
LINE
  5
1C3A
330
18
100
AcDbEntity
  8
BASE
100
AcDbLine
 10
377.6125977243196
 20
208.7999999303276
 30
0.0
 11
379.6105977243201
 21
208.7999999303276
 31
0.0
  0
LINE
  5
1C3C
330
18
100
AcDbEntity
  8
BASE
  6
DASHED
 62
     8
100
AcDbLine
 10
351.4115977243187
 20
227.9999999303275
 30
0.0
 11
357.4115977243187
 21
227.9999999303275
 31
0.0
  0
LINE
  5
1C3D
330
18
100
AcDbEntity
  8
TRATTEGGI
100
AcDbLine
 10
351.4115977243187
 20
250.4999999303275
 30
0.0
 11
303.5188577243191
 21
250.4999999303275
 31
0.0
  0
LINE
  5
1C3E
330
18
100
AcDbEntity
  8
TRATTEGGI
100
AcDbLine
 10
351.4115977243187
 20
275.4999999303277
 30
0.0
 11
303.5188577243193
 21
275.4999999303277
 31
0.0
  0
LINE
  5
1C3F
330
18
100
AcDbEntity
  8
BASE
  6
DASHED
 62
     8
100
AcDbLine
 10
351.4115977243187
 20
297.9999999303277
 30
0.0
 11
357.4115977243187
 21
297.9999999303277
 31
0.0
  0
ARC
  5
1C40
330
18
100
AcDbEntity
  8
BASE
100
AcDbCircle
 10
346.6115977243203
 20
316.9999999303277
 30
0.0
 40
2.0
100
AcDbArc
 50
0.000000000000007
 51
90.0
  0
LINE
  5
1C41
330
18
100
AcDbEntity
  8
BASE
  6
DASHED
 62
     8
100
AcDbLine
 10
255.4115977243223
 20
297.9999999303277
 30
0.0
 11
255.4115977243168
 21
227.9999999303275
 31
0.0
  0
LINE
  5
1C42
330
18
100
AcDbEntity
  8
BASE
100
AcDbLine
 10
258.2115977243225
 20
318.9999999303277
 30
0.0
 11
258.2115977242879
 21
223.999999930322
 31
0.0
  0
LINE
  5
1C43
330
18
100
AcDbEntity
  8
BASE
100
AcDbLine
 10
268.2115977243197
 20
199.4999999303274
 30
0.0
 11
268.2115977243225
 21
318.9999999303277
 31
0.0
  0
LINE
  5
1C44
330
18
100
AcDbEntity
  8
BASE
100
AcDbLine
 10
249.4115977243223
 20
210.9999999303275
 30
0.0
 11
249.4115977243223
 21
318.9999999303277
 31
0.0
  0
LINE
  5
1C45
330
18
100
AcDbEntity
  8
BASE
100
AcDbLine
 10
218.6115977243203
 20
199.4999999303274
 30
0.0
 11
243.6261177243186
 21
199.4999999303274
 31
0.0
  0
LINE
  5
1C46
330
18
100
AcDbEntity
  8
BASE
100
AcDbLine
 10
243.2115977243197
 20
208.9999999303275
 30
0.0
 11
229.4105977243203
 21
208.9999999303275
 31
0.0
  0
ARC
  5
1C47
330
18
100
AcDbEntity
  8
BASE
100
AcDbCircle
 10
243.2115977243197
 20
223.9999999303275
 30
0.0
 40
15.00000000000001
100
AcDbArc
 50
269.9999999999995
 51
359.9999999999791
  0
LINE
  5
1C48
330
18
100
AcDbEntity
  8
BASE
  6
DASHED
 62
     8
100
AcDbLine
 10
255.4115977243223
 20
227.9999999303275
 30
0.0
 11
249.4115977243223
 21
227.9999999303275
 31
0.0
  0
ARC
  5
1C49
330
18
100
AcDbEntity
  8
BASE
100
AcDbCircle
 10
210.2115977243197
 20
206.9999999303275
 30
0.0
 40
2.0
100
AcDbArc
 50
90.0
 51
180.0
  0
LINE
  5
1C54
330
18
100
AcDbEntity
  8
BASE
100
AcDbLine
 10
227.0125977243201
 20
208.9999999303275
 30
0.0
 11
210.2115977243197
 21
208.9999999303275
 31
0.0
  0
LINE
  5
1C5B
330
18
100
AcDbEntity
  8
BASE
100
AcDbLine
 10
229.2105977243195
 20
208.7999999303276
 30
0.0
 11
227.21259772432
 21
208.7999999303276
 31
0.0
  0
LINE
  5
1C5C
330
18
100
AcDbEntity
  8
BASE
100
AcDbLine
 10
227.21259772432
 20
208.7999999303276
 30
0.0
 11
227.0125977243201
 21
208.9999999303275
 31
0.0
  0
LINE
  5
1C5D
330
18
100
AcDbEntity
  8
BASE
100
AcDbLine
 10
229.4105977243203
 20
208.9999999303275
 30
0.0
 11
229.2105977243195
 21
208.7999999303276
 31
0.0
  0
ARC
  5
1C5E
330
18
100
AcDbEntity
  8
BASE
100
AcDbCircle
 10
218.6115977243212
 20
199.099999930326
 30
0.0
 40
0.4000000000017394
100
AcDbArc
 50
90.00000000023614
 51
179.9999999997394
  0
LINE
  5
1C5F
330
18
100
AcDbEntity
  8
BASE
100
AcDbLine
 10
208.2115977243197
 20
206.9999999303275
 30
0.0
 11
208.2115977243197
 21
198.9999999303275
 31
0.0
  0
LINE
  5
1C61
330
18
100
AcDbEntity
  8
BASE
  6
DASHED
 62
     8
100
AcDbLine
 10
255.4115977243223
 20
297.9999999303277
 30
0.0
 11
249.4115977243223
 21
297.9999999303277
 31
0.0
  0
ARC
  5
1C62
330
18
100
AcDbEntity
  8
BASE
100
AcDbCircle
 10
260.2115977243197
 20
316.9999999303277
 30
0.0
 40
2.0
100
AcDbArc
 50
90.0
 51
180.0
  0
LINE
  5
1C63
330
18
100
AcDbEntity
  8
BASE
100
AcDbLine
 10
268.4115977243205
 20
318.9999999303277
 30
0.0
 11
260.2115977243197
 21
318.9999999303277
 31
0.0
  0
LINE
  5
240C
330
18
100
AcDbEntity
  8
ASSI
100
AcDbLine
 10
237.7520475339802
 20
35.00000000000091
 30
0.0
 11
357.6266177243192
 21
35.00000000000091
 31
0.0
  0
LINE
  5
240E
330
18
100
AcDbEntity
  8
DISEGNO
100
AcDbLine
 10
283.3526177243189
 20
142.6700000000001
 30
0.0
 11
283.6506177243186
 21
143.3400000000001
 31
0.0
  0
ARC
  5
240F
330
18
100
AcDbEntity
  8
DISEGNO
100
AcDbCircle
 10
283.3766177243192
 20
143.46
 30
0.0
 40
0.3
100
AcDbArc
 50
335.9999999999964
 51
60.67629999999894
  0
ARC
  5
2410
330
18
100
AcDbEntity
  8
DISEGNO
100
AcDbCircle
 10
278.6266177243192
 20
135.0
 30
0.0
 40
8.75
100
AcDbArc
 50
301.5410000000004
 51
326.4590000000039
  0
ARC
  5
2411
330
18
100
AcDbEntity
  8
DISEGNO
100
AcDbCircle
 10
278.6266177243192
 20
135.0
 30
0.0
 40
8.75
100
AcDbArc
 50
30.54059999999979
 51
56.4594000000015
  0
LINE
  5
2412
330
18
100
AcDbEntity
  8
DISEGNO
100
AcDbLine
 10
283.3526177243189
 20
27.33500000000004
 30
0.0
 11
283.6506177243186
 21
26.66499999999996
 31
0.0
  0
ARC
  5
2413
330
18
100
AcDbEntity
  8
DISEGNO
100
AcDbCircle
 10
283.3766177243192
 20
26.54300000000058
 30
0.0
 40
0.3
100
AcDbArc
 50
299.3240000000017
 51
24.00000000000358
  0
ARC
  5
2414
330
18
100
AcDbEntity
  8
DISEGNO
100
AcDbCircle
 10
278.6266177243192
 20
35.0
 30
0.0
 40
8.75
100
AcDbArc
 50
303.5410000000006
 51
329.4590000000031
  0
ARC
  5
2415
330
18
100
AcDbEntity
  8
DISEGNO
100
AcDbCircle
 10
278.6266177243192
 20
35.0
 30
0.0
 40
8.75
100
AcDbArc
 50
33.54060000000302
 51
58.45950000000094
  0
LINE
  5
2416
330
18
100
AcDbEntity
  8
DISEGNO
100
AcDbLine
 10
271.5266177243188
 20
48.0
 30
0.0
 11
335.7266177243196
 21
48.0
 31
0.0
  0
LINE
  5
2417
330
18
100
AcDbEntity
  8
DISEGNO
100
AcDbLine
 10
271.5266177243188
 20
122.0
 30
0.0
 11
335.7266177243196
 21
122.0
 31
0.0
  0
ARC
  5
2418
330
18
100
AcDbEntity
  8
DISEGNO
100
AcDbCircle
 10
278.6266177243192
 20
6.217000000000552
 30
0.0
 40
15.0
100
AcDbArc
 50
47.26780000000274
 51
132.7319999999969
  0
ARC
  5
2419
330
18
100
AcDbEntity
  8
DISEGNO
100
AcDbCircle
 10
278.6266177243192
 20
163.7799999999997
 30
0.0
 40
15.0
100
AcDbArc
 50
227.268000000003
 51
312.7319999999969
  0
LINE
  5
241C
330
18
100
AcDbEntity
  8
DISEGNO
100
AcDbLine
 10
282.1261177243191
 20
170.0000000000002
 30
0.0
 11
325.1271177243193
 21
170.0
 31
0.0
  0
LINE
  5
241D
330
18
100
AcDbEntity
  8
DISEGNO
100
AcDbLine
 10
269.8771177243193
 20
180.2000000000002
 30
0.0
 11
337.3771177243193
 21
180.1999999999998
 31
0.0
  0
LINE
  5
242F
330
18
100
AcDbEntity
  8
DISEGNO
100
AcDbLine
 10
243.7343777243191
 20
183.0000000000004
 30
0.0
 11
363.7353777243193
 21
183.0
 31
0.0
  0
LINE
  5
2460
330
18
100
AcDbEntity
  8
ASSI
100
AcDbLine
 10
278.6266177243192
 20
-5.376123523305068
 30
0.0
 11
278.6266177243192
 21
171.5017285991553
 31
0.0
  0
LINE
  5
2461
330
18
100
AcDbEntity
  8
DISEGNO
100
AcDbLine
 10
283.0826177243194
 20
42.82600000000002
 30
0.0
 11
283.3566177243188
 21
43.50600000000031
 31
0.0
  0
ARC
  5
2462
330
18
100
AcDbEntity
  8
DISEGNO
100
AcDbCircle
 10
249.8426177243195
 20
35.0
 30
0.0
 40
15.0
100
AcDbArc
 50
317.2680000000028
 51
42.73219999999724
  0
LINE
  5
2463
330
18
100
AcDbEntity
  8
DISEGNO
100
AcDbLine
 10
249.6266177243192
 20
45.49999999999999
 30
0.0
 11
249.6266177243192
 21
41.25
 31
0.0
  0
LINE
  5
2464
330
18
100
AcDbEntity
  8
DISEGNO
100
AcDbLine
 10
274.0346177243186
 20
42.7470000000003
 30
0.0
 11
273.7476177243184
 21
43.42200000000048
 31
0.0
  0
LINE
  5
2465
330
18
100
AcDbEntity
  8
DISEGNO
100
AcDbLine
 10
243.6257762609043
 20
41.25
 30
0.0
 11
243.6266177243192
 21
128.75
 31
0.0
  0
LINE
  5
246A
330
18
100
AcDbEntity
  8
DISEGNO
100
AcDbLine
 10
244.6266177243192
 20
0.0
 30
0.0
 11
272.3766177243192
 21
0.0
 31
0.0
  0
ARC
  5
246B
330
18
100
AcDbEntity
  8
DISEGNO
100
AcDbCircle
 10
255.8766177243192
 20
12.25
 30
0.0
 40
7.0
100
AcDbArc
 50
246.8630000000021
 51
293.1369999999979
  0
ARC
  5
246C
330
18
100
AcDbEntity
  8
DISEGNO
100
AcDbCircle
 10
255.8766177243192
 20
12.25
 30
0.0
 40
7.0
100
AcDbArc
 50
67.02499999999732
 51
113.1369999999979
  0
LINE
  5
246D
330
18
100
AcDbEntity
  8
DISEGNO
100
AcDbLine
 10
260.1266177243192
 20
24.5
 30
0.0
 11
249.6266177243192
 21
24.5
 31
0.0
  0
LINE
  5
246E
330
18
100
AcDbEntity
  8
DISEGNO
100
AcDbLine
 10
243.6266177243192
 20
1.0
 30
0.0
 11
243.6260375849463
 21
28.75
 31
0.0
  0
ARC
  5
246F
330
18
100
AcDbEntity
  8
DISEGNO
100
AcDbCircle
 10
248.5196177243192
 20
9.10699999999997
 30
0.0
 40
1.0
100
AcDbArc
 50
321.768000000002
 51
23.13720000000193
  0
ARC
  5
2470
330
18
100
AcDbEntity
  8
DISEGNO
100
AcDbCircle
 10
244.6266177243192
 20
1.0
 30
0.0
 40
1.0
100
AcDbArc
 50
180.0
 51
270.0
  0
ARC
  5
2471
330
18
100
AcDbEntity
  8
DISEGNO
100
AcDbCircle
 10
250.8766177243192
 20
7.25
 30
0.0
 40
2.0
100
AcDbArc
 50
141.768000000002
 51
308.2320000000005
  0
ARC
  5
2472
330
18
100
AcDbEntity
  8
DISEGNO
100
AcDbCircle
 10
252.732617724319
 20
4.894000000000232
 30
0.0
 40
1.0
100
AcDbArc
 50
66.86300000000212
 51
128.2320000000005
  0
LINE
  5
2473
330
18
100
AcDbEntity
  8
DISEGNO
100
AcDbLine
 10
243.6257762609043
 20
41.25
 30
0.0
 11
249.6266177243192
 21
41.25
 31
0.0
  0
LINE
  5
2474
330
18
100
AcDbEntity
  8
DISEGNO
100
AcDbLine
 10
243.6260375849461
 20
28.75
 30
0.0
 11
249.6266177243192
 21
28.75
 31
0.0
  0
ARC
  5
2475
330
18
100
AcDbEntity
  8
DISEGNO
100
AcDbCircle
 10
255.8766177243192
 20
12.25
 30
0.0
 40
7.0
100
AcDbArc
 50
156.8630000000008
 51
203.1369999999992
  0
LINE
  5
2476
330
18
100
AcDbEntity
  8
DISEGNO
100
AcDbLine
 10
249.6266177243192
 20
28.75
 30
0.0
 11
249.6266177243192
 21
24.5
 31
0.0
  0
ARC
  5
2477
330
18
100
AcDbEntity
  8
DISEGNO
100
AcDbCircle
 10
248.5196177243192
 20
15.39400000000023
 30
0.0
 40
1.0
100
AcDbArc
 50
336.8630000000008
 51
38.23219999999799
  0
ARC
  5
2478
330
18
100
AcDbEntity
  8
DISEGNO
100
AcDbCircle
 10
250.8766177243192
 20
17.25
 30
0.0
 40
2.0
100
AcDbArc
 50
51.76799999999945
 51
218.231999999998
  0
ARC
  5
2479
330
18
100
AcDbEntity
  8
DISEGNO
100
AcDbCircle
 10
252.732617724319
 20
19.60699999999997
 30
0.0
 40
1.0
100
AcDbArc
 50
231.7679999999995
 51
293.1369999999979
  0
ARC
  5
247A
330
18
100
AcDbEntity
  8
DISEGNO
100
AcDbCircle
 10
283.6266177243192
 20
27.45700000000034
 30
0.0
 40
0.3
100
AcDbArc
 50
123.5410000000006
 51
204.0000000000036
  0
ARC
  5
247B
330
18
100
AcDbEntity
  8
DISEGNO
100
AcDbCircle
 10
281.732617724319
 20
25.81100000000061
 30
0.0
 40
0.3
100
AcDbArc
 50
204.0000000000036
 51
288.6759999999995
  0
LINE
  5
247C
330
18
100
AcDbEntity
  8
DISEGNO
100
AcDbLine
 10
281.1596177243187
 20
26.35900000000038
 30
0.0
 11
281.4586177243196
 21
25.68900000000031
 31
0.0
  0
ARC
  5
247D
330
18
100
AcDbEntity
  8
DISEGNO
100
AcDbCircle
 10
280.8856177243192
 20
26.23700000000008
 30
0.0
 40
0.3
100
AcDbArc
 50
24.00000000000358
 51
104.4589999999982
  0
ARC
  5
247E
330
18
100
AcDbEntity
  8
DISEGNO
100
AcDbCircle
 10
276.8286177243185
 20
26.13100000000031
 30
0.0
 40
0.3
100
AcDbArc
 50
78.54059999999766
 51
159.0000000000024
  0
LINE
  5
247F
330
18
100
AcDbEntity
  8
DISEGNO
100
AcDbLine
 10
276.2856177243189
 20
25.55400000000009
 30
0.0
 11
276.5486177243197
 21
26.23800000000028
 31
0.0
  0
ARC
  5
2480
330
18
100
AcDbEntity
  8
DISEGNO
100
AcDbCircle
 10
276.0056177243191
 20
25.66100000000006
 30
0.0
 40
0.3
100
AcDbArc
 50
254.3239999999993
 51
339.0000000000024
  0
ARC
  5
2481
330
18
100
AcDbEntity
  8
DISEGNO
100
AcDbCircle
 10
278.6266177243192
 20
35.0
 30
0.0
 40
8.75
100
AcDbArc
 50
258.5410000000004
 51
284.4589999999982
  0
ARC
  5
2482
330
18
100
AcDbEntity
  8
DISEGNO
100
AcDbCircle
 10
278.6266177243192
 20
35.0
 30
0.0
 40
10.0
100
AcDbArc
 50
288.6759999999995
 51
299.3240000000017
  0
ARC
  5
2483
330
18
100
AcDbEntity
  8
DISEGNO
100
AcDbCircle
 10
283.3606177243196
 20
42.71300000000064
 30
0.0
 40
0.3
100
AcDbArc
 50
158.0000000000053
 51
238.4589999999996
  0
LINE
  5
2484
330
18
100
AcDbEntity
  8
DISEGNO
100
AcDbLine
 10
268.1266177243192
 20
16.5
 30
0.0
 11
268.1266177243192
 21
6.0
 31
0.0
  0
ARC
  5
2485
330
18
100
AcDbEntity
  8
DISEGNO
100
AcDbCircle
 10
263.232617724319
 20
9.10699999999997
 30
0.0
 40
1.0
100
AcDbArc
 50
156.8630000000008
 51
218.231999999998
  0
LINE
  5
2486
330
18
100
AcDbEntity
  8
DISEGNO
100
AcDbLine
 10
268.1266177243192
 20
6.0
 30
0.0
 11
272.3766177243192
 21
6.0
 31
0.0
  0
ARC
  5
2487
330
18
100
AcDbEntity
  8
DISEGNO
100
AcDbCircle
 10
259.0196177243192
 20
4.894000000000232
 30
0.0
 40
1.0
100
AcDbArc
 50
51.76799999999945
 51
113.1369999999979
  0
ARC
  5
2488
330
18
100
AcDbEntity
  8
DISEGNO
100
AcDbCircle
 10
260.8766177243192
 20
7.25
 30
0.0
 40
2.0
100
AcDbArc
 50
231.7679999999995
 51
38.23219999999799
  0
LINE
  5
2489
330
18
100
AcDbEntity
  8
DISEGNO
100
AcDbLine
 10
272.3766177243192
 20
0.0
 30
0.0
 11
272.3766177243192
 21
6.0
 31
0.0
  0
ARC
  5
248A
330
18
100
AcDbEntity
  8
DISEGNO
100
AcDbCircle
 10
278.6266177243192
 20
35.0
 30
0.0
 40
10.0
100
AcDbArc
 50
152.6759999999959
 51
163.3240000000022
  0
ARC
  5
248B
330
18
100
AcDbEntity
  8
DISEGNO
100
AcDbCircle
 10
269.1266177243192
 20
16.5
 30
0.0
 40
1.0
100
AcDbArc
 50
132.7319999999969
 51
180.0
  0
ARC
  5
248C
330
18
100
AcDbEntity
  8
DISEGNO
100
AcDbCircle
 10
267.4896177243186
 20
23.86300000000028
 30
0.0
 40
2.0
100
AcDbArc
 50
315.0000000000023
 51
135.0000000000023
  0
LINE
  5
248D
330
18
100
AcDbEntity
  8
DISEGNO
100
AcDbLine
 10
262.5346177243187
 20
16.07999999999992
 30
0.0
 11
268.9036177243192
 21
22.44900000000052
 31
0.0
  0
ARC
  5
248E
330
18
100
AcDbEntity
  8
DISEGNO
100
AcDbCircle
 10
255.8766177243192
 20
12.25
 30
0.0
 40
7.0
100
AcDbArc
 50
336.8630000000008
 51
22.97629999999779
  0
ARC
  5
248F
330
18
100
AcDbEntity
  8
DISEGNO
100
AcDbCircle
 10
260.1266177243192
 20
25.5
 30
0.0
 40
1.0
100
AcDbArc
 50
270.0
 51
317.2680000000028
  0
ARC
  5
2490
330
18
100
AcDbEntity
  8
DISEGNO
100
AcDbCircle
 10
258.9986177243186
 20
19.61599999999998
 30
0.0
 40
1.0
100
AcDbArc
 50
247.0249999999973
 51
315.0000000000023
  0
ARC
  5
2491
330
18
100
AcDbEntity
  8
DISEGNO
100
AcDbCircle
 10
263.241617724319
 20
15.3730000000005
 30
0.0
 40
1.0
100
AcDbArc
 50
135.0000000000023
 51
202.9760000000058
  0
LINE
  5
2492
330
18
100
AcDbEntity
  8
DISEGNO
100
AcDbLine
 10
259.7056177243189
 20
18.90900000000056
 30
0.0
 11
266.0746177243195
 21
25.27800000000025
 31
0.0
  0
ARC
  5
2493
330
18
100
AcDbEntity
  8
DISEGNO
100
AcDbCircle
 10
274.3246177243195
 20
26.3060000000005
 30
0.0
 40
0.3
100
AcDbArc
 50
159.0000000000024
 51
243.6760000000027
  0
LINE
  5
2494
330
18
100
AcDbEntity
  8
DISEGNO
100
AcDbLine
 10
274.0446177243189
 20
26.41399999999976
 30
0.0
 11
274.3076177243197
 21
27.09799999999996
 31
0.0
  0
ARC
  5
2495
330
18
100
AcDbEntity
  8
DISEGNO
100
AcDbCircle
 10
274.027617724319
 20
27.20600000000013
 30
0.0
 40
0.3
100
AcDbArc
 50
339.0000000000024
 51
59.45950000000187
  0
ARC
  5
2496
330
18
100
AcDbEntity
  8
DISEGNO
100
AcDbCircle
 10
269.7896177243197
 20
36.95300000000043
 30
0.0
 40
0.3
100
AcDbArc
 50
347.5409999999977
 51
67.99999999999807
  0
LINE
  5
2497
330
18
100
AcDbEntity
  8
DISEGNO
100
AcDbLine
 10
270.2046177243187
 20
30.1220000000003
 30
0.0
 11
270.8796177243189
 21
30.40800000000036
 31
0.0
  0
ARC
  5
2498
330
18
100
AcDbEntity
  8
DISEGNO
100
AcDbCircle
 10
270.0876177243185
 20
30.39800000000014
 30
0.0
 40
0.3
100
AcDbArc
 50
208.3240000000049
 51
293.0000000000005
  0
ARC
  5
2499
330
18
100
AcDbEntity
  8
DISEGNO
100
AcDbCircle
 10
278.6266177243192
 20
35.0
 30
0.0
 40
10.0
100
AcDbArc
 50
197.6760000000028
 51
208.3240000000049
  0
ARC
  5
249A
330
18
100
AcDbEntity
  8
DISEGNO
100
AcDbCircle
 10
269.384617724319
 20
32.05500000000029
 30
0.0
 40
0.3
100
AcDbArc
 50
113.0000000000005
 51
197.6760000000028
  0
LINE
  5
249B
330
18
100
AcDbEntity
  8
DISEGNO
100
AcDbLine
 10
269.2666177243186
 20
32.33100000000013
 30
0.0
 11
269.9416177243197
 21
32.6180000000004
 31
0.0
  0
ARC
  5
249C
330
18
100
AcDbEntity
  8
DISEGNO
100
AcDbCircle
 10
269.8246177243195
 20
32.89400000000024
 30
0.0
 40
0.3
100
AcDbArc
 50
293.0000000000005
 51
13.45950000000371
  0
ARC
  5
249D
330
18
100
AcDbEntity
  8
DISEGNO
100
AcDbCircle
 10
278.6266177243192
 20
35.0
 30
0.0
 40
8.75
100
AcDbArc
 50
167.5409999999977
 51
193.4590000000054
  0
ARC
  5
249E
330
18
100
AcDbEntity
  8
DISEGNO
100
AcDbCircle
 10
270.9966177243191
 20
30.13200000000052
 30
0.0
 40
0.3
100
AcDbArc
 50
32.54059999999904
 51
113.0000000000005
  0
LINE
  5
249F
330
18
100
AcDbEntity
  8
DISEGNO
100
AcDbLine
 10
269.9016177243188
 20
37.23100000000068
 30
0.0
 11
269.2216177243186
 21
37.50600000000031
 31
0.0
  0
ARC
  5
24A0
330
18
100
AcDbEntity
  8
DISEGNO
100
AcDbCircle
 10
269.3346177243197
 20
37.78400000000056
 30
0.0
 40
0.3
100
AcDbArc
 50
163.3240000000022
 51
247.9999999999981
  0
ARC
  5
24A1
330
18
100
AcDbEntity
  8
DISEGNO
100
AcDbCircle
 10
278.6266177243192
 20
35.0
 30
0.0
 40
8.75
100
AcDbArc
 50
212.5409999999988
 51
239.4589999999976
  0
ARC
  5
24A2
330
18
100
AcDbEntity
  8
DISEGNO
100
AcDbCircle
 10
270.0086177243188
 20
39.45300000000043
 30
0.0
 40
0.3
100
AcDbArc
 50
67.99999999999807
 51
152.6759999999959
  0
LINE
  5
24A3
330
18
100
AcDbEntity
  8
DISEGNO
100
AcDbLine
 10
270.8006177243183
 20
39.45600000000013
 30
0.0
 11
270.1206177243189
 21
39.73100000000068
 31
0.0
  0
ARC
  5
24A4
330
18
100
AcDbEntity
  8
DISEGNO
100
AcDbCircle
 10
278.6266177243192
 20
35.0
 30
0.0
 40
8.75
100
AcDbArc
 50
122.5409999999971
 51
148.4589999999968
  0
ARC
  5
24A5
330
18
100
AcDbEntity
  8
DISEGNO
100
AcDbCircle
 10
270.9136177243195
 20
39.73400000000038
 30
0.0
 40
0.3
100
AcDbArc
 50
247.9999999999981
 51
328.4589999999968
  0
ARC
  5
24A6
330
18
100
AcDbEntity
  8
DISEGNO
100
AcDbCircle
 10
273.7586177243188
 20
42.63000000000011
 30
0.0
 40
0.3
100
AcDbArc
 50
302.5409999999971
 51
22.99999999999926
  0
ARC
  5
24A7
330
18
100
AcDbEntity
  8
DISEGNO
100
AcDbCircle
 10
278.6266177243192
 20
35.0
 30
0.0
 40
10.0
100
AcDbArc
 50
243.6760000000027
 51
254.3239999999993
  0
ARC
  5
258D
330
18
100
AcDbEntity
  8
DISEGNO
100
AcDbCircle
 10
252.4266177243185
 20
115.6999999999998
 30
0.0
 40
4.0
100
AcDbArc
 50
90.0
 51
180.0
  0
LINE
  5
258E
330
18
100
AcDbEntity
  8
DISEGNO
100
AcDbLine
 10
265.0266177243188
 20
51.30000000000018
 30
0.0
 11
265.0266177243188
 21
118.7000000000007
 31
0.0
  0
LINE
  5
258F
330
18
100
AcDbEntity
  8
DISEGNO
100
AcDbLine
 10
267.5266177243188
 20
52.0
 30
0.0
 11
267.5266177243188
 21
118.0
 31
0.0
  0
LINE
  5
2592
330
18
100
AcDbEntity
  8
DISEGNO
100
AcDbLine
 10
260.1266177243192
 20
45.49999999999999
 30
0.0
 11
249.6266177243192
 21
45.49999999999999
 31
0.0
  0
LINE
  5
2593
330
18
100
AcDbEntity
  8
DISEGNO
100
AcDbLine
 10
264.0266177243189
 20
50.30000000000018
 30
0.0
 11
252.4266177243185
 21
50.30000000000018
 31
0.0
  0
ARC
  5
2594
330
18
100
AcDbEntity
  8
DISEGNO
100
AcDbCircle
 10
252.4266177243185
 20
54.30000000000018
 30
0.0
 40
4.0
100
AcDbArc
 50
180.0
 51
270.0
  0
LINE
  5
2595
330
18
100
AcDbEntity
  8
DISEGNO
100
AcDbLine
 10
248.4266177243185
 20
54.30000000000018
 30
0.0
 11
248.4266177243185
 21
115.7000000000007
 31
0.0
  0
ARC
  5
25BC
330
18
100
AcDbEntity
  8
DISEGNO
100
AcDbCircle
 10
283.0786177243185
 20
43.61800000000039
 30
0.0
 40
0.3
100
AcDbArc
 50
338.0000000000053
 51
62.67630000000357
  0
ARC
  5
25BD
330
18
100
AcDbEntity
  8
DISEGNO
100
AcDbCircle
 10
280.5786177243185
 20
43.83700000000044
 30
0.0
 40
0.3
100
AcDbArc
 50
257.5409999999977
 51
338.0000000000053
  0
LINE
  5
25BE
330
18
100
AcDbEntity
  8
DISEGNO
100
AcDbLine
 10
280.8566177243188
 20
43.72500000000036
 30
0.0
 11
281.1316177243184
 21
44.40500000000065
 31
0.0
  0
ARC
  5
25BF
330
18
100
AcDbEntity
  8
DISEGNO
100
AcDbCircle
 10
281.4096177243186
 20
44.29200000000037
 30
0.0
 40
0.3
100
AcDbArc
 50
73.32380000000196
 51
158.0000000000053
  0
ARC
  5
25C0
330
18
100
AcDbEntity
  8
DISEGNO
100
AcDbCircle
 10
275.6806177243193
 20
44.24200000000019
 30
0.0
 40
0.3
100
AcDbArc
 50
22.99999999999926
 51
107.6759999999966
  0
LINE
  5
25C1
330
18
100
AcDbEntity
  8
DISEGNO
100
AcDbLine
 10
276.2436177243194
 20
43.68400000000019
 30
0.0
 11
275.9566177243191
 21
44.36000000000058
 31
0.0
  0
ARC
  5
25C2
330
18
100
AcDbEntity
  8
DISEGNO
100
AcDbCircle
 10
276.5196177243192
 20
43.80200000000058
 30
0.0
 40
0.3
100
AcDbArc
 50
202.9999999999992
 51
283.4589999999983
  0
ARC
  5
25C3
330
18
100
AcDbEntity
  8
DISEGNO
100
AcDbCircle
 10
278.6266177243192
 20
35.0
 30
0.0
 40
8.75
100
AcDbArc
 50
77.54059999999732
 51
103.4589999999983
  0
ARC
  5
25C4
330
18
100
AcDbEntity
  8
DISEGNO
100
AcDbCircle
 10
278.6266177243192
 20
35.0
 30
0.0
 40
10.0
100
AcDbArc
 50
62.67630000000357
 51
73.32380000000196
  0
ARC
  5
25C5
330
18
100
AcDbEntity
  8
DISEGNO
100
AcDbCircle
 10
271.5266177243188
 20
52.0
 30
0.0
 40
4.0
100
AcDbArc
 50
180.0
 51
270.0
  0
ARC
  5
25C6
330
18
100
AcDbEntity
  8
DISEGNO
100
AcDbCircle
 10
264.0266177243189
 20
51.30000000000018
 30
0.0
 40
1.0
100
AcDbArc
 50
270.0
 51
0.0000107391061402
  0
ARC
  5
25C7
330
18
100
AcDbEntity
  8
DISEGNO
100
AcDbCircle
 10
260.1266177243192
 20
44.5
 30
0.0
 40
1.0
100
AcDbArc
 50
42.73219999999724
 51
90.0
  0
ARC
  5
25C8
330
18
100
AcDbEntity
  8
DISEGNO
100
AcDbCircle
 10
274.0236177243182
 20
43.53899999999976
 30
0.0
 40
0.3
100
AcDbArc
 50
118.3239999999975
 51
202.9999999999992
  0
ARC
  5
25C9
330
18
100
AcDbEntity
  8
DISEGNO
100
AcDbCircle
 10
278.6266177243192
 20
35.0
 30
0.0
 40
10.0
100
AcDbArc
 50
107.6759999999966
 51
118.3239999999975
  0
LINE
  5
25CA
330
18
100
AcDbEntity
  8
DISEGNO
100
AcDbLine
 10
244.6266177243192
 20
170.0
 30
0.0
 11
272.3766177243192
 21
170.0
 31
0.0
  0
ARC
  5
25CB
330
18
100
AcDbEntity
  8
DISEGNO
100
AcDbCircle
 10
255.8766177243192
 20
157.75
 30
0.0
 40
7.0
100
AcDbArc
 50
246.8630000000021
 51
292.9750000000027
  0
LINE
  5
25CC
330
18
100
AcDbEntity
  8
DISEGNO
100
AcDbLine
 10
260.1266177243192
 20
145.5
 30
0.0
 11
249.6266177243192
 21
145.5
 31
0.0
  0
LINE
  5
25CD
330
18
100
AcDbEntity
  8
DISEGNO
100
AcDbLine
 10
253.733877724319
 20
169.9997994844761
 30
0.0
 11
262.983877724319
 21
169.9997994844761
 31
0.0
  0
ARC
  5
25CE
330
18
100
AcDbEntity
  8
DISEGNO
100
AcDbCircle
 10
255.8766177243192
 20
157.75
 30
0.0
 40
7.0
100
AcDbArc
 50
66.86280000000405
 51
113.1369999999979
  0
LINE
  5
25CF
330
18
100
AcDbEntity
  8
DISEGNO
100
AcDbLine
 10
260.1266177243192
 20
124.5
 30
0.0
 11
249.6266177243192
 21
124.5
 31
0.0
  0
LINE
  5
25D0
330
18
100
AcDbEntity
  8
DISEGNO
100
AcDbLine
 10
264.0266177243189
 20
119.7000000000007
 30
0.0
 11
252.4266177243185
 21
119.7000000000007
 31
0.0
  0
LINE
  5
25D1
330
18
100
AcDbEntity
  8
DISEGNO
100
AcDbLine
 10
253.7343777243191
 20
169.9997994844761
 30
0.0
 11
262.9843777243191
 21
169.9997994844761
 31
0.0
  0
LINE
  5
25D2
330
18
100
AcDbEntity
  8
DISEGNO
100
AcDbLine
 10
243.7343777243191
 20
170.0000000696648
 30
0.0
 11
272.3771177243193
 21
170.0000000696648
 31
0.0
  0
LINE
  5
25E6
330
18
100
AcDbEntity
  8
DISEGNO
100
AcDbLine
 10
249.6266177243192
 20
126.0001994844738
 30
0.0
 11
256.1266177243192
 21
126.0001994844735
 31
0.0
  0
LINE
  5
25E7
330
18
100
AcDbEntity
  8
DISEGNO
100
AcDbLine
 10
249.6266177243192
 20
144.0001994844733
 30
0.0
 11
256.1266177243192
 21
144.0001994844736
 31
0.0
  0
LINE
  5
2600
330
18
100
AcDbEntity
  8
DISEGNO
100
AcDbLine
 10
269.8771177243193
 20
174.4999999999993
 30
0.0
 11
249.2353777243193
 21
174.5
 31
0.0
  0
LINE
  5
2601
330
18
100
AcDbEntity
  8
DISEGNO
100
AcDbLine
 10
253.6261177243191
 20
170.0000000000002
 30
0.0
 11
275.1261177243191
 21
170.0000000000002
 31
0.0
  0
ARC
  5
2602
330
18
100
AcDbEntity
  8
DISEGNO
100
AcDbCircle
 10
244.6266177243192
 20
169.0
 30
0.0
 40
1.0
100
AcDbArc
 50
90.0
 51
180.0
  0
ARC
  5
2603
330
18
100
AcDbEntity
  8
DISEGNO
100
AcDbCircle
 10
248.5196177243192
 20
154.6100000000006
 30
0.0
 40
1.0
100
AcDbArc
 50
321.768000000002
 51
23.13699999999916
  0
ARC
  5
2604
330
18
100
AcDbEntity
  8
DISEGNO
100
AcDbCircle
 10
250.8766177243192
 20
152.75
 30
0.0
 40
2.0
100
AcDbArc
 50
141.768000000002
 51
308.2320000000005
  0
ARC
  5
2605
330
18
100
AcDbEntity
  8
DISEGNO
100
AcDbCircle
 10
252.732617724319
 20
150.3900000000003
 30
0.0
 40
1.0
100
AcDbArc
 50
66.86280000000405
 51
128.2320000000005
  0
ARC
  5
2606
330
18
100
AcDbEntity
  8
DISEGNO
100
AcDbCircle
 10
255.8766177243192
 20
157.75
 30
0.0
 40
7.0
100
AcDbArc
 50
156.8630000000008
 51
203.1369999999992
  0
ARC
  5
2607
330
18
100
AcDbEntity
  8
DISEGNO
100
AcDbCircle
 10
248.5196177243192
 20
160.8900000000003
 30
0.0
 40
1.0
100
AcDbArc
 50
336.8630000000008
 51
38.231999999998
  0
ARC
  5
2608
330
18
100
AcDbEntity
  8
DISEGNO
100
AcDbCircle
 10
250.8766177243192
 20
162.75
 30
0.0
 40
2.0
100
AcDbArc
 50
51.76779999999689
 51
218.231999999998
  0
ARC
  5
2609
330
18
100
AcDbEntity
  8
DISEGNO
100
AcDbCircle
 10
252.732617724319
 20
165.1100000000005
 30
0.0
 40
1.0
100
AcDbArc
 50
231.7679999999995
 51
293.1369999999979
  0
LINE
  5
260A
330
18
100
AcDbEntity
  8
DISEGNO
100
AcDbLine
 10
249.6266177243192
 20
124.5
 30
0.0
 11
249.6266177243192
 21
128.75
 31
0.0
  0
LINE
  5
260B
330
18
100
AcDbEntity
  8
DISEGNO
100
AcDbLine
 10
243.6266177243192
 20
128.75
 30
0.0
 11
249.6266177243192
 21
128.75
 31
0.0
  0
LINE
  5
260C
330
18
100
AcDbEntity
  8
DISEGNO
100
AcDbLine
 10
249.6266177243192
 20
141.25
 30
0.0
 11
243.6236856685696
 21
141.25
 31
0.0
  0
LINE
  5
260D
330
18
100
AcDbEntity
  8
DISEGNO
100
AcDbLine
 10
243.6266177243192
 20
168.5000000696645
 30
0.0
 11
243.6266177243192
 21
128.75
 31
0.0
  0
LINE
  5
260E
330
18
100
AcDbEntity
  8
DISEGNO
100
AcDbLine
 10
243.6266177243192
 20
169.0
 30
0.0
 11
243.6266177243192
 21
141.25
 31
0.0
  0
LINE
  5
260F
330
18
100
AcDbEntity
  8
DISEGNO
100
AcDbLine
 10
249.6266177243192
 20
141.25
 30
0.0
 11
249.6266177243192
 21
145.5
 31
0.0
  0
LINE
  5
265A
330
18
100
AcDbEntity
  8
DISEGNO
100
AcDbLine
 10
249.6266177243192
 20
129.0001994844735
 30
0.0
 11
249.6266177243192
 21
126.0001994844738
 31
0.0
  0
LINE
  5
265B
330
18
100
AcDbEntity
  8
DISEGNO
100
AcDbLine
 10
245.1266177243192
 20
129.0001994844735
 30
0.0
 11
249.6266177243192
 21
129.0001994844735
 31
0.0
  0
LINE
  5
265C
330
18
100
AcDbEntity
  8
DISEGNO
100
AcDbLine
 10
245.1266177243192
 20
135.0001994844735
 30
0.0
 11
245.1266177243192
 21
129.0001994844735
 31
0.0
  0
LINE
  5
265D
330
18
100
AcDbEntity
  8
DISEGNO
100
AcDbLine
 10
245.1266177243192
 20
135.0001994844735
 30
0.0
 11
245.1266177243192
 21
141.0001994844735
 31
0.0
  0
LINE
  5
265E
330
18
100
AcDbEntity
  8
DISEGNO
100
AcDbLine
 10
249.6266177243192
 20
141.0001994844735
 30
0.0
 11
249.6266177243192
 21
144.0001994844733
 31
0.0
  0
LINE
  5
265F
330
18
100
AcDbEntity
  8
DISEGNO
100
AcDbLine
 10
245.1266177243192
 20
141.0001994844735
 30
0.0
 11
249.6266177243192
 21
141.0001994844735
 31
0.0
  0
LINE
  5
2664
330
18
100
AcDbEntity
  8
DISEGNO
100
AcDbLine
 10
248.7353777243193
 20
173.9999999999997
 30
0.0
 11
248.7353777243193
 21
170.0000000000002
 31
0.0
  0
ARC
  5
2665
330
18
100
AcDbEntity
  8
DISEGNO
100
AcDbCircle
 10
249.2353777243193
 20
173.9999999999997
 30
0.0
 40
0.5
100
AcDbArc
 50
90.0
 51
180.0
  0
LINE
  5
266D
330
18
100
AcDbEntity
  8
DISEGNO
100
AcDbLine
 10
243.7343777243191
 20
170.0000000000002
 30
0.0
 11
243.7343777243191
 21
183.0000000000004
 31
0.0
  0
ARC
  5
266E
330
18
100
AcDbEntity
  8
DISEGNO
100
AcDbCircle
 10
283.6266177243192
 20
142.5399999999999
 30
0.0
 40
0.3
100
AcDbArc
 50
155.9999999999964
 51
236.4589999999994
  0
ARC
  5
266F
330
18
100
AcDbEntity
  8
DISEGNO
100
AcDbCircle
 10
281.732617724319
 20
144.1900000000005
 30
0.0
 40
0.3
100
AcDbArc
 50
71.32379999999945
 51
155.9999999999964
  0
LINE
  5
2670
330
18
100
AcDbEntity
  8
DISEGNO
100
AcDbLine
 10
281.1596177243187
 20
143.6400000000003
 30
0.0
 11
281.4586177243196
 21
144.3100000000004
 31
0.0
  0
ARC
  5
2671
330
18
100
AcDbEntity
  8
DISEGNO
100
AcDbCircle
 10
280.8856177243192
 20
143.7600000000002
 30
0.0
 40
0.3
100
AcDbArc
 50
255.5410000000018
 51
335.9999999999964
  0
ARC
  5
2672
330
18
100
AcDbEntity
  8
DISEGNO
100
AcDbCircle
 10
276.8286177243185
 20
143.8699999999999
 30
0.0
 40
0.3
100
AcDbArc
 50
200.9999999999976
 51
281.4589999999996
  0
LINE
  5
2673
330
18
100
AcDbEntity
  8
DISEGNO
100
AcDbLine
 10
276.2856177243189
 20
144.4500000000007
 30
0.0
 11
276.5486177243197
 21
143.7600000000002
 31
0.0
  0
ARC
  5
2674
330
18
100
AcDbEntity
  8
DISEGNO
100
AcDbCircle
 10
276.00561772432
 20
144.3400000000001
 30
0.0
 40
0.3
100
AcDbArc
 50
20.99999999999756
 51
105.6760000000007
  0
ARC
  5
2675
330
18
100
AcDbEntity
  8
DISEGNO
100
AcDbCircle
 10
278.6266177243192
 20
135.0
 30
0.0
 40
8.75
100
AcDbArc
 50
75.54060000000022
 51
101.4589999999996
  0
ARC
  5
2676
330
18
100
AcDbEntity
  8
DISEGNO
100
AcDbCircle
 10
278.6266177243192
 20
135.0
 30
0.0
 40
10.0
100
AcDbArc
 50
60.67629999999894
 51
71.32379999999945
  0
LINE
  5
2677
330
18
100
AcDbEntity
  8
DISEGNO
100
AcDbLine
 10
283.0826177243194
 20
127.1800000000003
 30
0.0
 11
283.3566177243188
 21
126.5
 31
0.0
  0
ARC
  5
2678
330
18
100
AcDbEntity
  8
DISEGNO
100
AcDbCircle
 10
283.0786177243185
 20
126.3800000000001
 30
0.0
 40
0.3
100
AcDbArc
 50
297.3239999999968
 51
21.99999999999469
  0
ARC
  5
2679
330
18
100
AcDbEntity
  8
DISEGNO
100
AcDbCircle
 10
280.5786177243185
 20
126.1599999999998
 30
0.0
 40
0.3
100
AcDbArc
 50
21.99999999999469
 51
102.4590000000023
  0
LINE
  5
267A
330
18
100
AcDbEntity
  8
DISEGNO
100
AcDbLine
 10
280.8566177243188
 20
126.2800000000006
 30
0.0
 11
281.1316177243184
 21
125.6000000000003
 31
0.0
  0
ARC
  5
267B
330
18
100
AcDbEntity
  8
DISEGNO
100
AcDbCircle
 10
281.4096177243186
 20
125.71
 30
0.0
 40
0.3
100
AcDbArc
 50
201.9999999999947
 51
286.6759999999987
  0
ARC
  5
267C
330
18
100
AcDbEntity
  8
DISEGNO
100
AcDbCircle
 10
275.6806177243193
 20
125.7600000000002
 30
0.0
 40
0.3
100
AcDbArc
 50
252.3240000000034
 51
337.0000000000008
  0
LINE
  5
267D
330
18
100
AcDbEntity
  8
DISEGNO
100
AcDbLine
 10
276.2436177243194
 20
126.3200000000006
 30
0.0
 11
275.9566177243191
 21
125.6400000000003
 31
0.0
  0
ARC
  5
267E
330
18
100
AcDbEntity
  8
DISEGNO
100
AcDbCircle
 10
276.5196177243192
 20
126.1999999999998
 30
0.0
 40
0.3
100
AcDbArc
 50
76.54059999999683
 51
157.0000000000007
  0
ARC
  5
267F
330
18
100
AcDbEntity
  8
DISEGNO
100
AcDbCircle
 10
278.6266177243192
 20
135.0
 30
0.0
 40
8.75
100
AcDbArc
 50
256.5410000000017
 51
282.4590000000023
  0
ARC
  5
2680
330
18
100
AcDbEntity
  8
DISEGNO
100
AcDbCircle
 10
278.6266177243192
 20
135.0
 30
0.0
 40
10.0
100
AcDbArc
 50
286.6759999999987
 51
297.3239999999968
  0
ARC
  5
2681
330
18
100
AcDbEntity
  8
DISEGNO
100
AcDbCircle
 10
283.3606177243196
 20
127.2899999999999
 30
0.0
 40
0.3
100
AcDbArc
 50
121.5410000000004
 51
201.9999999999947
  0
LINE
  5
2682
330
18
100
AcDbEntity
  8
DISEGNO
100
AcDbLine
 10
268.1266177243192
 20
153.5
 30
0.0
 11
268.1266177243192
 21
164.0
 31
0.0
  0
ARC
  5
2683
330
18
100
AcDbEntity
  8
DISEGNO
100
AcDbCircle
 10
263.241617724319
 20
154.6300000000001
 30
0.0
 40
1.0
100
AcDbArc
 50
157.0239999999942
 51
224.9999999999977
  0
ARC
  5
2684
330
18
100
AcDbEntity
  8
DISEGNO
100
AcDbCircle
 10
269.1266177243192
 20
153.5
 30
0.0
 40
1.0
100
AcDbArc
 50
180.0
 51
227.268000000003
  0
ARC
  5
2685
330
18
100
AcDbEntity
  8
DISEGNO
100
AcDbCircle
 10
267.4896177243186
 20
146.1400000000003
 30
0.0
 40
2.0
100
AcDbArc
 50
224.9999999999977
 51
44.99999999999769
  0
LINE
  5
2686
330
18
100
AcDbEntity
  8
DISEGNO
100
AcDbLine
 10
262.5346177243187
 20
153.9200000000001
 30
0.0
 11
268.9036177243192
 21
147.5500000000002
 31
0.0
  0
ARC
  5
2687
330
18
100
AcDbEntity
  8
DISEGNO
100
AcDbCircle
 10
260.1266177243192
 20
144.5
 30
0.0
 40
1.0
100
AcDbArc
 50
42.73219999999724
 51
90.0
  0
ARC
  5
2688
330
18
100
AcDbEntity
  8
DISEGNO
100
AcDbCircle
 10
258.9986177243186
 20
150.3900000000003
 30
0.0
 40
1.0
100
AcDbArc
 50
44.99999999999769
 51
112.9750000000026
  0
LINE
  5
2689
330
18
100
AcDbEntity
  8
DISEGNO
100
AcDbLine
 10
259.7056177243189
 20
151.0900000000001
 30
0.0
 11
266.0746177243195
 21
144.7200000000002
 31
0.0
  0
ARC
  5
268A
330
18
100
AcDbEntity
  8
DISEGNO
100
AcDbCircle
 10
274.3246177243195
 20
143.6900000000005
 30
0.0
 40
0.3
100
AcDbArc
 50
116.3239999999973
 51
200.9999999999976
  0
LINE
  5
268B
330
18
100
AcDbEntity
  8
DISEGNO
100
AcDbLine
 10
274.0446177243189
 20
143.5900000000001
 30
0.0
 11
274.3076177243197
 21
142.9000000000005
 31
0.0
  0
ARC
  5
268C
330
18
100
AcDbEntity
  8
DISEGNO
100
AcDbCircle
 10
274.027617724319
 20
142.8000000000002
 30
0.0
 40
0.3
100
AcDbArc
 50
300.5410000000024
 51
20.99999999999756
  0
LINE
  5
268D
330
18
100
AcDbEntity
  8
DISEGNO
100
AcDbLine
 10
268.1266177243192
 20
164.0
 30
0.0
 11
272.3766177243192
 21
164.0
 31
0.0
  0
ARC
  5
268E
330
18
100
AcDbEntity
  8
DISEGNO
100
AcDbCircle
 10
255.8766177243192
 20
157.75
 30
0.0
 40
7.0
100
AcDbArc
 50
337.0239999999943
 51
23.13699999999916
  0
ARC
  5
268F
330
18
100
AcDbEntity
  8
DISEGNO
100
AcDbCircle
 10
259.0196177243192
 20
165.1100000000005
 30
0.0
 40
1.0
100
AcDbArc
 50
246.8630000000021
 51
308.2320000000005
  0
ARC
  5
2690
330
18
100
AcDbEntity
  8
DISEGNO
100
AcDbCircle
 10
263.232617724319
 20
160.8900000000003
 30
0.0
 40
1.0
100
AcDbArc
 50
141.768000000002
 51
203.1369999999992
  0
ARC
  5
2691
330
18
100
AcDbEntity
  8
DISEGNO
100
AcDbCircle
 10
260.8766177243192
 20
162.75
 30
0.0
 40
2.0
100
AcDbArc
 50
321.768000000002
 51
128.2320000000005
  0
LINE
  5
2692
330
18
100
AcDbEntity
  8
DISEGNO
100
AcDbLine
 10
272.3766177243192
 20
170.0
 30
0.0
 11
272.3766177243192
 21
164.0
 31
0.0
  0
ARC
  5
2693
330
18
100
AcDbEntity
  8
DISEGNO
100
AcDbCircle
 10
271.5266177243188
 20
118.0
 30
0.0
 40
4.0
100
AcDbArc
 50
90.0
 51
180.0
  0
ARC
  5
2694
330
18
100
AcDbEntity
  8
DISEGNO
100
AcDbCircle
 10
264.0266177243189
 20
118.6999999999998
 30
0.0
 40
1.0
100
AcDbArc
 50
0.0000107391061402
 51
90.0
  0
ARC
  5
2695
330
18
100
AcDbEntity
  8
DISEGNO
100
AcDbCircle
 10
260.1266177243192
 20
125.5
 30
0.0
 40
1.0
100
AcDbArc
 50
270.0
 51
317.2680000000028
  0
LINE
  5
2696
330
18
100
AcDbEntity
  8
DISEGNO
100
AcDbLine
 10
274.0346177243186
 20
127.25
 30
0.0
 11
273.7476177243184
 21
126.5800000000008
 31
0.0
  0
ARC
  5
2697
330
18
100
AcDbEntity
  8
DISEGNO
100
AcDbCircle
 10
274.0236177243192
 20
126.46
 30
0.0
 40
0.3
100
AcDbArc
 50
157.0000000000007
 51
241.6760000000024
  0
ARC
  5
2698
330
18
100
AcDbEntity
  8
DISEGNO
100
AcDbCircle
 10
273.7586177243188
 20
127.3699999999999
 30
0.0
 40
0.3
100
AcDbArc
 50
337.0000000000008
 51
57.45940000000096
  0
ARC
  5
2699
330
18
100
AcDbEntity
  8
DISEGNO
100
AcDbCircle
 10
278.6266177243192
 20
135.0
 30
0.0
 40
10.0
100
AcDbArc
 50
196.6759999999977
 51
207.3240000000041
  0
ARC
  5
269A
330
18
100
AcDbEntity
  8
DISEGNO
100
AcDbCircle
 10
270.0086177243188
 20
130.5500000000002
 30
0.0
 40
0.3
100
AcDbArc
 50
207.3240000000041
 51
292.0000000000019
  0
LINE
  5
269B
330
18
100
AcDbEntity
  8
DISEGNO
100
AcDbLine
 10
270.8006177243183
 20
130.5399999999999
 30
0.0
 11
270.1206177243189
 21
130.2700000000004
 31
0.0
  0
ARC
  5
269C
330
18
100
AcDbEntity
  8
DISEGNO
100
AcDbCircle
 10
270.9136177243195
 20
130.2700000000004
 30
0.0
 40
0.3
100
AcDbArc
 50
31.5406000000041
 51
112.0000000000019
  0
LINE
  5
269D
330
18
100
AcDbEntity
  8
DISEGNO
100
AcDbLine
 10
270.2046177243187
 20
139.8800000000001
 30
0.0
 11
270.8796177243189
 21
139.5900000000001
 31
0.0
  0
ARC
  5
269E
330
18
100
AcDbEntity
  8
DISEGNO
100
AcDbCircle
 10
270.0876177243185
 20
139.6000000000003
 30
0.0
 40
0.3
100
AcDbArc
 50
66.99999999999947
 51
151.6759999999951
  0
ARC
  5
269F
330
18
100
AcDbEntity
  8
DISEGNO
100
AcDbCircle
 10
270.99661772432
 20
139.8699999999999
 30
0.0
 40
0.3
100
AcDbArc
 50
246.9999999999994
 51
327.4590000000012
  0
ARC
  5
26A0
330
18
100
AcDbEntity
  8
DISEGNO
100
AcDbCircle
 10
269.384617724319
 20
137.9499999999998
 30
0.0
 40
0.3
100
AcDbArc
 50
162.3239999999972
 51
246.9999999999994
  0
LINE
  5
26A1
330
18
100
AcDbEntity
  8
DISEGNO
100
AcDbLine
 10
269.2666177243186
 20
137.67
 30
0.0
 11
269.9416177243197
 21
137.3800000000001
 31
0.0
  0
ARC
  5
26A2
330
18
100
AcDbEntity
  8
DISEGNO
100
AcDbCircle
 10
269.8246177243195
 20
137.1100000000005
 30
0.0
 40
0.3
100
AcDbArc
 50
346.5409999999945
 51
66.99999999999947
  0
ARC
  5
26A3
330
18
100
AcDbEntity
  8
DISEGNO
100
AcDbCircle
 10
278.6266177243192
 20
135.0
 30
0.0
 40
10.0
100
AcDbArc
 50
151.6759999999951
 51
162.3239999999972
  0
ARC
  5
26A4
330
18
100
AcDbEntity
  8
DISEGNO
100
AcDbCircle
 10
269.7896177243197
 20
133.0500000000002
 30
0.0
 40
0.3
100
AcDbArc
 50
292.0000000000019
 51
12.45939999999561
  0
LINE
  5
26A5
330
18
100
AcDbEntity
  8
DISEGNO
100
AcDbLine
 10
269.9016177243188
 20
132.7700000000004
 30
0.0
 11
269.2216177243186
 21
132.5
 31
0.0
  0
ARC
  5
26A6
330
18
100
AcDbEntity
  8
DISEGNO
100
AcDbCircle
 10
269.3346177243197
 20
132.2200000000002
 30
0.0
 40
0.3
100
AcDbArc
 50
112.0000000000019
 51
196.6759999999977
  0
ARC
  5
26A7
330
18
100
AcDbEntity
  8
DISEGNO
100
AcDbCircle
 10
278.6266177243192
 20
135.0
 30
0.0
 40
8.75
100
AcDbArc
 50
166.5409999999945
 51
192.4590000000023
  0
ARC
  5
26A8
330
18
100
AcDbEntity
  8
DISEGNO
100
AcDbCircle
 10
278.6266177243192
 20
135.0
 30
0.0
 40
8.75
100
AcDbArc
 50
211.5410000000032
 51
237.459000000003
  0
ARC
  5
26A9
330
18
100
AcDbEntity
  8
DISEGNO
100
AcDbCircle
 10
249.8426177243195
 20
135.0
 30
0.0
 40
15.0
100
AcDbArc
 50
317.2680000000028
 51
42.73219999999724
  0
ARC
  5
26AA
330
18
100
AcDbEntity
  8
DISEGNO
100
AcDbCircle
 10
278.6266177243192
 20
135.0
 30
0.0
 40
8.75
100
AcDbArc
 50
120.5410000000024
 51
147.4590000000011
  0
ARC
  5
26AB
330
18
100
AcDbEntity
  8
DISEGNO
100
AcDbCircle
 10
278.6266177243192
 20
135.0
 30
0.0
 40
10.0
100
AcDbArc
 50
241.6760000000024
 51
252.3240000000034
  0
ARC
  5
26AC
330
18
100
AcDbEntity
  8
DISEGNO
100
AcDbCircle
 10
278.6266177243192
 20
135.0
 30
0.0
 40
10.0
100
AcDbArc
 50
105.6760000000007
 51
116.3239999999973
  0
LINE
  5
26B0
330
18
100
AcDbEntity
  8
DISEGNO
100
AcDbLine
 10
256.6266177243192
 20
135.0001994844735
 30
0.0
 11
256.6266177243192
 21
126.5001994844735
 31
0.0
  0
LINE
  5
26B1
330
18
100
AcDbEntity
  8
DISEGNO
100
AcDbLine
 10
256.1266177243192
 20
126.0001994844735
 30
0.0
 11
256.6266177243192
 21
126.5001994844735
 31
0.0
  0
LINE
  5
26B2
330
18
100
AcDbEntity
  8
DISEGNO
100
AcDbLine
 10
256.1266177243192
 20
144.0001994844736
 30
0.0
 11
256.6266177243192
 21
143.5001994844735
 31
0.0
  0
LINE
  5
26B3
330
18
100
AcDbEntity
  8
DISEGNO
100
AcDbLine
 10
256.6266177243192
 20
135.0001994844735
 30
0.0
 11
256.6266177243192
 21
143.5001994844735
 31
0.0
  0
LINE
  5
26B4
330
18
100
AcDbEntity
  8
DISEGNO
100
AcDbLine
 10
282.1261177243191
 20
167.0000000000002
 30
0.0
 11
282.1261177243191
 21
170.0000000000002
 31
0.0
  0
LINE
  5
26B5
330
18
100
AcDbEntity
  8
DISEGNO
100
AcDbLine
 10
275.1261177243191
 20
167.0000000000002
 30
0.0
 11
275.1261177243191
 21
170.0000000000002
 31
0.0
  0
LINE
  5
26B6
330
18
100
AcDbEntity
  8
DISEGNO
100
AcDbLine
 10
275.1261177243191
 20
167.0000000000002
 30
0.0
 11
282.1261177243191
 21
167.0000000000002
 31
0.0
  0
LINE
  5
26BC
330
18
100
AcDbEntity
  8
ASSI
100
AcDbLine
 10
272.0408265850269
 20
175.0000000000002
 30
0.0
 11
278.64548289185
 21
175.0000000000002
 31
0.0
  0
LINE
  5
26BD
330
18
100
AcDbEntity
  8
ASSI
100
AcDbLine
 10
275.3771177243193
 20
178.3796268436408
 30
0.0
 11
275.3771177243193
 21
171.7571758323074
 31
0.0
  0
LINE
  5
26BE
330
18
100
AcDbEntity
  8
DISEGNO
100
AcDbLine
 10
269.8771177243193
 20
180.2
 30
0.0
 11
269.8771177243193
 21
174.4999999999995
 31
0.0
  0
LINE
  5
26C3
330
18
100
AcDbEntity
  8
DISEGNO
100
AcDbLine
 10
267.6271177243193
 20
174.4999999999995
 30
0.0
 11
267.6271177243193
 21
170.0000000000002
 31
0.0
  0
LINE
  5
277B
330
18
100
AcDbEntity
  8
ASSI
100
AcDbLine
 10
328.6266177243192
 20
-5.200334514895075
 30
0.0
 11
328.6266177243192
 21
171.5017285991553
 31
0.0
  0
LINE
  5
277C
330
18
100
AcDbEntity
  8
DISEGNO
100
AcDbLine
 10
324.1706177243191
 20
42.82600000000002
 30
0.0
 11
323.8956177243194
 21
43.50600000000031
 31
0.0
  0
ARC
  5
277D
330
18
100
AcDbEntity
  8
DISEGNO
100
AcDbCircle
 10
357.4096177243187
 20
35.0
 30
0.0
 40
15.0
100
AcDbArc
 50
137.2680000000028
 51
222.7319999999971
  0
LINE
  5
277E
330
18
100
AcDbEntity
  8
DISEGNO
100
AcDbLine
 10
333.2176177243196
 20
42.7470000000003
 30
0.0
 11
333.5046177243198
 21
43.42200000000048
 31
0.0
  0
LINE
  5
277F
330
18
100
AcDbEntity
  8
DISEGNO
100
AcDbLine
 10
357.6266177243192
 20
45.49999999999999
 30
0.0
 11
357.6266177243192
 21
41.25
 31
0.0
  0
ARC
  5
2780
330
18
100
AcDbEntity
  8
DISEGNO
100
AcDbCircle
 10
278.6266177243192
 20
35.0
 30
0.0
 40
13.0
100
AcDbArc
 50
313.1819999999982
 51
42.73179999999691
  0
ARC
  5
2781
330
18
100
AcDbEntity
  8
DISEGNO
100
AcDbCircle
 10
328.6266177243192
 20
35.0
 30
0.0
 40
13.0
100
AcDbArc
 50
137.2680000000028
 51
226.8180000000017
  0
LINE
  5
2782
330
18
100
AcDbEntity
  8
DISEGNO
100
AcDbLine
 10
363.6296177243189
 20
41.25000006966456
 30
0.0
 11
363.6296177243189
 21
78.75000006966456
 31
0.0
  0
LINE
  5
2783
330
18
100
AcDbEntity
  8
DISEGNO
100
AcDbLine
 10
363.6266177243192
 20
41.25
 30
0.0
 11
363.6266177243192
 21
128.75
 31
0.0
  0
LINE
  5
2784
330
18
100
AcDbEntity
  8
DISEGNO
100
AcDbLine
 10
344.7176177243195
 20
16.07999999999992
 30
0.0
 11
338.3486177243189
 21
22.44900000000052
 31
0.0
  0
LINE
  5
2785
330
18
100
AcDbEntity
  8
DISEGNO
100
AcDbLine
 10
347.5466177243193
 20
18.90900000000056
 30
0.0
 11
341.1776177243187
 21
25.27800000000025
 31
0.0
  0
LINE
  5
2786
330
18
100
AcDbEntity
  8
DISEGNO
100
AcDbLine
 10
362.6266177243192
 20
0.0
 30
0.0
 11
334.8766177243192
 21
0.0
 31
0.0
  0
ARC
  5
2787
330
18
100
AcDbEntity
  8
DISEGNO
100
AcDbCircle
 10
311.2266177243196
 20
6.900000000000545
 30
0.0
 40
2.0
100
AcDbArc
 50
270.0
 51
0.0000000048462493
  0
LINE
  5
2788
330
18
100
AcDbEntity
  8
DISEGNO
100
AcDbLine
 10
322.3766177243192
 20
0.0
 30
0.0
 11
284.8766177243192
 21
0.0
 31
0.0
  0
ARC
  5
2789
330
18
100
AcDbEntity
  8
DISEGNO
100
AcDbCircle
 10
288.1266177243192
 20
16.5
 30
0.0
 40
1.0
100
AcDbArc
 50
0.0000000036477146
 51
47.26780000000274
  0
ARC
  5
278A
330
18
100
AcDbEntity
  8
DISEGNO
100
AcDbCircle
 10
278.6266177243192
 20
6.217000000000552
 30
0.0
 40
19.9
100
AcDbArc
 50
47.26780000000274
 51
62.71660000000091
  0
LINE
  5
278B
330
18
100
AcDbEntity
  8
DISEGNO
100
AcDbLine
 10
284.8766177243192
 20
6.0
 30
0.0
 11
289.1266177243192
 21
6.0
 31
0.0
  0
LINE
  5
278C
330
18
100
AcDbEntity
  8
DISEGNO
100
AcDbLine
 10
284.8766177243192
 20
6.0
 30
0.0
 11
284.8766177243192
 21
0.0
 31
0.0
  0
ARC
  5
278D
330
18
100
AcDbEntity
  8
DISEGNO
100
AcDbCircle
 10
287.8156177243195
 20
38.10600000000068
 30
0.0
 40
0.3
100
AcDbArc
 50
293.9999999999976
 51
18.67629999999705
  0
ARC
  5
278E
330
18
100
AcDbEntity
  8
DISEGNO
100
AcDbCircle
 10
287.3896177243191
 20
37.26000000000022
 30
0.0
 40
0.3
100
AcDbArc
 50
113.9999999999976
 51
194.458999999999
  0
ARC
  5
278F
330
18
100
AcDbEntity
  8
DISEGNO
100
AcDbCircle
 10
287.9656177243191
 20
32.37899999999991
 30
0.0
 40
0.3
100
AcDbArc
 50
344.3240000000064
 51
69.00000000000244
  0
ARC
  5
2790
330
18
100
AcDbEntity
  8
DISEGNO
100
AcDbCircle
 10
278.6266177243192
 20
35.0
 30
0.0
 40
10.0
100
AcDbArc
 50
333.6759999999954
 51
344.3240000000064
  0
ARC
  5
2791
330
18
100
AcDbEntity
  8
DISEGNO
100
AcDbCircle
 10
287.3206177243187
 20
30.69900000000052
 30
0.0
 40
0.3
100
AcDbArc
 50
249.0000000000024
 51
333.6759999999954
  0
LINE
  5
2792
330
18
100
AcDbEntity
  8
DISEGNO
100
AcDbLine
 10
286.5286177243192
 20
30.68199999999979
 30
0.0
 11
287.2126177243185
 21
30.41899999999987
 31
0.0
  0
ARC
  5
2793
330
18
100
AcDbEntity
  8
DISEGNO
100
AcDbCircle
 10
286.4206177243191
 20
30.40200000000004
 30
0.0
 40
0.3
100
AcDbArc
 50
69.00000000000244
 51
149.4590000000031
  0
ARC
  5
2794
330
18
100
AcDbEntity
  8
DISEGNO
100
AcDbCircle
 10
278.6266177243192
 20
35.0
 30
0.0
 40
8.75
100
AcDbArc
 50
348.5409999999934
 51
14.45950000000559
  0
ARC
  5
2795
330
18
100
AcDbEntity
  8
DISEGNO
100
AcDbCircle
 10
287.4956177243189
 20
33.20200000000023
 30
0.0
 40
0.3
100
AcDbArc
 50
168.5409999999933
 51
249.0000000000024
  0
LINE
  5
2796
330
18
100
AcDbEntity
  8
DISEGNO
100
AcDbLine
 10
287.3886177243189
 20
32.92200000000048
 30
0.0
 11
288.0726177243191
 21
32.65900000000056
 31
0.0
  0
LINE
  5
2797
330
18
100
AcDbEntity
  8
DISEGNO
100
AcDbLine
 10
287.2676177243188
 20
37.53400000000056
 30
0.0
 11
287.9376177243189
 21
37.83200000000034
 31
0.0
  0
ARC
  5
2798
330
18
100
AcDbEntity
  8
DISEGNO
100
AcDbCircle
 10
288.2066177243191
 20
24.79200000000037
 30
0.0
 40
1.0
100
AcDbArc
 50
133.1819999999983
 51
242.7170000000022
  0
ARC
  5
2799
330
18
100
AcDbEntity
  8
DISEGNO
100
AcDbCircle
 10
278.6266177243192
 20
35.0
 30
0.0
 40
10.0
100
AcDbArc
 50
18.67629999999705
 51
29.32379999999772
  0
ARC
  5
279A
330
18
100
AcDbEntity
  8
DISEGNO
100
AcDbCircle
 10
286.1696177243189
 20
40.0010000000002
 30
0.0
 40
0.3
100
AcDbArc
 50
213.5409999999961
 51
293.9999999999976
  0
LINE
  5
279B
330
18
100
AcDbEntity
  8
DISEGNO
100
AcDbLine
 10
286.2916177243183
 20
39.72699999999986
 30
0.0
 11
286.9616177243183
 21
40.02500000000054
 31
0.0
  0
ARC
  5
279C
330
18
100
AcDbEntity
  8
DISEGNO
100
AcDbCircle
 10
287.0836177243195
 20
39.75100000000021
 30
0.0
 40
0.3
100
AcDbArc
 50
29.32379999999772
 51
113.9999999999976
  0
LINE
  5
279D
330
18
100
AcDbEntity
  8
DISEGNO
100
AcDbLine
 10
294.0266177243188
 20
16.5
 30
0.0
 11
294.0266177243188
 21
6.900000000000545
 31
0.0
  0
LINE
  5
279E
330
18
100
AcDbEntity
  8
DISEGNO
100
AcDbLine
 10
289.1266177243192
 20
16.5
 30
0.0
 11
289.1266177243192
 21
6.0
 31
0.0
  0
LINE
  5
279F
330
18
100
AcDbEntity
  8
DISEGNO
100
AcDbLine
 10
296.0266177243188
 20
4.900000000000545
 30
0.0
 11
311.2266177243196
 21
4.900000000000545
 31
0.0
  0
ARC
  5
27A0
330
18
100
AcDbEntity
  8
DISEGNO
100
AcDbCircle
 10
296.0266177243188
 20
6.900000000000545
 30
0.0
 40
2.0
100
AcDbArc
 50
180.0
 51
270.0
  0
ARC
  5
27A1
330
18
100
AcDbEntity
  8
DISEGNO
100
AcDbCircle
 10
288.1266177243192
 20
16.5
 30
0.0
 40
5.9
100
AcDbArc
 50
0.0000160860042974
 51
47.26780000000274
  0
LINE
  5
27A2
330
18
100
AcDbEntity
  8
DISEGNO
100
AcDbLine
 10
339.1266177243192
 20
16.5
 30
0.0
 11
339.1266177243192
 21
6.0
 31
0.0
  0
LINE
  5
27A3
330
18
100
AcDbEntity
  8
DISEGNO
100
AcDbLine
 10
318.1266177243192
 20
16.5
 30
0.0
 11
318.1266177243192
 21
6.0
 31
0.0
  0
LINE
  5
27A4
330
18
100
AcDbEntity
  8
DISEGNO
100
AcDbLine
 10
322.3766177243192
 20
6.0
 30
0.0
 11
322.3766177243192
 21
0.0
 31
0.0
  0
LINE
  5
27A5
330
18
100
AcDbEntity
  8
DISEGNO
100
AcDbLine
 10
322.3766177243192
 20
6.0
 30
0.0
 11
318.1266177243192
 21
6.0
 31
0.0
  0
LINE
  5
27A6
330
18
100
AcDbEntity
  8
DISEGNO
100
AcDbLine
 10
339.1266177243192
 20
6.0
 30
0.0
 11
334.8766177243192
 21
6.0
 31
0.0
  0
LINE
  5
27A7
330
18
100
AcDbEntity
  8
DISEGNO
100
AcDbLine
 10
334.8766177243192
 20
0.0
 30
0.0
 11
334.8766177243192
 21
6.0
 31
0.0
  0
ARC
  5
27A8
330
18
100
AcDbEntity
  8
DISEGNO
100
AcDbCircle
 10
328.6266177243192
 20
35.0
 30
0.0
 40
8.75
100
AcDbArc
 50
255.5410000000018
 51
281.4589999999996
  0
ARC
  5
27A9
330
18
100
AcDbEntity
  8
DISEGNO
100
AcDbCircle
 10
328.6266177243192
 20
6.217000000000552
 30
0.0
 40
15.0
100
AcDbArc
 50
47.26780000000274
 51
132.7319999999969
  0
ARC
  5
27AA
330
18
100
AcDbEntity
  8
DISEGNO
100
AcDbCircle
 10
319.4366177243187
 20
38.10600000000068
 30
0.0
 40
0.3
100
AcDbArc
 50
161.3240000000016
 51
246.0000000000023
  0
ARC
  5
27AB
330
18
100
AcDbEntity
  8
DISEGNO
100
AcDbCircle
 10
325.5196177243192
 20
25.81100000000061
 30
0.0
 40
0.3
100
AcDbArc
 50
251.3240000000005
 51
335.9999999999964
  0
LINE
  5
27AC
330
18
100
AcDbEntity
  8
DISEGNO
100
AcDbLine
 10
326.0926177243196
 20
26.35900000000038
 30
0.0
 11
325.7946177243189
 21
25.68900000000031
 31
0.0
  0
ARC
  5
27AD
330
18
100
AcDbEntity
  8
DISEGNO
100
AcDbCircle
 10
326.366617724319
 20
26.23700000000008
 30
0.0
 40
0.3
100
AcDbArc
 50
75.54060000000022
 51
155.9999999999964
  0
ARC
  5
27AE
330
18
100
AcDbEntity
  8
DISEGNO
100
AcDbCircle
 10
319.8626177243191
 20
37.26000000000022
 30
0.0
 40
0.3
100
AcDbArc
 50
345.541000000001
 51
66.00000000000237
  0
ARC
  5
27AF
330
18
100
AcDbEntity
  8
DISEGNO
100
AcDbCircle
 10
319.9316177243195
 20
30.69900000000052
 30
0.0
 40
0.3
100
AcDbArc
 50
206.3240000000046
 51
290.9999999999976
  0
LINE
  5
27B0
330
18
100
AcDbEntity
  8
DISEGNO
100
AcDbLine
 10
320.7246177243192
 20
30.68199999999979
 30
0.0
 11
320.0396177243197
 21
30.41899999999987
 31
0.0
  0
ARC
  5
27B1
330
18
100
AcDbEntity
  8
DISEGNO
100
AcDbCircle
 10
320.8316177243191
 20
30.40200000000004
 30
0.0
 40
0.3
100
AcDbArc
 50
30.54059999999979
 51
110.9999999999975
  0
ARC
  5
27B2
330
18
100
AcDbEntity
  8
DISEGNO
100
AcDbCircle
 10
328.6266177243192
 20
35.0
 30
0.0
 40
8.75
100
AcDbArc
 50
165.541000000001
 51
191.4590000000066
  0
ARC
  5
27B3
330
18
100
AcDbEntity
  8
DISEGNO
100
AcDbCircle
 10
319.7566177243184
 20
33.20200000000023
 30
0.0
 40
0.3
100
AcDbArc
 50
290.9999999999976
 51
11.45940000000299
  0
ARC
  5
27B4
330
18
100
AcDbEntity
  8
DISEGNO
100
AcDbCircle
 10
319.2866177243191
 20
32.37899999999991
 30
0.0
 40
0.3
100
AcDbArc
 50
110.9999999999975
 51
195.6759999999935
  0
ARC
  5
27B5
330
18
100
AcDbEntity
  8
DISEGNO
100
AcDbCircle
 10
328.6266177243192
 20
35.0
 30
0.0
 40
10.0
100
AcDbArc
 50
195.6759999999935
 51
206.3240000000046
  0
LINE
  5
27B6
330
18
100
AcDbEntity
  8
DISEGNO
100
AcDbLine
 10
319.8646177243186
 20
32.92200000000048
 30
0.0
 11
319.1796177243191
 21
32.65900000000056
 31
0.0
  0
LINE
  5
27B7
330
18
100
AcDbEntity
  8
DISEGNO
100
AcDbLine
 10
319.9846177243194
 20
37.53400000000056
 30
0.0
 11
319.3146177243193
 21
37.83200000000034
 31
0.0
  0
ARC
  5
27B8
330
18
100
AcDbEntity
  8
DISEGNO
100
AcDbCircle
 10
319.1266177243192
 20
16.5
 30
0.0
 40
1.0
100
AcDbArc
 50
132.7319999999969
 51
180.0
  0
ARC
  5
27B9
330
18
100
AcDbEntity
  8
DISEGNO
100
AcDbCircle
 10
319.0456177243191
 20
24.79200000000037
 30
0.0
 40
1.0
100
AcDbArc
 50
297.2829999999979
 51
46.81850000000141
  0
ARC
  5
27BA
330
18
100
AcDbEntity
  8
DISEGNO
100
AcDbCircle
 10
323.625617724319
 20
27.45700000000034
 30
0.0
 40
0.3
100
AcDbArc
 50
335.9999999999964
 51
56.4594000000015
  0
LINE
  5
27BB
330
18
100
AcDbEntity
  8
DISEGNO
100
AcDbLine
 10
323.8996177243184
 20
27.33500000000004
 30
0.0
 11
323.6016177243196
 21
26.66499999999996
 31
0.0
  0
ARC
  5
27BC
330
18
100
AcDbEntity
  8
DISEGNO
100
AcDbCircle
 10
323.875617724319
 20
26.54300000000058
 30
0.0
 40
0.3
100
AcDbArc
 50
155.9999999999964
 51
240.6759999999983
  0
ARC
  5
27BD
330
18
100
AcDbEntity
  8
DISEGNO
100
AcDbCircle
 10
328.6266177243192
 20
35.0
 30
0.0
 40
8.75
100
AcDbArc
 50
210.5409999999968
 51
236.4589999999994
  0
ARC
  5
27BE
330
18
100
AcDbEntity
  8
DISEGNO
100
AcDbCircle
 10
328.6266177243192
 20
35.0
 30
0.0
 40
10.0
100
AcDbArc
 50
240.6759999999983
 51
251.3240000000005
  0
ARC
  5
27BF
330
18
100
AcDbEntity
  8
DISEGNO
100
AcDbCircle
 10
321.0826177243193
 20
40.0010000000002
 30
0.0
 40
0.3
100
AcDbArc
 50
246.0000000000023
 51
326.4590000000039
  0
ARC
  5
27C0
330
18
100
AcDbEntity
  8
DISEGNO
100
AcDbCircle
 10
328.6266177243192
 20
35.0
 30
0.0
 40
10.0
100
AcDbArc
 50
150.6759999999983
 51
161.3240000000016
  0
LINE
  5
27C1
330
18
100
AcDbEntity
  8
DISEGNO
100
AcDbLine
 10
320.960617724319
 20
39.72699999999986
 30
0.0
 11
320.2916177243182
 21
40.02500000000054
 31
0.0
  0
ARC
  5
27C2
330
18
100
AcDbEntity
  8
DISEGNO
100
AcDbCircle
 10
320.1686177243187
 20
39.75100000000021
 30
0.0
 40
0.3
100
AcDbArc
 50
66.00000000000237
 51
150.6759999999983
  0
ARC
  5
27C3
330
18
100
AcDbEntity
  8
DISEGNO
100
AcDbCircle
 10
323.8926177243188
 20
42.71300000000064
 30
0.0
 40
0.3
100
AcDbArc
 50
301.5410000000004
 51
21.99999999999469
  0
ARC
  5
27C4
330
18
100
AcDbEntity
  8
DISEGNO
100
AcDbCircle
 10
328.6266177243192
 20
35.0
 30
0.0
 40
8.75
100
AcDbArc
 50
121.5410000000004
 51
146.4590000000039
  0
ARC
  5
27C5
330
18
100
AcDbEntity
  8
DISEGNO
100
AcDbCircle
 10
328.6266177243192
 20
35.0
 30
0.0
 40
10.0
100
AcDbArc
 50
16.6761999999971
 51
27.32380000000539
  0
ARC
  5
27C6
330
18
100
AcDbEntity
  8
DISEGNO
100
AcDbCircle
 10
337.4626177243186
 20
36.95300000000043
 30
0.0
 40
0.3
100
AcDbArc
 50
112.0000000000019
 51
192.4590000000023
  0
ARC
  5
27C7
330
18
100
AcDbEntity
  8
DISEGNO
100
AcDbCircle
 10
336.2556177243191
 20
30.13200000000052
 30
0.0
 40
0.3
100
AcDbArc
 50
66.99999999999947
 51
147.4590000000011
  0
LINE
  5
27C8
330
18
100
AcDbEntity
  8
DISEGNO
100
AcDbLine
 10
337.0476177243195
 20
30.1220000000003
 30
0.0
 11
336.3726177243184
 21
30.40800000000036
 31
0.0
  0
ARC
  5
27C9
330
18
100
AcDbEntity
  8
DISEGNO
100
AcDbCircle
 10
337.1646177243197
 20
30.39800000000014
 30
0.0
 40
0.3
100
AcDbArc
 50
246.9999999999994
 51
331.6759999999951
  0
LINE
  5
27CA
330
18
100
AcDbEntity
  8
DISEGNO
100
AcDbLine
 10
337.9856177243196
 20
32.33100000000013
 30
0.0
 11
337.3106177243185
 21
32.6180000000004
 31
0.0
  0
ARC
  5
27CB
330
18
100
AcDbEntity
  8
DISEGNO
100
AcDbCircle
 10
337.4276177243187
 20
32.89400000000024
 30
0.0
 40
0.3
100
AcDbArc
 50
166.5409999999945
 51
246.9999999999994
  0
ARC
  5
27CC
330
18
100
AcDbEntity
  8
DISEGNO
100
AcDbCircle
 10
328.6266177243192
 20
35.0
 30
0.0
 40
8.75
100
AcDbArc
 50
346.5409999999945
 51
12.45939999999561
  0
ARC
  5
27CD
330
18
100
AcDbEntity
  8
DISEGNO
100
AcDbCircle
 10
328.6266177243192
 20
35.0
 30
0.0
 40
10.0
100
AcDbArc
 50
331.6759999999951
 51
342.3239999999972
  0
ARC
  5
27CE
330
18
100
AcDbEntity
  8
DISEGNO
100
AcDbCircle
 10
337.8686177243194
 20
32.05500000000029
 30
0.0
 40
0.3
100
AcDbArc
 50
342.3239999999972
 51
66.99999999999947
  0
LINE
  5
27CF
330
18
100
AcDbEntity
  8
DISEGNO
100
AcDbLine
 10
337.3506177243194
 20
37.23100000000068
 30
0.0
 11
338.0306177243197
 21
37.50600000000031
 31
0.0
  0
ARC
  5
27D0
330
18
100
AcDbEntity
  8
DISEGNO
100
AcDbCircle
 10
337.9186177243187
 20
37.78400000000056
 30
0.0
 40
0.3
100
AcDbArc
 50
292.0000000000019
 51
16.6761999999971
  0
ARC
  5
27D1
330
18
100
AcDbEntity
  8
DISEGNO
100
AcDbCircle
 10
338.1266177243192
 20
16.5
 30
0.0
 40
1.0
100
AcDbArc
 50
0.0000000049765249
 51
47.26780000000274
  0
ARC
  5
27D2
330
18
100
AcDbEntity
  8
DISEGNO
100
AcDbCircle
 10
339.7636177243189
 20
23.86300000000028
 30
0.0
 40
2.0
100
AcDbArc
 50
44.99999999999769
 51
224.9999999999977
  0
LINE
  5
27D3
330
18
100
AcDbEntity
  8
DISEGNO
100
AcDbLine
 10
330.9666177243193
 20
25.55400000000009
 30
0.0
 11
330.7046177243187
 21
26.23800000000028
 31
0.0
  0
ARC
  5
27D4
330
18
100
AcDbEntity
  8
DISEGNO
100
AcDbCircle
 10
331.2476177243184
 20
25.66100000000006
 30
0.0
 40
0.3
100
AcDbArc
 50
200.9999999999976
 51
285.6760000000008
  0
ARC
  5
27D5
330
18
100
AcDbEntity
  8
DISEGNO
100
AcDbCircle
 10
328.6266177243192
 20
35.0
 30
0.0
 40
10.0
100
AcDbArc
 50
285.6760000000008
 51
296.3239999999973
  0
ARC
  5
27D6
330
18
100
AcDbEntity
  8
DISEGNO
100
AcDbCircle
 10
332.9276177243187
 20
26.3060000000005
 30
0.0
 40
0.3
100
AcDbArc
 50
296.3239999999973
 51
20.99999999999756
  0
LINE
  5
27D7
330
18
100
AcDbEntity
  8
DISEGNO
100
AcDbLine
 10
333.2076177243193
 20
26.41399999999976
 30
0.0
 11
332.9446177243185
 21
27.09799999999996
 31
0.0
  0
ARC
  5
27D8
330
18
100
AcDbEntity
  8
DISEGNO
100
AcDbCircle
 10
333.2246177243192
 20
27.20600000000013
 30
0.0
 40
0.3
100
AcDbArc
 50
120.5410000000024
 51
200.9999999999976
  0
ARC
  5
27D9
330
18
100
AcDbEntity
  8
DISEGNO
100
AcDbCircle
 10
330.424617724319
 20
26.13100000000031
 30
0.0
 40
0.3
100
AcDbArc
 50
20.99999999999756
 51
101.4589999999996
  0
ARC
  5
27DA
330
18
100
AcDbEntity
  8
DISEGNO
100
AcDbCircle
 10
328.6266177243192
 20
35.0
 30
0.0
 40
8.75
100
AcDbArc
 50
300.5410000000024
 51
327.4590000000012
  0
ARC
  5
27DB
330
18
100
AcDbEntity
  8
DISEGNO
100
AcDbCircle
 10
337.2436177243194
 20
39.45300000000043
 30
0.0
 40
0.3
100
AcDbArc
 50
27.32380000000539
 51
112.0000000000019
  0
LINE
  5
27DC
330
18
100
AcDbEntity
  8
DISEGNO
100
AcDbLine
 10
336.451617724319
 20
39.45600000000013
 30
0.0
 11
337.1316177243184
 21
39.73100000000068
 31
0.0
  0
ARC
  5
27DD
330
18
100
AcDbEntity
  8
DISEGNO
100
AcDbCircle
 10
328.6266177243192
 20
35.0
 30
0.0
 40
8.75
100
AcDbArc
 50
31.5406000000041
 51
57.45940000000096
  0
ARC
  5
27DE
330
18
100
AcDbEntity
  8
DISEGNO
100
AcDbCircle
 10
336.3396177243189
 20
39.73400000000038
 30
0.0
 40
0.3
100
AcDbArc
 50
211.5410000000032
 51
292.0000000000019
  0
ARC
  5
27DF
330
18
100
AcDbEntity
  8
DISEGNO
100
AcDbCircle
 10
333.4946177243196
 20
42.63000000000011
 30
0.0
 40
0.3
100
AcDbArc
 50
157.0000000000007
 51
237.459000000003
  0
LINE
  5
27E0
330
18
100
AcDbEntity
  8
DISEGNO
100
AcDbLine
 10
313.2266177243196
 20
16.5
 30
0.0
 11
313.2266177243196
 21
6.900000000000545
 31
0.0
  0
ARC
  5
27E1
330
18
100
AcDbEntity
  8
DISEGNO
100
AcDbCircle
 10
319.1266177243192
 20
16.5
 30
0.0
 40
5.9
100
AcDbArc
 50
132.7319999999969
 51
180.0
  0
ARC
  5
27E2
330
18
100
AcDbEntity
  8
DISEGNO
100
AcDbCircle
 10
328.6266177243192
 20
6.217000000000552
 30
0.0
 40
19.9
100
AcDbArc
 50
117.2829999999978
 51
132.7319999999969
  0
LINE
  5
27E3
330
18
100
AcDbEntity
  8
DISEGNO
100
AcDbLine
 10
363.6266177243192
 20
1.0
 30
0.0
 11
363.6266177243192
 21
28.75
 31
0.0
  0
ARC
  5
27E4
330
18
100
AcDbEntity
  8
DISEGNO
100
AcDbCircle
 10
362.6266177243192
 20
1.0
 30
0.0
 40
1.0
100
AcDbArc
 50
270.0
 51
0.0
  0
ARC
  5
27E5
330
18
100
AcDbEntity
  8
DISEGNO
100
AcDbCircle
 10
344.0196177243192
 20
9.10699999999997
 30
0.0
 40
1.0
100
AcDbArc
 50
321.768000000002
 51
23.13699999999916
  0
ARC
  5
27E6
330
18
100
AcDbEntity
  8
DISEGNO
100
AcDbCircle
 10
358.732617724319
 20
9.10699999999997
 30
0.0
 40
1.0
100
AcDbArc
 50
156.8630000000008
 51
218.231999999998
  0
ARC
  5
27E7
330
18
100
AcDbEntity
  8
DISEGNO
100
AcDbCircle
 10
351.3766177243192
 20
12.25
 30
0.0
 40
7.0
100
AcDbArc
 50
246.8630000000021
 51
293.1369999999979
  0
ARC
  5
27E8
330
18
100
AcDbEntity
  8
DISEGNO
100
AcDbCircle
 10
348.232617724319
 20
4.894000000000232
 30
0.0
 40
1.0
100
AcDbArc
 50
66.86280000000405
 51
128.2320000000005
  0
ARC
  5
27E9
330
18
100
AcDbEntity
  8
DISEGNO
100
AcDbCircle
 10
346.3766177243192
 20
7.25
 30
0.0
 40
2.0
100
AcDbArc
 50
141.768000000002
 51
308.2320000000005
  0
ARC
  5
27EA
330
18
100
AcDbEntity
  8
DISEGNO
100
AcDbCircle
 10
356.3766177243192
 20
7.25
 30
0.0
 40
2.0
100
AcDbArc
 50
231.7679999999995
 51
38.231999999998
  0
ARC
  5
27EB
330
18
100
AcDbEntity
  8
DISEGNO
100
AcDbCircle
 10
354.5196177243192
 20
4.894000000000232
 30
0.0
 40
1.0
100
AcDbArc
 50
51.76779999999689
 51
113.1369999999979
  0
ARC
  5
27EC
330
18
100
AcDbEntity
  8
DISEGNO
100
AcDbCircle
 10
351.3766177243192
 20
12.25
 30
0.0
 40
7.0
100
AcDbArc
 50
66.86300000000212
 51
112.9750000000026
  0
LINE
  5
27ED
330
18
100
AcDbEntity
  8
DISEGNO
100
AcDbLine
 10
347.1266177243192
 20
24.5
 30
0.0
 11
357.6266177243192
 21
24.5
 31
0.0
  0
ARC
  5
27EE
330
18
100
AcDbEntity
  8
DISEGNO
100
AcDbCircle
 10
347.1266177243192
 20
25.5
 30
0.0
 40
1.0
100
AcDbArc
 50
222.7319999999971
 51
270.0
  0
ARC
  5
27EF
330
18
100
AcDbEntity
  8
DISEGNO
100
AcDbCircle
 10
348.2536177243196
 20
19.61599999999998
 30
0.0
 40
1.0
100
AcDbArc
 50
224.9999999999977
 51
292.9750000000027
  0
ARC
  5
27F0
330
18
100
AcDbEntity
  8
DISEGNO
100
AcDbCircle
 10
351.3766177243192
 20
12.25
 30
0.0
 40
7.0
100
AcDbArc
 50
157.0239999999942
 51
203.1369999999992
  0
ARC
  5
27F1
330
18
100
AcDbEntity
  8
DISEGNO
100
AcDbCircle
 10
344.0106177243192
 20
15.3730000000005
 30
0.0
 40
1.0
100
AcDbArc
 50
337.0239999999943
 51
44.99999999999769
  0
ARC
  5
27F2
330
18
100
AcDbEntity
  8
DISEGNO
100
AcDbCircle
 10
351.3766177243192
 20
12.25
 30
0.0
 40
7.0
100
AcDbArc
 50
336.8630000000008
 51
23.1370999999985
  0
ARC
  5
27F3
330
18
100
AcDbEntity
  8
DISEGNO
100
AcDbCircle
 10
356.3766177243192
 20
17.25
 30
0.0
 40
2.0
100
AcDbArc
 50
321.768000000002
 51
128.2320000000005
  0
LINE
  5
27F4
330
18
100
AcDbEntity
  8
DISEGNO
100
AcDbLine
 10
357.6266177243192
 20
28.75
 30
0.0
 11
357.6266177243192
 21
24.5
 31
0.0
  0
ARC
  5
27F5
330
18
100
AcDbEntity
  8
DISEGNO
100
AcDbCircle
 10
358.732617724319
 20
15.39400000000023
 30
0.0
 40
1.0
100
AcDbArc
 50
141.768000000002
 51
203.1369999999992
  0
ARC
  5
27F6
330
18
100
AcDbEntity
  8
DISEGNO
100
AcDbCircle
 10
354.5196177243192
 20
19.60699999999997
 30
0.0
 40
1.0
100
AcDbArc
 50
246.8630000000021
 51
308.2320000000005
  0
LINE
  5
27F7
330
18
100
AcDbEntity
  8
DISEGNO
100
AcDbLine
 10
357.6266177243192
 20
28.75
 30
0.0
 11
363.6266177243192
 21
28.75
 31
0.0
  0
LINE
  5
27F8
330
18
100
AcDbEntity
  8
DISEGNO
100
AcDbLine
 10
357.6266177243192
 20
41.25
 30
0.0
 11
363.6266177243192
 21
41.25
 31
0.0
  0
LINE
  5
27F9
330
18
100
AcDbEntity
  8
DISEGNO
100
AcDbLine
 10
332.1271177243193
 20
170.0000000000002
 30
0.0
 11
363.7353777243193
 21
170.0000000000004
 31
0.0
  0
LINE
  5
27FA
330
18
100
AcDbEntity
  8
DISEGNO
100
AcDbLine
 10
344.7176177243195
 20
153.9200000000001
 30
0.0
 11
338.3486177243189
 21
147.5500000000002
 31
0.0
  0
LINE
  5
27FB
330
18
100
AcDbEntity
  8
DISEGNO
100
AcDbLine
 10
347.5466177243193
 20
151.0900000000001
 30
0.0
 11
341.1776177243187
 21
144.7200000000002
 31
0.0
  0
LINE
  5
27FC
330
18
100
AcDbEntity
  8
DISEGNO
100
AcDbLine
 10
362.6266177243192
 20
170.0
 30
0.0
 11
334.8766177243192
 21
170.0
 31
0.0
  0
LINE
  5
27FD
330
18
100
AcDbEntity
  8
DISEGNO
100
AcDbLine
 10
358.2353777243193
 20
174.5
 30
0.0
 11
337.3771177243193
 21
174.4999999999997
 31
0.0
  0
LINE
  5
27FE
330
18
100
AcDbEntity
  8
DISEGNO
100
AcDbLine
 10
339.7266177243196
 20
52.0
 30
0.0
 11
339.7266177243196
 21
118.0
 31
0.0
  0
LINE
  5
27FF
330
18
100
AcDbEntity
  8
DISEGNO
100
AcDbLine
 10
288.9096177243187
 20
45.49999999999999
 30
0.0
 11
318.3426177243195
 21
45.49999999999999
 31
0.0
  0
ARC
  5
2800
330
18
100
AcDbEntity
  8
DISEGNO
100
AcDbCircle
 10
288.9096177243187
 20
44.5
 30
0.0
 40
1.0
100
AcDbArc
 50
90.0
 51
222.7319999999971
  0
ARC
  5
2801
330
18
100
AcDbEntity
  8
DISEGNO
100
AcDbCircle
 10
328.6266177243192
 20
35.0
 30
0.0
 40
8.75
100
AcDbArc
 50
76.54049999999705
 51
102.4590000000023
  0
ARC
  5
2802
330
18
100
AcDbEntity
  8
DISEGNO
100
AcDbCircle
 10
326.6736177243188
 20
43.83700000000044
 30
0.0
 40
0.3
100
AcDbArc
 50
201.9999999999947
 51
282.4590000000023
  0
LINE
  5
2803
330
18
100
AcDbEntity
  8
DISEGNO
100
AcDbLine
 10
326.3956177243195
 20
43.72500000000036
 30
0.0
 11
326.1206177243198
 21
44.40500000000065
 31
0.0
  0
ARC
  5
2804
330
18
100
AcDbEntity
  8
DISEGNO
100
AcDbCircle
 10
325.8426177243196
 20
44.29200000000037
 30
0.0
 40
0.3
100
AcDbArc
 50
21.99999999999469
 51
106.6759999999987
  0
ARC
  5
2805
330
18
100
AcDbEntity
  8
DISEGNO
100
AcDbCircle
 10
318.3426177243195
 20
44.5
 30
0.0
 40
1.0
100
AcDbArc
 50
317.2680000000028
 51
90.0
  0
ARC
  5
2806
330
18
100
AcDbEntity
  8
DISEGNO
100
AcDbCircle
 10
324.1736177243188
 20
43.61800000000039
 30
0.0
 40
0.3
100
AcDbArc
 50
117.3239999999968
 51
201.9999999999947
  0
ARC
  5
2807
330
18
100
AcDbEntity
  8
DISEGNO
100
AcDbCircle
 10
328.6266177243192
 20
35.0
 30
0.0
 40
10.0
100
AcDbArc
 50
106.6759999999987
 51
117.3239999999968
  0
ARC
  5
2808
330
18
100
AcDbEntity
  8
DISEGNO
100
AcDbCircle
 10
335.7266177243196
 20
52.0
 30
0.0
 40
4.0
100
AcDbArc
 50
270.0
 51
0.0000160916973376
  0
ARC
  5
2809
330
18
100
AcDbEntity
  8
DISEGNO
100
AcDbCircle
 10
333.2286177243191
 20
43.53899999999976
 30
0.0
 40
0.3
100
AcDbArc
 50
337.0000000000008
 51
61.67620000000001
  0
ARC
  5
280A
330
18
100
AcDbEntity
  8
DISEGNO
100
AcDbCircle
 10
328.6266177243192
 20
35.0
 30
0.0
 40
10.0
100
AcDbArc
 50
61.67620000000001
 51
72.32369999999862
  0
ARC
  5
280B
330
18
100
AcDbEntity
  8
DISEGNO
100
AcDbCircle
 10
331.5716177243189
 20
44.24200000000019
 30
0.0
 40
0.3
100
AcDbArc
 50
72.32369999999862
 51
157.0000000000007
  0
LINE
  5
280C
330
18
100
AcDbEntity
  8
DISEGNO
100
AcDbLine
 10
331.0086177243188
 20
43.68400000000019
 30
0.0
 11
331.2956177243191
 21
44.36000000000058
 31
0.0
  0
ARC
  5
280D
330
18
100
AcDbEntity
  8
DISEGNO
100
AcDbCircle
 10
330.732617724319
 20
43.80200000000058
 30
0.0
 40
0.3
100
AcDbArc
 50
256.5410000000017
 51
337.0000000000008
  0
ARC
  5
280E
330
18
100
AcDbEntity
  8
DISEGNO
100
AcDbCircle
 10
311.3266177243199
 20
163.1999999999998
 30
0.0
 40
2.0
100
AcDbArc
 50
0.0
 51
90.0
  0
LINE
  5
280F
330
18
100
AcDbEntity
  8
DISEGNO
100
AcDbLine
 10
284.8766177243192
 20
170.0000000696654
 30
0.0
 11
322.3766177243192
 21
170.000000069665
 31
0.0
  0
LINE
  5
2810
330
18
100
AcDbEntity
  8
DISEGNO
100
AcDbLine
 10
322.3766177243192
 20
170.0
 30
0.0
 11
284.8766177243192
 21
170.0
 31
0.0
  0
LINE
  5
2811
330
18
100
AcDbEntity
  8
DISEGNO
100
AcDbLine
 10
288.9096177243187
 20
124.5
 30
0.0
 11
318.3426177243195
 21
124.5
 31
0.0
  0
LINE
  5
2812
330
18
100
AcDbEntity
  8
DISEGNO
100
AcDbLine
 10
284.8771177243193
 20
170.0000000696657
 30
0.0
 11
322.3771177243193
 21
170.0000000696652
 31
0.0
  0
LINE
  5
2813
330
18
100
AcDbEntity
  8
DISEGNO
100
AcDbLine
 10
284.8766177243192
 20
164.0
 30
0.0
 11
289.1266177243192
 21
164.0
 31
0.0
  0
ARC
  5
2814
330
18
100
AcDbEntity
  8
DISEGNO
100
AcDbCircle
 10
288.1266177243192
 20
153.5
 30
0.0
 40
1.0
100
AcDbArc
 50
312.7319999999969
 51
0.0
  0
ARC
  5
2815
330
18
100
AcDbEntity
  8
DISEGNO
100
AcDbCircle
 10
278.6266177243192
 20
163.7799999999997
 30
0.0
 40
19.8
100
AcDbArc
 50
297.1839999999995
 51
312.7319999999969
  0
ARC
  5
2816
330
18
100
AcDbEntity
  8
DISEGNO
100
AcDbCircle
 10
288.1286177243196
 20
145.2799999999997
 30
0.0
 40
1.0
100
AcDbArc
 50
117.1839999999995
 51
227.2529999999994
  0
LINE
  5
2817
330
18
100
AcDbEntity
  8
DISEGNO
100
AcDbLine
 10
284.8766177243192
 20
164.0
 30
0.0
 11
284.8766177243192
 21
170.0
 31
0.0
  0
LINE
  5
2818
330
18
100
AcDbEntity
  8
DISEGNO
100
AcDbLine
 10
293.9266177243185
 20
153.5
 30
0.0
 11
293.9266177243185
 21
163.2000000000007
 31
0.0
  0
LINE
  5
2819
330
18
100
AcDbEntity
  8
DISEGNO
100
AcDbLine
 10
289.1266177243192
 20
153.5
 30
0.0
 11
289.1266177243192
 21
164.0
 31
0.0
  0
ARC
  5
281A
330
18
100
AcDbEntity
  8
DISEGNO
100
AcDbCircle
 10
288.1266177243192
 20
153.5
 30
0.0
 40
5.799999999999999
100
AcDbArc
 50
312.7319999999969
 51
0.0000107468966163
  0
LINE
  5
281B
330
18
100
AcDbEntity
  8
DISEGNO
100
AcDbLine
 10
295.9266177243185
 20
165.2000000000007
 30
0.0
 11
311.326617724319
 21
165.2000000000007
 31
0.0
  0
ARC
  5
281C
330
18
100
AcDbEntity
  8
DISEGNO
100
AcDbCircle
 10
295.9266177243185
 20
163.1999999999998
 30
0.0
 40
2.0
100
AcDbArc
 50
90.0
 51
180.0
  0
ARC
  5
281D
330
18
100
AcDbEntity
  8
DISEGNO
100
AcDbCircle
 10
288.9096177243187
 20
125.5
 30
0.0
 40
1.0
100
AcDbArc
 50
137.2680000000028
 51
270.0
  0
ARC
  5
281E
330
18
100
AcDbEntity
  8
DISEGNO
100
AcDbCircle
 10
278.6266177243192
 20
135.0
 30
0.0
 40
10.0
100
AcDbArc
 50
330.6759999999983
 51
341.3240000000016
  0
LINE
  5
281F
330
18
100
AcDbEntity
  8
DISEGNO
100
AcDbLine
 10
286.2916177243183
 20
130.2700000000004
 30
0.0
 11
286.9616177243183
 21
129.9800000000004
 31
0.0
  0
ARC
  5
2820
330
18
100
AcDbEntity
  8
DISEGNO
100
AcDbCircle
 10
287.0836177243195
 20
130.25
 30
0.0
 40
0.3
100
AcDbArc
 50
246.0000000000023
 51
330.6759999999983
  0
ARC
  5
2821
330
18
100
AcDbEntity
  8
DISEGNO
100
AcDbCircle
 10
286.1696177243189
 20
130.0
 30
0.0
 40
0.3
100
AcDbArc
 50
66.00000000000237
 51
146.4590000000039
  0
ARC
  5
2822
330
18
100
AcDbEntity
  8
DISEGNO
100
AcDbCircle
 10
287.3206177243187
 20
139.3000000000002
 30
0.0
 40
0.3
100
AcDbArc
 50
26.32379999999564
 51
110.9999999999975
  0
ARC
  5
2823
330
18
100
AcDbEntity
  8
DISEGNO
100
AcDbCircle
 10
287.9656177243191
 20
137.6199999999999
 30
0.0
 40
0.3
100
AcDbArc
 50
290.9999999999976
 51
15.67619999999589
  0
ARC
  5
2824
330
18
100
AcDbEntity
  8
DISEGNO
100
AcDbCircle
 10
287.4956177243198
 20
136.8000000000002
 30
0.0
 40
0.3
100
AcDbArc
 50
110.9999999999975
 51
191.4590000000066
  0
LINE
  5
2825
330
18
100
AcDbEntity
  8
DISEGNO
100
AcDbLine
 10
287.3886177243189
 20
137.0800000000008
 30
0.0
 11
288.0726177243191
 21
137.3400000000001
 31
0.0
  0
ARC
  5
2826
330
18
100
AcDbEntity
  8
DISEGNO
100
AcDbCircle
 10
278.6266177243192
 20
135.0
 30
0.0
 40
10.0
100
AcDbArc
 50
15.67619999999589
 51
26.32379999999564
  0
LINE
  5
2827
330
18
100
AcDbEntity
  8
DISEGNO
100
AcDbLine
 10
286.5286177243192
 20
139.3200000000006
 30
0.0
 11
287.2126177243185
 21
139.5800000000008
 31
0.0
  0
ARC
  5
2828
330
18
100
AcDbEntity
  8
DISEGNO
100
AcDbCircle
 10
286.4206177243191
 20
139.6000000000003
 30
0.0
 40
0.3
100
AcDbArc
 50
210.5409999999968
 51
290.9999999999976
  0
ARC
  5
2829
330
18
100
AcDbEntity
  8
DISEGNO
100
AcDbCircle
 10
287.8156177243195
 20
131.8900000000003
 30
0.0
 40
0.3
100
AcDbArc
 50
341.3240000000016
 51
66.00000000000237
  0
LINE
  5
282A
330
18
100
AcDbEntity
  8
DISEGNO
100
AcDbLine
 10
287.2676177243188
 20
132.4700000000002
 30
0.0
 11
287.9376177243189
 21
132.17
 31
0.0
  0
ARC
  5
282B
330
18
100
AcDbEntity
  8
DISEGNO
100
AcDbCircle
 10
287.38961772432
 20
132.7399999999998
 30
0.0
 40
0.3
100
AcDbArc
 50
165.541000000001
 51
246.0000000000023
  0
ARC
  5
282C
330
18
100
AcDbEntity
  8
DISEGNO
100
AcDbCircle
 10
278.6266177243192
 20
135.0
 30
0.0
 40
8.75
100
AcDbArc
 50
345.541000000001
 51
11.45940000000299
  0
ARC
  5
282D
330
18
100
AcDbEntity
  8
DISEGNO
100
AcDbCircle
 10
278.6266177243192
 20
135.0
 30
0.0
 40
13.0
100
AcDbArc
 50
317.2680000000028
 51
47.25339999999823
  0
ARC
  5
282E
330
18
100
AcDbEntity
  8
DISEGNO
100
AcDbCircle
 10
328.6266177243192
 20
135.0
 30
0.0
 40
8.75
100
AcDbArc
 50
78.54059999999766
 51
104.4589999999982
  0
ARC
  5
282F
330
18
100
AcDbEntity
  8
DISEGNO
100
AcDbCircle
 10
328.6266177243192
 20
163.7799999999997
 30
0.0
 40
15.0
100
AcDbArc
 50
227.268000000003
 51
312.7319999999969
  0
LINE
  5
2830
330
18
100
AcDbEntity
  8
DISEGNO
100
AcDbLine
 10
318.1266177243192
 20
153.5
 30
0.0
 11
318.1266177243192
 21
164.0
 31
0.0
  0
ARC
  5
2831
330
18
100
AcDbEntity
  8
DISEGNO
100
AcDbCircle
 10
325.5196177243192
 20
144.1900000000005
 30
0.0
 40
0.3
100
AcDbArc
 50
24.00000000000358
 51
108.6759999999995
  0
LINE
  5
2832
330
18
100
AcDbEntity
  8
DISEGNO
100
AcDbLine
 10
326.0926177243196
 20
143.6400000000003
 30
0.0
 11
325.7946177243189
 21
144.3100000000004
 31
0.0
  0
ARC
  5
2833
330
18
100
AcDbEntity
  8
DISEGNO
100
AcDbCircle
 10
326.366617724319
 20
143.7600000000002
 30
0.0
 40
0.3
100
AcDbArc
 50
204.0000000000036
 51
284.4589999999982
  0
ARC
  5
2834
330
18
100
AcDbEntity
  8
DISEGNO
100
AcDbCircle
 10
319.1266177243192
 20
153.5
 30
0.0
 40
1.0
100
AcDbArc
 50
180.0
 51
227.268000000003
  0
ARC
  5
2835
330
18
100
AcDbEntity
  8
DISEGNO
100
AcDbCircle
 10
319.1236177243186
 20
145.2799999999997
 30
0.0
 40
1.0
100
AcDbArc
 50
312.7470000000006
 51
62.8154999999961
  0
ARC
  5
2836
330
18
100
AcDbEntity
  8
DISEGNO
100
AcDbCircle
 10
323.625617724319
 20
142.5399999999999
 30
0.0
 40
0.3
100
AcDbArc
 50
303.5410000000006
 51
24.00000000000358
  0
LINE
  5
2837
330
18
100
AcDbEntity
  8
DISEGNO
100
AcDbLine
 10
323.8996177243184
 20
142.6700000000001
 30
0.0
 11
323.6016177243196
 21
143.3400000000001
 31
0.0
  0
ARC
  5
2838
330
18
100
AcDbEntity
  8
DISEGNO
100
AcDbCircle
 10
323.875617724319
 20
143.46
 30
0.0
 40
0.3
100
AcDbArc
 50
119.3240000000017
 51
204.0000000000036
  0
ARC
  5
2839
330
18
100
AcDbEntity
  8
DISEGNO
100
AcDbCircle
 10
328.6266177243192
 20
135.0
 30
0.0
 40
10.0
100
AcDbArc
 50
108.6759999999995
 51
119.3240000000017
  0
LINE
  5
283A
330
18
100
AcDbEntity
  8
DISEGNO
100
AcDbLine
 10
322.3766177243192
 20
164.0
 30
0.0
 11
322.3766177243192
 21
170.0
 31
0.0
  0
LINE
  5
283B
330
18
100
AcDbEntity
  8
DISEGNO
100
AcDbLine
 10
322.3766177243192
 20
164.0
 30
0.0
 11
318.1266177243192
 21
164.0
 31
0.0
  0
LINE
  5
283C
330
18
100
AcDbEntity
  8
DISEGNO
100
AcDbLine
 10
339.1266177243192
 20
153.5
 30
0.0
 11
339.1266177243192
 21
164.0
 31
0.0
  0
ARC
  5
283D
330
18
100
AcDbEntity
  8
DISEGNO
100
AcDbCircle
 10
338.1266177243192
 20
153.5
 30
0.0
 40
1.0
100
AcDbArc
 50
312.7319999999969
 51
0.0
  0
ARC
  5
283E
330
18
100
AcDbEntity
  8
DISEGNO
100
AcDbCircle
 10
339.7636177243198
 20
146.1400000000003
 30
0.0
 40
2.0
100
AcDbArc
 50
135.0000000000023
 51
315.0000000000023
  0
LINE
  5
283F
330
18
100
AcDbEntity
  8
DISEGNO
100
AcDbLine
 10
330.9666177243193
 20
144.4499999999998
 30
0.0
 11
330.7046177243187
 21
143.7600000000002
 31
0.0
  0
ARC
  5
2840
330
18
100
AcDbEntity
  8
DISEGNO
100
AcDbCircle
 10
331.2476177243184
 20
144.3400000000001
 30
0.0
 40
0.3
100
AcDbArc
 50
74.32379999999785
 51
159.0000000000024
  0
ARC
  5
2841
330
18
100
AcDbEntity
  8
DISEGNO
100
AcDbCircle
 10
328.6266177243192
 20
135.0
 30
0.0
 40
10.0
100
AcDbArc
 50
63.67620000000435
 51
74.32379999999785
  0
ARC
  5
2842
330
18
100
AcDbEntity
  8
DISEGNO
100
AcDbCircle
 10
332.9276177243187
 20
143.6900000000005
 30
0.0
 40
0.3
100
AcDbArc
 50
339.0000000000024
 51
63.67620000000435
  0
LINE
  5
2843
330
18
100
AcDbEntity
  8
DISEGNO
100
AcDbLine
 10
333.2076177243193
 20
143.5900000000001
 30
0.0
 11
332.9446177243185
 21
142.9000000000005
 31
0.0
  0
ARC
  5
2844
330
18
100
AcDbEntity
  8
DISEGNO
100
AcDbCircle
 10
333.2246177243192
 20
142.8000000000002
 30
0.0
 40
0.3
100
AcDbArc
 50
159.0000000000024
 51
239.4589999999976
  0
ARC
  5
2845
330
18
100
AcDbEntity
  8
DISEGNO
100
AcDbCircle
 10
330.4246177243199
 20
143.8699999999999
 30
0.0
 40
0.3
100
AcDbArc
 50
258.5410000000004
 51
339.0000000000024
  0
LINE
  5
2846
330
18
100
AcDbEntity
  8
DISEGNO
100
AcDbLine
 10
334.8766177243192
 20
170.0
 30
0.0
 11
334.8766177243192
 21
164.0
 31
0.0
  0
LINE
  5
2847
330
18
100
AcDbEntity
  8
DISEGNO
100
AcDbLine
 10
339.1266177243192
 20
164.0
 30
0.0
 11
334.8766177243192
 21
164.0
 31
0.0
  0
LINE
  5
2848
330
18
100
AcDbEntity
  8
DISEGNO
100
AcDbLine
 10
313.326617724319
 20
153.5
 30
0.0
 11
313.326617724319
 21
163.2000000000007
 31
0.0
  0
ARC
  5
2849
330
18
100
AcDbEntity
  8
DISEGNO
100
AcDbCircle
 10
319.1266177243192
 20
153.5
 30
0.0
 40
5.799999999999999
100
AcDbArc
 50
180.0
 51
227.268000000003
  0
ARC
  5
284A
330
18
100
AcDbEntity
  8
DISEGNO
100
AcDbCircle
 10
328.6266177243192
 20
163.7799999999997
 30
0.0
 40
19.8
100
AcDbArc
 50
227.268000000003
 51
242.8160000000005
  0
ARC
  5
284B
330
18
100
AcDbEntity
  8
DISEGNO
100
AcDbCircle
 10
318.3426177243195
 20
125.5
 30
0.0
 40
1.0
100
AcDbArc
 50
270.0
 51
42.73179999999691
  0
ARC
  5
284C
330
18
100
AcDbEntity
  8
DISEGNO
100
AcDbCircle
 10
335.7266177243196
 20
118.0
 30
0.0
 40
4.0
100
AcDbArc
 50
0.0
 51
90.0
  0
ARC
  5
284D
330
18
100
AcDbEntity
  8
DISEGNO
100
AcDbCircle
 10
328.6266177243192
 20
135.0
 30
0.0
 40
8.75
100
AcDbArc
 50
257.5409999999977
 51
283.4589999999983
  0
ARC
  5
284E
330
18
100
AcDbEntity
  8
DISEGNO
100
AcDbCircle
 10
326.6736177243197
 20
126.1599999999998
 30
0.0
 40
0.3
100
AcDbArc
 50
77.54059999999732
 51
158.0000000000053
  0
LINE
  5
284F
330
18
100
AcDbEntity
  8
DISEGNO
100
AcDbLine
 10
326.3956177243195
 20
126.2799999999997
 30
0.0
 11
326.1206177243198
 21
125.6000000000003
 31
0.0
  0
ARC
  5
2850
330
18
100
AcDbEntity
  8
DISEGNO
100
AcDbCircle
 10
325.8426177243196
 20
125.71
 30
0.0
 40
0.3
100
AcDbArc
 50
253.3240000000013
 51
338.0000000000053
  0
LINE
  5
2851
330
18
100
AcDbEntity
  8
DISEGNO
100
AcDbLine
 10
324.1706177243191
 20
127.1800000000003
 30
0.0
 11
323.8956177243194
 21
126.5
 31
0.0
  0
ARC
  5
2852
330
18
100
AcDbEntity
  8
DISEGNO
100
AcDbCircle
 10
324.1736177243197
 20
126.3800000000001
 30
0.0
 40
0.3
100
AcDbArc
 50
158.0000000000053
 51
242.6760000000032
  0
ARC
  5
2853
330
18
100
AcDbEntity
  8
DISEGNO
100
AcDbCircle
 10
328.6266177243192
 20
135.0
 30
0.0
 40
10.0
100
AcDbArc
 50
198.6759999999984
 51
209.3240000000017
  0
ARC
  5
2854
330
18
100
AcDbEntity
  8
DISEGNO
100
AcDbCircle
 10
321.0826177243193
 20
130.0
 30
0.0
 40
0.3
100
AcDbArc
 50
33.54060000000302
 51
113.9999999999976
  0
LINE
  5
2855
330
18
100
AcDbEntity
  8
DISEGNO
100
AcDbLine
 10
320.960617724319
 20
130.2700000000004
 30
0.0
 11
320.2916177243182
 21
129.9800000000004
 31
0.0
  0
ARC
  5
2856
330
18
100
AcDbEntity
  8
DISEGNO
100
AcDbCircle
 10
320.1686177243187
 20
130.25
 30
0.0
 40
0.3
100
AcDbArc
 50
209.3240000000017
 51
293.9999999999976
  0
ARC
  5
2857
330
18
100
AcDbEntity
  8
DISEGNO
100
AcDbCircle
 10
323.8926177243188
 20
127.2899999999999
 30
0.0
 40
0.3
100
AcDbArc
 50
338.0000000000053
 51
58.45939999999761
  0
ARC
  5
2858
330
18
100
AcDbEntity
  8
DISEGNO
100
AcDbCircle
 10
328.6266177243192
 20
135.0
 30
0.0
 40
8.75
100
AcDbArc
 50
213.5409999999961
 51
238.4589999999996
  0
ARC
  5
2859
330
18
100
AcDbEntity
  8
DISEGNO
100
AcDbCircle
 10
319.9316177243195
 20
139.3000000000002
 30
0.0
 40
0.3
100
AcDbArc
 50
69.00000000000244
 51
153.6759999999954
  0
ARC
  5
285A
330
18
100
AcDbEntity
  8
DISEGNO
100
AcDbCircle
 10
319.7566177243184
 20
136.8000000000002
 30
0.0
 40
0.3
100
AcDbArc
 50
348.5409999999934
 51
69.00000000000244
  0
ARC
  5
285B
330
18
100
AcDbEntity
  8
DISEGNO
100
AcDbCircle
 10
319.2866177243191
 20
137.6199999999999
 30
0.0
 40
0.3
100
AcDbArc
 50
164.3240000000064
 51
249.0000000000024
  0
LINE
  5
285C
330
18
100
AcDbEntity
  8
DISEGNO
100
AcDbLine
 10
319.8646177243186
 20
137.0800000000008
 30
0.0
 11
319.1796177243191
 21
137.3400000000001
 31
0.0
  0
ARC
  5
285D
330
18
100
AcDbEntity
  8
DISEGNO
100
AcDbCircle
 10
328.6266177243192
 20
135.0
 30
0.0
 40
10.0
100
AcDbArc
 50
153.6759999999954
 51
164.3240000000064
  0
LINE
  5
285E
330
18
100
AcDbEntity
  8
DISEGNO
100
AcDbLine
 10
320.7246177243192
 20
139.3200000000006
 30
0.0
 11
320.0396177243197
 21
139.5800000000008
 31
0.0
  0
ARC
  5
285F
330
18
100
AcDbEntity
  8
DISEGNO
100
AcDbCircle
 10
320.8316177243191
 20
139.6000000000003
 30
0.0
 40
0.3
100
AcDbArc
 50
249.0000000000024
 51
329.4590000000031
  0
ARC
  5
2860
330
18
100
AcDbEntity
  8
DISEGNO
100
AcDbCircle
 10
319.86261772432
 20
132.7399999999998
 30
0.0
 40
0.3
100
AcDbArc
 50
293.9999999999976
 51
14.45939999999978
  0
ARC
  5
2861
330
18
100
AcDbEntity
  8
DISEGNO
100
AcDbCircle
 10
319.4366177243187
 20
131.8900000000003
 30
0.0
 40
0.3
100
AcDbArc
 50
113.9999999999976
 51
198.6759999999984
  0
LINE
  5
2862
330
18
100
AcDbEntity
  8
DISEGNO
100
AcDbLine
 10
319.9846177243194
 20
132.4700000000002
 30
0.0
 11
319.3146177243193
 21
132.17
 31
0.0
  0
ARC
  5
2863
330
18
100
AcDbEntity
  8
DISEGNO
100
AcDbCircle
 10
328.6266177243192
 20
135.0
 30
0.0
 40
8.75
100
AcDbArc
 50
168.5409999999933
 51
194.458999999999
  0
ARC
  5
2864
330
18
100
AcDbEntity
  8
DISEGNO
100
AcDbCircle
 10
328.6266177243192
 20
135.0
 30
0.0
 40
10.0
100
AcDbArc
 50
242.6760000000032
 51
253.3240000000013
  0
LINE
  5
2865
330
18
100
AcDbEntity
  8
DISEGNO
100
AcDbLine
 10
333.2176177243196
 20
127.25
 30
0.0
 11
333.5046177243198
 21
126.5799999999999
 31
0.0
  0
ARC
  5
2866
330
18
100
AcDbEntity
  8
DISEGNO
100
AcDbCircle
 10
333.22861772432
 20
126.46
 30
0.0
 40
0.3
100
AcDbArc
 50
298.3239999999976
 51
22.99999999999926
  0
ARC
  5
2867
330
18
100
AcDbEntity
  8
DISEGNO
100
AcDbCircle
 10
328.6266177243192
 20
135.0
 30
0.0
 40
10.0
100
AcDbArc
 50
287.6759999999966
 51
298.3239999999976
  0
ARC
  5
2868
330
18
100
AcDbEntity
  8
DISEGNO
100
AcDbCircle
 10
331.5716177243189
 20
125.7600000000002
 30
0.0
 40
0.3
100
AcDbArc
 50
202.9999999999992
 51
287.6759999999966
  0
LINE
  5
2869
330
18
100
AcDbEntity
  8
DISEGNO
100
AcDbLine
 10
331.0086177243188
 20
126.3200000000006
 30
0.0
 11
331.2956177243191
 21
125.6400000000003
 31
0.0
  0
ARC
  5
286A
330
18
100
AcDbEntity
  8
DISEGNO
100
AcDbCircle
 10
330.732617724319
 20
126.1999999999998
 30
0.0
 40
0.3
100
AcDbArc
 50
22.99999999999926
 51
103.4589999999983
  0
ARC
  5
286B
330
18
100
AcDbEntity
  8
DISEGNO
100
AcDbCircle
 10
328.6266177243192
 20
135.0
 30
0.0
 40
10.0
100
AcDbArc
 50
332.6759999999959
 51
343.3240000000022
  0
ARC
  5
286C
330
18
100
AcDbEntity
  8
DISEGNO
100
AcDbCircle
 10
337.2436177243194
 20
130.5500000000002
 30
0.0
 40
0.3
100
AcDbArc
 50
247.9999999999981
 51
332.6759999999959
  0
LINE
  5
286D
330
18
100
AcDbEntity
  8
DISEGNO
100
AcDbLine
 10
336.451617724319
 20
130.5399999999999
 30
0.0
 11
337.1316177243184
 21
130.2700000000004
 31
0.0
  0
ARC
  5
286E
330
18
100
AcDbEntity
  8
DISEGNO
100
AcDbCircle
 10
336.3396177243189
 20
130.2700000000004
 30
0.0
 40
0.3
100
AcDbArc
 50
67.99999999999807
 51
148.4589999999968
  0
ARC
  5
286F
330
18
100
AcDbEntity
  8
DISEGNO
100
AcDbCircle
 10
336.25561772432
 20
139.8699999999999
 30
0.0
 40
0.3
100
AcDbArc
 50
212.5409999999988
 51
293.0000000000005
  0
LINE
  5
2870
330
18
100
AcDbEntity
  8
DISEGNO
100
AcDbLine
 10
337.0476177243195
 20
139.8800000000001
 30
0.0
 11
336.3726177243184
 21
139.5900000000001
 31
0.0
  0
ARC
  5
2871
330
18
100
AcDbEntity
  8
DISEGNO
100
AcDbCircle
 10
337.1646177243197
 20
139.6000000000003
 30
0.0
 40
0.3
100
AcDbArc
 50
28.32379999999427
 51
113.0000000000005
  0
LINE
  5
2872
330
18
100
AcDbEntity
  8
DISEGNO
100
AcDbLine
 10
337.9856177243196
 20
137.67
 30
0.0
 11
337.3106177243185
 21
137.3800000000001
 31
0.0
  0
ARC
  5
2873
330
18
100
AcDbEntity
  8
DISEGNO
100
AcDbCircle
 10
337.4276177243187
 20
137.1100000000005
 30
0.0
 40
0.3
100
AcDbArc
 50
113.0000000000005
 51
193.4590000000054
  0
ARC
  5
2874
330
18
100
AcDbEntity
  8
DISEGNO
100
AcDbCircle
 10
337.8686177243194
 20
137.9499999999998
 30
0.0
 40
0.3
100
AcDbArc
 50
293.0000000000005
 51
17.67619999999726
  0
ARC
  5
2875
330
18
100
AcDbEntity
  8
DISEGNO
100
AcDbCircle
 10
328.6266177243192
 20
135.0
 30
0.0
 40
10.0
100
AcDbArc
 50
17.67619999999726
 51
28.32379999999427
  0
ARC
  5
2876
330
18
100
AcDbEntity
  8
DISEGNO
100
AcDbCircle
 10
337.4626177243186
 20
133.0500000000002
 30
0.0
 40
0.3
100
AcDbArc
 50
167.5409999999977
 51
247.9999999999981
  0
LINE
  5
2877
330
18
100
AcDbEntity
  8
DISEGNO
100
AcDbLine
 10
337.3506177243194
 20
132.7700000000004
 30
0.0
 11
338.0306177243197
 21
132.5
 31
0.0
  0
ARC
  5
2878
330
18
100
AcDbEntity
  8
DISEGNO
100
AcDbCircle
 10
337.9186177243187
 20
132.2200000000002
 30
0.0
 40
0.3
100
AcDbArc
 50
343.3240000000022
 51
67.99999999999807
  0
ARC
  5
2879
330
18
100
AcDbEntity
  8
DISEGNO
100
AcDbCircle
 10
328.6266177243192
 20
135.0
 30
0.0
 40
8.75
100
AcDbArc
 50
347.5409999999977
 51
13.45940000000316
  0
ARC
  5
287A
330
18
100
AcDbEntity
  8
DISEGNO
100
AcDbCircle
 10
333.4946177243196
 20
127.3699999999999
 30
0.0
 40
0.3
100
AcDbArc
 50
122.5409999999971
 51
202.9999999999992
  0
ARC
  5
287B
330
18
100
AcDbEntity
  8
DISEGNO
100
AcDbCircle
 10
328.6266177243192
 20
135.0
 30
0.0
 40
8.75
100
AcDbArc
 50
302.5409999999971
 51
328.4589999999968
  0
ARC
  5
287C
330
18
100
AcDbEntity
  8
DISEGNO
100
AcDbCircle
 10
328.6266177243192
 20
135.0
 30
0.0
 40
13.0
100
AcDbArc
 50
132.7470000000006
 51
222.7319999999971
  0
ARC
  5
287D
330
18
100
AcDbEntity
  8
DISEGNO
100
AcDbCircle
 10
328.6266177243192
 20
135.0
 30
0.0
 40
8.75
100
AcDbArc
 50
123.5410000000006
 51
149.4590000000031
  0
ARC
  5
287E
330
18
100
AcDbEntity
  8
DISEGNO
100
AcDbCircle
 10
328.6266177243192
 20
135.0
 30
0.0
 40
8.75
100
AcDbArc
 50
32.54059999999904
 51
59.45939999999856
  0
LINE
  5
2880
330
18
100
AcDbEntity
  8
DISEGNO
100
AcDbLine
 10
325.1271177243193
 20
167.0000000000002
 30
0.0
 11
325.1271177243193
 21
170.0000000000002
 31
0.0
  0
LINE
  5
2881
330
18
100
AcDbEntity
  8
DISEGNO
100
AcDbLine
 10
325.1271177243193
 20
167.0000000000002
 30
0.0
 11
332.1271177243193
 21
167.0000000000002
 31
0.0
  0
LINE
  5
2882
330
18
100
AcDbEntity
  8
DISEGNO
100
AcDbLine
 10
332.1271177243193
 20
167.0000000000002
 30
0.0
 11
332.1271177243193
 21
170.0000000000002
 31
0.0
  0
LINE
  5
2883
330
18
100
AcDbEntity
  8
ASSI
100
AcDbLine
 10
331.8771177243193
 20
178.3796268436408
 30
0.0
 11
331.8771177243193
 21
171.7571758323074
 31
0.0
  0
LINE
  5
2884
330
18
100
AcDbEntity
  8
ASSI
100
AcDbLine
 10
335.2134088636117
 20
175.0000000000002
 30
0.0
 11
328.4868199527223
 21
175.0000000000002
 31
0.0
  0
LINE
  5
2887
330
18
100
AcDbEntity
  8
DISEGNO
100
AcDbLine
 10
337.3771177243193
 20
180.2
 30
0.0
 11
337.3771177243193
 21
174.5000000000002
 31
0.0
  0
LINE
  5
288B
330
18
100
AcDbEntity
  8
DISEGNO
100
AcDbLine
 10
339.6271177243184
 20
174.5000000000004
 30
0.0
 11
339.6271177243193
 21
170.0000000000002
 31
0.0
  0
ARC
  5
288C
330
18
100
AcDbEntity
  8
DISEGNO
100
AcDbCircle
 10
354.82661772432
 20
115.6999999999998
 30
0.0
 40
4.0
100
AcDbArc
 50
0.0
 51
90.0
  0
LINE
  5
288D
330
18
100
AcDbEntity
  8
DISEGNO
100
AcDbLine
 10
342.2266177243196
 20
51.30000000000018
 30
0.0
 11
342.2266177243196
 21
118.6999999999998
 31
0.0
  0
LINE
  5
2899
330
18
100
AcDbEntity
  8
DISEGNO
100
AcDbLine
 10
347.1266177243192
 20
45.49999999999999
 30
0.0
 11
357.6266177243192
 21
45.49999999999999
 31
0.0
  0
LINE
  5
289A
330
18
100
AcDbEntity
  8
DISEGNO
100
AcDbLine
 10
343.2266177243196
 20
50.30000000000018
 30
0.0
 11
354.826617724319
 21
50.30000000000018
 31
0.0
  0
ARC
  5
289B
330
18
100
AcDbEntity
  8
DISEGNO
100
AcDbCircle
 10
347.1266177243192
 20
44.5
 30
0.0
 40
1.0
100
AcDbArc
 50
90.0
 51
137.2680000000028
  0
ARC
  5
289C
330
18
100
AcDbEntity
  8
DISEGNO
100
AcDbCircle
 10
343.2266177243196
 20
51.30000000000018
 30
0.0
 40
1.0
100
AcDbArc
 50
180.0
 51
270.0
  0
ARC
  5
289D
330
18
100
AcDbEntity
  8
DISEGNO
100
AcDbCircle
 10
354.826617724319
 20
54.30000000000018
 30
0.0
 40
4.0
100
AcDbArc
 50
270.0
 51
0.0
  0
LINE
  5
289E
330
18
100
AcDbEntity
  8
DISEGNO
100
AcDbLine
 10
358.826617724319
 20
54.30000000000018
 30
0.0
 11
358.826617724319
 21
115.6999999999998
 31
0.0
  0
LINE
  5
28BC
330
18
100
AcDbEntity
  8
DISEGNO
100
AcDbLine
 10
363.6266177243192
 20
169.0000001870958
 30
0.0
 11
363.6266177243192
 21
128.75
 31
0.0
  0
ARC
  5
28BD
330
18
100
AcDbEntity
  8
DISEGNO
100
AcDbCircle
 10
362.6266177243192
 20
169.0
 30
0.0
 40
1.0
100
AcDbArc
 50
0.0000107197993082
 51
90.0
  0
ARC
  5
28BE
330
18
100
AcDbEntity
  8
DISEGNO
100
AcDbCircle
 10
344.0106177243192
 20
154.6300000000001
 30
0.0
 40
1.0
100
AcDbArc
 50
315.0000000000023
 51
22.97629999999779
  0
ARC
  5
28BF
330
18
100
AcDbEntity
  8
DISEGNO
100
AcDbCircle
 10
358.732617724319
 20
154.6100000000006
 30
0.0
 40
1.0
100
AcDbArc
 50
156.8630000000008
 51
218.231999999998
  0
ARC
  5
28C0
330
18
100
AcDbEntity
  8
DISEGNO
100
AcDbCircle
 10
351.3766177243192
 20
157.75
 30
0.0
 40
7.0
100
AcDbArc
 50
247.0249999999973
 51
293.1369999999979
  0
LINE
  5
28C1
330
18
100
AcDbEntity
  8
DISEGNO
100
AcDbLine
 10
347.1266177243192
 20
145.5
 30
0.0
 11
357.6266177243192
 21
145.5
 31
0.0
  0
ARC
  5
28C2
330
18
100
AcDbEntity
  8
DISEGNO
100
AcDbCircle
 10
347.1266177243192
 20
144.5
 30
0.0
 40
1.0
100
AcDbArc
 50
90.0
 51
137.2680000000028
  0
ARC
  5
28C3
330
18
100
AcDbEntity
  8
DISEGNO
100
AcDbCircle
 10
348.2536177243196
 20
150.3900000000003
 30
0.0
 40
1.0
100
AcDbArc
 50
67.02499999999732
 51
135.0000000000023
  0
ARC
  5
28C4
330
18
100
AcDbEntity
  8
DISEGNO
100
AcDbCircle
 10
356.3766177243192
 20
152.75
 30
0.0
 40
2.0
100
AcDbArc
 50
231.7679999999995
 51
38.23219999999799
  0
ARC
  5
28C5
330
18
100
AcDbEntity
  8
DISEGNO
100
AcDbCircle
 10
354.5196177243192
 20
150.3900000000003
 30
0.0
 40
1.0
100
AcDbArc
 50
51.76799999999945
 51
113.1369999999979
  0
ARC
  5
28C6
330
18
100
AcDbEntity
  8
DISEGNO
100
AcDbCircle
 10
351.3766177243192
 20
157.75
 30
0.0
 40
7.0
100
AcDbArc
 50
66.86300000000212
 51
113.1369999999979
  0
LINE
  5
28C7
330
18
100
AcDbEntity
  8
DISEGNO
100
AcDbLine
 10
353.7348777243192
 20
169.9997994844761
 30
0.0
 11
344.4848777243192
 21
169.9997994844761
 31
0.0
  0
ARC
  5
28C8
330
18
100
AcDbEntity
  8
DISEGNO
100
AcDbCircle
 10
348.232617724319
 20
165.1100000000005
 30
0.0
 40
1.0
100
AcDbArc
 50
231.7679999999995
 51
293.1369999999979
  0
ARC
  5
28C9
330
18
100
AcDbEntity
  8
DISEGNO
100
AcDbCircle
 10
351.3766177243192
 20
157.75
 30
0.0
 40
7.0
100
AcDbArc
 50
156.8630000000008
 51
202.9760000000058
  0
ARC
  5
28CA
330
18
100
AcDbEntity
  8
DISEGNO
100
AcDbCircle
 10
344.0196177243192
 20
160.8900000000003
 30
0.0
 40
1.0
100
AcDbArc
 50
336.8630000000008
 51
38.23219999999799
  0
ARC
  5
28CB
330
18
100
AcDbEntity
  8
DISEGNO
100
AcDbCircle
 10
346.3766177243192
 20
162.75
 30
0.0
 40
2.0
100
AcDbArc
 50
51.76799999999945
 51
218.231999999998
  0
ARC
  5
28CC
330
18
100
AcDbEntity
  8
DISEGNO
100
AcDbCircle
 10
351.3766177243192
 20
157.75
 30
0.0
 40
7.0
100
AcDbArc
 50
336.8630000000008
 51
23.1370999999985
  0
ARC
  5
28CD
330
18
100
AcDbEntity
  8
DISEGNO
100
AcDbCircle
 10
356.3766177243192
 20
162.75
 30
0.0
 40
2.0
100
AcDbArc
 50
321.768000000002
 51
128.2320000000005
  0
ARC
  5
28CE
330
18
100
AcDbEntity
  8
DISEGNO
100
AcDbCircle
 10
358.732617724319
 20
160.8900000000003
 30
0.0
 40
1.0
100
AcDbArc
 50
141.768000000002
 51
203.1369999999992
  0
ARC
  5
28CF
330
18
100
AcDbEntity
  8
DISEGNO
100
AcDbCircle
 10
354.5196177243192
 20
165.1100000000005
 30
0.0
 40
1.0
100
AcDbArc
 50
246.8630000000021
 51
308.2320000000005
  0
LINE
  5
28D0
330
18
100
AcDbEntity
  8
DISEGNO
100
AcDbLine
 10
357.6266177243192
 20
124.5
 30
0.0
 11
357.6266177243192
 21
128.75
 31
0.0
  0
LINE
  5
28D1
330
18
100
AcDbEntity
  8
DISEGNO
100
AcDbLine
 10
347.1266177243192
 20
124.5
 30
0.0
 11
357.6266177243192
 21
124.5
 31
0.0
  0
LINE
  5
28D2
330
18
100
AcDbEntity
  8
DISEGNO
100
AcDbLine
 10
343.2266177243196
 20
119.6999999999998
 30
0.0
 11
354.826617724319
 21
119.6999999999998
 31
0.0
  0
ARC
  5
28D3
330
18
100
AcDbEntity
  8
DISEGNO
100
AcDbCircle
 10
347.1266177243192
 20
125.5
 30
0.0
 40
1.0
100
AcDbArc
 50
222.7319999999971
 51
270.0
  0
ARC
  5
28D4
330
18
100
AcDbEntity
  8
DISEGNO
100
AcDbCircle
 10
343.2266177243196
 20
118.6999999999998
 30
0.0
 40
1.0
100
AcDbArc
 50
90.0
 51
180.0
  0
ARC
  5
28D5
330
18
100
AcDbEntity
  8
DISEGNO
100
AcDbCircle
 10
357.4096177243187
 20
135.0
 30
0.0
 40
15.0
100
AcDbArc
 50
137.2680000000028
 51
222.7319999999971
  0
LINE
  5
28D6
330
18
100
AcDbEntity
  8
DISEGNO
100
AcDbLine
 10
357.6266177243192
 20
141.25
 30
0.0
 11
357.6266177243192
 21
145.5
 31
0.0
  0
LINE
  5
28D7
330
18
100
AcDbEntity
  8
DISEGNO
100
AcDbLine
 10
363.6266177243192
 20
128.75
 30
0.0
 11
357.6266177243192
 21
128.75
 31
0.0
  0
LINE
  5
28D8
330
18
100
AcDbEntity
  8
DISEGNO
100
AcDbLine
 10
357.6266177243192
 20
141.25
 30
0.0
 11
363.6266177243192
 21
141.2499999999997
 31
0.0
  0
LINE
  5
2905
330
18
100
AcDbEntity
  8
DISEGNO
100
AcDbLine
 10
362.1266177243192
 20
135.0001994844735
 30
0.0
 11
362.1266177243192
 21
129.0001994844735
 31
0.0
  0
LINE
  5
2906
330
18
100
AcDbEntity
  8
DISEGNO
100
AcDbLine
 10
362.1266177243192
 20
129.0001994844735
 30
0.0
 11
357.6266177243192
 21
129.0001994844735
 31
0.0
  0
LINE
  5
2907
330
18
100
AcDbEntity
  8
DISEGNO
100
AcDbLine
 10
357.6266177243192
 20
129.0001994844735
 30
0.0
 11
357.6266177243192
 21
126.0001994844738
 31
0.0
  0
LINE
  5
2908
330
18
100
AcDbEntity
  8
DISEGNO
100
AcDbLine
 10
357.6266177243192
 20
141.0001994844735
 30
0.0
 11
357.6266177243192
 21
144.0001994844733
 31
0.0
  0
LINE
  5
2909
330
18
100
AcDbEntity
  8
DISEGNO
100
AcDbLine
 10
362.1266177243192
 20
141.0001994844735
 30
0.0
 11
357.6266177243192
 21
141.0001994844735
 31
0.0
  0
LINE
  5
290A
330
18
100
AcDbEntity
  8
DISEGNO
100
AcDbLine
 10
362.1266177243192
 20
135.0001994844735
 30
0.0
 11
362.1266177243192
 21
141.0001994844735
 31
0.0
  0
LINE
  5
290B
330
18
100
AcDbEntity
  8
DISEGNO
100
AcDbLine
 10
351.1266177243192
 20
126.0001994844735
 30
0.0
 11
350.6266177243192
 21
126.5001994844735
 31
0.0
  0
LINE
  5
290C
330
18
100
AcDbEntity
  8
DISEGNO
100
AcDbLine
 10
350.6266177243192
 20
135.0001994844735
 30
0.0
 11
350.6266177243192
 21
126.5001994844735
 31
0.0
  0
LINE
  5
290D
330
18
100
AcDbEntity
  8
DISEGNO
100
AcDbLine
 10
350.6266177243192
 20
135.0001994844735
 30
0.0
 11
350.6266177243192
 21
143.5001994844735
 31
0.0
  0
LINE
  5
290E
330
18
100
AcDbEntity
  8
DISEGNO
100
AcDbLine
 10
351.1266177243192
 20
144.0001994844736
 30
0.0
 11
350.6266177243192
 21
143.5001994844735
 31
0.0
  0
LINE
  5
290F
330
18
100
AcDbEntity
  8
DISEGNO
100
AcDbLine
 10
357.6266177243192
 20
126.0001994844738
 30
0.0
 11
351.1266177243192
 21
126.0001994844735
 31
0.0
  0
LINE
  5
2910
330
18
100
AcDbEntity
  8
DISEGNO
100
AcDbLine
 10
357.6266177243192
 20
144.0001994844733
 30
0.0
 11
351.1266177243192
 21
144.0001994844736
 31
0.0
  0
ARC
  5
2931
330
18
100
AcDbEntity
  8
DISEGNO
100
AcDbCircle
 10
358.2353777243193
 20
174.0000000000002
 30
0.0
 40
0.5
100
AcDbArc
 50
0.0
 51
90.0
  0
LINE
  5
2932
330
18
100
AcDbEntity
  8
DISEGNO
100
AcDbLine
 10
358.7353777243193
 20
174.0000000000002
 30
0.0
 11
358.7353777243193
 21
170.0000000000002
 31
0.0
  0
LINE
  5
2939
330
18
100
AcDbEntity
  8
DISEGNO
100
AcDbLine
 10
363.7353777243193
 20
170.0000000000004
 30
0.0
 11
363.7353777243193
 21
183.0000000000004
 31
0.0
  0
LINE
  5
2C7D
330
18
100
AcDbEntity
  8
ASSI
100
AcDbLine
 10
303.6266177243192
 20
-5.376123523305068
 30
0.0
 11
303.6266177243192
 21
334.3530343314196
 31
0.0
  0
LINE
  5
2C7E
330
18
100
AcDbEntity
  8
TRATTEGGI
 62
     8
100
AcDbLine
 10
-472.2726354533761
 20
-268.7278469557917
 30
0.0
 11
-472.2726354533761
 21
-316.7278469557953
 31
0.0
  0
LINE
  5
2C7F
330
18
100
AcDbEntity
  8
TRATTEGGI
 62
     8
100
AcDbLine
 10
-440.272635453376
 20
-268.7278469557938
 30
0.0
 11
-440.272635453376
 21
-316.7278469557953
 31
0.0
  0
LINE
  5
2C9F
330
18
100
AcDbEntity
  8
COMPONENTI
100
AcDbLine
 10
-961.3647169421014
 20
-241.2278469557953
 30
0.0
 11
-841.2726354533761
 21
-241.2278469557953
 31
0.0
  0
LINE
  5
2CA0
330
18
100
AcDbEntity
  8
COMPONENTI
100
AcDbLine
 10
-961.3647169421014
 20
-241.2278469557953
 30
0.0
 11
-961.3647169421014
 21
-256.7278469557952
 31
0.0
  0
LINE
  5
2CA1
330
18
100
AcDbEntity
  8
COMPONENTI
100
AcDbLine
 10
-961.3647169421014
 20
-392.2278469557952
 30
0.0
 11
-841.2726354533761
 21
-392.2278469557952
 31
0.0
  0
LINE
  5
2CA2
330
18
100
AcDbEntity
  8
COMPONENTI
100
AcDbLine
 10
-961.3647169421014
 20
-392.2278469557952
 30
0.0
 11
-961.3647169421014
 21
-376.7278469557953
 31
0.0
  0
LINE
  5
2CA3
330
18
100
AcDbEntity
  8
COMPONENTI
100
AcDbLine
 10
-858.0226291568843
 20
145.0000000000003
 30
0.0
 11
-961.5443780491988
 21
144.9999999999978
 31
0.0
  0
LINE
  5
2CA4
330
18
100
AcDbEntity
  8
COMPONENTI
100
AcDbLine
 10
-841.2726354533761
 20
125.0000000000002
 30
0.0
 11
-961.5443780491997
 21
124.9999999999978
 31
0.0
  0
LINE
  5
2CA5
330
18
100
AcDbEntity
  8
COMPONENTI
100
AcDbLine
 10
-841.2726354533752
 20
145.0000000000003
 30
0.0
 11
-858.0226291568843
 21
145.0000000000003
 31
0.0
  0
LINE
  5
2CA6
330
18
100
AcDbEntity
  8
COMPONENTI
100
AcDbLine
 10
-961.5443780491988
 20
145.0000000000003
 30
0.0
 11
-961.5443780491997
 21
125.0000000000003
 31
0.0
  0
LINE
  5
2CA7
330
18
100
AcDbEntity
  8
COMPONENTI
100
AcDbLine
 10
-961.372635453376
 20
-341.7278469557953
 30
0.0
 11
-841.2726354533761
 21
-341.7278469557953
 31
0.0
  0
LINE
  5
2CA8
330
18
100
AcDbEntity
  8
COMPONENTI
100
AcDbLine
 10
-961.372635453376
 20
-291.7278469557953
 30
0.0
 11
-841.2726354533761
 21
-291.7278469557953
 31
0.0
  0
LINE
  5
2D35
330
18
100
AcDbEntity
  8
ASSI
100
AcDbLine
 10
-710.7726354533744
 20
-247.7659591979191
 30
0.0
 11
-710.7726354533744
 21
-224.9641138110028
 31
0.0
  0
CIRCLE
  5
2DAA
330
18
100
AcDbEntity
  8
DISEGNO
100
AcDbCircle
 10
-456.2726354533761
 20
262.9999999303267
 30
0.0
 40
35.0
  0
LINE
  5
2DAB
330
18
100
AcDbEntity
  8
ASSI
100
AcDbLine
 10
-401.2726354533762
 20
280.3211271835215
 30
0.0
 11
-401.2726354533762
 21
303.6650288612507
 31
0.0
  0
LINE
  5
2DAC
330
18
100
AcDbEntity
  8
ASSI
100
AcDbLine
 10
-426.2205972529478
 20
282.5327333752023
 30
0.0
 11
-426.2205972529478
 21
303.571342886308
 31
0.0
  0
CIRCLE
  5
2DAD
330
18
100
AcDbEntity
  8
DISEGNO
100
AcDbCircle
 10
-456.2726354533761
 20
262.9999999303267
 30
0.0
 40
28.25000000000841
  0
LINE
  5
2DAE
330
18
100
AcDbEntity
  8
ASSI
100
AcDbLine
 10
-436.7399020085009
 20
293.0520381307551
 30
0.0
 11
-415.7012924973952
 21
293.0520381307551
 31
0.0
  0
CIRCLE
  5
2DAF
330
18
100
AcDbEntity
  8
TRATTEGGI
100
AcDbCircle
 10
-426.2205972529478
 20
293.0520381307551
 30
0.0
 40
7.0
  0
CIRCLE
  5
2DB0
330
18
100
AcDbEntity
  8
DISEGNO
100
AcDbCircle
 10
-426.2205972529478
 20
293.0520381307551
 30
0.0
 40
4.5
  0
LINE
  5
2DB1
330
18
100
AcDbEntity
  8
ASSI
100
AcDbLine
 10
-392.3671455301693
 20
292.9999999303266
 30
0.0
 11
-410.145498423356
 21
292.9999999303266
 31
0.0
  0
LINE
  5
2DB2
330
18
100
AcDbEntity
  8
ASSI
100
AcDbLine
 10
-511.2726354533761
 20
280.3211271835215
 30
0.0
 11
-511.2726354533761
 21
303.6650288612507
 31
0.0
  0
LINE
  5
2DB3
330
18
100
AcDbEntity
  8
ASSI
100
AcDbLine
 10
-486.3246736538045
 20
282.5327333752023
 30
0.0
 11
-486.3246736538045
 21
303.571342886308
 31
0.0
  0
LINE
  5
2DB4
330
18
100
AcDbEntity
  8
ASSI
100
AcDbLine
 10
-520.1781253765831
 20
292.9999999303266
 30
0.0
 11
-502.3997724833963
 21
292.9999999303266
 31
0.0
  0
CIRCLE
  5
2DB5
330
18
100
AcDbEntity
  8
TRATTEGGI
100
AcDbCircle
 10
-486.3246736538045
 20
293.0520381307551
 30
0.0
 40
7.0
  0
LINE
  5
2DB6
330
18
100
AcDbEntity
  8
ASSI
100
AcDbLine
 10
-475.8053688982519
 20
293.0520381307551
 30
0.0
 11
-496.8439784093576
 21
293.0520381307551
 31
0.0
  0
CIRCLE
  5
2DB7
330
18
100
AcDbEntity
  8
DISEGNO
100
AcDbCircle
 10
-486.3246736538077
 20
293.0520381307551
 30
0.0
 40
4.5
  0
LINE
  5
2DB8
330
18
100
AcDbEntity
  8
ASSI
100
AcDbLine
 10
-511.2726354533761
 20
245.6788726771318
 30
0.0
 11
-511.2726354533761
 21
222.3349709994025
 31
0.0
  0
CIRCLE
  5
2DB9
330
18
100
AcDbEntity
  8
TRATTEGGI
100
AcDbCircle
 10
-486.3246736538045
 20
232.9479617298984
 30
0.0
 40
7.0
  0
CIRCLE
  5
2DBA
330
18
100
AcDbEntity
  8
DISEGNO
100
AcDbCircle
 10
-486.3246736538077
 20
232.9479617298984
 30
0.0
 40
4.5
  0
LINE
  5
2DBB
330
18
100
AcDbEntity
  8
ASSI
100
AcDbLine
 10
-486.3246736538045
 20
243.4672664854506
 30
0.0
 11
-486.3246736538045
 21
222.4286569743449
 31
0.0
  0
LINE
  5
2DBC
330
18
100
AcDbEntity
  8
ASSI
100
AcDbLine
 10
-520.1781253765831
 20
232.9999999303266
 30
0.0
 11
-502.3997724833963
 21
232.9999999303266
 31
0.0
  0
LINE
  5
2DBD
330
18
100
AcDbEntity
  8
ASSI
100
AcDbLine
 10
-475.8053688982519
 20
232.9479617298978
 30
0.0
 11
-496.8439784093576
 21
232.9479617298978
 31
0.0
  0
LINE
  5
2DBE
330
18
100
AcDbEntity
  8
ASSI
100
AcDbLine
 10
-401.2726354533762
 20
245.6788726771318
 30
0.0
 11
-401.2726354533762
 21
222.3349709994025
 31
0.0
  0
CIRCLE
  5
2DBF
330
18
100
AcDbEntity
  8
DISEGNO
100
AcDbCircle
 10
-426.2205972529478
 20
232.9479617298984
 30
0.0
 40
4.5
  0
CIRCLE
  5
2DC0
330
18
100
AcDbEntity
  8
TRATTEGGI
100
AcDbCircle
 10
-426.2205972529478
 20
232.9479617298984
 30
0.0
 40
7.0
  0
LINE
  5
2DC1
330
18
100
AcDbEntity
  8
ASSI
100
AcDbLine
 10
-426.2205972529478
 20
243.4672664854506
 30
0.0
 11
-426.2205972529478
 21
222.4286569743449
 31
0.0
  0
LINE
  5
2DC2
330
18
100
AcDbEntity
  8
ASSI
100
AcDbLine
 10
-436.7399020085009
 20
232.9479617298978
 30
0.0
 11
-415.7012924973952
 21
232.9479617298978
 31
0.0
  0
LINE
  5
2DC3
330
18
100
AcDbEntity
  8
ASSI
100
AcDbLine
 10
-392.3671455301693
 20
232.9999999303266
 30
0.0
 11
-410.145498423356
 21
232.9999999303266
 31
0.0
  0
LINE
  5
2DC4
330
18
100
AcDbEntity
  8
ASSI
100
AcDbLine
 10
-397.4308206506595
 20
262.9999999303267
 30
0.0
 11
-515.1144502560933
 21
262.9999999303265
 31
0.0
  0
LINE
  5
2DC5
330
18
100
AcDbEntity
  8
ASSI
100
AcDbLine
 10
-456.2726354533761
 20
204.1581851276097
 30
0.0
 11
-456.2726354533761
 21
321.8418147330435
 31
0.0
  0
LINE
  5
2DC6
330
18
100
AcDbEntity
  8
DISEGNO
100
AcDbLine
 10
-391.2726354533743
 20
213.0355860059701
 30
0.0
 11
-393.2726354533743
 21
211.0355860059701
 31
0.0
  0
LINE
  5
2DC7
330
18
100
AcDbEntity
  8
DISEGNO
100
AcDbLine
 10
-521.2726354533742
 20
213.0355860059701
 30
0.0
 11
-519.2726354533743
 21
211.0355860059701
 31
0.0
  0
LINE
  5
2DC8
330
18
100
AcDbEntity
  8
DISEGNO
100
AcDbLine
 10
-519.2726354533743
 20
211.0355860059701
 30
0.0
 11
-393.2726354533743
 21
211.0355860059701
 31
0.0
  0
LINE
  5
2DC9
330
18
100
AcDbEntity
  8
ASSI
100
AcDbLine
 10
190.8318853053124
 20
135.0000000000003
 30
0.0
 11
416.8779264221512
 21
135.0000000000003
 31
0.0
  0
POINT
  5
2DF7
330
18
100
AcDbEntity
  8
0
 60
     1
100
AcDbPoint
 10
0.0
 20
0.0
 30
0.0
1001
GENIUS_GENODEF_13
1002
{
1000
HIER
1070
     1
1002
}
1002
{
1000
MANEDIT
1070
     0
1002
}
1002
{
1000
NOSEL
1070
     1
1002
}
1002
{
1000
BEHIND
1070
     0
1002
}
1002
{
1000
OTHER
1070
     1
1002
}
1002
{
1000
REACTOR
1002
}
1001
GENIUS_GENOLIS_13
1002
{
1000
ENT
1002
}
1001
GENIUS_GENOENT_13
1002
{
1000
MYREF
1005
2DF7
1002
}
1002
{
1000
GRP
1005
0
1002
}
1001
GENIUS_GENOBJ-NBEHI-BHB_13
1002
{
1000
OWNER
1000
genbehi
1002
}
1001
GENIUS_GENBH_13
1002
{
1000
FGO
1005
2DF1
1002
}
  0
POINT
  5
2E18
330
18
100
AcDbEntity
  8
0
 60
     1
100
AcDbPoint
 10
0.0
 20
0.0
 30
0.0
1001
GENIUS_GENOBJ-NBEHI-BHB_13
1002
{
1000
OWNER
1000
genbehi
1002
}
1001
GENIUS_GENOLIS_13
1002
{
1000
ENT
1002
}
1001
GENIUS_GENOENT_13
1002
{
1000
MYREF
1005
2E18
1002
}
1002
{
1000
GRP
1005
0
1002
}
1001
GENIUS_GENODEF_13
1002
{
1000
HIER
1070
     1
1002
}
1002
{
1000
MANEDIT
1070
     0
1002
}
1002
{
1000
NOSEL
1070
     1
1002
}
1002
{
1000
BEHIND
1070
     0
1002
}
1002
{
1000
OTHER
1070
     1
1002
}
1002
{
1000
REACTOR
1002
}
1001
GENIUS_GENBH_13
1002
{
1000
FGO
1005
2E17
1002
}
  0
LINE
  5
2E47
330
18
100
AcDbEntity
  8
DISEGNO
100
AcDbLine
 10
-521.7726354533762
 20
198.9999999303265
 30
0.0
 11
-521.7726354533762
 21
223.999999930322
 31
0.0
  0
LINE
  5
2E48
330
18
100
AcDbEntity
  8
DISEGNO
100
AcDbLine
 10
-390.7726354533762
 20
198.9999999303266
 30
0.0
 11
-390.7726354533761
 21
223.999999930322
 31
0.0
  0
LINE
  5
2E49
330
18
100
AcDbEntity
  8
BASE
100
AcDbLine
 10
-521.7726354533762
 20
208.9999999303276
 30
0.0
 11
-631.2726354533761
 21
208.9999999303276
 31
0.0
  0
LINE
  5
2E4B
330
18
100
AcDbEntity
  8
DISEGNO
100
AcDbLine
 10
-521.7726354533761
 20
-271.727846955795
 30
0.0
 11
-521.7726354533761
 21
-226.7278469557952
 31
0.0
  0
LINE
  5
2E4C
330
18
100
AcDbEntity
  8
DISEGNO
100
AcDbLine
 10
-390.7726354533762
 20
-271.727846955795
 30
0.0
 11
-390.7726354533759
 21
-226.7278469557952
 31
0.0
  0
LINE
  5
2E4D
330
18
100
AcDbEntity
  8
BASE
100
AcDbLine
 10
-526.7726354533761
 20
-221.7278469557952
 30
0.0
 11
-521.7726354533761
 21
-226.7278469557952
 31
0.0
  0
LINE
  5
2E4E
330
18
100
AcDbEntity
  8
BASE
100
AcDbLine
 10
-526.7726354533761
 20
-221.7278469557952
 30
0.0
 11
-626.2726354533762
 21
-221.7278469557953
 31
0.0
  0
LINE
  5
2E4F
330
18
100
AcDbEntity
  8
DISEGNO
100
AcDbLine
 10
-385.7726354533759
 20
-221.7278469557952
 30
0.0
 11
-390.7726354533759
 21
-226.7278469557952
 31
0.0
  0
LINE
  5
2E50
330
18
100
AcDbEntity
  8
BASE
100
AcDbLine
 10
-286.2726354533762
 20
-221.7278469557952
 30
0.0
 11
-281.2726354533761
 21
-226.7278469557952
 31
0.0
  0
LINE
  5
2E51
330
18
100
AcDbEntity
  8
BASE
100
AcDbLine
 10
-281.2726354533762
 20
-406.7278469557953
 30
0.0
 11
-286.2726354533762
 21
-411.7278469557953
 31
0.0
  0
LINE
  5
2E52
330
18
100
AcDbEntity
  8
BASE
100
AcDbLine
 10
-631.2726354533761
 20
-406.7278469557952
 30
0.0
 11
-626.2726354533762
 21
-411.7278469557952
 31
0.0
  0
LINE
  5
2E53
330
18
100
AcDbEntity
  8
BASE
100
AcDbLine
 10
-631.2726354533761
 20
-226.7278469557953
 30
0.0
 11
-626.2726354533762
 21
-221.7278469557953
 31
0.0
  0
LINE
  5
2E54
330
18
100
AcDbEntity
  8
DISEGNO
100
AcDbLine
 10
-390.7726354533762
 20
-361.7278469557955
 30
0.0
 11
-390.7726354533759
 21
-406.7278469557952
 31
0.0
  0
LINE
  5
2E55
330
18
100
AcDbEntity
  8
DISEGNO
100
AcDbLine
 10
-385.7726354533759
 20
-411.7278469557952
 30
0.0
 11
-390.7726354533759
 21
-406.7278469557952
 31
0.0
  0
LINE
  5
2E56
330
18
100
AcDbEntity
  8
DISEGNO
100
AcDbLine
 10
-521.7726354533761
 20
-361.7278469557955
 30
0.0
 11
-521.7726354533761
 21
-406.7278469557952
 31
0.0
  0
LINE
  5
2E57
330
18
100
AcDbEntity
  8
BASE
100
AcDbLine
 10
-526.7726354533761
 20
-411.7278469557952
 30
0.0
 11
-521.7726354533761
 21
-406.7278469557952
 31
0.0
  0
LINE
  5
2E58
330
18
100
AcDbEntity
  8
BASE
100
AcDbLine
 10
-526.7726354533762
 20
-411.7278469557954
 30
0.0
 11
-626.2726354533762
 21
-411.7278469557952
 31
0.0
  0
LINE
  5
2E59
330
18
100
AcDbEntity
  8
ASSI
100
AcDbLine
 10
-571.2726354533762
 20
-247.9369037390932
 30
0.0
 11
-571.2726354533753
 21
-224.5187942388782
 31
0.0
  0
LINE
  5
2E5A
330
18
100
AcDbEntity
  8
ASSI
100
AcDbLine
 10
-571.2726354533762
 20
-385.5187901724974
 30
0.0
 11
-571.2726354533753
 21
-408.9368996727118
 31
0.0
  0
LINE
  5
2E5B
330
18
100
AcDbEntity
  8
ASSI
100
AcDbLine
 10
-341.272635453378
 20
-247.6287696492543
 30
0.0
 11
-341.272635453378
 21
-224.826924262338
 31
0.0
  0
LINE
  5
2E5C
330
18
100
AcDbEntity
  8
ASSI
100
AcDbLine
 10
-341.272635453378
 20
-385.8269242623358
 30
0.0
 11
-341.272635453378
 21
-408.628769649252
 31
0.0
  0
ENDSEC
  0
SECTION
  2
OBJECTS
  0
DICTIONARY
  5
C
330
0
100
AcDbDictionary
281
     1
  3
ACAD_COLOR
350
2E89
  3
ACAD_GROUP
350
D
  3
ACAD_LAYOUT
350
CFB
  3
ACAD_MATERIAL
350
2E5F
  3
ACAD_MLEADERSTYLE
350
2EAE
  3
ACAD_MLINESTYLE
350
1B
  3
ACAD_PLOTSETTINGS
350
CFC
  3
ACAD_PLOTSTYLENAME
350
CF9
  3
ACAD_SCALELIST
350
2E8C
  3
ACAD_TABLESTYLE
350
2E8A
  3
ACAD_VISUALSTYLE
350
2E78
  3
ACDB_RECOMPOSE_DATA
350
2EBD
  3
AcDbVariableDictionary
350
2CB9
  3
ACGREF_MASTER
350
D16
  3
ACGREFACAD_MASTER
350
D1A
  3
AcmDictionary
350
D1C
  3
ACME_BOM_MANAGER_NAME
350
D0F
  3
ACME_COMMAND_HISTORY
350
D0A
  3
ACME_SCOPE_NAME
350
D09
  3
ACMESTATEMGR
350
D14
  3
AcmeSysVarManager
350
D0B
  3
AcmSystemVariableManager
350
D20
  3
AMG
350
D02
  3
AMGSNAPSETTINGS
350
D4F
  3
AMI_MASTER
350
D1B
  0
DICTIONARY
  5
2CA9
330
18
100
AcDbDictionary
280
     1
281
     1
  3
ACAD_INDEX
360
2CAA
  0
DICTIONARY
  5
2E89
102
{ACAD_REACTORS
330
C
102
}
330
C
100
AcDbDictionary
281
     1
  0
DICTIONARY
  5
D
102
{ACAD_REACTORS
330
C
102
}
330
C
100
AcDbDictionary
281
     1
  0
DICTIONARY
  5
CFB
102
{ACAD_REACTORS
330
C
102
}
330
C
100
AcDbDictionary
281
     1
  3
Layout1
350
CFE
  3
Model
350
CFD
  0
DICTIONARY
  5
2E5F
102
{ACAD_REACTORS
330
C
102
}
330
C
100
AcDbDictionary
281
     1
  3
ByBlock
350
2E68
  3
ByLayer
350
2E60
  3
Global
350
2E70
  0
DICTIONARY
  5
2EAE
102
{ACAD_REACTORS
330
C
102
}
330
C
100
AcDbDictionary
281
     1
  3
Standard
350
2EAF
  0
DICTIONARY
  5
1B
102
{ACAD_REACTORS
330
C
102
}
330
C
100
AcDbDictionary
281
     1
  3
STANDARD
350
1C
  0
DICTIONARY
  5
CFC
102
{ACAD_REACTORS
330
C
102
}
330
C
100
AcDbDictionary
281
     1
  0
ACDBDICTIONARYWDFLT
  5
CF9
102
{ACAD_REACTORS
330
C
102
}
330
C
100
AcDbDictionary
281
     1
  3
Normal
350
CFA
100
AcDbDictionaryWithDefault
340
CFA
  0
DICTIONARY
  5
2E8C
102
{ACAD_REACTORS
330
C
102
}
330
C
100
AcDbDictionary
281
     1
  3
A0
350
2E8D
  3
A1
350
2E8E
  3
A2
350
2E8F
  3
A3
350
2E90
  3
A4
350
2E91
  3
A5
350
2E92
  3
A6
350
2E93
  3
A7
350
2E94
  3
A8
350
2E95
  3
A9
350
2E96
  3
B0
350
2E97
  3
B1
350
2E98
  3
B2
350
2E99
  3
B3
350
2E9A
  3
B4
350
2E9B
  3
B5
350
2E9C
  3
B6
350
2E9D
  3
B7
350
2E9E
  3
B8
350
2E9F
  3
B9
350
2EA0
  3
C0
350
2EA1
  3
C1
350
2EA2
  3
C2
350
2EA3
  3
C3
350
2EA4
  3
C4
350
2EA5
  3
C5
350
2EA6
  3
C6
350
2EA7
  3
C7
350
2EA8
  3
C8
350
2EA9
  3
C9
350
2EAA
  3
D0
350
2EAB
  3
D1
350
2EAC
  3
D2
350
2EAD
  0
DICTIONARY
  5
2E8A
102
{ACAD_REACTORS
330
C
102
}
330
C
100
AcDbDictionary
281
     1
  3
Standard
350
2E8B
  0
DICTIONARY
  5
2E78
102
{ACAD_REACTORS
330
C
102
}
330
C
100
AcDbDictionary
281
     1
  3
2dWireframe
350
2E7E
  3
3D Hidden
350
2E80
  3
3dWireframe
350
2E7F
  3
Basic
350
2E7D
  3
Brighten
350
2E84
  3
ColorChange
350
2E88
  3
Conceptual
350
2E81
  3
Dim
350
2E83
  3
Facepattern
350
2E87
  3
Flat
350
2E79
  3
FlatWithEdges
350
2E7A
  3
Gouraud
350
2E7B
  3
GouraudWithEdges
350
2E7C
  3
Linepattern
350
2E86
  3
Realistic
350
2E82
  3
Thicken
350
2E85
  0
XRECORD
  5
2EBD
102
{ACAD_REACTORS
330
C
102
}
330
C
100
AcDbXrecord
280
     1
 90
        1
330
2E8B
  0
DICTIONARY
  5
2CB9
102
{ACAD_REACTORS
330
C
102
}
330
C
100
AcDbDictionary
281
     1
  3
CANNOSCALE
350
2EBA
  3
CMLEADERSTYLE
350
2EB9
  3
CTABLESTYLE
350
2EB8
  3
DIMASSOC
350
2CBB
  3
INDEXCTL
350
2CBA
  0
ACAD_PROXY_OBJECT
  5
D16
102
{ACAD_REACTORS
330
C
102
}
330
C
100
AcDbProxyObject
 90
      499
 91
      516
 95
   851991
 70
     0
 93
       34
310
040000428C
 94
        0
  0
ACAD_PROXY_OBJECT
  5
D1A
102
{ACAD_REACTORS
330
C
102
}
330
C
100
AcDbProxyObject
 90
      499
 91
      519
 95
   851991
 70
     0
 93
      114
310
04000041C00000000000000000000C
 94
        0
  0
DICTIONARY
  5
D1C
102
{ACAD_REACTORS
330
C
102
}
330
C
100
AcDbDictionary
281
     1
  3
AcmBOMDATA
350
D1D
  3
AcmStdDictionary
350
D22
  0
ACAD_PROXY_OBJECT
  5
D0F
102
{ACAD_REACTORS
330
C
102
}
330
C
100
AcDbProxyObject
 90
      499
 91
      510
 95
   851991
 70
     0
 93
       50
310
0001004040000C
330
0
330
0
330
D10
 94
        0
  0
ACAD_PROXY_OBJECT
  5
D0A
102
{ACAD_REACTORS
330
C
102
}
330
C
100
AcDbProxyObject
 90
      499
 91
      506
 95
   851991
 70
     0
 93
     3164
310
4780504434F50598050350414E80506455854454E4440405184D5347202D20436F6D6D616E642043414E43454C4C45442E01411514925350101461354D1C80B4810DBDB5B585B990810D05390D1531311510B8050350414E805074348414D464552805074348414D46455240405184D5347202D20436F6D6D616E642043414
310
E43454C4C45442E014311D4925417D4D514915510D22014253505510D2141493D420141D0D2105351915490101461354D1C80B4810DBDB5B585B990810D05390D1531311510B80505425245414B805074348414D4645528050C475249505F535452455443488050350414E805074348414D464552805074348414D46455280
310
5074348414D464552805074348414D464552805074348414D4645528050C475249505F535452455443488050C475249505F535452455443488050350414E805064D4952524F528050350414E805045452494D40405184D5347202D20436F6D6D616E642043414E43454C4C45442E0140D41053A014110D3D41660140D41053
310
A01411693D3D3601415454D055916C
 94
        0
  0
ACAD_PROXY_OBJECT
  5
D09
102
{ACAD_REACTORS
330
C
102
}
330
C
100
AcDbProxyObject
 90
      499
 91
      505
 95
   851991
 70
     0
 93
      218
310
060000444000000000000000000010641E000000000000AAA406AA8C
360
D0C
360
D0D
360
D0E
360
D10
360
D21
360
1BDB
 94
        0
  0
ACAD_PROXY_OBJECT
  5
D14
102
{ACAD_REACTORS
330
C
102
}
330
C
100
AcDbProxyObject
 90
      499
 91
      515
 95
   851991
 70
     0
 93
       50
310
0600004164128C
 94
        0
  0
ACAD_PROXY_OBJECT
  5
D0B
102
{ACAD_REACTORS
330
C
102
}
330
C
100
AcDbProxyObject
 90
      499
 91
      507
 95
   851991
 70
     0
 93
       48
310
90341200000004
330
D0C
330
D0D
330
D0E
 94
        0
  0
ACAD_PROXY_OBJECT
  5
D20
102
{ACAD_REACTORS
330
C
102
}
330
C
100
AcDbProxyObject
 90
      499
 91
      507
 95
   851991
 70
     0
 93
       32
310
90140A00FE
330
D21
 94
        0
  0
DICTIONARY
  5
D02
102
{ACAD_REACTORS
330
C
102
}
330
C
100
AcDbDictionary
281
     1
  3
AcMgSettings
350
D03
  3
AMGLAYCFG
350
D24
  0
DICTIONARY
  5
D4F
102
{ACAD_REACTORS
330
C
102
}
330
C
100
AcDbDictionary
281
     1
  3
DIMENSION
350
D54
  3
FEA
350
D53
  3
HATCH (1)
350
D50
  3
HATCH (2)
350
D51
  3
SIMPLE WELD
350
D55
  3
SYMBOLS
350
D52
  0
ACAD_PROXY_OBJECT
  5
D1B
102
{ACAD_REACTORS
330
C
102
}
330
C
100
AcDbProxyObject
 90
      499
 91
      520
 95
   851991
 70
     0
 93
       34
310
050000428C
 94
        0
  0
DICTIONARY
  5
2CAA
102
{ACAD_REACTORS
330
2CA9
102
}
330
2CA9
100
AcDbDictionary
281
     1
  3
*A1
350
2CAB
  0
LAYOUT
  5
CFE
102
{ACAD_REACTORS
330
CFB
102
}
330
CFB
100
AcDbPlotSettings
  1

  2
C:\Programmi\Acadm 6\plotters\Cadjet 2.pc3
  4

  6

 40
0.0
 41
0.0
 42
0.0
 43
0.0
 44
0.0
 45
0.0
 46
0.0
 47
0.0
 48
0.0
 49
0.0
140
0.0
141
0.0
142
1.0
143
1.0
 70
   688
 72
     0
 73
     0
 74
     5
  7

 75
    16
147
1.0
 76
     0
 77
     2
 78
   300
148
0.0
149
0.0
100
AcDbLayout
  1
Layout1
 70
     1
 71
     1
 10
0.0
 20
0.0
 11
420.0
 21
297.0
 12
0.0
 22
0.0
 32
0.0
 14
1.000000000000000E+20
 24
1.000000000000000E+20
 34
1.000000000000000E+20
 15
-1.000000000000000E+20
 25
-1.000000000000000E+20
 35
-1.000000000000000E+20
146
0.0
 13
0.0
 23
0.0
 33
0.0
 16
1.0
 26
0.0
 36
0.0
 17
0.0
 27
1.0
 37
0.0
 76
     0
330
15
  0
LAYOUT
  5
CFD
102
{ACAD_REACTORS
330
CFB
102
}
330
CFB
100
AcDbPlotSettings
  1

  2
C:\Programmi\Acadm 6\plotters\Cadjet 2.pc3
  4

  6

 40
0.0
 41
0.0
 42
0.0
 43
0.0
 44
0.0
 45
0.0
 46
0.0
 47
0.0
 48
0.0
 49
0.0
140
0.0
141
0.0
142
1.0
143
1.0
 70
  1712
 72
     0
 73
     0
 74
     0
  7

 75
     0
147
1.0
 76
     0
 77
     2
 78
   300
148
0.0
149
0.0
100
AcDbLayout
  1
Model
 70
     1
 71
     0
 10
0.0
 20
0.0
 11
12.0
 21
9.0
 12
0.0
 22
0.0
 32
0.0
 14
0.0
 24
0.0
 34
0.0
 15
0.0
 25
0.0
 35
0.0
146
0.0
 13
0.0
 23
0.0
 33
0.0
 16
1.0
 26
0.0
 36
0.0
 17
0.0
 27
1.0
 37
0.0
 76
     0
330
18
331
2E5D
  0
MATERIAL
  5
2E68
102
{ACAD_XDICTIONARY
360
2E69
102
}
102
{ACAD_REACTORS
330
2E5F
102
}
330
2E5F
100
AcDbMaterial
  1
ByBlock
 72
     0
 43
0.0208333333333333
 43
0.0
 43
0.0
 43
0.0
 43
0.0
 43
0.0208333333333333
 43
0.0
 43
0.0
 43
0.0
 43
0.0
 43
1.0
 43
0.0
 43
0.0
 43
0.0
 43
0.0
 43
1.0
 77
     0
 47
0.0208333333333333
 47
0.0
 47
0.0
 47
0.0
 47
0.0
 47
0.0208333333333333
 47
0.0
 47
0.0
 47
0.0
 47
0.0
 47
1.0
 47
0.0
 47
0.0
 47
0.0
 47
0.0
 47
1.0
171
     0
 49
0.0208333333333333
 49
0.0
 49
0.0
 49
0.0
 49
0.0
 49
0.0208333333333333
 49
0.0
 49
0.0
 49
0.0
 49
0.0
 49
1.0
 49
0.0
 49
0.0
 49
0.0
 49
0.0
 49
1.0
175
     0
142
0.0208333333333333
142
0.0
142
0.0
142
0.0
142
0.0
142
0.0208333333333333
142
0.0
142
0.0
142
0.0
142
0.0
142
1.0
142
0.0
142
0.0
142
0.0
142
0.0
142
1.0
179
     0
144
0.0208333333333333
144
0.0
144
0.0
144
0.0
144
0.0
144
0.0208333333333333
144
0.0
144
0.0
144
0.0
144
0.0
144
1.0
144
0.0
144
0.0
144
0.0
144
0.0
144
1.0
147
0.0208333333333333
147
0.0
147
0.0
147
0.0
147
0.0
147
0.0208333333333333
147
0.0
147
0.0
147
0.0
147
0.0
147
1.0
147
0.0
147
0.0
147
0.0
147
0.0
147
1.0
  0
MATERIAL
  5
2E60
102
{ACAD_XDICTIONARY
360
2E61
102
}
102
{ACAD_REACTORS
330
2E5F
102
}
330
2E5F
100
AcDbMaterial
  1
ByLayer
 72
     0
 43
0.0208333333333333
 43
0.0
 43
0.0
 43
0.0
 43
0.0
 43
0.0208333333333333
 43
0.0
 43
0.0
 43
0.0
 43
0.0
 43
1.0
 43
0.0
 43
0.0
 43
0.0
 43
0.0
 43
1.0
 77
     0
 47
0.0208333333333333
 47
0.0
 47
0.0
 47
0.0
 47
0.0
 47
0.0208333333333333
 47
0.0
 47
0.0
 47
0.0
 47
0.0
 47
1.0
 47
0.0
 47
0.0
 47
0.0
 47
0.0
 47
1.0
171
     0
 49
0.0208333333333333
 49
0.0
 49
0.0
 49
0.0
 49
0.0
 49
0.0208333333333333
 49
0.0
 49
0.0
 49
0.0
 49
0.0
 49
1.0
 49
0.0
 49
0.0
 49
0.0
 49
0.0
 49
1.0
175
     0
142
0.0208333333333333
142
0.0
142
0.0
142
0.0
142
0.0
142
0.0208333333333333
142
0.0
142
0.0
142
0.0
142
0.0
142
1.0
142
0.0
142
0.0
142
0.0
142
0.0
142
1.0
179
     0
144
0.0208333333333333
144
0.0
144
0.0
144
0.0
144
0.0
144
0.0208333333333333
144
0.0
144
0.0
144
0.0
144
0.0
144
1.0
144
0.0
144
0.0
144
0.0
144
0.0
144
1.0
147
0.0208333333333333
147
0.0
147
0.0
147
0.0
147
0.0
147
0.0208333333333333
147
0.0
147
0.0
147
0.0
147
0.0
147
1.0
147
0.0
147
0.0
147
0.0
147
0.0
147
1.0
  0
MATERIAL
  5
2E70
102
{ACAD_XDICTIONARY
360
2E71
102
}
102
{ACAD_REACTORS
330
2E5F
102
}
330
2E5F
100
AcDbMaterial
  1
Global
 72
     0
 43
0.0208333333333333
 43
0.0
 43
0.0
 43
0.0
 43
0.0
 43
0.0208333333333333
 43
0.0
 43
0.0
 43
0.0
 43
0.0
 43
1.0
 43
0.0
 43
0.0
 43
0.0
 43
0.0
 43
1.0
 77
     0
 47
0.0208333333333333
 47
0.0
 47
0.0
 47
0.0
 47
0.0
 47
0.0208333333333333
 47
0.0
 47
0.0
 47
0.0
 47
0.0
 47
1.0
 47
0.0
 47
0.0
 47
0.0
 47
0.0
 47
1.0
171
     0
 49
0.0208333333333333
 49
0.0
 49
0.0
 49
0.0
 49
0.0
 49
0.0208333333333333
 49
0.0
 49
0.0
 49
0.0
 49
0.0
 49
1.0
 49
0.0
 49
0.0
 49
0.0
 49
0.0
 49
1.0
175
     0
142
0.0208333333333333
142
0.0
142
0.0
142
0.0
142
0.0
142
0.0208333333333333
142
0.0
142
0.0
142
0.0
142
0.0
142
1.0
142
0.0
142
0.0
142
0.0
142
0.0
142
1.0
179
     0
144
0.0208333333333333
144
0.0
144
0.0
144
0.0
144
0.0
144
0.0208333333333333
144
0.0
144
0.0
144
0.0
144
0.0
144
1.0
144
0.0
144
0.0
144
0.0
144
0.0
144
1.0
147
0.0208333333333333
147
0.0
147
0.0
147
0.0
147
0.0
147
0.0208333333333333
147
0.0
147
0.0
147
0.0
147
0.0
147
1.0
147
0.0
147
0.0
147
0.0
147
0.0
147
1.0
  0
MLEADERSTYLE
  5
2EAF
102
{ACAD_REACTORS
330
2EAE
102
}
330
2EAE
100
AcDbMLeaderStyle
170
     2
171
     1
172
     0
 90
        2
 40
0.0
 41
0.0
173
     1
 91
-1056964608
340
12
 92
       -2
290
     1
 42
2.0
291
     1
 43
0.36
  3
Standard
 44
4.0
300

342
F
174
     1
178
     6
175
     1
176
     0
 93
-1056964608
 45
4.0
292
     0
297
     0
 46
4.0
 94
-1056964608
 47
1.0
 49
1.0
140
1.0
293
     1
141
0.0
294
     1
177
     0
142
1.0
295
     0
296
     0
143
0.125
1001
ACAD_MLEADERVER
1070
     2
  0
MLINESTYLE
  5
1C
102
{ACAD_REACTORS
330
1B
102
}
330
1B
100
AcDbMlineStyle
  2
STANDARD
 70
     0
  3

 62
   256
 51
90.0
 52
90.0
 71
     2
 49
0.5
 62
   256
  6
BYLAYER
 49
-0.5
 62
   256
  6
BYLAYER
  0
ACDBPLACEHOLDER
  5
CFA
102
{ACAD_REACTORS
330
CF9
102
}
330
CF9
  0
SCALE
  5
2E8D
102
{ACAD_REACTORS
330
2E8C
102
}
330
2E8C
100
AcDbScale
 70
     0
300
1:1
140
1.0
141
1.0
290
     1
  0
SCALE
  5
2E8E
102
{ACAD_REACTORS
330
2E8C
102
}
330
2E8C
100
AcDbScale
 70
     0
300
1:2
140
1.0
141
2.0
290
     0
  0
SCALE
  5
2E8F
102
{ACAD_REACTORS
330
2E8C
102
}
330
2E8C
100
AcDbScale
 70
     0
300
1:4
140
1.0
141
4.0
290
     0
  0
SCALE
  5
2E90
102
{ACAD_REACTORS
330
2E8C
102
}
330
2E8C
100
AcDbScale
 70
     0
300
1:5
140
1.0
141
5.0
290
     0
  0
SCALE
  5
2E91
102
{ACAD_REACTORS
330
2E8C
102
}
330
2E8C
100
AcDbScale
 70
     0
300
1:8
140
1.0
141
8.0
290
     0
  0
SCALE
  5
2E92
102
{ACAD_REACTORS
330
2E8C
102
}
330
2E8C
100
AcDbScale
 70
     0
300
1:10
140
1.0
141
10.0
290
     0
  0
SCALE
  5
2E93
102
{ACAD_REACTORS
330
2E8C
102
}
330
2E8C
100
AcDbScale
 70
     0
300
1:16
140
1.0
141
16.0
290
     0
  0
SCALE
  5
2E94
102
{ACAD_REACTORS
330
2E8C
102
}
330
2E8C
100
AcDbScale
 70
     0
300
1:20
140
1.0
141
20.0
290
     0
  0
SCALE
  5
2E95
102
{ACAD_REACTORS
330
2E8C
102
}
330
2E8C
100
AcDbScale
 70
     0
300
1:30
140
1.0
141
30.0
290
     0
  0
SCALE
  5
2E96
102
{ACAD_REACTORS
330
2E8C
102
}
330
2E8C
100
AcDbScale
 70
     0
300
1:40
140
1.0
141
40.0
290
     0
  0
SCALE
  5
2E97
102
{ACAD_REACTORS
330
2E8C
102
}
330
2E8C
100
AcDbScale
 70
     0
300
1:50
140
1.0
141
50.0
290
     0
  0
SCALE
  5
2E98
102
{ACAD_REACTORS
330
2E8C
102
}
330
2E8C
100
AcDbScale
 70
     0
300
1:100
140
1.0
141
100.0
290
     0
  0
SCALE
  5
2E99
102
{ACAD_REACTORS
330
2E8C
102
}
330
2E8C
100
AcDbScale
 70
     0
300
2:1
140
2.0
141
1.0
290
     0
  0
SCALE
  5
2E9A
102
{ACAD_REACTORS
330
2E8C
102
}
330
2E8C
100
AcDbScale
 70
     0
300
4:1
140
4.0
141
1.0
290
     0
  0
SCALE
  5
2E9B
102
{ACAD_REACTORS
330
2E8C
102
}
330
2E8C
100
AcDbScale
 70
     0
300
8:1
140
8.0
141
1.0
290
     0
  0
SCALE
  5
2E9C
102
{ACAD_REACTORS
330
2E8C
102
}
330
2E8C
100
AcDbScale
 70
     0
300
10:1
140
10.0
141
1.0
290
     0
  0
SCALE
  5
2E9D
102
{ACAD_REACTORS
330
2E8C
102
}
330
2E8C
100
AcDbScale
 70
     0
300
100:1
140
100.0
141
1.0
290
     0
  0
SCALE
  5
2E9E
102
{ACAD_REACTORS
330
2E8C
102
}
330
2E8C
100
AcDbScale
 70
     0
300
1/128" = 1'-0"
140
0.0078125
141
12.0
290
     0
  0
SCALE
  5
2E9F
102
{ACAD_REACTORS
330
2E8C
102
}
330
2E8C
100
AcDbScale
 70
     0
300
1/64" = 1'-0"
140
0.015625
141
12.0
290
     0
  0
SCALE
  5
2EA0
102
{ACAD_REACTORS
330
2E8C
102
}
330
2E8C
100
AcDbScale
 70
     0
300
1/32" = 1'-0"
140
0.03125
141
12.0
290
     0
  0
SCALE
  5
2EA1
102
{ACAD_REACTORS
330
2E8C
102
}
330
2E8C
100
AcDbScale
 70
     0
300
1/16" = 1'-0"
140
0.0625
141
12.0
290
     0
  0
SCALE
  5
2EA2
102
{ACAD_REACTORS
330
2E8C
102
}
330
2E8C
100
AcDbScale
 70
     0
300
3/32" = 1'-0"
140
0.09375
141
12.0
290
     0
  0
SCALE
  5
2EA3
102
{ACAD_REACTORS
330
2E8C
102
}
330
2E8C
100
AcDbScale
 70
     0
300
1/8" = 1'-0"
140
0.125
141
12.0
290
     0
  0
SCALE
  5
2EA4
102
{ACAD_REACTORS
330
2E8C
102
}
330
2E8C
100
AcDbScale
 70
     0
300
3/16" = 1'-0"
140
0.1875
141
12.0
290
     0
  0
SCALE
  5
2EA5
102
{ACAD_REACTORS
330
2E8C
102
}
330
2E8C
100
AcDbScale
 70
     0
300
1/4" = 1'-0"
140
0.25
141
12.0
290
     0
  0
SCALE
  5
2EA6
102
{ACAD_REACTORS
330
2E8C
102
}
330
2E8C
100
AcDbScale
 70
     0
300
3/8" = 1'-0"
140
0.375
141
12.0
290
     0
  0
SCALE
  5
2EA7
102
{ACAD_REACTORS
330
2E8C
102
}
330
2E8C
100
AcDbScale
 70
     0
300
1/2" = 1'-0"
140
0.5
141
12.0
290
     0
  0
SCALE
  5
2EA8
102
{ACAD_REACTORS
330
2E8C
102
}
330
2E8C
100
AcDbScale
 70
     0
300
3/4" = 1'-0"
140
0.75
141
12.0
290
     0
  0
SCALE
  5
2EA9
102
{ACAD_REACTORS
330
2E8C
102
}
330
2E8C
100
AcDbScale
 70
     0
300
1" = 1'-0"
140
1.0
141
12.0
290
     0
  0
SCALE
  5
2EAA
102
{ACAD_REACTORS
330
2E8C
102
}
330
2E8C
100
AcDbScale
 70
     0
300
1-1/2" = 1'-0"
140
1.5
141
12.0
290
     0
  0
SCALE
  5
2EAB
102
{ACAD_REACTORS
330
2E8C
102
}
330
2E8C
100
AcDbScale
 70
     0
300
3" = 1'-0"
140
3.0
141
12.0
290
     0
  0
SCALE
  5
2EAC
102
{ACAD_REACTORS
330
2E8C
102
}
330
2E8C
100
AcDbScale
 70
     0
300
6" = 1'-0"
140
6.0
141
12.0
290
     0
  0
SCALE
  5
2EAD
102
{ACAD_REACTORS
330
2E8C
102
}
330
2E8C
100
AcDbScale
 70
     0
300
1'-0" = 1'-0"
140
12.0
141
12.0
290
     0
  0
TABLESTYLE
  5
2E8B
102
{ACAD_XDICTIONARY
360
2EBB
102
}
102
{ACAD_REACTORS
330
2E8A
102
}
330
2E8A
100
AcDbTableStyle
  3
Standard
 70
     0
 71
     0
 40
1.5
 41
1.5
280
     0
281
     0
  7
STANDARD
140
4.5
170
     2
 62
     0
 63
     7
283
     0
274
    -2
284
     1
 64
     0
275
    -2
285
     1
 65
     0
276
    -2
286
     1
 66
     0
277
    -2
287
     1
 67
     0
278
    -2
288
     1
 68
     0
279
    -2
289
     1
 69
     0
  7
STANDARD
140
6.0
170
     5
 62
     0
 63
     7
283
     0
274
    -2
284
     1
 64
     0
275
    -2
285
     1
 65
     0
276
    -2
286
     1
 66
     0
277
    -2
287
     1
 67
     0
278
    -2
288
     1
 68
     0
279
    -2
289
     1
 69
     0
  7
STANDARD
140
4.5
170
     5
 62
     0
 63
     7
283
     0
274
    -2
284
     1
 64
     0
275
    -2
285
     1
 65
     0
276
    -2
286
     1
 66
     0
277
    -2
287
     1
 67
     0
278
    -2
288
     1
 68
     0
279
    -2
289
     1
 69
     0
  0
VISUALSTYLE
  5
2E7E
102
{ACAD_REACTORS
330
2E78
102
}
330
2E78
100
AcDbVisualStyle
  2
2dWireframe
 70
     4
 71
     0
 72
     2
 73
     0
 90
        0
 40
-0.6
 41
-30.0
 62
     5
 63
     7
421
 16777215
 74
     1
 91
        4
 64
     7
 65
   257
 75
     1
175
     1
 42
1.0
 92
        0
 66
   257
 43
1.0
 76
     1
 77
     6
 78
     2
 67
     7
 79
     5
170
     0
171
     0
290
     0
174
     0
 93
        1
 44
0.0
173
     0
291
     0
 45
0.0
1001
ACAD
1000
AcDbSavedByObjectVersion
1070
     0
  0
VISUALSTYLE
  5
2E80
102
{ACAD_REACTORS
330
2E78
102
}
330
2E78
100
AcDbVisualStyle
  2
3D Hidden
 70
     6
 71
     1
 72
     2
 73
     2
 90
        0
 40
-0.6
 41
-30.0
 62
     5
 63
     7
421
 16777215
 74
     2
 91
        2
 64
     7
 65
   257
 75
     2
175
     1
 42
40.0
 92
        0
 66
   257
 43
1.0
 76
     1
 77
     6
 78
     2
 67
     7
 79
     3
170
     0
171
     0
290
     0
174
     0
 93
        1
 44
0.0
173
     0
291
     0
 45
0.0
1001
ACAD
1000
AcDbSavedByObjectVersion
1070
     0
  0
VISUALSTYLE
  5
2E7F
102
{ACAD_REACTORS
330
2E78
102
}
330
2E78
100
AcDbVisualStyle
  2
3dWireframe
 70
     5
 71
     0
 72
     2
 73
     0
 90
        0
 40
-0.6
 41
-30.0
 62
     5
 63
     7
421
 16777215
 74
     1
 91
        4
 64
     7
 65
   257
 75
     1
175
     1
 42
1.0
 92
        0
 66
   257
 43
1.0
 76
     1
 77
     6
 78
     2
 67
     7
 79
     5
170
     0
171
     0
290
     0
174
     0
 93
        1
 44
0.0
173
     0
291
     0
 45
0.0
1001
ACAD
1000
AcDbSavedByObjectVersion
1070
     0
  0
VISUALSTYLE
  5
2E7D
102
{ACAD_REACTORS
330
2E78
102
}
330
2E78
100
AcDbVisualStyle
  2
Basic
 70
     7
 71
     1
 72
     0
 73
     1
 90
        0
 40
-0.6
 41
-30.0
 62
     5
 63
     7
421
 16777215
 74
     0
 91
        4
 64
     7
 65
   257
 75
     1
175
     1
 42
1.0
 92
        8
 66
     7
 43
1.0
 76
     1
 77
     6
 78
     2
 67
     7
 79
     5
170
     0
171
     0
290
     0
174
     0
 93
        1
 44
0.0
173
     0
291
     1
 45
0.0
1001
ACAD
1000
AcDbSavedByObjectVersion
1070
     0
  0
VISUALSTYLE
  5
2E84
102
{ACAD_REACTORS
330
2E78
102
}
330
2E78
100
AcDbVisualStyle
  2
Brighten
 70
    12
 71
     2
 72
     2
 73
     0
 90
        0
 40
-0.6
 41
-30.0
 62
     5
 63
     7
421
 16777215
 74
     1
 91
        4
 64
     7
 65
   257
 75
     1
175
     1
 42
1.0
 92
        8
 66
     7
 43
1.0
 76
     1
 77
     6
 78
     2
 67
     7
 79
     5
170
     0
171
     0
290
     0
174
     0
 93
        1
 44
50.0
173
     0
291
     1
 45
0.0
1001
ACAD
1000
AcDbSavedByObjectVersion
1070
     0
  0
VISUALSTYLE
  5
2E88
102
{ACAD_REACTORS
330
2E78
102
}
330
2E78
100
AcDbVisualStyle
  2
ColorChange
 70
    16
 71
     2
 72
     2
 73
     3
 90
        0
 40
-0.6
 41
-30.0
 62
     5
 63
     8
421
  8421504
 74
     1
 91
        4
 64
     7
 65
   257
 75
     1
175
     1
 42
1.0
 92
        8
 66
     8
424
  8421504
 43
1.0
 76
     1
 77
     6
 78
     2
 67
     7
 79
     5
170
     0
171
     0
290
     0
174
     0
 93
        1
 44
0.0
173
     0
291
     1
 45
0.0
1001
ACAD
1000
AcDbSavedByObjectVersion
1070
     0
  0
VISUALSTYLE
  5
2E81
102
{ACAD_REACTORS
330
2E78
102
}
330
2E78
100
AcDbVisualStyle
  2
Conceptual
 70
     9
 71
     3
 72
     2
 73
     0
 90
        0
 40
-0.6
 41
-30.0
 62
     5
 63
     7
421
 16777215
 74
     2
 91
        2
 64
     7
 65
   257
 75
     1
175
     1
 42
40.0
 92
        8
 66
     7
 43
1.0
 76
     1
 77
     6
 78
     2
 67
     7
 79
     3
170
     0
171
     0
290
     0
174
     0
 93
        1
 44
0.0
173
     0
291
     0
 45
0.0
1001
ACAD
1000
AcDbSavedByObjectVersion
1070
     0
  0
VISUALSTYLE
  5
2E83
102
{ACAD_REACTORS
330
2E78
102
}
330
2E78
100
AcDbVisualStyle
  2
Dim
 70
    11
 71
     2
 72
     2
 73
     0
 90
        0
 40
-0.6
 41
-30.0
 62
     5
 63
     7
421
 16777215
 74
     1
 91
        4
 64
     7
 65
   257
 75
     1
175
     1
 42
1.0
 92
        8
 66
     7
 43
1.0
 76
     1
 77
     6
 78
     2
 67
     7
 79
     5
170
     0
171
     0
290
     0
174
     0
 93
        1
 44
-50.0
173
     0
291
     1
 45
0.0
1001
ACAD
1000
AcDbSavedByObjectVersion
1070
     0
  0
VISUALSTYLE
  5
2E87
102
{ACAD_REACTORS
330
2E78
102
}
330
2E78
100
AcDbVisualStyle
  2
Facepattern
 70
    15
 71
     2
 72
     2
 73
     0
 90
        0
 40
-0.6
 41
-30.0
 62
     5
 63
     7
421
 16777215
 74
     1
 91
        4
 64
     7
 65
   257
 75
     1
175
     1
 42
1.0
 92
        8
 66
     7
 43
1.0
 76
     1
 77
     6
 78
     2
 67
     7
 79
     5
170
     0
171
     0
290
     0
174
     0
 93
        1
 44
0.0
173
     0
291
     1
 45
0.0
1001
ACAD
1000
AcDbSavedByObjectVersion
1070
     0
  0
VISUALSTYLE
  5
2E79
102
{ACAD_REACTORS
330
2E78
102
}
330
2E78
100
AcDbVisualStyle
  2
Flat
 70
     0
 71
     2
 72
     1
 73
     1
 90
        2
 40
-0.6
 41
30.0
 62
     5
 63
     7
421
 16777215
 74
     0
 91
        4
 64
     7
 65
   257
 75
     1
175
     1
 42
1.0
 92
        8
 66
     7
 43
1.0
 76
     1
 77
     6
 78
     2
 67
     7
 79
     5
170
     0
171
     0
290
     0
174
     0
 93
       13
 44
0.0
173
     0
291
     1
 45
0.0
1001
ACAD
1000
AcDbSavedByObjectVersion
1070
     0
  0
VISUALSTYLE
  5
2E7A
102
{ACAD_REACTORS
330
2E78
102
}
330
2E78
100
AcDbVisualStyle
  2
FlatWithEdges
 70
     1
 71
     2
 72
     1
 73
     1
 90
        2
 40
-0.6
 41
30.0
 62
     5
 63
     7
421
 16777215
 74
     1
 91
        4
 64
     7
 65
   257
 75
     1
175
     1
 42
1.0
 92
        0
 66
   257
 43
1.0
 76
     1
 77
     6
 78
     2
 67
     7
 79
     5
170
     0
171
     0
290
     0
174
     0
 93
       13
 44
0.0
173
     0
291
     1
 45
0.0
1001
ACAD
1000
AcDbSavedByObjectVersion
1070
     0
  0
VISUALSTYLE
  5
2E7B
102
{ACAD_REACTORS
330
2E78
102
}
330
2E78
100
AcDbVisualStyle
  2
Gouraud
 70
     2
 71
     2
 72
     2
 73
     1
 90
        2
 40
-0.6
 41
30.0
 62
     5
 63
     7
421
 16777215
 74
     0
 91
        4
 64
     7
 65
   257
 75
     1
175
     1
 42
1.0
 92
        0
 66
     7
 43
1.0
 76
     1
 77
     6
 78
     2
 67
     7
 79
     5
170
     0
171
     0
290
     0
174
     0
 93
       13
 44
0.0
173
     0
291
     1
 45
0.0
1001
ACAD
1000
AcDbSavedByObjectVersion
1070
     0
  0
VISUALSTYLE
  5
2E7C
102
{ACAD_REACTORS
330
2E78
102
}
330
2E78
100
AcDbVisualStyle
  2
GouraudWithEdges
 70
     3
 71
     2
 72
     2
 73
     1
 90
        2
 40
-0.6
 41
30.0
 62
     5
 63
     7
421
 16777215
 74
     1
 91
        4
 64
     7
 65
   257
 75
     1
175
     1
 42
1.0
 92
        0
 66
   257
 43
1.0
 76
     1
 77
     6
 78
     2
 67
     7
 79
     5
170
     0
171
     0
290
     0
174
     0
 93
       13
 44
0.0
173
     0
291
     1
 45
0.0
1001
ACAD
1000
AcDbSavedByObjectVersion
1070
     0
  0
VISUALSTYLE
  5
2E86
102
{ACAD_REACTORS
330
2E78
102
}
330
2E78
100
AcDbVisualStyle
  2
Linepattern
 70
    14
 71
     2
 72
     2
 73
     0
 90
        0
 40
-0.6
 41
-30.0
 62
     5
 63
     7
421
 16777215
 74
     1
 91
        4
 64
     7
 65
   257
 75
     7
175
     7
 42
1.0
 92
        8
 66
     7
 43
1.0
 76
     1
 77
     6
 78
     2
 67
     7
 79
     5
170
     0
171
     0
290
     0
174
     0
 93
        1
 44
0.0
173
     0
291
     1
 45
0.0
1001
ACAD
1000
AcDbSavedByObjectVersion
1070
     0
  0
VISUALSTYLE
  5
2E82
102
{ACAD_REACTORS
330
2E78
102
}
330
2E78
100
AcDbVisualStyle
  2
Realistic
 70
     8
 71
     2
 72
     2
 73
     0
 90
        0
 40
-0.6
 41
-30.0
 62
     5
 63
     7
421
 16777215
 74
     1
 91
        0
 64
     7
 65
   257
 75
     1
175
     1
 42
1.0
 92
        8
 66
     8
424
  7895160
 43
1.0
 76
     1
 77
     6
 78
     2
 67
     7
 79
     5
170
     0
171
     0
290
     0
174
     0
 93
       13
 44
0.0
173
     0
291
     0
 45
0.0
1001
ACAD
1000
AcDbSavedByObjectVersion
1070
     0
  0
VISUALSTYLE
  5
2E85
102
{ACAD_REACTORS
330
2E78
102
}
330
2E78
100
AcDbVisualStyle
  2
Thicken
 70
    13
 71
     2
 72
     2
 73
     0
 90
        0
 40
-0.6
 41
-30.0
 62
     5
 63
     7
421
 16777215
 74
     1
 91
        4
 64
     7
 65
   257
 75
     1
175
     1
 42
1.0
 92
       12
 66
     7
 43
1.0
 76
     1
 77
     6
 78
     2
 67
     7
 79
     5
170
     0
171
     0
290
     0
174
     0
 93
        1
 44
0.0
173
     0
291
     1
 45
0.0
1001
ACAD
1000
AcDbSavedByObjectVersion
1070
     0
  0
DICTIONARYVAR
  5
2EBA
102
{ACAD_REACTORS
330
2CB9
102
}
330
2CB9
100
DictionaryVariables
280
     0
  1
1:1
  0
DICTIONARYVAR
  5
2EB9
102
{ACAD_REACTORS
330
2CB9
102
}
330
2CB9
100
DictionaryVariables
280
     0
  1
STANDARD
  0
DICTIONARYVAR
  5
2EB8
102
{ACAD_REACTORS
330
2CB9
102
}
330
2CB9
100
DictionaryVariables
280
     0
  1
STANDARD
  0
DICTIONARYVAR
  5
2CBB
102
{ACAD_REACTORS
330
2CB9
102
}
330
2CB9
100
DictionaryVariables
280
     0
  1
1
  0
DICTIONARYVAR
  5
2CBA
102
{ACAD_REACTORS
330
2CB9
102
}
330
2CB9
100
DictionaryVariables
280
     0
  1
1
  0
ACAD_PROXY_OBJECT
  5
D1D
102
{ACAD_REACTORS
330
D1C
102
}
330
D1C
100
AcDbProxyObject
 90
      499
 91
      521
 95
   851991
 70
     0
 93
      118
310
405010040CA904C415CD5B07571088
350
D1E
 94
        0
  0
DICTIONARY
  5
D22
102
{ACAD_REACTORS
330
D1C
102
}
330
D1C
100
AcDbDictionary
281
     1
  3
ANSI
350
1442
  3
ISO
350
D23
  0
ACAD_PROXY_OBJECT
  5
D0C
330
0
100
AcDbProxyObject
 90
      499
 91
      508
 95
   851991
 70
     0
 93
      156
310
00010143D050D351505391D5531054925390D49C
330
D09
 94
        0
  0
ACAD_PROXY_OBJECT
  5
D0D
330
0
100
AcDbProxyObject
 90
      499
 91
      508
 95
   851991
 70
     0
 93
      148
310
000101439050D351531253915054925390D49C
330
D09
 94
        0
  0
ACAD_PROXY_OBJECT
  5
D0E
330
0
100
AcDbProxyObject
 90
      499
 91
      509
 95
   851991
 70
     0
 93
      156
310
000101439050D35154D6535093D314D25691508C
330
D09
 94
        0
  0
ACAD_PROXY_OBJECT
  5
D10
330
0
100
AcDbProxyObject
 90
      499
 91
      511
 95
   851991
 70
     0
 93
      216
310
00010145111A5CDD1A5B9D184818DBDB5C1BDB995B9D1A4C402B004B
330
D09
330
0
330
0
 94
        0
  0
ACAD_PROXY_OBJECT
  5
D21
330
0
100
AcDbProxyObject
 90
      499
 91
      523
 95
   851991
 70
     0
 93
      140
310
00010142105350D55494D5110050349534FC
330
D09
 94
        0
  0
ACAD_PROXY_OBJECT
  5
1BDB
330
0
100
AcDbProxyObject
 90
      499
 91
      554
 95
   851991
 70
     0
 93
       28
310
0001406C
330
D09
 94
        0
  0
DICTIONARY
  5
D03
102
{ACAD_REACTORS
330
D02
102
}
330
D02
100
AcDbDictionary
281
     1
  3
DWGSETTINGS
350
D04
  3
TRANSSETTINGS
350
D05
  0
ACAD_PROXY_OBJECT
  5
D24
102
{ACAD_REACTORS
330
D02
102
}
330
D02
100
AcDbProxyObject
 90
      499
 91
      525
 95
   851991
 70
     0
 93
    12938
310
41102491013041105357CC1074CA404C504414D5F31439329013241105357CC9054CA404CD04414D5F33419199013441105357CD103466404D504414D5F3540D199013641105357CD90248E404DD04414D5F37411199013841105357CE101466404E504414D5F397F641102324141505357CC4C1074CA408D10505414D5F31
310
3140D19902495041505357CC4C9074C902408C13905414D5F304E41D32902314E41505357CC5390E4CA408C93905414D5F324E41532902334E41505357CCD3906466408D13905414D5F344E40D19902354E41505357CD53903466408D93905414D5F364E40923902374E41505357CDD3904466408E13905414D5F384E40519
310
902394E41505357CE539FD90440CC9053906414D5F31304E41D3290334414E41905357CC4C5390346640D25413906414D5F31324E41D32409044B4C494E41505357D0D3101465094112539193D08414D5F50415245464111942D055241484D3541905357D093D49074C9094115925155D08414D5F56494557534051942D064
310
24548494E4441905357D253959FD90D415514905253105414D5F545240D194250348494441905357D212511074650940D59254D06414D5F56495341D324250650415244494D42505357D410549112535034650941949151911253509414D5F52454644494D4111942553411092139590139CFFFFFFFF415092139594D06424
310
548494E44CFFFFFFFF411093D48C9055241484D3540519411093D48CD055241484D3540923411093D48D5055241484D35CFFFFFFFF4110D0530C90134CFFFFFFFF4110D0530CD0134409234110D0530D5013441D324110D0530DD0134479464110D1539390137CFFFFFFFF4110D15395D0137CFFFFFFFF4110D312539044B4
310
C494ECFFFFFFFF4110D3D38C50130CFFFFFFFF4110D3D38C90131CFFFFFFFF4110D3D38CD0132CFFFFFFFF4110D3D38D10132CFFFFFFFF411111551050134CFFFFFFFF4111125051D0135CFFFFFFFF411112531250135CFFFFFFFF411112535410650415244494DCFFFFFFFF411112535490652454644494DCFFFFFFFF4111
310
91535390138CFFFFFFFF4151915354139013840CFFFFFFFF4151915354D41023441CFFFFFFFF4151915354D5102344140D1941519153559390132CFFFFFFFF4151915355951013240D194112105510D0138CFFFFFFFF411212511390133CFFFFFFFF4112125115D0133CFFFFFFFF411213125390134CFFFFFFFF411213D0D3
310
90137CFFFFFFFF411213D0D5D0137CFFFFFFFF4112539193D04494E464FCFFFFFFFF411311505110135CFFFFFFFF419397D0921395902394ECFFFFFFFF419397D0D3D38C502304ECFFFFFFFF419397D0D3D38C902314ECFFFFFFFF419397D0D3D38CD02324ECFFFFFFFF419397D0D3D38D102324ECFFFFFFFF419397D0D153
310
93902374ECFFFFFFFF419397D0D15395D02374ECFFFFFFFF419397D1125312502354ECFFFFFFFF419397D2105510D02384ECFFFFFFFF419397D2125113902334ECFFFFFFFF419397D2125115D02334ECFFFFFFFF419397D3115051102354ECFFFFFFFF419397D391D25410349504ECFFFFFFFF419397D412105390334414EC
310
FFFFFFFF419397D510D3D3902304ECFFFFFFFF419397D5121312502344ECFFFFFFFF419397D5131153902304ECFFFFFFFF419397D594131250332414ECFFFFFFFF411391D2541024950CFFFFFFFF411410530C9055241484D3540519411410530CD055241484D3540923411410530D5055241484D35CFFFFFFFF4114121053
310
9023441CFFFFFFFF411413D4D390135CFFFFFFFF411490D1D390137CFFFFFFFF411490D1D5D0137CFFFFFFFF4114D09492D0134CFFFFFFFF4114D150D510134CFFFFFFFF4114D6508CD013540923411354D6535013540923411510D3D390130CFFFFFFFF411512131250134CFFFFFFFF411512550C9055241484D354051941
310
1512550CD055241484D3540923411512550D5055241484D35CFFFFFFFF411513115390130CFFFFFFFF415514905253105545241494CCFFFFFFFF411514931250134CFFFFFFFF411516150C5013640D19411516150C9013640D19411516150CD0136CFFFFFFFF411516150D5013641D32411516150DD0136479464115925155
310
D0456494557CFFFFFFFF4115915112103484944CFFFFFFFF4115915115903564953CFFFFFFFF41159413125023241CFFFFFFFF411692569050134CFFFFFFFFAA9FD404FE429014650248D0346504465054C906465074C90E4C91E519FD8C
340
14
340
14
340
14
340
D25
340
14
340
14
340
14
340
D26
340
14
340
14
340
D26
340
D27
340
14
340
14
340
14
340
14
340
D25
340
14
340
14
340
14
340
D26
340
14
340
14
340
D26
340
D27
340
14
340
D28
340
14
340
14
340
14
340
14
340
14
340
D25
340
14
340
14
340
14
340
13
340
13
340
13
340
13
340
13
340
13
340
13
340
13
340
13
340
D29
340
13
340
13
340
13
340
13
340
13
340
13
340
13
340
13
340
13
340
13
340
13
340
13
340
13
340
14
340
13
340
13
340
13
340
13
340
D2A
340
13
340
13
340
D29
340
13
340
13
340
13
340
13
340
13
340
13
340
13
340
13
340
D29
340
13
340
13
340
13
340
D2A
340
13
340
13
340
13
340
13
340
13
340
13
340
13
340
13
340
13
340
13
340
13
340
13
340
13
340
13
340
D29
340
13
340
13
340
13
340
13
340
13
340
13
340
13
340
13
340
13
340
13
340
13
340
13
340
13
340
13
340
13
340
13
340
13
340
13
340
13
340
13
340
13
340
13
340
D2D
 94
        0
  0
ACAD_PROXY_OBJECT
  5
D54
102
{ACAD_REACTORS
330
D4F
102
}
330
D4F
100
AcDbProxyObject
 90
      499
 91
      541
 95
   851991
 70
     0
 93
      253
310
43D1444494D454E53494F4E2C414D44545F2A5F44494D404A9012A404A9012AC
 94
        0
  0
ACAD_PROXY_OBJECT
  5
D53
102
{ACAD_REACTORS
330
D4F
102
}
330
D4F
100
AcDbProxyObject
 90
      499
 91
      541
 95
   851991
 70
     0
 93
      181
310
43D012A42D05357D191504B505357CA9012A404A9012AC
 94
        0
  0
ACAD_PROXY_OBJECT
  5
D50
102
{ACAD_REACTORS
330
D4F
102
}
330
D4F
100
AcDbProxyObject
 90
      499
 91
      541
 95
   851991
 70
     0
 93
      133
310
43D054841544348404A9012A404A9012AC
 94
        0
  0
ACAD_PROXY_OBJECT
  5
D51
102
{ACAD_REACTORS
330
D4F
102
}
330
D4F
100
AcDbProxyObject
 90
      499
 91
      541
 95
   851991
 70
     0
 93
      549
310
43D044C494E4549CE0B0E138B0A8B4E0B0A8B4E138B105357CE0B105357CE138B0A8B505357CE0B0A8B505357CE139012A404A910494E534552542C535444504152543244C
 94
        0
  0
ACAD_PROXY_OBJECT
  5
D55
102
{ACAD_REACTORS
330
D4F
102
}
330
D4F
100
AcDbProxyObject
 90
      499
 91
      541
 95
   851991
 70
     0
 93
      181
310
43D0341524341105357CD5012A404C906494E534552544
 94
        0
  0
ACAD_PROXY_OBJECT
  5
D52
102
{ACAD_REACTORS
330
D4F
102
}
330
D4F
100
AcDbProxyObject
 90
      499
 91
      541
 95
   851991
 70
     0
 93
     1053
310
43D7841434D46434652414D452C41434D444154554D5441524745542C41434D444154554D49442C41434D57454C4453594D2C41434D5355524653594D2C41434D4645415449442C41434D504152545245462C41434D42414C4C4F4F4E2C414D44544544474553594D2C414D47534352455743414C435441424C45404A9012A
310
404A9012AC
 94
        0
  0
LAYER_INDEX
  5
2CAB
102
{ACAD_REACTORS
330
2CAA
102
}
330
2CAA
100
AcDbIndex
 40
2455405.392797419
100
AcDbLayerIndex
  8
0
360
2CAC
 90
       10
  8
DISEGNO
360
2CAD
 90
      576
  8
ASSI
360
2CAE
 90
       69
  8
NORMALI
360
2CAF
 90
       35
  8
COMPONENTI
360
2CB0
 90
       54
  8
BASE
360
2CB1
 90
      167
  8
AX
360
2CB2
 90
       23
  8
TRATTEGGI
360
2CB3
 90
       22
  8
DEFPOINTS
360
2CB7
 90
        0
  8
AM_0
360
2E2C
 90
        0
  8
AM_4
360
2E2D
 90
        0
  8
AM_7
360
2E2E
 90
        0
  8
AM_3
360
2E2F
 90
        0
  8
AM_9
360
2E30
 90
        0
  8
AM_5
360
2E31
 90
        0
  8
AM_12
360
2E32
 90
        0
  8
AM_PAREF
360
2E33
 90
        0
  8
AM_12N
360
2E34
 90
        0
  0
DICTIONARY
  5
2E69
330
2E68
100
AcDbDictionary
280
     1
281
     1
  3
ACAD_XREC_ROUNDTRIP
360
2EBF
  3
BUMPTILE
360
2E6B
  3
DIFFUSETILE
360
2E6A
  3
OPACITYTILE
360
2E6E
  3
REFLECTIONTILE
360
2E6D
  3
REFRACTIONTILE
360
2E6F
  3
SPECULARTILE
360
2E6C
  0
DICTIONARY
  5
2E61
330
2E60
100
AcDbDictionary
280
     1
281
     1
  3
ACAD_XREC_ROUNDTRIP
360
2EBE
  3
BUMPTILE
360
2E63
  3
DIFFUSETILE
360
2E62
  3
OPACITYTILE
360
2E66
  3
REFLECTIONTILE
360
2E65
  3
REFRACTIONTILE
360
2E67
  3
SPECULARTILE
360
2E64
  0
DICTIONARY
  5
2E71
330
2E70
100
AcDbDictionary
280
     1
281
     1
  3
ACAD_XREC_ROUNDTRIP
360
2EC0
  3
BUMPTILE
360
2E73
  3
DIFFUSETILE
360
2E72
  3
OPACITYTILE
360
2E76
  3
REFLECTIONTILE
360
2E75
  3
REFRACTIONTILE
360
2E77
  3
SPECULARTILE
360
2E74
  0
DICTIONARY
  5
2EBB
330
2E8B
100
AcDbDictionary
280
     1
281
     1
  3
ACAD_ROUNDTRIP_2008_TABLESTYLE_CELLSTYLEMAP
360
2EBC
  3
ACAD_XREC_ROUNDTRIP
360
2EC1
  0
ACAD_PROXY_OBJECT
  5
D1E
102
{ACAD_REACTORS
330
D1D
102
}
330
D1D
100
AcDbProxyObject
 90
      499
 91
      522
 95
   851991
 70
     0
 93
      139
310
057356C1D5C406406AA8FFFFFFFF0AE2404C
330
18
330
0
330
0
 94
        0
  0
ACAD_PROXY_OBJECT
  5
1442
102
{ACAD_REACTORS
330
D22
102
}
330
D22
100
AcDbProxyObject
 90
      499
 91
      542
 95
   851991
 70
     0
 93
     2109
310
570B81E85EB51B8BE3FD04414E5349405901409022E07A17AD46E2F8FD2208721C82C6DAA6EAE4CCA8CAF0E8A6E8C88120284A0B1B6A321A329BA3220480A1A82C6DAAECAD8C8D2DCCEA6E8C8812028420B1B6A4B229BA3220480A1682C6DA88C2E8EADAA6E8C88120284A0B1B6A127A6A9BA3220480A2082DAC8E888CAE8C
310
2D2D8A6F2DAA6E8C88120288A0B6B23A29B2B1BA34B7B729BCB6A9BA3220480A2282DAC8E886CADCE8CAE498D2DCCAA6E8C88120285A0B6B23A2737BA32A9BA3220480A1682C682DACE98C2F2A6E8C88120285A0B1A0B6B3A234B6A9BA3220480A2282C682DACE90DED8CA86D0C2E4E8A6E8C88120286A0B1A0B6B3AA34BA3
310
632A9BA3220480A02814
340
E55
360
1443
360
1444
360
1445
360
1446
360
1447
360
1448
360
1449
360
144A
360
144B
360
144C
360
144D
360
144E
360
144F
360
1450
 94
        0
  0
ACAD_PROXY_OBJECT
  5
D23
102
{ACAD_REACTORS
330
D22
102
}
330
D22
100
AcDbProxyObject
 90
      499
 91
      524
 95
   851991
 70
     0
 93
     2211
310
5700000000000000C40D0349534F405901409020000000000000310322287A1682DAC8E88AC8CECAA6E8C8812028720B1B6A9BAB9332A32BC3A29BA3220480A1282C6DA8C868CA6E8C88120286A0B1B6ABB2B63234B733A9BA3220480A1082C6DA92C8A6E8C88120285A0B1B6A230BA3AB6A9BA3220480A1282C6DA849E9AA
310
6E8C8812028820B6B23A2232BA30B4B629BCB6A9BA3220480A2282DAC8E8A6CAC6E8D2DEDCA6F2DAA6E8C88120288A0B6B23A21B2B73A32B92634B732A9BA3220480A1682DAC8E89CDEE8CAA6E8C88120285A0B1A0B6B3A630BCA9BA3220480A1682C682DACE88D2DAA6E8C88120288A0B1A0B6B3A437B632A1B430B93A29B
310
A3220480A1A82C682DACEA8D2E8D8CAA6E8C881203204C
340
D2E
360
D2F
360
D30
360
D31
360
D32
360
D33
360
D34
360
D35
360
D36
360
D37
360
D38
360
D39
360
D3F
360
D40
360
D4C
360
D4D
 94
        0
  0
ACAD_PROXY_OBJECT
  5
D04
102
{ACAD_REACTORS
330
D03
102
}
330
D03
100
AcDbProxyObject
 90
      499
 91
      504
 95
   851991
 70
     0
 93
     2420
310
4050B44574753455454494E4753A1286829C8E82A4A482B282A106660F8686AF86C608321A2A720A723A0A849A1ABE1C983E18999AA0C868A9C889282940000000000000488083A1A2A72224A0A9A0A8418983E19183E199820E868A9C8892A6A894000000000000010808321A2A72622A7250000000000000122020C868A9
310
C9E8C8C940000000000000488084A1A624A720A92920ACA0A8418983E19183E19982108698929C8AA8B2A082A0AB098929C8A84A22BA3AAA9A1A0A622A50A0E9882A6A89E849482A08648A62708426A0A5A2AB24A2ABA7E8120CA0A68682988A0C00800010652455649534941501304154D0D0531150540CC4E8C50954494D
310
455354414D504A081B78021F817734141D5915494D253D3905414C4D4B8C0C1107B44574753455454494E4753454E447DC
 94
        0
  0
ACAD_PROXY_OBJECT
  5
D05
102
{ACAD_REACTORS
330
D03
102
}
330
D03
100
AcDbProxyObject
 90
      499
 91
      504
 95
   851991
 70
     0
 93
      852
310
4050D5452414E5353455454494E4753A2488A482AE929C8EA8A4829CA69882A8929E9C0C00800050D4F524947494E414C4C595F4F4E0600400008529A7AAA921A2A620A723A0A81A4AA20A12AAA0A48AA68AA4AC8A0C0080001107B44574753455454494E4753454E447DC
 94
        0
  0
IDBUFFER
  5
2CAC
330
0
100
AcDbIdBuffer
330
702
330
8BA
330
BD0
330
BD6
330
BD7
330
BD8
330
C1D
330
1BF8
330
2DF7
330
2E18
  0
IDBUFFER
  5
2CAD
330
0
100
AcDbIdBuffer
330
5A9
330
6E9
330
6ED
330
703
330
70D
330
70E
330
72E
330
733
330
73D
330
77A
330
77F
330
7AC
330
7DB
330
7F7
330
802
330
804
330
805
330
808
330
8BB
330
BDF
330
CB2
330
CB3
330
CB5
330
CB6
330
CBC
330
CBD
330
CBE
330
CC0
330
CC1
330
CC4
330
1BFA
330
1C0C
330
240E
330
240F
330
2410
330
2411
330
2412
330
2413
330
2414
330
2415
330
2416
330
2417
330
2418
330
2419
330
241C
330
241D
330
242F
330
2461
330
2462
330
2463
330
2464
330
2465
330
246A
330
246B
330
246C
330
246D
330
246E
330
246F
330
2470
330
2471
330
2472
330
2473
330
2474
330
2475
330
2476
330
2477
330
2478
330
2479
330
247A
330
247B
330
247C
330
247D
330
247E
330
247F
330
2480
330
2481
330
2482
330
2483
330
2484
330
2485
330
2486
330
2487
330
2488
330
2489
330
248A
330
248B
330
248C
330
248D
330
248E
330
248F
330
2490
330
2491
330
2492
330
2493
330
2494
330
2495
330
2496
330
2497
330
2498
330
2499
330
249A
330
249B
330
249C
330
249D
330
249E
330
249F
330
24A0
330
24A1
330
24A2
330
24A3
330
24A4
330
24A5
330
24A6
330
24A7
330
258D
330
258E
330
258F
330
2592
330
2593
330
2594
330
2595
330
25BC
330
25BD
330
25BE
330
25BF
330
25C0
330
25C1
330
25C2
330
25C3
330
25C4
330
25C5
330
25C6
330
25C7
330
25C8
330
25C9
330
25CA
330
25CB
330
25CC
330
25CD
330
25CE
330
25CF
330
25D0
330
25D1
330
25D2
330
25E6
330
25E7
330
2600
330
2601
330
2602
330
2603
330
2604
330
2605
330
2606
330
2607
330
2608
330
2609
330
260A
330
260B
330
260C
330
260D
330
260E
330
260F
330
265A
330
265B
330
265C
330
265D
330
265E
330
265F
330
2664
330
2665
330
266D
330
266E
330
266F
330
2670
330
2671
330
2672
330
2673
330
2674
330
2675
330
2676
330
2677
330
2678
330
2679
330
267A
330
267B
330
267C
330
267D
330
267E
330
267F
330
2680
330
2681
330
2682
330
2683
330
2684
330
2685
330
2686
330
2687
330
2688
330
2689
330
268A
330
268B
330
268C
330
268D
330
268E
330
268F
330
2690
330
2691
330
2692
330
2693
330
2694
330
2695
330
2696
330
2697
330
2698
330
2699
330
269A
330
269B
330
269C
330
269D
330
269E
330
269F
330
26A0
330
26A1
330
26A2
330
26A3
330
26A4
330
26A5
330
26A6
330
26A7
330
26A8
330
26A9
330
26AA
330
26AB
330
26AC
330
26B0
330
26B1
330
26B2
330
26B3
330
26B4
330
26B5
330
26B6
330
26BE
330
26C3
330
277C
330
277D
330
277E
330
277F
330
2780
330
2781
330
2782
330
2783
330
2784
330
2785
330
2786
330
2787
330
2788
330
2789
330
278A
330
278B
330
278C
330
278D
330
278E
330
278F
330
2790
330
2791
330
2792
330
2793
330
2794
330
2795
330
2796
330
2797
330
2798
330
2799
330
279A
330
279B
330
279C
330
279D
330
279E
330
279F
330
27A0
330
27A1
330
27A2
330
27A3
330
27A4
330
27A5
330
27A6
330
27A7
330
27A8
330
27A9
330
27AA
330
27AB
330
27AC
330
27AD
330
27AE
330
27AF
330
27B0
330
27B1
330
27B2
330
27B3
330
27B4
330
27B5
330
27B6
330
27B7
330
27B8
330
27B9
330
27BA
330
27BB
330
27BC
330
27BD
330
27BE
330
27BF
330
27C0
330
27C1
330
27C2
330
27C3
330
27C4
330
27C5
330
27C6
330
27C7
330
27C8
330
27C9
330
27CA
330
27CB
330
27CC
330
27CD
330
27CE
330
27CF
330
27D0
330
27D1
330
27D2
330
27D3
330
27D4
330
27D5
330
27D6
330
27D7
330
27D8
330
27D9
330
27DA
330
27DB
330
27DC
330
27DD
330
27DE
330
27DF
330
27E0
330
27E1
330
27E2
330
27E3
330
27E4
330
27E5
330
27E6
330
27E7
330
27E8
330
27E9
330
27EA
330
27EB
330
27EC
330
27ED
330
27EE
330
27EF
330
27F0
330
27F1
330
27F2
330
27F3
330
27F4
330
27F5
330
27F6
330
27F7
330
27F8
330
27F9
330
27FA
330
27FB
330
27FC
330
27FD
330
27FE
330
27FF
330
2800
330
2801
330
2802
330
2803
330
2804
330
2805
330
2806
330
2807
330
2808
330
2809
330
280A
330
280B
330
280C
330
280D
330
280E
330
280F
330
2810
330
2811
330
2812
330
2813
330
2814
330
2815
330
2816
330
2817
330
2818
330
2819
330
281A
330
281B
330
281C
330
281D
330
281E
330
281F
330
2820
330
2821
330
2822
330
2823
330
2824
330
2825
330
2826
330
2827
330
2828
330
2829
330
282A
330
282B
330
282C
330
282D
330
282E
330
282F
330
2830
330
2831
330
2832
330
2833
330
2834
330
2835
330
2836
330
2837
330
2838
330
2839
330
283A
330
283B
330
283C
330
283D
330
283E
330
283F
330
2840
330
2841
330
2842
330
2843
330
2844
330
2845
330
2846
330
2847
330
2848
330
2849
330
284A
330
284B
330
284C
330
284D
330
284E
330
284F
330
2850
330
2851
330
2852
330
2853
330
2854
330
2855
330
2856
330
2857
330
2858
330
2859
330
285A
330
285B
330
285C
330
285D
330
285E
330
285F
330
2860
330
2861
330
2862
330
2863
330
2864
330
2865
330
2866
330
2867
330
2868
330
2869
330
286A
330
286B
330
286C
330
286D
330
286E
330
286F
330
2870
330
2871
330
2872
330
2873
330
2874
330
2875
330
2876
330
2877
330
2878
330
2879
330
287A
330
287B
330
287C
330
287D
330
287E
330
2880
330
2881
330
2882
330
2887
330
288B
330
288C
330
288D
330
2899
330
289A
330
289B
330
289C
330
289D
330
289E
330
28BC
330
28BD
330
28BE
330
28BF
330
28C0
330
28C1
330
28C2
330
28C3
330
28C4
330
28C5
330
28C6
330
28C7
330
28C8
330
28C9
330
28CA
330
28CB
330
28CC
330
28CD
330
28CE
330
28CF
330
28D0
330
28D1
330
28D2
330
28D3
330
28D4
330
28D5
330
28D6
330
28D7
330
28D8
330
2905
330
2906
330
2907
330
2908
330
2909
330
290A
330
290B
330
290C
330
290D
330
290E
330
290F
330
2910
330
2931
330
2932
330
2939
330
2DAA
330
2DAD
330
2DB0
330
2DB7
330
2DBA
330
2DBF
330
2DC6
330
2DC7
330
2DC8
330
2E47
330
2E48
330
2E4B
330
2E4C
330
2E4F
330
2E54
330
2E55
330
2E56
  0
IDBUFFER
  5
2CAE
330
0
100
AcDbIdBuffer
330
596
330
597
330
5B5
330
5C8
330
5DD
330
5F1
330
5F2
330
600
330
633
330
64F
330
651
330
664
330
682
330
696
330
6B4
330
6C9
330
729
330
734
330
740
330
751
330
767
330
78F
330
7AD
330
7B7
330
81D
330
8CF
330
918
330
BC0
330
BC1
330
BC2
330
BC3
330
BC6
330
BC7
330
BCD
330
CBA
330
1BE9
330
1BEA
330
240C
330
2460
330
26BC
330
26BD
330
277B
330
2883
330
2884
330
2C7D
330
2D35
330
2DAB
330
2DAC
330
2DAE
330
2DB1
330
2DB2
330
2DB3
330
2DB4
330
2DB6
330
2DB8
330
2DBB
330
2DBC
330
2DBD
330
2DBE
330
2DC1
330
2DC2
330
2DC3
330
2DC4
330
2DC5
330
2DC9
330
2E59
330
2E5A
330
2E5B
330
2E5C
  0
IDBUFFER
  5
2CAF
330
0
100
AcDbIdBuffer
330
5AB
330
5AC
330
5AD
330
5AE
330
5AF
330
5BF
330
5C0
330
5C1
330
5C2
330
5C3
330
5C4
330
5CB
330
7A4
330
7DC
330
7DD
330
7E1
330
7E2
330
7E3
330
7E5
330
7E6
330
7E7
330
7E8
330
7E9
330
7EB
330
7ED
330
7FB
330
7FC
330
7FE
330
7FF
330
800
330
801
330
BC5
330
BC8
330
BCB
330
BCF
  0
IDBUFFER
  5
2CB0
330
0
100
AcDbIdBuffer
330
570
330
572
330
573
330
579
330
580
330
583
330
584
330
585
330
6C7
330
6C8
330
6DC
330
6DD
330
6FC
330
6FD
330
709
330
70A
330
70B
330
70C
330
7C7
330
7C8
330
7C9
330
7DF
330
7EF
330
7F4
330
80E
330
868
330
8E2
330
8E7
330
8E8
330
BDE
330
BF5
330
BF7
330
C0C
330
C0D
330
1BF9
330
1C02
330
1C03
330
1C06
330
1C07
330
1C08
330
1C0D
330
1C12
330
1C14
330
1C16
330
2C9F
330
2CA0
330
2CA1
330
2CA2
330
2CA3
330
2CA4
330
2CA5
330
2CA6
330
2CA7
330
2CA8
  0
IDBUFFER
  5
2CB1
330
0
100
AcDbIdBuffer
330
571
330
577
330
578
330
581
330
582
330
589
330
58E
330
595
330
59D
330
5AA
330
5B0
330
5B1
330
5C5
330
5C6
330
60F
330
614
330
615
330
6AA
330
6E1
330
6E4
330
6E5
330
6EA
330
6EB
330
6EC
330
6EE
330
6F1
330
6FA
330
6FB
330
6FE
330
6FF
330
700
330
704
330
705
330
706
330
708
330
70F
330
72B
330
72C
330
7CA
330
7D8
330
7D9
330
7DA
330
7DE
330
7E0
330
7EA
330
7EE
330
7F0
330
7F2
330
7F3
330
7F6
330
7F8
330
7F9
330
7FA
330
803
330
825
330
826
330
857
330
867
330
8B7
330
8B8
330
8BC
330
8BE
330
8BF
330
8C0
330
8C1
330
8C8
330
8C9
330
8CA
330
8CB
330
8CC
330
8CD
330
8FC
330
8FD
330
908
330
909
330
90A
330
90B
330
90C
330
90D
330
90F
330
910
330
911
330
912
330
913
330
914
330
915
330
916
330
945
330
955
330
957
330
958
330
959
330
95A
330
95C
330
95D
330
95E
330
95F
330
960
330
961
330
962
330
BDB
330
BE2
330
BE3
330
BE4
330
BEE
330
C04
330
1BE5
330
1BE6
330
1BE7
330
1BEB
330
1BEE
330
1BFE
330
1BFF
330
1C00
330
1C01
330
1C05
330
1C0E
330
1C0F
330
1C11
330
1C13
330
1C15
330
1C17
330
1C1C
330
1C1D
330
1C1E
330
1C1F
330
1C20
330
1C21
330
1C28
330
1C31
330
1C32
330
1C35
330
1C36
330
1C37
330
1C38
330
1C39
330
1C3A
330
1C3C
330
1C3F
330
1C40
330
1C41
330
1C42
330
1C43
330
1C44
330
1C45
330
1C46
330
1C47
330
1C48
330
1C49
330
1C54
330
1C5B
330
1C5C
330
1C5D
330
1C5E
330
1C5F
330
1C61
330
1C62
330
1C63
330
2E49
330
2E4D
330
2E4E
330
2E50
330
2E51
330
2E52
330
2E53
330
2E57
330
2E58
  0
IDBUFFER
  5
2CB2
330
0
100
AcDbIdBuffer
330
574
330
57E
330
586
330
58A
330
58D
330
59B
330
59C
330
59F
330
5A0
330
5A2
330
5A4
330
5A6
330
5A7
330
5D6
330
5D7
330
5D8
330
60B
330
60C
330
60D
330
6F9
330
701
330
8B6
330
1C1A
  0
IDBUFFER
  5
2CB3
330
0
100
AcDbIdBuffer
330
CB4
330
CB7
330
CB8
330
CB9
330
CBB
330
CBF
330
CC2
330
CC3
330
CC7
330
CC9
330
D56
330
D57
330
1C18
330
1C19
330
1C3D
330
1C3E
330
2C7E
330
2C7F
330
2DAF
330
2DB5
330
2DB9
330
2DC0
  0
IDBUFFER
  5
2CB7
330
0
100
AcDbIdBuffer
  0
IDBUFFER
  5
2E2C
330
0
100
AcDbIdBuffer
  0
IDBUFFER
  5
2E2D
330
0
100
AcDbIdBuffer
  0
IDBUFFER
  5
2E2E
330
0
100
AcDbIdBuffer
  0
IDBUFFER
  5
2E2F
330
0
100
AcDbIdBuffer
  0
IDBUFFER
  5
2E30
330
0
100
AcDbIdBuffer
  0
IDBUFFER
  5
2E31
330
0
100
AcDbIdBuffer
  0
IDBUFFER
  5
2E32
330
0
100
AcDbIdBuffer
  0
IDBUFFER
  5
2E33
330
0
100
AcDbIdBuffer
  0
IDBUFFER
  5
2E34
330
0
100
AcDbIdBuffer
  0
XRECORD
  5
2EBF
102
{ACAD_REACTORS
330
2E69
102
}
330
2E69
100
AcDbXrecord
280
     1
102
MATERIAL
148
0.0
149
0.0
149
0.0
 93
        0
 94
      127
282
     0
 72
     0
 77
     0
171
     0
175
     0
179
     0
273
     0
  0
XRECORD
  5
2E6B
102
{ACAD_REACTORS
330
2E69
102
}
330
2E69
100
AcDbXrecord
280
     1
270
     1
271
     1
  0
XRECORD
  5
2E6A
102
{ACAD_REACTORS
330
2E69
102
}
330
2E69
100
AcDbXrecord
280
     1
270
     1
271
     1
  0
XRECORD
  5
2E6E
102
{ACAD_REACTORS
330
2E69
102
}
330
2E69
100
AcDbXrecord
280
     1
270
     1
271
     1
  0
XRECORD
  5
2E6D
102
{ACAD_REACTORS
330
2E69
102
}
330
2E69
100
AcDbXrecord
280
     1
270
     1
271
     1
  0
XRECORD
  5
2E6F
102
{ACAD_REACTORS
330
2E69
102
}
330
2E69
100
AcDbXrecord
280
     1
270
     1
271
     1
  0
XRECORD
  5
2E6C
102
{ACAD_REACTORS
330
2E69
102
}
330
2E69
100
AcDbXrecord
280
     1
270
     1
271
     1
  0
XRECORD
  5
2EBE
102
{ACAD_REACTORS
330
2E61
102
}
330
2E61
100
AcDbXrecord
280
     1
102
MATERIAL
148
0.0
149
0.0
149
0.0
 93
        0
 94
      127
282
     0
 72
     0
 77
     0
171
     0
175
     0
179
     0
273
     0
  0
XRECORD
  5
2E63
102
{ACAD_REACTORS
330
2E61
102
}
330
2E61
100
AcDbXrecord
280
     1
270
     1
271
     1
  0
XRECORD
  5
2E62
102
{ACAD_REACTORS
330
2E61
102
}
330
2E61
100
AcDbXrecord
280
     1
270
     1
271
     1
  0
XRECORD
  5
2E66
102
{ACAD_REACTORS
330
2E61
102
}
330
2E61
100
AcDbXrecord
280
     1
270
     1
271
     1
  0
XRECORD
  5
2E65
102
{ACAD_REACTORS
330
2E61
102
}
330
2E61
100
AcDbXrecord
280
     1
270
     1
271
     1
  0
XRECORD
  5
2E67
102
{ACAD_REACTORS
330
2E61
102
}
330
2E61
100
AcDbXrecord
280
     1
270
     1
271
     1
  0
XRECORD
  5
2E64
102
{ACAD_REACTORS
330
2E61
102
}
330
2E61
100
AcDbXrecord
280
     1
270
     1
271
     1
  0
XRECORD
  5
2EC0
102
{ACAD_REACTORS
330
2E71
102
}
330
2E71
100
AcDbXrecord
280
     1
102
MATERIAL
148
0.0
149
0.0
149
0.0
 93
        0
 94
      127
282
     0
 72
     0
 77
     0
171
     0
175
     0
179
     0
273
     0
  0
XRECORD
  5
2E73
102
{ACAD_REACTORS
330
2E71
102
}
330
2E71
100
AcDbXrecord
280
     1
270
     1
271
     1
  0
XRECORD
  5
2E72
102
{ACAD_REACTORS
330
2E71
102
}
330
2E71
100
AcDbXrecord
280
     1
270
     1
271
     1
  0
XRECORD
  5
2E76
102
{ACAD_REACTORS
330
2E71
102
}
330
2E71
100
AcDbXrecord
280
     1
270
     1
271
     1
  0
XRECORD
  5
2E75
102
{ACAD_REACTORS
330
2E71
102
}
330
2E71
100
AcDbXrecord
280
     1
270
     1
271
     1
  0
XRECORD
  5
2E77
102
{ACAD_REACTORS
330
2E71
102
}
330
2E71
100
AcDbXrecord
280
     1
270
     1
271
     1
  0
XRECORD
  5
2E74
102
{ACAD_REACTORS
330
2E71
102
}
330
2E71
100
AcDbXrecord
280
     1
270
     1
271
     1
  0
CELLSTYLEMAP
  5
2EBC
102
{ACAD_REACTORS
330
2EBB
102
}
330
2EBB
100
AcDbCellStyleMap
 90
        3
300
CELLSTYLE
  1
TABLEFORMAT_BEGIN
 90
        5
170
     1
 91
        0
 92
    32768
 62
   257
 93
        1
300
CONTENTFORMAT
  1
CONTENTFORMAT_BEGIN
 90
        0
 91
        0
 92
      512
 93
        0
300

 40
0.0
140
1.0
 94
        5
 62
     0
340
F
144
6.0
309
CONTENTFORMAT_END
171
     1
301
MARGIN
  1
CELLMARGIN_BEGIN
 40
1.5
 40
1.5
 40
1.5
 40
1.5
 40
4.5
 40
4.5
309
CELLMARGIN_END
 94
        6
 95
        1
302
GRIDFORMAT
  1
GRIDFORMAT_BEGIN
 90
        0
 91
        1
 62
     0
 92
       -2
340
0
 93
        0
 40
1.125
309
GRIDFORMAT_END
 95
        2
302
GRIDFORMAT
  1
GRIDFORMAT_BEGIN
 90
        0
 91
        1
 62
     0
 92
       -2
340
0
 93
        0
 40
1.125
309
GRIDFORMAT_END
 95
        4
302
GRIDFORMAT
  1
GRIDFORMAT_BEGIN
 90
        0
 91
        1
 62
     0
 92
       -2
340
0
 93
        0
 40
1.125
309
GRIDFORMAT_END
 95
        8
302
GRIDFORMAT
  1
GRIDFORMAT_BEGIN
 90
        0
 91
        1
 62
     0
 92
       -2
340
0
 93
        0
 40
1.125
309
GRIDFORMAT_END
 95
       16
302
GRIDFORMAT
  1
GRIDFORMAT_BEGIN
 90
        0
 91
        1
 62
     0
 92
       -2
340
0
 93
        0
 40
1.125
309
GRIDFORMAT_END
 95
       32
302
GRIDFORMAT
  1
GRIDFORMAT_BEGIN
 90
        0
 91
        1
 62
     0
 92
       -2
340
0
 93
        0
 40
1.125
309
GRIDFORMAT_END
309
TABLEFORMAT_END
  1
CELLSTYLE_BEGIN
 90
        1
 91
        1
300
_TITLE
309
CELLSTYLE_END
300
CELLSTYLE
  1
TABLEFORMAT_BEGIN
 90
        5
170
     1
 91
        0
 92
        0
 62
   257
 93
        1
300
CONTENTFORMAT
  1
CONTENTFORMAT_BEGIN
 90
        0
 91
        0
 92
      512
 93
        0
300

 40
0.0
140
1.0
 94
        5
 62
     0
340
F
144
4.5
309
CONTENTFORMAT_END
171
     1
301
MARGIN
  1
CELLMARGIN_BEGIN
 40
1.5
 40
1.5
 40
1.5
 40
1.5
 40
4.5
 40
4.5
309
CELLMARGIN_END
 94
        6
 95
        1
302
GRIDFORMAT
  1
GRIDFORMAT_BEGIN
 90
        0
 91
        1
 62
     0
 92
       -2
340
0
 93
        0
 40
1.125
309
GRIDFORMAT_END
 95
        2
302
GRIDFORMAT
  1
GRIDFORMAT_BEGIN
 90
        0
 91
        1
 62
     0
 92
       -2
340
0
 93
        0
 40
1.125
309
GRIDFORMAT_END
 95
        4
302
GRIDFORMAT
  1
GRIDFORMAT_BEGIN
 90
        0
 91
        1
 62
     0
 92
       -2
340
0
 93
        0
 40
1.125
309
GRIDFORMAT_END
 95
        8
302
GRIDFORMAT
  1
GRIDFORMAT_BEGIN
 90
        0
 91
        1
 62
     0
 92
       -2
340
0
 93
        0
 40
1.125
309
GRIDFORMAT_END
 95
       16
302
GRIDFORMAT
  1
GRIDFORMAT_BEGIN
 90
        0
 91
        1
 62
     0
 92
       -2
340
0
 93
        0
 40
1.125
309
GRIDFORMAT_END
 95
       32
302
GRIDFORMAT
  1
GRIDFORMAT_BEGIN
 90
        0
 91
        1
 62
     0
 92
       -2
340
0
 93
        0
 40
1.125
309
GRIDFORMAT_END
309
TABLEFORMAT_END
  1
CELLSTYLE_BEGIN
 90
        2
 91
        1
300
_HEADER
309
CELLSTYLE_END
300
CELLSTYLE
  1
TABLEFORMAT_BEGIN
 90
        5
170
     1
 91
        0
 92
        0
 62
   257
 93
        1
300
CONTENTFORMAT
  1
CONTENTFORMAT_BEGIN
 90
        0
 91
        0
 92
      512
 93
        0
300

 40
0.0
140
1.0
 94
        2
 62
     0
340
F
144
4.5
309
CONTENTFORMAT_END
171
     1
301
MARGIN
  1
CELLMARGIN_BEGIN
 40
1.5
 40
1.5
 40
1.5
 40
1.5
 40
4.5
 40
4.5
309
CELLMARGIN_END
 94
        6
 95
        1
302
GRIDFORMAT
  1
GRIDFORMAT_BEGIN
 90
        0
 91
        1
 62
     0
 92
       -2
340
0
 93
        0
 40
1.125
309
GRIDFORMAT_END
 95
        2
302
GRIDFORMAT
  1
GRIDFORMAT_BEGIN
 90
        0
 91
        1
 62
     0
 92
       -2
340
0
 93
        0
 40
1.125
309
GRIDFORMAT_END
 95
        4
302
GRIDFORMAT
  1
GRIDFORMAT_BEGIN
 90
        0
 91
        1
 62
     0
 92
       -2
340
0
 93
        0
 40
1.125
309
GRIDFORMAT_END
 95
        8
302
GRIDFORMAT
  1
GRIDFORMAT_BEGIN
 90
        0
 91
        1
 62
     0
 92
       -2
340
0
 93
        0
 40
1.125
309
GRIDFORMAT_END
 95
       16
302
GRIDFORMAT
  1
GRIDFORMAT_BEGIN
 90
        0
 91
        1
 62
     0
 92
       -2
340
0
 93
        0
 40
1.125
309
GRIDFORMAT_END
 95
       32
302
GRIDFORMAT
  1
GRIDFORMAT_BEGIN
 90
        0
 91
        1
 62
     0
 92
       -2
340
0
 93
        0
 40
1.125
309
GRIDFORMAT_END
309
TABLEFORMAT_END
  1
CELLSTYLE_BEGIN
 90
        3
 91
        2
300
_DATA
309
CELLSTYLE_END
  0
XRECORD
  5
2EC1
102
{ACAD_REACTORS
330
2EBB
102
}
330
2EBB
100
AcDbXrecord
280
     1
102
ACAD_ROUNDTRIP_PRE2007_TABLESTYLE
 90
      512
 91
        0
  1

 92
      512
 93
        0
  2

 94
      512
 95
        0
  3

  0
ACAD_PROXY_OBJECT
  5
1443
330
1442
100
AcDbProxyObject
 90
      499
 91
      543
 95
   851991
 70
     0
 93
       96
310
57020E80A0280A0280A02808F0
 94
        0
  0
ACAD_PROXY_OBJECT
  5
1444
330
1442
100
AcDbProxyObject
 90
      499
 91
      544
 95
   851991
 70
     0
 93
      332
310
5710E405014050140501405014050140501405014250140501405014050140501200000000000000040C
340
E56
 94
        0
  0
ACAD_PROXY_OBJECT
  5
1445
330
1442
100
AcDbProxyObject
 90
      499
 91
      545
 95
   851991
 70
     0
 93
      402
310
570C199999999999E99F91F405014050140501405014050140501405014050140501405014050140501405014050140501404C
340
0
 94
        0
  0
ACAD_PROXY_OBJECT
  5
1446
330
1442
100
AcDbProxyObject
 90
      499
 91
      546
 95
   851991
 70
     0
 93
       10
310
570C
 94
        0
  0
ACAD_PROXY_OBJECT
  5
1447
330
1442
100
AcDbProxyObject
 90
      499
 91
      547
 95
   851991
 70
     0
 93
      223
310
572290EA22A7D90F49F9353333333333727F44D4CCCCCCCCCDC9FA04
340
E4B
340
E4C
 94
        0
  0
ACAD_PROXY_OBJECT
  5
1448
330
1442
100
AcDbProxyObject
 90
      499
 91
      548
 95
   851991
 70
     0
 93
    13188
310
5710F4112551153501411413D4CB901405014069011349A4F2590CB64FD3347454E545241434F2C4954412C302C504F532E2C47454E54524154582C25732C2847454E4D53472067656E647767203232322940690120281A8AA2CA0281A8AA602028120280A03202269349E4B2196C9FA648E8A9CA8A482869E5892A8825860
310
58A2A980588E8A9CA8A482A8B0584AE658508E8A9C9AA68E40CECADCC8EECE406464665280D202405044E414D45405044E4F4D454051C40640A8BA5C2E97CBE502404CD1D15395149050D3CB1255104B0C0B1393D3514B11D15395149055160B095CCB0A11D1539354D1C819D95B991DD9C80C8C8D8A50190B3D424C4F434B
310
3A4E414D4540480A0A888AA686A480A16888AA686A492B4929E9C8A80A3A80C81D10782C06030180C809D23A2A72A2920A1A79624AA209618162222A9A1A924AD24A7A7229623A2A72A2920AA2C1612B9961423A2A726A9A39033B2B7323BB39019189B94A034809014214D51053911054911014214D510539110549110147
310
501904A383BFDFEFF5FBFCFD3747454E545241434F2C4954412C302C5354414E444152442C47454E54524154582C25732C2847454E4D53472067656E64776720323138294069012028426A0AA22A924A0A620284A6A0AA22A924A0A622A028EA0320B41416D838E9017D9FA708E8A9CA8A482869E5892A8825860589A82A88
310
AA49282988A588E8A9CA8A482A8B0584AE658508E8A9C9AA68E40CECADCC8EECE406464625280D202405044E4F5445405044E4F54414051D40641A8BA5C2E97CBE5F23F4CD1D15395149050D3CB1255104B0C0B1393D5104B11D15395149055160B095CCB0A11D1539354D1C819D95B991DD9C80C8C8D4A501A40480A0CAC8
310
A9C889EA480A128C9EA49C92A89EA48A80A3A80C83D174B85D2F97CBE47E9C23A2A72A2920A1A79624AA209618162327A92724AA27A9229623A2A72A2920AA2C1612B9961423A2A726A9A39033B2B7323BB39019191A14A0348090141911154D0D48C90143511154D0D492569253D391480C90147501908A20F0580C060301
310
9013B47454E545241434F2C4954412C302C4445534352495A494F4E4520322C47454E54524154582C25732C2847454E4D53472067656E6477672033362940490120284A9AA20A72220A922192028529AA20A72220A92210192028EA0321347077FBFDFEBF7F9FA728E8A9CA8A482869E5892A882586058A6A8829C8882A488
310
4064588E8A9CA8A482A8B0584AE658508E8A9C9AA68E40CECADCC8EECE4064646052809202405094D4154455249414C324050B4D4154455249414C4520324051D40642A8282DB071D202FB3F4E51D15395149050D3CB1255104B0C0B135055115492505311480C8B11D15395149055160B095CCB0A11D1539354D1C819D95B
310
991DD9C80D0C0A501240480A089A82A6A680A0A9A82A6A68280A3A80A0485A0681174B85D2F97CBE47E99A3A2A72A2920A1A79624AA2096181626A0A9A9A09623A2A72A2920AA2C1612B9961423A2A726A9A39033B2B7323BB3901A1914A024809014154149250D150141941491569693D01475014090C409022E970BA5F2F
310
97C8FD3447454E545241434F2C4954412C302C5052455A5A4F2C47454E54524154582C25732C2847454E4D53472067656E6477672034332940490120281A224A6A028326A4A9AAA920A028EA028121A81A045D2E174BE5F2F91FA688E8A9CA8A482869E5892A8825860589A92A6AAA482588E8A9CA8A482A8B0584AE658508
310
E8A9C9AA68E40CECADCC8EECE4068685280920240506555345524944405094E756D65726F2049444051D4050143A883C16030180CF63F901A40480A1E882045C0F42F5A8DC671FA3C0080C566AB55AAD56FB1F959AAD56AB55BEC7E839E9E24AA22A69F20280C566AB55AAD56FB1F959AAD56AB55BEC7E839E9E24AA22A69F
310
20280C4863F1F8BC1E771F9218FC7E2F079DC7E839E9E24AA22A69F20280C4863F1F8BC1E771F9218FC7E2F079DC7E839E9E24AA22A69F20281480959AAD56AB55BEC7E566AB55AAD56FB1FA0E7A7892A88A9A7C80A0C7A78A2A8B27C80A03159AAD56AB55BEC7E566AB55AAD56FB1FA0E7A7892A88A9A7C80C8080159AAD5
310
6AB55BEC7E566AB55AAD56FB1FD10000000000000041034110340D02409014064410A42244101A42901A4229014290A4290A40A000000000000785F8000000000001E17E80A0483877BE9F1B2EDD447E1DEFA7C6CBB7511F9703D0BD6A3717C7F901A0D2028120A83A0D2034B81E85EB51B8BE3F40907409013140501C
340
0
340
0
 94
        0
  0
ACAD_PROXY_OBJECT
  5
1449
330
1442
100
AcDbProxyObject
 90
      499
 91
      549
 95
   851991
 70
     0
 93
      960
310
5700B81E85EB51B8CE3F4BCF511155105253080F11115510525317D3105091530F971414D0D05311480F11115510525317D05094D4D0D053114F92341C9A9999999999B93F26A666666666724FC000000000000E03F40000000000000040000000000000051000000000000002440478B81E85EB51B8CE3F00
340
E47
340
E55
 94
        0
  0
ACAD_PROXY_OBJECT
  5
144A
330
1442
100
AcDbProxyObject
 90
      499
 91
      550
 95
   851991
 70
     0
 93
      745
310
570031703D0BD6A3719C7E999EA9A2A1AA24A7A7101E29A2A1AA24A7A72FA620A122A62FA324A929AA1F169E29A2A1AA24A7A72FA620A122A62FA620A9AA1F1353333333333B27EFF41C8823C4D4CCCCCCCCCEC9FC5C0F42F5A8DC671FCC
340
E47
340
E55
 94
        0
  0
ACAD_PROXY_OBJECT
  5
144B
330
1442
100
AcDbProxyObject
 90
      499
 91
      551
 95
   851991
 70
     0
 93
      279
310
5702B8716D9CEF7C33F0A5723F0BD4A2F0FC295C8FC2F528BC3FA199999999999F99FC
 94
        0
  0
ACAD_PROXY_OBJECT
  5
144C
330
1442
100
AcDbProxyObject
 90
      499
 91
      552
 95
   851991
 70
     0
 93
     5890
310
571084050B90142A40502405094D6F64656C6C6F2031405EA3D3C696628657175616C28486F6C653A7461707065642C223022292C222525632220486F6C653A6469612C20486F6C653A6E6F6D696E616C2022202220696628657175616C28486F6C653A756E6974732C223122292C2278222C222D22292022202220486F6C6
310
53A706974636864657363293E207B5C46414D4744543B787D203C696628657175616C28486F6C653A7465726D696E6174696F6E2C223022292C486F6C653A64657074682C225448525522293E5C507B5C46414D4744543B767D2525633C486F6C653A63746469613E207B5C46414D4744543B787D203C486F6C653A6374646
310
57074683E40640503405094D6F64656C6C6F2031405E33D3C696628657175616C28486F6C653A7461707065642C223022292C222525632220486F6C653A6469612C20486F6C653A6E6F6D696E616C2022202220696628657175616C28486F6C653A756E6974732C223122292C2278222C222D22292022202220486F6C653A7
310
06974636864657363293E207B5C46414D4744543B787D203C696628657175616C28486F6C653A7465726D696E6174696F6E2C223022292C486F6C653A64657074682C225448525522293E5C507B5C46414D4744543B777D2525633C486F6C653A63746469613E2058203C486F6C653A6374616E676C653E252564406405014
310
05094D6F64656C6C6F2031405B43D3C696628657175616C28486F6C653A7461707065642C223022292C222525632220486F6C653A6469612C20486F6C653A6E6F6D696E616C2022202220696628657175616C28486F6C653A756E6974732C223122292C2278222C222D22292022202220486F6C653A7069746368646573632
310
93E5C507B5C46414D4744543B787D203C696628657175616C28486F6C653A7465726D696E6174696F6E2C223022292C486F6C653A64657074682C225448525522293E4064051E405094D6F64656C6C6F20314050C3D3C535444503A444553433E40640515A8C
 94
        0
  0
ACAD_PROXY_OBJECT
  5
144D
330
1442
100
AcDbProxyObject
 90
      499
 91
      537
 95
   851991
 70
     0
 93
       20
310
57101C
340
0
 94
        0
  0
ACAD_PROXY_OBJECT
  5
144E
330
1442
100
AcDbProxyObject
 90
      499
 91
      538
 95
   851991
 70
     0
 93
      258
310
57102000000000000380FC000000000000E03F408F0F9023C3E40DB18CCCFFFF8C
340
E58
340
0
340
0
340
E59
340
E5A
340
0
340
E5B
340
E5C
340
E5D
340
0
 94
        0
  0
ACAD_PROXY_OBJECT
  5
144F
330
1442
100
AcDbProxyObject
 90
      499
 91
      553
 95
   851991
 70
     0
 93
    13409
310
5711A023FFFFFFFD010300002E07A17AD46E2F8FC09010300002E07A17AD46E2F8FC080511454C454E434F20434F4F5244494E415445015011D15395149050D3CB1255104B0C0B1153115390D3C810D3D3D49112539055114B11D15395149055160B095CCB0A11D1539354D1C819D95B991A5B5E880CCC0A78000C00000000
310
0000000000000000000000007B14AE47E17AA43F2E07A17AD46E2F8FD021EC52B91F85EA90FCB81E85EB51B8BE3F40A014315105091531310481193D4924053B47454E545241434F2C4954412C302C544142454C4C4120464F52492C47454E54524154582C25732C2847454E4D53472067656E64696D7A20333129E0003000
310
000000000000000000000000000001EC52B91F85EA90FCB81E85EB51B8BE3F4087B14AE47E17AA43F2E07A17AD46E2F8FD0290B4410F4450240D04415014391244D05449074510C4350F000141D3D49251D253914053547454E545241434F2C4954412C302C4F524947494E452C47454E54524154582C25732C2847454E4D5
310
3472067656E64696D7A20312900010105002214000283A7A924A3A4A72280A6A8E8A9CA8A482869E5892A8825860589EA4928E929C8A588E8A9CA8A482A8B0584AE658508E8A9C9AA68E40CECADCC8D2DAF4406252000202080043E8000504464F524F014C91D15395149050D3CB1255104B0C0B1193D493CB11D153951490
310
55160B095CCB0A11D1539354D1C819D95B991A5B5E880C8A405163D3C486F6C654974656D3E3C486F6C65496E6465783E010104002234000280AC00A5E8E8A9CA8A482869E5892A882586058B0588E8A9CA8A482A8B0584AE658508E8A9C9AA68E40CECADCC8D2DAF4406652000202000040A800050159014BD1D153951490
310
50D3CB1255104B0C0B164B11D15395149055160B095CCB0A11D1539354D1C819D95B991A5B5E880D0A4000404000081D0000A02A40297A3A2A72A2920A1A79624AA20961816291623A2A72A2920AA2C1612B9961423A2A726A9A39033B2B73234B6BD101B148000808000104A000141954ACC0D0D0D0053447454E54524143
310
4F2C4954412C302C552B303434342C47454E54524154582C25732C2847454E4D53472067656E64696D7A203729000101030020B40002822827A99700A668E8A9CA8A482869E5892A882586058A09EA65C588E8A9CA8A482A8B0584AE658508E8A9C9AA68E40CECADCC8D2DAF4406268520002020A004068000506494E44494
310
345014D51D15395149050D3CB1255104B0C0B1253911250D14B11D15395149055160B095CCB0A11D1539354D1C819D95B991A5B5E880C4D4A400040414008750000A088C9EA49E0299A3A2A72A2920A1A79624AA209618162327A9279623A2A72A2920AA2C1612B9961423A2A726A9A39033B2B73234B6BD10189B14800080
310
8200112A000142D253911250D1481193D493C053A47454E545241434F2C4954412C302C494E4449434520464F524F2C47454E54524154582C25732C2847454E4D53472067656E64696D7A20313729000101050022740002819292A180A628E8A9CA8A482869E5892A8825860584A4A86588E8A9CA8A482A8B0584AE658508E
310
8A9C9AA68E40CECADCC8D2DAF4407052000202020041E80005035154C0014C91D15395149050D3CB1255104B0C0B1455300B11D15395149055160B095CCB0A11D1539354D1C819D95B991A5B5E880C4E4A400040418008A50000A16888AA686A492B4929E9C8A029D23A2A72A2920A1A79624AA209618162222A9A1A924AD2
310
4A7A7229623A2A72A2920AA2C1612B9961423A2A726A9A39033B2B73234B6BD10191814800080020010CA00014214D51053911054910053747454E545241434F2C4954412C302C5354414E444152442C47454E54524154582C25732C2847454E4D53472067656E64696D7A20323129000100040021B4878030026A66666666
310
67A4FE064D4CCCCCCCCCF49FC049A9999999999E93F809353333333333D27F0226A6666666667A4FE044D4CCCCCCCCCF49FC009A9999999999D93F801353333333333D27F0026A6666666667A4FE004D4CCCCCCCCCF49FC0D819703D0BD6A371BC7F03000000000000001020633B333333333032050F006004D4CCCCCCCCCF
310
49FC0C9A9999999999E93F819353333333333D27F0326A6666666667A4FE064D4CCCCCCCCCF49FC0C9A9999999999E93F801353333333333B27F0026A6666666667A4FE064D4CCCCCCCCCF49FC009A9999999999E93F81B032E07A17AD46E378FE06000000000000002040C6766666666660640A088800000021E000000890
310
000002260000008220E00020089000000206000200810000804C
340
0
340
0
340
0
340
0
 94
        0
  0
ACAD_PROXY_OBJECT
  5
1450
330
1442
100
AcDbProxyObject
 90
      499
 91
      540
 95
   851991
 70
     0
 93
     5766
310
5719741105394D2506414E53495F4342905394D257D512551554D15414E53495F54525F5265766973696F6E6C697374614191243202831372E307832322E30706F6C6C2E2941905394D257D0D1246202832382E307834302E30706F6C6C2E2941905394D257D1911412028382E357831312E30706F6C6C2E2941905394D257
310
D051242202831312E307831372E30706F6C6C2E2941905394D257D091244202832322E307833342E30706F6C6C2E2941905394D257D111245202833342E307834342E30706F6C6C2E2941905394D257D150544505394D24810D85C9D1A59DB1A5BC81050D0C414E53495F5449544C4541434310D85C9D1A59DB1A5BC81554D
310
0A414E53495F544954555344105394D24810D85C9D1A59DB1A5BC81050B414E53495F5449544C454144105394D24810D85C9D1A59DB1A5BC81110B414E53495F5449544C454444505394D24810D85C9D1A59DB1A5BC81110D0C414E53495F5449544C45444342116456C656E636F207265766973696F6E6920445F54525F45
310
505394D257D51497D4995D9A5CDA5BDB9B1A5CDD19116456C656E636F207265766973696F6E6920415F424C5F45505394D257D09317D4995D9A5CDA5BDB9B1A5CDD18516456C656E636F207265766973696F6E6920415F544C5F45505394D257D51317D4995D9A5CDA5BDB9B1A5CDD18516456C656E636F207265766973696
310
F6E6920445F424C5F45505394D257D09317D4995D9A5CDA5BDB9B1A5CDD19116456C656E636F207265766973696F6E6920445F544C5F45505394D257D51317D4995D9A5CDA5BDB9B1A5CDD19116456C656E636F207265766973696F6E6920415F42525F45505394D257D09497D4995D9A5CDA5BDB9B1A5CDD18516456C656E
310
636F207265766973696F6E6920415F54525F45505394D257D51497D4995D9A5CDA5BDB9B1A5CDD18516456C656E636F207265766973696F6E6920445F42525F45505394D257D09497D4995D9A5CDA5BDB9B1A5CDD190
 94
        0
  0
ACAD_PROXY_OBJECT
  5
D2F
330
D23
100
AcDbProxyObject
 90
      499
 91
      526
 95
   851991
 70
     0
 93
       12
310
571C
 94
        0
  0
ACAD_PROXY_OBJECT
  5
D30
330
D23
100
AcDbProxyObject
 90
      499
 91
      527
 95
   851991
 70
     0
 93
       96
310
572A0E80A0280A0280A0280FE9
 94
        0
  0
ACAD_PROXY_OBJECT
  5
D31
330
D23
100
AcDbProxyObject
 90
      499
 91
      528
 95
   851991
 70
     0
 93
      272
310
5710E4050140501405014050140501405014050140D01405012C00000000000000406C
340
D3A
 94
        0
  0
ACAD_PROXY_OBJECT
  5
D32
330
D23
100
AcDbProxyObject
 90
      499
 91
      529
 95
   851991
 70
     0
 93
      496
310
5728666666666667A67E199999999999E99FD22405014050140501405014050140501405014050140501405014050140501405014050140501405014050140
340
D3B
 94
        0
  0
ACAD_PROXY_OBJECT
  5
D33
330
D23
100
AcDbProxyObject
 90
      499
 91
      530
 95
   851991
 70
     0
 93
       10
310
570C
 94
        0
  0
ACAD_PROXY_OBJECT
  5
D34
330
D23
100
AcDbProxyObject
 90
      499
 91
      531
 95
   851991
 70
     0
 93
      223
310
572290EA22A7D90F49F8000000000000108140000000000000420204
340
D3C
340
D3D
 94
        0
  0
ACAD_PROXY_OBJECT
  5
D35
330
D23
100
AcDbProxyObject
 90
      499
 91
      532
 95
   851991
 70
     0
 93
    13186
310
5710F411255115350141141BDCCB90140501406901000000000000091013347454E545241434F2C4954412C302C506F732E2C47454E54524154582C25732C2847454E4D53472067656E647767203232322940690120281A8AA2CA0281A8BA702028120280A0320200000000000012202648E8A9CA8A482869E5892A8825860
310
58A2E9C0588E8A9CA8A482A8B0584AE658508E8A9C9AA68E40CECADCC8EECE406464665280D202405044E414D45405044E6F6D654051C40640A80000000000004E404CD1D15395149050D3CB1255104B0C0B139BDB594B11D15395149055160B095CCB0A11D1539354D1C819D95B991DD9C80C8C8D8A50190B3D424C4F434B
310
3A4E414D4540480A0A888AA686A480A1688CAE6C6E4D2F4D2DEDCCA80A3A80C81D0000000000100A2809D23A2A72A2920A1A79624AA209618162232B9B1B934BD34B7B7329623A2A72A2920AA2C1612B9961423A2A726A9A39033B2B7323BB39019189B94A034809014214D51053911054911014214DD185B99185C9910147
310
501904A000000000000125013747454E545241434F2C4954412C302C5374616E646172642C47454E54524154582C25732C2847454E4D53472067656E64776720323138294069012028426A0AA22A924A0A620284A6B0BA32B934B0B632A028EA0320B40000000000001CA02708E8A9CA8A482869E5892A8825860589AC2E8C
310
AE4D2C2D8CA588E8A9CA8A482A8B0584AE658508E8A9C9AA68E40CECADCC8EECE406464625280D202405044E4F5445405044E6F74614051D40641A80000000000003E404CD1D15395149050D3CB1255104B0C0B139BDD184B11D15395149055160B095CCB0A11D1539354D1C819D95B991DD9C80C8C8D4A501240480A0CAC8
310
A9C889EA480A128CDEE4DCD2E8DEE4CA80A3A80C83D00000000000007C809C23A2A72A2920A1A79624AA209618162337B93734BA37B9329623A2A72A2920AA2C1612B9961423A2A726A9A39033B2B7323BB39019191A14A0348090141911154D0D48C9014351195CD8DC9A5E9A5BDB99480C90147501908A00000000002014
310
5013B47454E545241434F2C4954412C302C4465736372697A696F6E6520322C47454E54524154582C25732C2847454E4D53472067656E6477672033362940490120284A9AA20A72220A922192028529BA30B73230B93210192028EA03213400000000000024A02728E8A9CA8A482869E5892A882586058A6E8C2DCC8C2E4C8
310
4064588E8A9CA8A482A8B0584AE658508E8A9C9AA68E40CECADCC8EECE4064646052809202405094D4154455249414C324050B4D6174657269616C6520324051D40642A8713D0AD7A37045404E51D15395149050D3CB1255104B0C0B13585D195C9A585B19480C8B11D15395149055160B095CCB0A11D1539354D1C819D95B
310
991DD9C80D0C0A501240480A089A82A6A680A0A9AC2E6E6C280A3A80A0485A068100000000000007C8099A3A2A72A2920A1A79624AA2096181626B0B9B9B09623A2A72A2920AA2C1612B9961423A2A726A9A39033B2B7323BB3901A1914A024809014154149250D150141941C995E9E9BD01475014090C4090200000000000
310
00F9013447454E545241434F2C4954412C302C5072657A7A6F2C47454E54524154582C25732C2847454E4D53472067656E6477672034332940490120281A224A6A028326B4B9BAB930A028EA028121A81A040000000000001F202688E8A9CA8A482869E5892A8825860589AD2E6EAE4C2588E8A9CA8A482A8B0584AE658508
310
E8A9C9AA68E40CECADCC8EECE4068685280920240506555345524944405094E756D65726F2049444051D4050143A80000000000804140901A40480A1E88A040000000000000A2020E0080C0000000000001F2000000000000007C80839E9E24AA22A69F20280C0000000000001F2000000000000007C80839E9E24AA22A69F
310
20280C0000000000001A2000000000000006880839E9E24AA22A69F20280C0000000000001A2000000000000006880839E9E24AA22A69F2028148080000000000007C800000000000001F2020E7A7892A88A9A7C80A0C7A78A2A8B27C80A0300000000000007C800000000000001F2020E7A7892A88A9A7C80C80800000000
310
0000007C800000000000001F2051100000000000004101034110340D02409014064410A42244101A42901A4229014290A4290A40A000000000000785F8000000000001E17E80A048399B9999999999D87E66E666666666761F80000000000001880901A0B20281A0882C80D000000000000031010240901404C501404C
340
0
340
0
 94
        0
  0
ACAD_PROXY_OBJECT
  5
D36
330
D23
100
AcDbProxyObject
 90
      499
 91
      533
 95
   851991
 70
     0
 93
      864
310
5704000000000000144048CF4F11115510525317D3105091530F880A0F11115510525317D05094D4D0D053114F8A51141C9A9999999999B93F26A666666666724FC000000000000E03F4000000000000004000000000000005100000000000000244041C000000000000144000
340
14
340
D2E
 94
        0
  0
ACAD_PROXY_OBJECT
  5
D37
330
D23
100
AcDbProxyObject
 90
      499
 91
      534
 95
   851991
 70
     0
 93
      745
310
5700B00000000000002880959E9E29A2A1AA24A7A72FA620A122A62FA324A929AA1F169E29A2A1AA24A7A72FA620A122A62FA620A9AA1F00000000000004880FF41C88A0E0000000000001220000000000000028800000000000000A204C
340
163
340
D2E
 94
        0
  0
ACAD_PROXY_OBJECT
  5
D38
330
D23
100
AcDbProxyObject
 90
      499
 91
      535
 95
   851991
 70
     0
 93
      151
310
57280000000000000840A3D0A5723F0BD1F200
 94
        0
  0
ACAD_PROXY_OBJECT
  5
D39
330
D23
100
AcDbProxyObject
 90
      499
 91
      536
 95
   851991
 70
     0
 93
     5762
310
571084050B90142A40502405094D6F64656C6C6F2031405DC3D2525633C486F6C653A63746469613E2078203C486F6C653A637464657074683E20555C503C696628657175616C28486F6C653A7461707065642C223022292C222525632220486F6C653A6469612C20486F6C653A6E6F6D696E616C20222078202220486F6C6
310
53A70697463686465736320696628657175616C28486F6C653A7461707065642C223122292C222078202220486F6C653A74617064657074682C222229293E203C696628657175616C28486F6C653A7465726D696E6174696F6E2C223022292C22202F202220486F6C653A64657074682C222022293E40640503405094D6F64
310
656C6C6F2031405DD3D2525633C486F6C653A63746469613E2078203C486F6C653A6374616E676C653E2525645C503C696628657175616C28486F6C653A7461707065642C223022292C222525632220486F6C653A6469612C20486F6C653A6E6F6D696E616C20222078202220486F6C653A706974636864657363206966286
310
57175616C28486F6C653A7461707065642C223122292C222078202220486F6C653A74617064657074682C222229293E203C696628657175616C28486F6C653A7465726D696E6174696F6E2C223022292C22202F202220486F6C653A64657074682C222022293E40640501405094D6F64656C6C6F2031405B83D3C696628657
310
175616C28486F6C653A7461707065642C223022292C222525632220486F6C653A6469612C20486F6C653A6E6F6D696E616C20222078202220486F6C653A70697463686465736320696628657175616C28486F6C653A7461707065642C223122292C222078202220486F6C653A74617064657074682C222229293E203C69662
310
8657175616C28486F6C653A7465726D696E6174696F6E2C223022292C22202F202220486F6C653A64657074682C222022293E4064051E405094D6F64656C6C6F20314050C3D3C535444503A444553433E40640515A8C
 94
        0
  0
ACAD_PROXY_OBJECT
  5
D3F
330
D23
100
AcDbProxyObject
 90
      499
 91
      537
 95
   851991
 70
     0
 93
       20
310
57101C
340
D24
 94
        0
  0
ACAD_PROXY_OBJECT
  5
D40
330
D23
100
AcDbProxyObject
 90
      499
 91
      538
 95
   851991
 70
     0
 93
      250
310
571020000000000000A1000000000000002440408F0F9023C3E409A0DCFFFF8C
340
D41
340
0
340
0
340
D42
340
D43
340
D44
340
D45
340
D46
340
D4B
340
0
 94
        0
  0
ACAD_PROXY_OBJECT
  5
D4C
330
D23
100
AcDbProxyObject
 90
      499
 91
      539
 95
   851991
 70
     0
 93
    13755
310
5711A003FFFFFFFD0303000300000000000003100090303000300000000000003100080511456C656E636F20636F6F7264696E617465015011D15395149050D3CB1255104B0C0B115B195B98DBC818DBDBDC991A5B985D194B11D15395149055160B095CCB0A11D1539354D1C819D95B991A5B5E880CCC0A78000C00000000
310
000000000000000000000001000000000000031010240000000000000C4040A0143151858995B1B1848199BDC9A4053B47454E545241434F2C4954412C302C546162656C6C6120666F72692C47454E54524154582C25732C2847454E4D53472067656E64696D7A20333129E000300000000000000000000000000000000400
310
00000000000C40409000000000000031010290D44111409034110541D0C4350F4050E44D03449074510F000141D3DC9A59DA5B994053547454E545241434F2C4954412C302C4F726967696E652C47454E54524154582C25732C2847454E4D53472067656E64696D7A203129000101050022140002822337B93780A648E8A9C
310
A8A482869E5892A8825860588CDEE4DE588E8A9CA8A482A8B0584AE658508E8A9C9AA68E40CECADCC8D2DAF4406452029F9E9E27B934B3B4B71F1E24A31427A91424A9A12620A7259427B934B3B4B7149624A9A12620A7259424B73232BC149496111116111711149F1E24B73232BC1F00808200111A000140560052F47454
310
E545241434F2C4954412C302C582C47454E54524154582C25732C2847454E4D53472067656E64696D7A20332900010100002054000280AC80A5E8E8A9CA8A482869E5892A882586058B2588E8A9CA8A482A8B0584AE658508E8A9C9AA68E40CECADCC8D2DAF4406852000202000040E800050172014BD1D15395149050D3CB
310
1255104B0C0B1C8B11D15395149055160B095CCB0A11D1539354D1C819D95B991A5B5E880D8A400040400008250000A0CAA5660686868029A23A2A72A2920A1A79624AA209618162A95981A1A1A1623A2A72A2920AA2C1612B9961423A2A726A9A39033B2B73234B6BD101B948000808180105A000140C94958C053147454E
310
545241434F2C4954412C302C2525632C47454E54524154582C25732C2847454E4D53472067656E64696D7A203829000101010020F4000285A232B9B1B934BD34B7B73280A748E8A9CA8A482869E5892A88258605888CAE6C6E4D2F4D2DEDCCA588E8A9CA8A482A8B0584AE658508E8A9C9AA68E40CECADCC8D2DAF44064605
310
2000200080043280005085374616E64617264014DD1D15395149050D3CB1255104B0C0B14DD185B99185C990B11D15395149055160B095CCB0A11D1539354D1C819D95B991A5B5E880C8C4A4000400100086D0000A0E9EE4D2CED2DCCA029AA3A2A72A2920A1A79624AA2096181627B934B3B4B7329623A2A72A2920AA2C16
310
12B9961423A2A726A9A39033B2B73234B6BD10189480A026202020A0043E8000504506F732E014CD1D15395149050D3CB1255104B0C0B141BDCCB8B11D15395149055160B095CCB0A11D1539354D1C819D95B991A5B5E880C4D0A4000404140080D0000A0C92DCC8D2C6CA029AA3A2A72A2920A1A79624AA2096181624B732
310
34B1B29623A2A72A2920AA2C1612B9961423A2A726A9A39033B2B73234B6BD10189A94800080828010EA000142D25B991A58D948199BDC9BC053A47454E545241434F2C4954412C302C496E6469636520666F726F2C47454E54524154582C25732C2847454E4D53472067656E64696D7A20313729000101050022740002822
310
337B93780A668E8A9CA8A482869E5892A8825860588CDEE4DE588E8A9CA8A482A8B0584AE658508E8A9C9AA68E40CECADCC8D2DAF440626C52000202080044A80005035174E0014C91D15395149050D3CB1255104B0C0B145D380B11D15395149055160B095CCB0A11D1539354D1C819D95B991A5B5E880C4E4A4000404180
310
08A521E000000000000001CA040C00000000000034408080000000000006881010000000000000D102040000000000001A204080000000000003440818000000000000728103000000000000125020600000000004028A040000000000000034408000000000000004881000000000000000D102000000000000001A204000
310
000000000003440818000000000000508143C0000000000000039408180000000000006881030000000000000D102060000000000001A2040C00000000000034408180000000000006881030000000000000E5020600000000000024A040C00000000008051408000000000000006881000000000000000910200000000000
310
0001A2040000000000000034408180000000000006881030000000000000A10283A2000000087800000204000000818000002080000008280000020E00000080A24000000C
340
0
340
0
340
0
340
0
 94
        0
  0
ACAD_PROXY_OBJECT
  5
D4D
330
D23
100
AcDbProxyObject
 90
      499
 91
      540
 95
   851991
 70
     0
 93
     7258
310
5719740D254D3D0649534F5F4133429254D3D7D5125513115051349534F5F42525F5265766973696F6E6C69737446111413478342028323937783834316D6D2920421254D3D7D04D1E0D11141327835202835393478323130326D6D29421254D3D7D04C9E0D51141337837202834323078323038306D6D29421254D3D7D04C
310
DE0DD1141347839202832393778313839326D6D29421254D3D7D04D1E0E50E41312028353934783834316D6D29419254D3D7D04C51141327834202835393478313638326D6D29421254D3D7D04C9E0D11141347838202832393778313638326D6D29421254D3D7D04D1E0E10E41332028323937783432306D6D29419254D3D
310
7D04CD104130202838343078313138396D6D2920419254D3D7D04C11141347835202832393778313035316D6D29421254D3D7D04D1E0D51141347836202832393778313236316D6D29421254D3D7D04D1E0D91141347837202832393778313437316D6D29421254D3D7D04D1E0DD1141327833202835393478313236316D6D
310
29421254D3D7D04C9E0CD1141337834202834323078313138396D6D29421254D3D7D04CDE0D110413478332028323937783633306D6D29421254D3D7D04D1E0CD1141337835202834323078313438366D6D29421254D3D7D04CDE0D51141337836202834323078313738336D6D29421254D3D7D04CDE0D9104133783320283
310
43230783839316D6D29421254D3D7D04CDE0CD0E41322028343230783539346D6D29419254D3D7D04C9124130783220283131383978313638326D6D29421254D3D7D04C1E0C90E41342028323937783231306D6D29419254D3D7D04D1124130783320283131383978323532336D6D29421254D3D7D04C1E0CD114131783420
310
2838343178323337386D6D29421254D3D7D04C5E0D11141317833202838343178313738336D6D29421254D3D7D04C5E0CD0243D254D3C810D85C9D1A59DB1A5BC81050A49534F5F5449544C454143D254D3C810D85C9D1A59DB1A5BC81090A49534F5F5449544C454241114456C656E636F207265766973696F6E695F54525
310
F44D254D3D7D51497D4995D9A5CDA5BDB9B1A5CDD114456C656E636F207265766973696F6E695F424C5F44D254D3D7D09317D4995D9A5CDA5BDB9B1A5CDD114456C656E636F207265766973696F6E695F544C5F44D254D3D7D51317D4995D9A5CDA5BDB9B1A5CDD114456C656E636F207265766973696F6E695F42525F44D2
310
54D3D7D09497D4995D9A5CDA5BDB9B1A5CDD0C
 94
        0
  0
ENDSEC
  0
EOF
