  0
SECTION
  2
HEADER
  9
$ACADVER
  1
AC1021
  9
$ACADMAINTVER
 70
    25
  9
$DWGCODEPAGE
  3
ANSI_1252
  9
$LASTSAVEDBY
  1
Achim
  9
$CUSTOMPROPERTYTAG
  1
AmdtFileType
  9
$CUSTOMPROPERTY
  1
84
  9
$INSBASE
 10
0.0
 20
0.0
 30
0.0
  9
$EXTMIN
 10
-1357.489841538299
 20
-458.815020431127
 30
0.0
  9
$EXTMAX
 10
443.5188577243193
 20
349.8618367768616
 30
0.0
  9
$LIMMIN
 10
0.0
 20
0.0
  9
$LIMMAX
 10
420.0
 20
297.0
  9
$ORTHOMODE
 70
     1
  9
$REGENMODE
 70
     1
  9
$FILLMODE
 70
     1
  9
$QTEXTMODE
 70
     0
  9
$MIRRTEXT
 70
     1
  9
$LTSCALE
 40
20.0
  9
$ATTMODE
 70
     1
  9
$TEXTSIZE
 40
2.5
  9
$TRACEWID
 40
1.0
  9
$TEXTSTYLE
  7
STANDARD
  9
$CLAYER
  8
DISEGNO
  9
$CELTYPE
  6
BYLAYER
  9
$CECOLOR
 62
   256
  9
$CELTSCALE
 40
1.0
  9
$DISPSILH
 70
     0
  9
$DIMSCALE
 40
1.0
  9
$DIMASZ
 40
2.5
  9
$DIMEXO
 40
0.625
  9
$DIMDLI
 40
3.75
  9
$DIMRND
 40
0.0
  9
$DIMDLE
 40
0.0
  9
$DIMEXE
 40
1.25
  9
$DIMTP
 40
0.0
  9
$DIMTM
 40
0.0
  9
$DIMTXT
 40
2.5
  9
$DIMCEN
 40
2.5
  9
$DIMTSZ
 40
0.0
  9
$DIMTOL
 70
     0
  9
$DIMLIM
 70
     0
  9
$DIMTIH
 70
     0
  9
$DIMTOH
 70
     0
  9
$DIMSE1
 70
     0
  9
$DIMSE2
 70
     0
  9
$DIMTAD
 70
     1
  9
$DIMZIN
 70
     8
  9
$DIMBLK
  1

  9
$DIMASO
 70
     1
  9
$DIMSHO
 70
     1
  9
$DIMPOST
  1

  9
$DIMAPOST
  1

  9
$DIMALT
 70
     0
  9
$DIMALTD
 70
     4
  9
$DIMALTF
 40
0.0394
  9
$DIMLFAC
 40
1.0
  9
$DIMTOFL
 70
     1
  9
$DIMTVP
 40
0.0
  9
$DIMTIX
 70
     0
  9
$DIMSOXD
 70
     0
  9
$DIMSAH
 70
     0
  9
$DIMBLK1
  1

  9
$DIMBLK2
  1

  9
$DIMSTYLE
  2
STANDARD
  9
$DIMCLRD
 70
     0
  9
$DIMCLRE
 70
     0
  9
$DIMCLRT
 70
     0
  9
$DIMTFAC
 40
1.0
  9
$DIMGAP
 40
0.625
  9
$DIMJUST
 70
     0
  9
$DIMSD1
 70
     0
  9
$DIMSD2
 70
     0
  9
$DIMTOLJ
 70
     1
  9
$DIMTZIN
 70
     0
  9
$DIMALTZ
 70
     0
  9
$DIMALTTZ
 70
     0
  9
$DIMUPT
 70
     0
  9
$DIMDEC
 70
     4
  9
$DIMTDEC
 70
     4
  9
$DIMALTU
 70
     8
  9
$DIMALTTD
 70
     4
  9
$DIMTXSTY
  7
STANDARD
  9
$DIMAUNIT
 70
     0
  9
$DIMADEC
 70
     0
  9
$DIMALTRND
 40
0.0
  9
$DIMAZIN
 70
     0
  9
$DIMDSEP
 70
    46
  9
$DIMATFIT
 70
     3
  9
$DIMFRAC
 70
     0
  9
$DIMLDRBLK
  1

  9
$DIMLUNIT
 70
     6
  9
$DIMLWD
 70
    -2
  9
$DIMLWE
 70
    -2
  9
$DIMTMOVE
 70
     0
  9
$DIMFXL
 40
1.0
  9
$DIMFXLON
 70
     0
  9
$DIMJOGANG
 40
0.7853981633974483
  9
$DIMTFILL
 70
     0
  9
$DIMTFILLCLR
 70
     0
  9
$DIMARCSYM
 70
     0
  9
$DIMLTYPE
  6

  9
$DIMLTEX1
  6

  9
$DIMLTEX2
  6

  9
$LUNITS
 70
     2
  9
$LUPREC
 70
     4
  9
$SKETCHINC
 40
1.0
  9
$FILLETRAD
 40
10.0
  9
$AUNITS
 70
     0
  9
$AUPREC
 70
     0
  9
$MENU
  1
.
  9
$ELEVATION
 40
0.0
  9
$PELEVATION
 40
0.0
  9
$THICKNESS
 40
0.0
  9
$LIMCHECK
 70
     0
  9
$CHAMFERA
 40
5.0
  9
$CHAMFERB
 40
5.0
  9
$CHAMFERC
 40
20.0
  9
$CHAMFERD
 40
0.0
  9
$SKPOLY
 70
     0
  9
$TDCREATE
 40
2452088.782487165
  9
$TDUCREATE
 40
2452088.699153831
  9
$TDUPDATE
 40
2455405.392513299
  9
$TDUUPDATE
 40
2455405.309179965
  9
$TDINDWG
 40
0.1068695602
  9
$TDUSRTIMER
 40
0.1068695602
  9
$USRTIMER
 70
     1
  9
$ANGBASE
 50
0.0
  9
$ANGDIR
 70
     0
  9
$PDMODE
 70
     0
  9
$PDSIZE
 40
0.0
  9
$PLINEWID
 40
0.0
  9
$SPLFRAME
 70
     0
  9
$SPLINETYPE
 70
     6
  9
$SPLINESEGS
 70
     8
  9
$HANDSEED
  5
4927
  9
$SURFTAB1
 70
     6
  9
$SURFTAB2
 70
     6
  9
$SURFTYPE
 70
     6
  9
$SURFU
 70
     6
  9
$SURFV
 70
     6
  9
$UCSBASE
  2

  9
$UCSNAME
  2

  9
$UCSORG
 10
0.0
 20
0.0
 30
0.0
  9
$UCSXDIR
 10
1.0
 20
0.0
 30
0.0
  9
$UCSYDIR
 10
0.0
 20
1.0
 30
0.0
  9
$UCSORTHOREF
  2

  9
$UCSORTHOVIEW
 70
     0
  9
$UCSORGTOP
 10
0.0
 20
0.0
 30
0.0
  9
$UCSORGBOTTOM
 10
0.0
 20
0.0
 30
0.0
  9
$UCSORGLEFT
 10
0.0
 20
0.0
 30
0.0
  9
$UCSORGRIGHT
 10
0.0
 20
0.0
 30
0.0
  9
$UCSORGFRONT
 10
0.0
 20
0.0
 30
0.0
  9
$UCSORGBACK
 10
0.0
 20
0.0
 30
0.0
  9
$PUCSBASE
  2

  9
$PUCSNAME
  2

  9
$PUCSORG
 10
0.0
 20
0.0
 30
0.0
  9
$PUCSXDIR
 10
1.0
 20
0.0
 30
0.0
  9
$PUCSYDIR
 10
0.0
 20
1.0
 30
0.0
  9
$PUCSORTHOREF
  2

  9
$PUCSORTHOVIEW
 70
     0
  9
$PUCSORGTOP
 10
0.0
 20
0.0
 30
0.0
  9
$PUCSORGBOTTOM
 10
0.0
 20
0.0
 30
0.0
  9
$PUCSORGLEFT
 10
0.0
 20
0.0
 30
0.0
  9
$PUCSORGRIGHT
 10
0.0
 20
0.0
 30
0.0
  9
$PUCSORGFRONT
 10
0.0
 20
0.0
 30
0.0
  9
$PUCSORGBACK
 10
0.0
 20
0.0
 30
0.0
  9
$USERI1
 70
     0
  9
$USERI2
 70
     0
  9
$USERI3
 70
     0
  9
$USERI4
 70
     0
  9
$USERI5
 70
     0
  9
$USERR1
 40
0.0
  9
$USERR2
 40
0.0
  9
$USERR3
 40
0.0
  9
$USERR4
 40
0.0
  9
$USERR5
 40
0.0
  9
$WORLDVIEW
 70
     1
  9
$SHADEDGE
 70
     3
  9
$SHADEDIF
 70
    70
  9
$TILEMODE
 70
     1
  9
$MAXACTVP
 70
    48
  9
$PINSBASE
 10
0.0
 20
0.0
 30
0.0
  9
$PLIMCHECK
 70
     0
  9
$PEXTMIN
 10
1.000000000000000E+20
 20
1.000000000000000E+20
 30
1.000000000000000E+20
  9
$PEXTMAX
 10
-1.000000000000000E+20
 20
-1.000000000000000E+20
 30
-1.000000000000000E+20
  9
$PLIMMIN
 10
0.0
 20
0.0
  9
$PLIMMAX
 10
420.0
 20
297.0
  9
$UNITMODE
 70
     0
  9
$VISRETAIN
 70
     1
  9
$PLINEGEN
 70
     0
  9
$PSLTSCALE
 70
     1
  9
$TREEDEPTH
 70
  3020
  9
$CMLSTYLE
  2
STANDARD
  9
$CMLJUST
 70
     0
  9
$CMLSCALE
 40
20.0
  9
$PROXYGRAPHICS
 70
     1
  9
$MEASUREMENT
 70
     1
  9
$CELWEIGHT
370
    -1
  9
$ENDCAPS
280
     0
  9
$JOINSTYLE
280
     0
  9
$LWDISPLAY
290
     0
  9
$INSUNITS
 70
     0
  9
$HYPERLINKBASE
  1

  9
$STYLESHEET
  1

  9
$XEDIT
290
     1
  9
$CEPSNTYPE
380
     0
  9
$PSTYLEMODE
290
     1
  9
$FINGERPRINTGUID
  2
{50BB8086-841C-11D6-9A2A-000102212E7C}
  9
$VERSIONGUID
  2
{5BF3CB8F-2C37-4C81-961D-0BB15882D864}
  9
$EXTNAMES
290
     1
  9
$PSVPSCALE
 40
0.0
  9
$OLESTARTUP
290
     0
  9
$SORTENTS
280
   127
  9
$INDEXCTL
280
     1
  9
$HIDETEXT
280
     0
  9
$XCLIPFRAME
290
     0
  9
$HALOGAP
280
     0
  9
$OBSCOLOR
 70
   257
  9
$OBSLTYPE
280
     0
  9
$INTERSECTIONDISPLAY
280
     0
  9
$INTERSECTIONCOLOR
 70
   257
  9
$DIMASSOC
280
     1
  9
$PROJECTNAME
  1

  9
$CAMERADISPLAY
290
     0
  9
$LENSLENGTH
 40
50.0
  9
$CAMERAHEIGHT
 40
0.0
  9
$STEPSPERSEC
 40
2.0
  9
$STEPSIZE
 40
6.0
  9
$3DDWFPREC
 40
2.0
  9
$PSOLWIDTH
 40
0.25
  9
$PSOLHEIGHT
 40
4.0
  9
$LOFTANG1
 40
1.570796326794896
  9
$LOFTANG2
 40
1.570796326794896
  9
$LOFTMAG1
 40
0.0
  9
$LOFTMAG2
 40
0.0
  9
$LOFTPARAM
 70
     7
  9
$LOFTNORMALS
280
     1
  9
$LATITUDE
 40
37.795
  9
$LONGITUDE
 40
-122.394
  9
$NORTHDIRECTION
 40
0.0
  9
$TIMEZONE
 70
 -8000
  9
$LIGHTGLYPHDISPLAY
280
     1
  9
$TILEMODELIGHTSYNCH
280
     1
  9
$CMATERIAL
347
48C7
  9
$SOLIDHIST
280
     1
  9
$SHOWHIST
280
     1
  9
$DWFFRAME
280
     2
  9
$DGNFRAME
280
     0
  9
$REALWORLDSCALE
290
     1
  9
$INTERFERECOLOR
 62
     1
  9
$INTERFEREOBJVS
345
48E9
  9
$INTERFEREVPVS
346
48E6
  9
$CSHADOW
280
     0
  9
$SHADOWPLANELOCATION
 40
0.0
  0
ENDSEC
  0
SECTION
  2
CLASSES
  0
CLASS
  1
ACDBDICTIONARYWDFLT
  2
AcDbDictionaryWithDefault
  3
ObjectDBX Classes
 90
        0
 91
        1
280
     0
281
     0
  0
CLASS
  1
ACDBPLACEHOLDER
  2
AcDbPlaceHolder
  3
ObjectDBX Classes
 90
        0
 91
        1
280
     0
281
     0
  0
CLASS
  1
LAYOUT
  2
AcDbLayout
  3
ObjectDBX Classes
 90
        0
 91
        2
280
     0
281
     0
  0
CLASS
  1
ACME_DOCUMENT
  2
AcMeDbDoc
  3
AcMeServices
 90
        0
 91
        0
280
     0
281
     0
  0
CLASS
  1
AMGSETTINGSOBJ
  2
AmgSettingsObj
  3
"AcadM|Product Description: AutoCAD Mechanical 2000|Company: Autodesk"
 90
        0
 91
        2
280
     0
281
     0
  0
CLASS
  1
ACMESCOPE
  2
AcMeScope
  3
AcMeServices
 90
        0
 91
        1
280
     0
281
     0
  0
CLASS
  1
ACMECOMMANDHISTORY
  2
AcMeCommandHistory
  3
AcMeServices
 90
        0
 91
        1
280
     0
281
     0
  0
CLASS
  1
ACIMSYSVARMAN
  2
AcImSysVarManager
  3
AcMeServices
 90
        0
 91
        2
280
     0
281
     0
  0
CLASS
  1
ACIMREALSYSVAR
  2
AcImRealSysVar
  3
AcMeServices
 90
        0
 91
        2
280
     0
281
     0
  0
CLASS
  1
ACIMINTSYSVAR
  2
AcImIntSysVar
  3
AcMeServices
 90
        0
 91
        1
280
     0
281
     0
  0
CLASS
  1
ACMEDRAWINGMAN
  2
AcMeDrawingMan
  3
AcMeServices
 90
        0
 91
        1
280
     0
281
     0
  0
CLASS
  1
ACMEVIEW
  2
AcMeView
  3
AcMeServices
 90
        0
 91
        1
280
     0
281
     0
  0
CLASS
  1
ACDBENTITYCACHE
  2
AcMeEntityCache
  3
AcMeServices
 90
        0
 91
        0
280
     0
281
     0
  0
CLASS
  1
GSMANAGER
  2
AcMeGSManager
  3
AcMeServices
 90
        0
 91
        0
280
     0
281
     0
  0
CLASS
  1
AMDTINTERNALREACTOR
  2
AmdtInternalReactor
  3
AcMeServices
 90
        0
 91
        0
280
     0
281
     0
  0
CLASS
  1
ACMESTATEMGR
  2
AcMeStateMgr
  3
AcMeServices
 90
        0
 91
        1
280
     0
281
     0
  0
CLASS
  1
ACGREFMASTER
  2
AcGrefMaster
  3
AcAttribServices
 90
        0
 91
        1
280
     0
281
     0
  0
CLASS
  1
ACME_DATABASE
  2
AcMeDbDatabase
  3
AcMeServices
 90
        0
 91
        0
280
     0
281
     0
  0
CLASS
  1
ACRFINSADJUSTERMGR
  2
AcRfInsAdjusterMgr
  3
AcMeServices
 90
        0
 91
        0
280
     0
281
     0
  0
CLASS
  1
ACGREFACADMASTER
  2
AcGrefacadMaster
  3
AcGrefServices
 90
        0
 91
        1
280
     0
281
     0
  0
CLASS
  1
AMIMASTER
  2
AmiMaster
  3
AmiServices
 90
        0
 91
        1
280
     0
281
     0
  0
CLASS
  1
ACMDATADICTIONARY
  2
AcmDataDictionary
  3
"AcmSymBB|Product Description: AutoCAD Mechanical 2000|Company: Autodesk"
 90
        0
 91
        1
280
     0
281
     0
  0
CLASS
  1
ACMDATAENTRYBLOCK
  2
AcmDataEntryBlock
  3
"AcmSymBB|Product Description: AutoCAD Mechanical 2000|Company: Autodesk"
 90
        0
 91
        1
280
     0
281
     0
  0
CLASS
  1
ACIMSTRSYSVAR
  2
AcImStrSysVar
  3
AcMeServices
 90
        0
 91
        1
280
     0
281
     0
  0
CLASS
  1
ACMSTANDARDISO
  2
AcmStandardISO
  3
"Amdt_StdImp|Product Description: AutoCAD Mechanical 2000|Company: Autodesk"
 90
        0
 91
        1
280
     0
281
     0
  0
CLASS
  1
AMGOBJPROPCFG
  2
AmgObjPropCfg
  3
"AmgLay|Product Description: AutoCAD Mechanical 2000|Company: Autodesk"
 90
        1
 91
        1
280
     0
281
     0
  0
CLASS
  1
AMDTEDGESTANDARDISO
  2
AmdtEdgeStdISO
  3
"Amdt_StdImp|Product Description: AutoCAD Mechanical 2000|Company: Autodesk"
 90
        0
 91
        1
280
     0
281
     0
  0
CLASS
  1
ACMSURFSTANDARDISO
  2
AcmSurfTextStdISO
  3
"Amdt_StdImp|Product Description: AutoCAD Mechanical 2000|Company: Autodesk"
 90
        0
 91
        1
280
     0
281
     0
  0
CLASS
  1
ACMFCFSTANDARDISO
  2
AcmFCFStdISO
  3
"Amdt_StdImp|Product Description: AutoCAD Mechanical 2000|Company: Autodesk"
 90
        0
 91
        1
280
     0
281
     0
  0
CLASS
  1
ACMWELDSTANDARDISO
  2
AcmWeldingStdISO
  3
"Amdt_StdImp|Product Description: AutoCAD Mechanical 2000|Company: Autodesk"
 90
        0
 91
        1
280
     0
281
     0
  0
CLASS
  1
ACMIDSTANDARDISO
  2
AcmIdStdISO
  3
"Amdt_StdImp|Product Description: AutoCAD Mechanical 2000|Company: Autodesk"
 90
        0
 91
        1
280
     0
281
     0
  0
CLASS
  1
ACMDATUMSTANDARDISO
  2
AcmDatumStdISO
  3
"Amdt_StdImp|Product Description: AutoCAD Mechanical 2000|Company: Autodesk"
 90
        0
 91
        1
280
     0
281
     0
  0
CLASS
  1
ACMBOMSTANDARDISO
  2
AcmBOMStdISO
  3
"Amdt_StdImp|Product Description: AutoCAD Mechanical 2000|Company: Autodesk"
 90
        0
 91
        1
280
     0
281
     0
  0
CLASS
  1
ACMDETAILSTANDARDISO
  2
AmdtDetailSymStdISO
  3
"Amdt_StdImp|Product Description: AutoCAD Mechanical 2000|Company: Autodesk"
 90
        0
 91
        1
280
     0
281
     0
  0
CLASS
  1
ACMSECTIONSTANDARDISO
  2
AmdtSectionSymStdISO
  3
"Amdt_StdImp|Product Description: AutoCAD Mechanical 2000|Company: Autodesk"
 90
        0
 91
        1
280
     0
281
     0
  0
CLASS
  1
ACMCENTERLINESTANDARDISO
  2
AmdtCenterLineStdISO
  3
"Amdt_StdImp|Product Description: AutoCAD Mechanical 2000|Company: Autodesk"
 90
        0
 91
        1
280
     0
281
     0
  0
CLASS
  1
ACMNOTESTANDARDISO
  2
AmdtNoteStdISO
  3
"Amdt_StdImp|Product Description: AutoCAD Mechanical 2000|Company: Autodesk"
 90
        0
 91
        1
280
     0
281
     0
  0
CLASS
  1
ACAMGLAYSTD
  2
AcAmgLayStd
  3
"AcAmgLayStd|Product Description: AutoCAD Mechanical 2000|Company: Autodesk"
 90
        0
 91
        2
280
     0
281
     0
  0
CLASS
  1
ACAMGDIMSTD
  2
AcAmgDimStd
  3
"AcAmgDimStd|Product Description: AutoCAD Mechanical 2000|Company: Autodesk"
 90
        0
 91
        2
280
     0
281
     0
  0
CLASS
  1
ACAMGHOLECHARTSTDISO
  2
AcAmgHoleChartStdISO
  3
ACMSYMBB_MODULE_NAME
 90
        0
 91
        1
280
     0
281
     0
  0
CLASS
  1
ACAMGTITLESTD
  2
AcAmgTitleStd
  3
"TITLEAPP"
 90
        0
 91
        2
280
     0
281
     0
  0
CLASS
  1
ACAMGFILTERDAT
  2
AcAmgFilterDat
  3
"AcadM|Product Description: AutoCAD Mechanical 2000|Company: Autodesk"
 90
        0
 91
        6
280
     0
281
     0
  0
CLASS
  1
ACMSTANDARDANSI
  2
AcmStandardANSI
  3
"Amdt_StdImp|Product Description: AutoCAD Mechanical 2000|Company: Autodesk"
 90
        0
 91
        1
280
     0
281
     0
  0
CLASS
  1
ACMSURFSTANDARDANSI
  2
AcmSurfTextStdANSI
  3
"Amdt_StdImp|Product Description: AutoCAD Mechanical 2000|Company: Autodesk"
 90
        0
 91
        1
280
     0
281
     0
  0
CLASS
  1
ACMFCFSTANDARDANSI
  2
AcmFCFStdANSI
  3
"Amdt_StdImp|Product Description: AutoCAD Mechanical 2000|Company: Autodesk"
 90
        0
 91
        1
280
     0
281
     0
  0
CLASS
  1
ACMWELDSTANDARDANSI
  2
AcmWeldingStdANSI
  3
"Amdt_StdImp|Product Description: AutoCAD Mechanical 2000|Company: Autodesk"
 90
        0
 91
        1
280
     0
281
     0
  0
CLASS
  1
ACMIDSTANDARDANSI
  2
AcmIdStdANSI
  3
"Amdt_StdImp|Product Description: AutoCAD Mechanical 2000|Company: Autodesk"
 90
        0
 91
        1
280
     0
281
     0
  0
CLASS
  1
ACMDATUMSTANDARDANSI
  2
AcmDatumStdANSI
  3
"Amdt_StdImp|Product Description: AutoCAD Mechanical 2000|Company: Autodesk"
 90
        0
 91
        1
280
     0
281
     0
  0
CLASS
  1
ACMBOMSTANDARDANSI
  2
AcmBOMStdANSI
  3
"Amdt_StdImp|Product Description: AutoCAD Mechanical 2000|Company: Autodesk"
 90
        0
 91
        1
280
     0
281
     0
  0
CLASS
  1
ACMDETAILSTANDARDANSI
  2
AmdtDetailSymStdANSI
  3
"Amdt_StdImp|Product Description: AutoCAD Mechanical 2000|Company: Autodesk"
 90
        0
 91
        1
280
     0
281
     0
  0
CLASS
  1
ACMSECTIONSTANDARDANSI
  2
AmdtSectionSymStdANSI
  3
"Amdt_StdImp|Product Description: AutoCAD Mechanical 2000|Company: Autodesk"
 90
        0
 91
        1
280
     0
281
     0
  0
CLASS
  1
ACMCENTERLINESTANDARDANSI
  2
AmdtCenterLineStdANSI
  3
"Amdt_StdImp|Product Description: AutoCAD Mechanical 2000|Company: Autodesk"
 90
        0
 91
        1
280
     0
281
     0
  0
CLASS
  1
ACMNOTESTANDARDANSI
  2
AmdtNoteStdANSI
  3
"Amdt_StdImp|Product Description: AutoCAD Mechanical 2000|Company: Autodesk"
 90
        0
 91
        1
280
     0
281
     0
  0
CLASS
  1
ACAMGHOLECHARTSTDANSI
  2
AcAmgHoleChartStdANSI
  3
ACMSYMBB_MODULE_NAME
 90
        0
 91
        1
280
     0
281
     0
  0
CLASS
  1
AMDTFORMULAUPDATEDISPATCHER
  2
AmdtFormulaUpdateDispatcher
  3
AcMeServices
 90
        0
 91
        1
280
     0
281
     0
  0
CLASS
  1
LAYER_INDEX
  2
AcDbLayerIndex
  3
ObjectDBX Classes
 90
        0
 91
        1
280
     0
281
     0
  0
CLASS
  1
IDBUFFER
  2
AcDbIdBuffer
  3
ObjectDBX Classes
 90
        0
 91
        9
280
     0
281
     0
  0
CLASS
  1
DICTIONARYVAR
  2
AcDbDictionaryVar
  3
ObjectDBX Classes
 90
        0
 91
        7
280
     0
281
     0
  0
CLASS
  1
MATERIAL
  2
AcDbMaterial
  3
ObjectDBX Classes
 90
     1153
 91
        3
280
     0
281
     0
  0
CLASS
  1
VISUALSTYLE
  2
AcDbVisualStyle
  3
ObjectDBX Classes
 90
     4095
 91
       16
280
     0
281
     0
  0
CLASS
  1
TABLESTYLE
  2
AcDbTableStyle
  3
ObjectDBX Classes
 90
     4095
 91
        1
280
     0
281
     0
  0
CLASS
  1
SCALE
  2
AcDbScale
  3
ObjectDBX Classes
 90
     1153
 91
       33
280
     0
281
     0
  0
CLASS
  1
MLEADERSTYLE
  2
AcDbMLeaderStyle
  3
ACDB_MLEADERSTYLE_CLASS
 90
     4095
 91
        1
280
     0
281
     0
  0
CLASS
  1
CELLSTYLEMAP
  2
AcDbCellStyleMap
  3
ObjectDBX Classes
 90
     1152
 91
        1
280
     0
281
     0
  0
ENDSEC
  0
SECTION
  2
TABLES
  0
TABLE
  2
VPORT
  5
8
330
0
100
AcDbSymbolTable
 70
     1
  0
VPORT
  5
48C4
330
8
100
AcDbSymbolTableRecord
100
AcDbViewportTableRecord
  2
*Active
 70
     0
 10
0.0
 20
0.0
 11
1.0
 21
1.0
 12
-365.2044495011942
 22
-54.47366483991903
 13
0.0
 23
0.0
 14
10.0
 24
10.0
 15
10.0
 25
10.0
 16
0.0
 26
0.0
 36
1.0
 17
0.0
 27
0.0
 37
0.0
 40
1145.650230579795
 41
1.739910313901345
 42
50.0
 43
0.0
 44
0.0
 50
0.0
 51
0.0
 71
     0
 72
  1234
 73
     1
 74
     1
 75
     0
 76
     0
 77
     0
 78
     0
281
     0
 65
     1
110
0.0
120
0.0
130
0.0
111
1.0
121
0.0
131
0.0
112
0.0
122
1.0
132
0.0
 79
     0
146
0.0
348
48E5
 60
     3
 61
     5
292
     1
282
     1
141
0.0
142
0.0
 63
   250
421
  3355443
  0
ENDTAB
  0
TABLE
  2
LTYPE
  5
5
330
0
100
AcDbSymbolTable
 70
    16
  0
LTYPE
  5
12
330
5
100
AcDbSymbolTableRecord
100
AcDbLinetypeTableRecord
  2
BYBLOCK
 70
     0
  3

 72
    65
 73
     0
 40
0.0
  0
LTYPE
  5
13
330
5
100
AcDbSymbolTableRecord
100
AcDbLinetypeTableRecord
  2
BYLAYER
 70
     0
  3

 72
    65
 73
     0
 40
0.0
  0
LTYPE
  5
14
330
5
100
AcDbSymbolTableRecord
100
AcDbLinetypeTableRecord
  2
CONTINUOUS
 70
     0
  3
Solid line
 72
    65
 73
     0
 40
0.0
  0
LTYPE
  5
163
330
5
100
AcDbSymbolTableRecord
100
AcDbLinetypeTableRecord
  2
CENTER
 70
     0
  3
____ _ ____ _ ____ _ ____ _ ____ _ ____ _ ____ 
 72
    65
 73
     4
 40
2.0
 49
1.25
 74
     0
 49
-0.25
 74
     0
 49
0.25
 74
     0
 49
-0.25
 74
     0
  0
LTYPE
  5
166
330
5
100
AcDbSymbolTableRecord
100
AcDbLinetypeTableRecord
  2
DASHED
 70
     0
  3
__ __ __ __ __ __ __ __ __ __ __ __ __ __ __ __
 72
    65
 73
     2
 40
0.75
 49
0.5
 74
     0
 49
-0.25
 74
     0
  0
LTYPE
  5
D25
330
5
100
AcDbSymbolTableRecord
100
AcDbLinetypeTableRecord
  2
AM_ISO02W050
 70
     0
  3
__ __ __ __ __ __ __ __ __ __ __ __ __ __ __
 72
    65
 73
     2
 40
7.5
 49
6.0
 74
     0
 49
-1.5
 74
     0
  0
LTYPE
  5
D26
330
5
100
AcDbSymbolTableRecord
100
AcDbLinetypeTableRecord
  2
AM_ISO08W050
 70
     0
  3
____ . ____ . ____ . ____ . ____ . ____ . ____
 72
    65
 73
     4
 40
18.0
 49
12.0
 74
     0
 49
-1.5
 74
     0
 49
3.0
 74
     0
 49
-1.5
 74
     0
  0
LTYPE
  5
D27
330
5
100
AcDbSymbolTableRecord
100
AcDbLinetypeTableRecord
  2
AM_ISO09W050
 70
     0
  3
_____ . . _____ . . _____ . . ____ .. ____
 72
    65
 73
     6
 40
22.5
 49
12.0
 74
     0
 49
-1.5
 74
     0
 49
3.0
 74
     0
 49
-1.5
 74
     0
 49
3.0
 74
     0
 49
-1.5
 74
     0
  0
LTYPE
  5
D28
330
5
100
AcDbSymbolTableRecord
100
AcDbLinetypeTableRecord
  2
Amconstr
 70
     0
  3
_______________________
 72
    65
 73
     2
 40
9999.0
 49
9999.0
 74
     0
 49
0.0
 74
     0
  0
LTYPE
  5
D29
330
5
100
AcDbSymbolTableRecord
100
AcDbLinetypeTableRecord
  2
AM_ISO08W050x2
 70
     0
  3
__ . __ . __ . __ . __ . __
 72
    65
 73
     4
 40
9.0
 49
6.0
 74
     0
 49
-0.75
 74
     0
 49
1.5
 74
     0
 49
-0.75
 74
     0
  0
LTYPE
  5
D2A
330
5
100
AcDbSymbolTableRecord
100
AcDbLinetypeTableRecord
  2
AM_ISO02W050x2
 70
     0
  3
 _ _ _ _ _ _ _ _ _ _ _ _
 72
    65
 73
     2
 40
3.75
 49
3.0
 74
     0
 49
-0.75
 74
     0
  0
LTYPE
  5
D2D
330
5
100
AcDbSymbolTableRecord
100
AcDbLinetypeTableRecord
  2
Amzigzag
 70
     0
  3
/\/-/\/-/\/-/\/-/\/-/\/
 72
    65
 73
     2
 40
11.0001
 49
0.0001
 74
     4
 75
   135
340
D2C
 46
0.04
 50
0.0
 44
0.0
 45
0.0
 49
-11.0
 74
     0
  0
LTYPE
  5
D3B
330
5
100
AcDbSymbolTableRecord
100
AcDbLinetypeTableRecord
  2
ACISOWELD
 70
     0
  3
_ _ _ _ _
 72
    65
 73
     2
 40
2.0
 49
2.0
 74
     0
 49
-1.0
 74
     0
  0
LTYPE
  5
D3C
330
5
100
AcDbSymbolTableRecord
100
AcDbLinetypeTableRecord
  2
ACISOTGB
 70
     0
  3
__ . . __ . .
 72
    65
 73
     6
 40
9.0
 49
4.0
 74
     0
 49
-1.0
 74
     0
 49
1.0
 74
     0
 49
-1.0
 74
     0
 49
1.0
 74
     0
 49
-1.0
 74
     0
  0
LTYPE
  5
D3D
330
5
100
AcDbSymbolTableRecord
100
AcDbLinetypeTableRecord
  2
ACISOTGL
 70
     0
  3
_ _ _ _ _
 72
    65
 73
     2
 40
3.0
 49
2.0
 74
     0
 49
-1.0
 74
     0
  0
LTYPE
  5
E47
330
5
100
AcDbSymbolTableRecord
100
AcDbLinetypeTableRecord
  2
PHANTOM2
 70
     0
  3
Phantom (.5x) ___ _ _ ___ _ _ ___ _ _ ___ _ _
 72
    65
 73
     6
 40
1.25
 49
0.625
 74
     0
 49
-0.125
 74
     0
 49
0.125
 74
     0
 49
-0.125
 74
     0
 49
0.125
 74
     0
 49
-0.125
 74
     0
  0
LTYPE
  5
E4B
330
5
100
AcDbSymbolTableRecord
100
AcDbLinetypeTableRecord
  2
ACANSTGB
 70
     0
  3
__ . . __ . .
 72
    65
 73
     6
 40
0.35433070866
 49
0.15748031496
 74
     0
 49
-0.03937007874
 74
     0
 49
0.03937007874
 74
     0
 49
-0.03937007874
 74
     0
 49
0.03937007874
 74
     0
 49
-0.03937007874
 74
     0
  0
LTYPE
  5
E4C
330
5
100
AcDbSymbolTableRecord
100
AcDbLinetypeTableRecord
  2
ACANSTGL
 70
     0
  3
_ _ _ _ _
 72
    65
 73
     2
 40
0.11811023622
 49
0.07874015748
 74
     0
 49
-0.03937007874
 74
     0
  0
ENDTAB
  0
TABLE
  2
LAYER
  5
2
330
0
100
AcDbSymbolTable
 70
     9
  0
LAYER
  5
E
330
2
100
AcDbSymbolTableRecord
100
AcDbLayerTableRecord
  2
0
 70
     0
 62
     7
  6
CONTINUOUS
370
    -3
390
CFA
347
48D7
  0
LAYER
  5
169
330
2
100
AcDbSymbolTableRecord
100
AcDbLayerTableRecord
  2
DISEGNO
 70
     0
 62
     7
  6
CONTINUOUS
370
    -3
390
CFA
347
48D7
  0
LAYER
  5
16A
330
2
100
AcDbSymbolTableRecord
100
AcDbLayerTableRecord
  2
ASSI
 70
     0
 62
     2
  6
CENTER
370
    -3
390
CFA
347
48D7
  0
LAYER
  5
16B
330
2
100
AcDbSymbolTableRecord
100
AcDbLayerTableRecord
  2
NORMALI
 70
     0
 62
     6
  6
CONTINUOUS
370
    -3
390
CFA
347
48D7
  0
LAYER
  5
16E
330
2
100
AcDbSymbolTableRecord
100
AcDbLayerTableRecord
  2
COMPONENTI
 70
     0
 62
     6
  6
CONTINUOUS
370
    -3
390
CFA
347
48D7
  0
LAYER
  5
171
330
2
100
AcDbSymbolTableRecord
100
AcDbLayerTableRecord
  2
BASE
 70
     0
 62
     7
  6
CONTINUOUS
370
    -3
390
CFA
347
48D7
  0
LAYER
  5
172
330
2
100
AcDbSymbolTableRecord
100
AcDbLayerTableRecord
  2
AX
 70
     0
 62
     2
  6
CENTER
370
    -3
390
CFA
347
48D7
  0
LAYER
  5
173
330
2
100
AcDbSymbolTableRecord
100
AcDbLayerTableRecord
  2
TRATTEGGI
 70
     0
 62
     8
  6
DASHED
370
    -3
390
CFA
347
48D7
  0
LAYER
  5
E51
330
2
100
AcDbSymbolTableRecord
100
AcDbLayerTableRecord
  2
DEFPOINTS
 70
     0
 62
     7
  6
CONTINUOUS
290
     0
370
    -3
390
CFA
347
48D7
  0
ENDTAB
  0
TABLE
  2
STYLE
  5
3
330
0
100
AcDbSymbolTable
 70
     6
  0
STYLE
  5
F
330
3
100
AcDbSymbolTableRecord
100
AcDbTextStyleTableRecord
  2
STANDARD
 70
     0
 40
0.0
 41
1.0
 50
0.0
 71
     0
 42
2.5
  3
txt
  4

  0
STYLE
  5
D2C
330
3
100
AcDbSymbolTableRecord
100
AcDbTextStyleTableRecord
  2

 70
     1
 40
0.0
 41
1.0
 50
0.0
 71
     0
 42
2.5
  3
ltypeshp.shx
  4

  0
STYLE
  5
D2E
330
3
100
AcDbSymbolTableRecord
100
AcDbTextStyleTableRecord
  2
ACISOTS
 70
     0
 40
1.0
 41
1.0
 50
0.0
 71
     0
 42
2.5
  3
isocp.shx
  4

  0
STYLE
  5
D3A
330
3
100
AcDbSymbolTableRecord
100
AcDbTextStyleTableRecord
  2
ACISOGDT
 70
     0
 40
0.0
 41
1.0
 50
0.0
 71
     0
 42
2.5
  3
amgdt.shx
  4

  0
STYLE
  5
E55
330
3
100
AcDbSymbolTableRecord
100
AcDbTextStyleTableRecord
  2
ACANSTS
 70
     0
 40
1.0
 41
1.0
 50
0.0
 71
     0
 42
2.5
  3
romans.shx
  4

  0
STYLE
  5
E56
330
3
100
AcDbSymbolTableRecord
100
AcDbTextStyleTableRecord
  2
ACANSGDT
 70
     0
 40
0.0
 41
1.0
 50
0.0
 71
     0
 42
2.5
  3
amgdtans.shx
  4

  0
ENDTAB
  0
TABLE
  2
VIEW
  5
6
330
0
100
AcDbSymbolTable
 70
     0
  0
ENDTAB
  0
TABLE
  2
UCS
  5
7
330
0
100
AcDbSymbolTable
 70
     0
  0
ENDTAB
  0
TABLE
  2
APPID
  5
9
330
0
100
AcDbSymbolTable
 70
     7
  0
APPID
  5
10
330
9
100
AcDbSymbolTableRecord
100
AcDbRegAppTableRecord
  2
ACAD
 70
     0
  0
APPID
  5
20
330
9
100
AcDbSymbolTableRecord
100
AcDbRegAppTableRecord
  2
ZIMM
 70
     0
  0
APPID
  5
177
330
9
100
AcDbSymbolTableRecord
100
AcDbRegAppTableRecord
  2
COMAU_ACADLIB
 70
     0
  0
APPID
  5
D07
330
9
100
AcDbSymbolTableRecord
100
AcDbRegAppTableRecord
  2
MCAD_NO_VIS
 70
     0
  0
APPID
  5
D08
330
9
100
AcDbSymbolTableRecord
100
AcDbRegAppTableRecord
  2
ACAD_TEMP_GRAPHIC
 70
     0
  0
APPID
  5
D19
330
9
100
AcDbSymbolTableRecord
100
AcDbRegAppTableRecord
  2
ACATTRIBSERVICES
 70
     0
  0
APPID
  5
4917
330
9
100
AcDbSymbolTableRecord
100
AcDbRegAppTableRecord
  2
ACAD_MLEADERVER
 70
     0
  0
ENDTAB
  0
TABLE
  2
DIMSTYLE
  5
A
330
0
100
AcDbSymbolTable
 70
    14
100
AcDbDimStyleTable
 71
     1
340
1D
  0
DIMSTYLE
105
1D
330
A
100
AcDbSymbolTableRecord
100
AcDbDimStyleTableRecord
  2
STANDARD
 70
     0
340
F
  0
DIMSTYLE
105
D41
330
A
100
AcDbSymbolTableRecord
100
AcDbDimStyleTableRecord
  2
AM_ISO
 70
     0
  4
"
 41
2.5
 42
1.0
 43
10.0
 44
1.0
 47
0.1
 48
0.1
 73
     0
 74
     0
 77
     1
 78
     8
 79
     2
140
3.5
141
0.0
143
0.0393701
146
0.71
147
1.5
172
     1
176
   256
177
   256
178
     2
271
     2
272
     3
274
     4
283
     0
284
     8
340
F
371
    -1
372
    -1
  0
DIMSTYLE
105
D42
330
A
100
AcDbSymbolTableRecord
100
AcDbDimStyleTableRecord
  2
AM_ISO$3
 70
     0
  4
"
 41
2.5
 42
1.0
 43
10.0
 44
1.0
 47
0.1
 48
0.1
 73
     0
 77
     1
 78
     8
 79
     2
140
3.5
141
0.0
143
0.0393701
146
0.71
147
1.5
176
   256
177
   256
178
     2
271
     2
272
     3
274
     4
283
     0
284
     8
288
     1
289
     0
340
F
371
    -1
372
    -1
  0
DIMSTYLE
105
D43
330
A
100
AcDbSymbolTableRecord
100
AcDbDimStyleTableRecord
  2
AM_ISO$4
 70
     0
  4
"
 41
2.5
 42
1.0
 43
10.0
 44
1.0
 47
0.1
 48
0.1
 73
     0
 77
     1
 78
     8
 79
     2
140
3.5
141
0.0
143
0.0393701
146
0.71
147
1.5
176
   256
177
   256
178
     2
271
     2
272
     3
274
     4
283
     0
284
     8
288
     1
289
     0
340
F
371
    -1
372
    -1
  0
DIMSTYLE
105
D44
330
A
100
AcDbSymbolTableRecord
100
AcDbDimStyleTableRecord
  2
AM_ISO$6
 70
     0
  4
"
 41
2.5
 42
1.0
 43
10.0
 44
1.0
 47
0.1
 48
0.1
 73
     0
 74
     0
 78
     8
 79
     2
140
3.5
141
0.0
143
0.0393701
146
0.71
147
1.5
172
     1
176
   256
177
   256
178
     2
271
     2
272
     3
274
     4
283
     0
284
     8
340
F
371
    -1
372
    -1
  0
DIMSTYLE
105
D45
330
A
100
AcDbSymbolTableRecord
100
AcDbDimStyleTableRecord
  2
AM_ISO$7
 70
     0
  4
"
 41
2.5
 42
1.0
 43
10.0
 44
1.0
 47
0.1
 48
0.1
 73
     0
 74
     0
 77
     1
 78
     8
 79
     2
140
5.0
141
0.0
143
0.0393701
146
0.71
147
1.5
172
     1
176
   256
177
   256
178
     2
271
     2
272
     3
274
     4
283
     0
284
     8
340
F
371
    -1
372
    -1
  0
DIMSTYLE
105
D46
330
A
100
AcDbSymbolTableRecord
100
AcDbDimStyleTableRecord
  2
AM_ISO$SF
 70
     0
  4
"
 41
2.5
 42
1.0
 43
10.0
 44
1.0
 47
0.1
 48
0.1
 73
     0
 74
     0
 75
     1
 76
     1
 77
     1
 78
     8
 79
     2
140
3.5
141
0.0
143
0.0393701
146
0.71
147
1.5
172
     1
176
   256
177
   256
178
     2
271
     2
272
     3
274
     4
283
     0
284
     8
340
F
371
    -1
372
    -1
  0
DIMSTYLE
105
D4B
330
A
100
AcDbSymbolTableRecord
100
AcDbDimStyleTableRecord
  2
AM_ISO$SH
 70
     0
  4
"
 41
2.5
 42
1.0
 43
10.0
 44
1.0
 47
0.1
 48
0.1
 73
     0
 74
     0
 75
     1
 76
     1
 77
     1
 78
     8
 79
     2
140
3.5
141
0.0
143
0.0393701
144
2.0
146
0.71
147
1.5
172
     1
173
     1
176
   256
177
   256
178
     2
271
     2
272
     3
274
     4
283
     0
284
     8
340
F
343
D47
371
    -1
372
    -1
  0
DIMSTYLE
105
E58
330
A
100
AcDbSymbolTableRecord
100
AcDbDimStyleTableRecord
  2
AM_ANSI
 70
     0
  4
mm
 41
0.1
 42
0.05
 43
0.5
 44
0.1
 47
0.1
 48
0.1
 78
     7
 79
     2
140
0.12
141
0.0
146
0.71
147
0.06
176
   256
177
   256
178
     2
274
     4
284
     7
340
F
371
    -1
372
    -1
  0
DIMSTYLE
105
E59
330
A
100
AcDbSymbolTableRecord
100
AcDbDimStyleTableRecord
  2
AM_ANSI$3
 70
     0
  4
mm
 41
0.1
 42
0.05
 43
0.5
 44
0.1
 47
0.1
 48
0.1
 78
     7
 79
     2
140
0.12
141
0.0
146
0.71
147
0.06
176
   256
177
   256
178
     2
274
     4
284
     7
288
     1
289
     0
340
F
371
    -1
372
    -1
  0
DIMSTYLE
105
E5A
330
A
100
AcDbSymbolTableRecord
100
AcDbDimStyleTableRecord
  2
AM_ANSI$4
 70
     0
  4
mm
 41
0.1
 42
0.05
 43
0.5
 44
0.1
 47
0.1
 48
0.1
 78
     7
 79
     2
140
0.12
141
0.0
146
0.71
147
0.06
176
   256
177
   256
178
     2
274
     4
284
     7
288
     1
289
     0
340
F
371
    -1
372
    -1
  0
DIMSTYLE
105
E5B
330
A
100
AcDbSymbolTableRecord
100
AcDbDimStyleTableRecord
  2
AM_ANSI$7
 70
     0
  4
mm
 41
0.1
 42
0.05
 43
0.5
 44
0.1
 47
0.1
 48
0.1
 78
     7
 79
     2
140
0.24
141
0.0
146
0.71
147
0.06
176
   256
177
   256
178
     2
274
     4
284
     7
340
F
371
    -1
372
    -1
  0
DIMSTYLE
105
E5C
330
A
100
AcDbSymbolTableRecord
100
AcDbDimStyleTableRecord
  2
AM_ANSI$SF
 70
     0
  4
mm
 41
0.1
 42
0.05
 43
0.5
 44
0.1
 47
0.1
 48
0.1
 75
     1
 76
     1
 78
     7
 79
     2
140
0.12
141
0.0
146
0.71
147
0.06
176
   256
177
   256
178
     2
274
     4
284
     7
340
F
371
    -1
372
    -1
  0
DIMSTYLE
105
E5D
330
A
100
AcDbSymbolTableRecord
100
AcDbDimStyleTableRecord
  2
AM_ANSI$SH
 70
     0
  4
mm
 41
0.1
 42
0.05
 43
0.5
 44
0.1
 47
0.1
 48
0.1
 75
     1
 76
     1
 78
     7
 79
     2
140
0.12
141
0.0
146
0.71
147
0.06
173
     1
176
   256
177
   256
178
     2
274
     4
284
     7
340
F
343
D47
371
    -1
372
    -1
  0
ENDTAB
  0
TABLE
  2
BLOCK_RECORD
  5
1
330
0
100
AcDbSymbolTable
 70
     2
  0
BLOCK_RECORD
  5
18
102
{ACAD_XDICTIONARY
360
2CA9
102
}
330
1
100
AcDbSymbolTableRecord
100
AcDbBlockTableRecord
  2
*MODEL_SPACE
340
CFD
 70
     0
280
     1
281
     0
  0
BLOCK_RECORD
  5
15
330
1
100
AcDbSymbolTableRecord
100
AcDbBlockTableRecord
  2
*PAPER_SPACE
340
CFE
 70
     0
280
     1
281
     0
  0
BLOCK_RECORD
  5
C96
330
1
100
AcDbSymbolTableRecord
100
AcDbBlockTableRecord
  2

340
0
 70
     0
280
     1
281
     0
  0
BLOCK_RECORD
  5
D47
330
1
100
AcDbSymbolTableRecord
100
AcDbBlockTableRecord
  2
GENAXEH
340
0
 70
     0
280
     1
281
     0
  0
ENDTAB
  0
ENDSEC
  0
SECTION
  2
BLOCKS
  0
BLOCK
  5
19
330
18
100
AcDbEntity
  8
0
100
AcDbBlockBegin
  2
*MODEL_SPACE
 70
     0
 10
0.0
 20
0.0
 30
0.0
  3
*MODEL_SPACE
  1

  0
ENDBLK
  5
1A
330
18
100
AcDbEntity
  8
0
100
AcDbBlockEnd
  0
BLOCK
  5
16
330
15
100
AcDbEntity
 67
     1
  8
0
100
AcDbBlockBegin
  2
*PAPER_SPACE
 70
     0
 10
0.0
 20
0.0
 30
0.0
  3
*PAPER_SPACE
  1

  0
ENDBLK
  5
17
330
15
100
AcDbEntity
 67
     1
  8
0
100
AcDbBlockEnd
  0
BLOCK
  5
C97
330
C96
100
AcDbEntity
  8
0
100
AcDbBlockBegin
  2

 70
     0
 10
0.0
 20
0.0
 30
0.0
  3

  1

  0
ENDBLK
  5
C98
330
C96
100
AcDbEntity
  8
0
100
AcDbBlockEnd
  0
BLOCK
  5
D49
330
D47
100
AcDbEntity
  8
0
100
AcDbBlockBegin
  2
GENAXEH
 70
     0
 10
0.0
 20
0.0
 30
0.0
  3
GENAXEH
  1

  0
LINE
  5
D48
330
D47
100
AcDbEntity
  8
0
100
AcDbLine
 10
-1.0
 20
0.0
 30
0.0
 11
1.0
 21
0.0
 31
0.0
  0
ENDBLK
  5
D4A
330
D47
100
AcDbEntity
  8
0
100
AcDbBlockEnd
  0
ENDSEC
  0
SECTION
  2
ENTITIES
  0
LINE
  5
570
330
18
100
AcDbEntity
  8
COMPONENTI
100
AcDbLine
 10
-264.5226417498681
 20
145.0000000000003
 30
0.0
 11
-106.272635453378
 21
145.0000000000003
 31
0.0
  0
LINE
  5
571
330
18
100
AcDbEntity
  8
BASE
100
AcDbLine
 10
-16.37263545337657
 20
169.9999999303276
 30
0.0
 11
-263.7555070670161
 21
169.9999999303276
 31
0.0
  0
LINE
  5
572
330
18
100
AcDbEntity
  8
COMPONENTI
100
AcDbLine
 10
-116.3726354533764
 20
176.4999999303276
 30
0.0
 11
-264.5226417498681
 21
176.4999999303276
 31
0.0
  0
LINE
  5
573
330
18
100
AcDbEntity
  8
COMPONENTI
100
AcDbLine
 10
-116.3726354533764
 20
171.9999999303267
 30
0.0
 11
-260.6573256502971
 21
171.9999999303267
 31
0.0
  0
LINE
  5
577
330
18
100
AcDbEntity
  8
BASE
100
AcDbLine
 10
-264.5226417498681
 20
-8.749999999999211
 30
0.0
 11
-16.37263545337657
 21
-8.75000000000012
 31
0.0
  0
LINE
  5
578
330
18
100
AcDbEntity
  8
BASE
100
AcDbLine
 10
-264.5226417498681
 20
-21.25000000000103
 30
0.0
 11
-16.37263545337657
 21
-21.25000000000012
 31
0.0
  0
LINE
  5
579
330
18
100
AcDbEntity
  8
COMPONENTI
100
AcDbLine
 10
-281.2726354533763
 20
125.0000000000002
 30
0.0
 11
-106.272635453378
 21
125.0000000000003
 31
0.0
  0
LINE
  5
580
330
18
100
AcDbEntity
  8
COMPONENTI
100
AcDbLine
 10
-106.3726354533759
 20
-392.2278469557952
 30
0.0
 11
-265.4171211729619
 21
-392.2278469557952
 31
0.0
  0
LINE
  5
581
330
18
100
AcDbEntity
  8
BASE
100
AcDbLine
 10
-6.372635453376346
 20
-256.7278469557948
 30
0.0
 11
-281.2726354533762
 21
-256.7278469557952
 31
0.0
  0
LINE
  5
582
330
18
100
AcDbEntity
  8
BASE
100
AcDbLine
 10
-6.372635453376346
 20
-376.7278469557948
 30
0.0
 11
-281.2726354533762
 21
-376.7278469557953
 31
0.0
  0
LINE
  5
583
330
18
100
AcDbEntity
  8
COMPONENTI
100
AcDbLine
 10
-116.4726354533743
 20
-291.7278469557953
 30
0.0
 11
-265.4171211729619
 21
-291.7278469557953
 31
0.0
  0
LINE
  5
584
330
18
100
AcDbEntity
  8
COMPONENTI
100
AcDbLine
 10
-116.4726354533743
 20
-341.7278469557953
 30
0.0
 11
-265.4171211729619
 21
-341.7278469557953
 31
0.0
  0
LINE
  5
585
330
18
100
AcDbEntity
  8
COMPONENTI
100
AcDbLine
 10
-106.3726354533759
 20
-241.2278469557953
 30
0.0
 11
-265.4171211729619
 21
-241.2278469557953
 31
0.0
  0
LINE
  5
586
330
18
100
AcDbEntity
  8
AX
100
AcDbLine
 10
2.827127258838686
 20
-316.7278469557953
 30
0.0
 11
-1034.003468364581
 21
-316.7278469557953
 31
0.0
  0
LINE
  5
589
330
18
100
AcDbEntity
  8
BASE
100
AcDbLine
 10
-281.2726354533762
 20
-178.7278469557952
 30
0.0
 11
-281.2726354533762
 21
-454.7278469557961
 31
0.0
  0
LINE
  5
58A
330
18
100
AcDbEntity
  8
AX
100
AcDbLine
 10
-651.2726354533762
 20
-174.6406734804643
 30
0.0
 11
-651.2726354533753
 21
-217.8150204311262
 31
0.0
  0
LINE
  5
58D
330
18
100
AcDbEntity
  8
AX
100
AcDbLine
 10
-821.2726354533762
 20
-174.6406734804643
 30
0.0
 11
-821.2726354533762
 21
-217.8150204311262
 31
0.0
  0
LINE
  5
58E
330
18
100
AcDbEntity
  8
BASE
100
AcDbLine
 10
-841.2726354533761
 20
-178.7278469557952
 30
0.0
 11
-841.2726354533761
 21
-454.7278469557952
 31
0.0
  0
LINE
  5
595
330
18
100
AcDbEntity
  8
BASE
100
AcDbLine
 10
-283.2726354533762
 20
-456.7278469557952
 30
0.0
 11
-839.2726354533762
 21
-456.7278469557952
 31
0.0
  0
LINE
  5
596
330
18
100
AcDbEntity
  8
ASSI
100
AcDbLine
 10
-263.7632255062328
 20
-236.2278469557953
 30
0.0
 11
-847.9473661125304
 21
-236.2278469557953
 31
0.0
  0
LINE
  5
597
330
18
100
AcDbEntity
  8
ASSI
100
AcDbLine
 10
-263.3126088513501
 20
-397.2278469557953
 30
0.0
 11
-847.0223588388872
 21
-397.2278469557953
 31
0.0
  0
LINE
  5
59B
330
18
100
AcDbEntity
  8
AX
100
AcDbLine
 10
-821.2726354533762
 20
-458.815020431127
 30
0.0
 11
-821.2726354533762
 21
-415.6406734804652
 31
0.0
  0
LINE
  5
59C
330
18
100
AcDbEntity
  8
AX
100
AcDbLine
 10
-830.5602259551434
 20
-449.7278469557961
 30
0.0
 11
-812.1854619780453
 21
-449.7278469557961
 31
0.0
  0
LINE
  5
59D
330
18
100
AcDbEntity
  8
BASE
100
AcDbLine
 10
-841.2726354533761
 20
-454.7278469557952
 30
0.0
 11
-839.2726354533762
 21
-456.7278469557952
 31
0.0
  0
LINE
  5
59F
330
18
100
AcDbEntity
  8
AX
100
AcDbLine
 10
-830.3598089287071
 20
-424.7278469557961
 30
0.0
 11
-812.1854619780453
 21
-424.7278469557961
 31
0.0
  0
LINE
  5
5A0
330
18
100
AcDbEntity
  8
AX
100
AcDbLine
 10
-830.3598089287071
 20
-437.2278469557961
 30
0.0
 11
-812.1854619780453
 21
-437.2278469557961
 31
0.0
  0
LINE
  5
5A2
330
18
100
AcDbEntity
  8
AX
100
AcDbLine
 10
-651.2726354533762
 20
-458.815020431127
 30
0.0
 11
-651.2726354533753
 21
-415.6406734804652
 31
0.0
  0
LINE
  5
5A4
330
18
100
AcDbEntity
  8
AX
100
AcDbLine
 10
-660.3598089287071
 20
-449.7278469557961
 30
0.0
 11
-642.1854619780453
 21
-449.7278469557961
 31
0.0
  0
LINE
  5
5A6
330
18
100
AcDbEntity
  8
AX
100
AcDbLine
 10
-660.3598089287062
 20
-424.7278469557961
 30
0.0
 11
-642.1854619780453
 21
-424.7278469557961
 31
0.0
  0
LINE
  5
5A7
330
18
100
AcDbEntity
  8
AX
100
AcDbLine
 10
-660.3598089287071
 20
-437.2278469557961
 30
0.0
 11
-642.1854619780453
 21
-437.2278469557961
 31
0.0
  0
LINE
  5
5A9
330
18
100
AcDbEntity
  8
DISEGNO
100
AcDbLine
 10
-981.3726354533768
 20
-256.7278469557954
 30
0.0
 11
-981.372635453375
 21
-376.7278469557953
 31
0.0
  0
LINE
  5
5AA
330
18
100
AcDbEntity
  8
BASE
100
AcDbLine
 10
-1016.372635453376
 20
-256.7278469557954
 30
0.0
 11
-1016.372635453376
 21
-375.7278469557927
 31
0.0
  0
LINE
  5
5AB
330
18
100
AcDbEntity
  8
NORMALI
100
AcDbLine
 10
-961.372635453376
 20
-287.2278469557959
 30
0.0
 11
-961.372635453376
 21
-305.2278469557959
 31
0.0
  0
LINE
  5
5AC
330
18
100
AcDbEntity
  8
NORMALI
100
AcDbLine
 10
-962.372635453376
 20
-286.227846955796
 30
0.0
 11
-962.372635453376
 21
-306.227846955796
 31
0.0
  0
LINE
  5
5AD
330
18
100
AcDbEntity
  8
NORMALI
100
AcDbLine
 10
-981.3726354533759
 20
-306.227846955796
 30
0.0
 11
-962.372635453376
 21
-306.227846955796
 31
0.0
  0
LINE
  5
5AE
330
18
100
AcDbEntity
  8
NORMALI
100
AcDbLine
 10
-981.3726354533759
 20
-347.227846955795
 30
0.0
 11
-962.372635453376
 21
-347.227846955795
 31
0.0
  0
LINE
  5
5AF
330
18
100
AcDbEntity
  8
NORMALI
100
AcDbLine
 10
-981.3726354533759
 20
-327.227846955795
 30
0.0
 11
-962.372635453376
 21
-327.227846955795
 31
0.0
  0
LINE
  5
5B0
330
18
100
AcDbEntity
  8
BASE
100
AcDbLine
 10
-841.2726354533759
 20
-376.7278469557948
 30
0.0
 11
-1015.372635453373
 21
-376.7278469557953
 31
0.0
  0
LINE
  5
5B1
330
18
100
AcDbEntity
  8
BASE
100
AcDbLine
 10
-1015.372635453373
 20
-376.7278469557953
 30
0.0
 11
-1016.372635453373
 21
-375.7278469557953
 31
0.0
  0
LINE
  5
5B5
330
18
100
AcDbEntity
  8
ASSI
100
AcDbLine
 10
-816.2726354533752
 20
-408.7261898204507
 30
0.0
 11
-816.2726354533752
 21
-385.4551249938179
 31
0.0
  0
LINE
  5
5BF
330
18
100
AcDbEntity
  8
NORMALI
100
AcDbLine
 10
-962.372635453376
 20
-347.227846955795
 30
0.0
 11
-961.372635453376
 21
-346.227846955795
 31
0.0
  0
LINE
  5
5C0
330
18
100
AcDbEntity
  8
NORMALI
100
AcDbLine
 10
-962.372635453376
 20
-347.227846955795
 30
0.0
 11
-962.372635453376
 21
-327.227846955795
 31
0.0
  0
LINE
  5
5C1
330
18
100
AcDbEntity
  8
NORMALI
100
AcDbLine
 10
-962.372635453376
 20
-327.227846955795
 30
0.0
 11
-961.372635453376
 21
-328.227846955795
 31
0.0
  0
LINE
  5
5C2
330
18
100
AcDbEntity
  8
NORMALI
100
AcDbLine
 10
-961.372635453376
 20
-346.227846955795
 30
0.0
 11
-961.372635453376
 21
-328.227846955795
 31
0.0
  0
LINE
  5
5C3
330
18
100
AcDbEntity
  8
NORMALI
100
AcDbLine
 10
-962.372635453376
 20
-306.227846955796
 30
0.0
 11
-961.372635453376
 21
-305.2278469557959
 31
0.0
  0
LINE
  5
5C4
330
18
100
AcDbEntity
  8
NORMALI
100
AcDbLine
 10
-981.3726354533759
 20
-286.227846955796
 30
0.0
 11
-962.372635453376
 21
-286.227846955796
 31
0.0
  0
LINE
  5
5C5
330
18
100
AcDbEntity
  8
BASE
100
AcDbLine
 10
-841.2726354533759
 20
-256.7278469557952
 30
0.0
 11
-1015.372635453373
 21
-256.7278469557952
 31
0.0
  0
LINE
  5
5C6
330
18
100
AcDbEntity
  8
BASE
100
AcDbLine
 10
-1016.372635453373
 20
-257.7278469557953
 30
0.0
 11
-1015.372635453373
 21
-256.7278469557952
 31
0.0
  0
LINE
  5
5C8
330
18
100
AcDbEntity
  8
ASSI
100
AcDbLine
 10
-816.2726354533752
 20
-224.7295040911397
 30
0.0
 11
-816.2726354533752
 21
-248.0005689177726
 31
0.0
  0
LINE
  5
5CB
330
18
100
AcDbEntity
  8
NORMALI
100
AcDbLine
 10
-962.372635453376
 20
-286.227846955796
 30
0.0
 11
-961.372635453376
 21
-287.2278469557959
 31
0.0
  0
LINE
  5
5D6
330
18
100
AcDbEntity
  8
AX
100
AcDbLine
 10
-830.5602259551434
 20
-183.7278469557952
 30
0.0
 11
-812.1854619780453
 21
-183.7278469557952
 31
0.0
  0
LINE
  5
5D7
330
18
100
AcDbEntity
  8
AX
100
AcDbLine
 10
-830.3598089287071
 20
-196.2278469557952
 30
0.0
 11
-812.1854619780453
 21
-196.2278469557952
 31
0.0
  0
LINE
  5
5D8
330
18
100
AcDbEntity
  8
AX
100
AcDbLine
 10
-830.3598089287071
 20
-208.7278469557952
 30
0.0
 11
-812.1854619780453
 21
-208.7278469557952
 31
0.0
  0
LINE
  5
5DD
330
18
100
AcDbEntity
  8
ASSI
100
AcDbLine
 10
-746.2726354533762
 20
-408.7261898204507
 30
0.0
 11
-746.2726354533762
 21
-385.4551249938179
 31
0.0
  0
LINE
  5
5F1
330
18
100
AcDbEntity
  8
ASSI
100
AcDbLine
 10
-676.2726354533762
 20
-408.7261898204513
 30
0.0
 11
-676.2726354533762
 21
-385.4551249938183
 31
0.0
  0
LINE
  5
5F2
330
18
100
AcDbEntity
  8
ASSI
100
AcDbLine
 10
-746.2726354533762
 20
-224.7295040911397
 30
0.0
 11
-746.2726354533762
 21
-248.0005689177726
 31
0.0
  0
LINE
  5
600
330
18
100
AcDbEntity
  8
ASSI
100
AcDbLine
 10
-676.2726354533762
 20
-224.7295040911392
 30
0.0
 11
-676.2726354533762
 21
-248.0005689177722
 31
0.0
  0
LINE
  5
60B
330
18
100
AcDbEntity
  8
AX
100
AcDbLine
 10
-660.3598089287062
 20
-208.7278469557952
 30
0.0
 11
-642.1854619780453
 21
-208.7278469557952
 31
0.0
  0
LINE
  5
60C
330
18
100
AcDbEntity
  8
AX
100
AcDbLine
 10
-660.3598089287071
 20
-196.2278469557952
 30
0.0
 11
-642.1854619780453
 21
-196.2278469557952
 31
0.0
  0
LINE
  5
60D
330
18
100
AcDbEntity
  8
AX
100
AcDbLine
 10
-660.3598089287071
 20
-183.7278469557952
 30
0.0
 11
-642.1854619780453
 21
-183.7278469557952
 31
0.0
  0
LINE
  5
60F
330
18
100
AcDbEntity
  8
BASE
100
AcDbLine
 10
-286.2726354533762
 20
-411.7278469557952
 30
0.0
 11
-385.772635453377
 21
-411.7278469557952
 31
0.0
  0
LINE
  5
614
330
18
100
AcDbEntity
  8
BASE
100
AcDbLine
 10
-286.2726354533762
 20
-221.7278469557953
 30
0.0
 11
-385.7726354533761
 21
-221.7278469557953
 31
0.0
  0
LINE
  5
615
330
18
100
AcDbEntity
  8
BASE
100
AcDbLine
 10
-631.2726354533761
 20
-226.7278469557952
 30
0.0
 11
-631.2726354533761
 21
-406.7278469557952
 31
0.0
  0
LINE
  5
633
330
18
100
AcDbEntity
  8
ASSI
100
AcDbLine
 10
-606.2726354533761
 20
-385.5187901724974
 30
0.0
 11
-606.2726354533753
 21
-408.9368996727118
 31
0.0
  0
LINE
  5
64F
330
18
100
AcDbEntity
  8
ASSI
100
AcDbLine
 10
-536.272635453378
 20
-385.8269242623321
 30
0.0
 11
-536.272635453378
 21
-408.6287696492483
 31
0.0
  0
LINE
  5
651
330
18
100
AcDbEntity
  8
ASSI
100
AcDbLine
 10
-606.2726354533761
 20
-247.9369037390932
 30
0.0
 11
-606.2726354533753
 21
-224.5187942388782
 31
0.0
  0
LINE
  5
664
330
18
100
AcDbEntity
  8
ASSI
100
AcDbLine
 10
-536.272635453378
 20
-247.6287696492584
 30
0.0
 11
-536.272635453378
 21
-224.8269242623421
 31
0.0
  0
LINE
  5
682
330
18
100
AcDbEntity
  8
ASSI
100
AcDbLine
 10
-376.272635453378
 20
-385.8269242623358
 30
0.0
 11
-376.272635453378
 21
-408.628769649252
 31
0.0
  0
LINE
  5
696
330
18
100
AcDbEntity
  8
ASSI
100
AcDbLine
 10
-376.272635453378
 20
-247.6287696492543
 30
0.0
 11
-376.272635453378
 21
-224.826924262338
 31
0.0
  0
LINE
  5
6AA
330
18
100
AcDbEntity
  8
BASE
100
AcDbLine
 10
-283.2726354533762
 20
-456.7278469557961
 30
0.0
 11
-281.2726354533762
 21
-454.7278469557961
 31
0.0
  0
LINE
  5
6B4
330
18
100
AcDbEntity
  8
ASSI
100
AcDbLine
 10
-306.272635453378
 20
-385.8269242623371
 30
0.0
 11
-306.272635453378
 21
-408.6287696492534
 31
0.0
  0
LINE
  5
6C7
330
18
100
AcDbEntity
  8
COMPONENTI
100
AcDbLine
 10
-265.41712117296
 20
-392.2278469557952
 30
0.0
 11
-281.2726354533762
 21
-392.2278469557952
 31
0.0
  0
LINE
  5
6C8
330
18
100
AcDbEntity
  8
COMPONENTI
100
AcDbLine
 10
-265.4171211729619
 20
-341.7278469557953
 30
0.0
 11
-281.2726354533762
 21
-341.7278469557953
 31
0.0
  0
LINE
  5
6C9
330
18
100
AcDbEntity
  8
ASSI
100
AcDbLine
 10
-306.272635453378
 20
-247.6287696492534
 30
0.0
 11
-306.272635453378
 21
-224.8269242623371
 31
0.0
  0
LINE
  5
6DC
330
18
100
AcDbEntity
  8
COMPONENTI
100
AcDbLine
 10
-265.4171211729619
 20
-291.7278469557953
 30
0.0
 11
-281.2726354533762
 21
-291.7278469557953
 31
0.0
  0
LINE
  5
6DD
330
18
100
AcDbEntity
  8
COMPONENTI
100
AcDbLine
 10
-265.4171211729619
 20
-241.2278469557961
 30
0.0
 11
-281.2726354533762
 21
-241.2278469557953
 31
0.0
  0
LINE
  5
6E1
330
18
100
AcDbEntity
  8
BASE
100
AcDbLine
 10
-281.2726354533762
 20
184.9999999303267
 30
0.0
 11
-841.2726354533761
 21
184.9999999303267
 31
0.0
  0
LINE
  5
6E4
330
18
100
AcDbEntity
  8
BASE
100
AcDbLine
 10
-841.2726354533761
 20
-21.25000000000012
 30
0.0
 11
-264.5226417498676
 21
-21.25000000000103
 31
0.0
  0
LINE
  5
6E5
330
18
100
AcDbEntity
  8
BASE
100
AcDbLine
 10
-841.2726354533761
 20
-8.749999999999893
 30
0.0
 11
-264.5226417498676
 21
-8.75000000000103
 31
0.0
  0
LINE
  5
6E9
330
18
100
AcDbEntity
  8
DISEGNO
100
AcDbLine
 10
-281.2726354533744
 20
113.9999999999994
 30
0.0
 11
-841.2726354533761
 21
113.9999999999994
 31
0.0
  0
LINE
  5
6EA
330
18
100
AcDbEntity
  8
BASE
100
AcDbLine
 10
-281.2726354533762
 20
111.0000000000003
 30
0.0
 11
-841.2726354533761
 21
111.0000000000003
 31
0.0
  0
LINE
  5
6EB
330
18
100
AcDbEntity
  8
BASE
100
AcDbLine
 10
-283.2726354533762
 20
-176.7278469557952
 30
0.0
 11
-839.2726354533762
 21
-176.7278469557952
 31
0.0
  0
LINE
  5
6EC
330
18
100
AcDbEntity
  8
BASE
100
AcDbLine
 10
-841.2726354533761
 20
198.9999999303267
 30
0.0
 11
-841.2726354533761
 21
111.0000000000003
 31
0.0
  0
LINE
  5
6ED
330
18
100
AcDbEntity
  8
DISEGNO
100
AcDbLine
 10
-838.2726354533762
 20
184.9999999303267
 30
0.0
 11
-838.2726354533753
 21
114.0000000000003
 31
0.0
  0
LINE
  5
6EE
330
18
100
AcDbEntity
  8
BASE
100
AcDbLine
 10
-1016.372635453376
 20
182.0001994148109
 30
0.0
 11
-1016.372635453376
 21
-50.0
 31
0.0
  0
LINE
  5
6F1
330
18
100
AcDbEntity
  8
BASE
100
AcDbLine
 10
-839.2726354533762
 20
-176.7278469557952
 30
0.0
 11
-841.2726354533761
 21
-178.7278469557952
 31
0.0
  0
LINE
  5
6FA
330
18
100
AcDbEntity
  8
BASE
100
AcDbLine
 10
-1016.372635453376
 20
-21.25000000000012
 30
0.0
 11
-841.2726354533761
 21
-21.25000000000012
 31
0.0
  0
LINE
  5
6FB
330
18
100
AcDbEntity
  8
BASE
100
AcDbLine
 10
-1016.372635453376
 20
-8.75000000000012
 30
0.0
 11
-841.2726354533761
 21
-8.75000000000012
 31
0.0
  0
LINE
  5
6FC
330
18
100
AcDbEntity
  8
COMPONENTI
100
AcDbLine
 10
-981.3726354533754
 20
203.0001994148132
 30
0.0
 11
-962.3726354533753
 21
203.0001994148132
 31
0.0
  0
LINE
  5
6FD
330
18
100
AcDbEntity
  8
COMPONENTI
100
AcDbLine
 10
-981.3726354533754
 20
183.0001994148132
 30
0.0
 11
-962.3726354533753
 21
183.0001994148132
 31
0.0
  0
LINE
  5
6FE
330
18
100
AcDbEntity
  8
BASE
100
AcDbLine
 10
-961.544378049199
 20
141.2499999999999
 30
0.0
 11
-1016.372635453376
 21
141.2499999999999
 31
0.0
  0
LINE
  5
6FF
330
18
100
AcDbEntity
  8
BASE
100
AcDbLine
 10
-961.5443780491997
 20
128.7499999999999
 30
0.0
 11
-1016.372635453376
 21
128.7499999999999
 31
0.0
  0
LINE
  5
700
330
18
100
AcDbEntity
  8
BASE
100
AcDbLine
 10
-1016.372635453376
 20
170.0001994148114
 30
0.0
 11
-841.2726354533758
 21
170.0001994148114
 31
0.0
  0
LINE
  5
702
330
18
100
AcDbEntity
  8
0
100
AcDbLine
 10
-1016.372635453376
 20
182.0001994148109
 30
0.0
 11
-841.2726354533759
 21
182.0001994148109
 31
0.0
  0
LINE
  5
703
330
18
100
AcDbEntity
  8
DISEGNO
100
AcDbLine
 10
-981.3726354533754
 20
204.0001994148132
 30
0.0
 11
-981.3726354533754
 21
182.0001994148109
 31
0.0
  0
LINE
  5
704
330
18
100
AcDbEntity
  8
BASE
100
AcDbLine
 10
-1016.372635453375
 20
201.0001994148137
 30
0.0
 11
-1016.372635453376
 21
182.0001994148109
 31
0.0
  0
LINE
  5
705
330
18
100
AcDbEntity
  8
BASE
100
AcDbLine
 10
-981.3726354533754
 20
204.0001994148132
 30
0.0
 11
-1013.372635453376
 21
204.0001994148132
 31
0.0
  0
LINE
  5
706
330
18
100
AcDbEntity
  8
BASE
100
AcDbLine
 10
-1013.372635453376
 20
204.0001994148132
 30
0.0
 11
-1016.372635453376
 21
201.0001994148132
 31
0.0
  0
LINE
  5
708
330
18
100
AcDbEntity
  8
BASE
100
AcDbLine
 10
-841.2726354533758
 20
170.0001994148114
 30
0.0
 11
-841.2726354533758
 21
170.0001994148114
 31
0.0
  0
LINE
  5
709
330
18
100
AcDbEntity
  8
COMPONENTI
100
AcDbLine
 10
-962.3726354533753
 20
203.0001994148132
 30
0.0
 11
-961.3726354533753
 21
202.0001994148132
 31
0.0
  0
LINE
  5
70A
330
18
100
AcDbEntity
  8
COMPONENTI
100
AcDbLine
 10
-961.3726354533753
 20
202.0001994148132
 30
0.0
 11
-961.3726354533753
 21
184.0001994148132
 31
0.0
  0
LINE
  5
70B
330
18
100
AcDbEntity
  8
COMPONENTI
100
AcDbLine
 10
-962.3726354533753
 20
183.0001994148132
 30
0.0
 11
-961.3726354533753
 21
184.0001994148132
 31
0.0
  0
LINE
  5
70C
330
18
100
AcDbEntity
  8
COMPONENTI
100
AcDbLine
 10
-962.3726354533753
 20
203.0001994148132
 30
0.0
 11
-962.3726354533753
 21
183.0001994148132
 31
0.0
  0
LINE
  5
70D
330
18
100
AcDbEntity
  8
DISEGNO
100
AcDbLine
 10
-284.2726354533753
 20
184.9999999303267
 30
0.0
 11
-284.2726354533744
 21
114.0000000000003
 31
0.0
  0
LINE
  5
70E
330
18
100
AcDbEntity
  8
DISEGNO
100
AcDbLine
 10
-281.2726354533776
 20
318.9999999303277
 30
0.0
 11
-281.2726354533762
 21
111.0000000000003
 31
0.0
  0
LINE
  5
70F
330
18
100
AcDbEntity
  8
BASE
100
AcDbLine
 10
-283.2726354533762
 20
-176.7278469557952
 30
0.0
 11
-281.2726354533762
 21
-178.7278469557952
 31
0.0
  0
LINE
  5
729
330
18
100
AcDbEntity
  8
ASSI
100
AcDbLine
 10
-366.61413326794
 20
226.4999999303267
 30
0.0
 11
-335.9311376388124
 21
226.4999999303267
 31
0.0
  0
LINE
  5
72B
330
18
100
AcDbEntity
  8
BASE
100
AcDbLine
 10
-281.2726354533762
 20
198.9999999303267
 30
0.0
 11
-631.272635453376
 21
198.9999999303264
 31
0.0
  0
LINE
  5
72C
330
18
100
AcDbEntity
  8
BASE
100
AcDbLine
 10
-281.2726354533762
 20
208.9999999303276
 30
0.0
 11
-390.7726354533761
 21
208.9999999303276
 31
0.0
  0
LINE
  5
72E
330
18
100
AcDbEntity
  8
DISEGNO
100
AcDbLine
 10
-281.2726354533776
 20
318.9999999303277
 30
0.0
 11
-631.2726354533761
 21
318.9999999303272
 31
0.0
  0
LINE
  5
733
330
18
100
AcDbEntity
  8
DISEGNO
100
AcDbLine
 10
-521.2726354533762
 20
213.035586005972
 30
0.0
 11
-521.2726354533762
 21
316.9999999303272
 31
0.0
  0
LINE
  5
734
330
18
100
AcDbEntity
  8
ASSI
100
AcDbLine
 10
-561.2726354533761
 20
217.4731653867411
 30
0.0
 11
-561.2726354533761
 21
236.1102191210918
 31
0.0
  0
LINE
  5
73D
330
18
100
AcDbEntity
  8
DISEGNO
100
AcDbLine
 10
-631.2726354533761
 20
198.9999999303267
 30
0.0
 11
-631.2726354533761
 21
318.9999999303272
 31
0.0
  0
LINE
  5
740
330
18
100
AcDbEntity
  8
ASSI
100
AcDbLine
 10
-576.61413326794
 20
226.4999999303267
 30
0.0
 11
-545.9311376388123
 21
226.4999999303267
 31
0.0
  0
LINE
  5
751
330
18
100
AcDbEntity
  8
ASSI
100
AcDbLine
 10
-606.2726354533771
 20
191.6502326951967
 30
0.0
 11
-606.2726354533761
 21
220.4813447286241
 31
0.0
  0
LINE
  5
767
330
18
100
AcDbEntity
  8
ASSI
100
AcDbLine
 10
-536.2726354533789
 20
191.9583667850314
 30
0.0
 11
-536.2726354533789
 21
220.1959196274864
 31
0.0
  0
LINE
  5
77A
330
18
100
AcDbEntity
  8
DISEGNO
100
AcDbLine
 10
-521.2726354533762
 20
316.9999999303272
 30
0.0
 11
-519.2726354533761
 21
318.9999999303272
 31
0.0
  0
LINE
  5
77F
330
18
100
AcDbEntity
  8
DISEGNO
100
AcDbLine
 10
-391.2726354533762
 20
213.0355860059725
 30
0.0
 11
-391.2726354533762
 21
316.9999999303272
 31
0.0
  0
LINE
  5
78F
330
18
100
AcDbEntity
  8
ASSI
100
AcDbLine
 10
-376.272635453379
 20
191.9583667850355
 30
0.0
 11
-376.272635453379
 21
217.8923877901679
 31
0.0
  0
CIRCLE
  5
7A4
330
18
100
AcDbEntity
  8
NORMALI
100
AcDbCircle
 10
-456.2726354533761
 20
262.9999999303267
 30
0.0
 40
12.5
  0
LINE
  5
7AC
330
18
100
AcDbEntity
  8
DISEGNO
100
AcDbLine
 10
-391.2726354533762
 20
316.9999999303272
 30
0.0
 11
-393.2726354533762
 21
318.9999999303272
 31
0.0
  0
LINE
  5
7AD
330
18
100
AcDbEntity
  8
ASSI
100
AcDbLine
 10
-351.2726354533762
 20
219.1212789759602
 30
0.0
 11
-351.2726354533762
 21
241.8652436656544
 31
0.0
  0
LINE
  5
7B7
330
18
100
AcDbEntity
  8
ASSI
100
AcDbLine
 10
-306.2726354533789
 20
191.9583667850364
 30
0.0
 11
-306.2726354533789
 21
218.6068662452298
 31
0.0
  0
LINE
  5
7C7
330
18
100
AcDbEntity
  8
COMPONENTI
100
AcDbLine
 10
-281.2726354533771
 20
145.0000000000003
 30
0.0
 11
-264.5226417498681
 21
145.0000000000003
 31
0.0
  0
LINE
  5
7C8
330
18
100
AcDbEntity
  8
COMPONENTI
100
AcDbLine
 10
-264.5226417498681
 20
176.4999999303276
 30
0.0
 11
-281.2726354533753
 21
176.4999999303276
 31
0.0
  0
LINE
  5
7C9
330
18
100
AcDbEntity
  8
COMPONENTI
100
AcDbLine
 10
-260.6573256502981
 20
171.9999999303267
 30
0.0
 11
-281.2726354533753
 21
171.9999999303267
 31
0.0
  0
LINE
  5
7CA
330
18
100
AcDbEntity
  8
BASE
100
AcDbLine
 10
-263.7555070670161
 20
169.9999999303276
 30
0.0
 11
-281.2726354533762
 21
169.9999999303267
 31
0.0
  0
LINE
  5
7D8
330
18
100
AcDbEntity
  8
BASE
100
AcDbLine
 10
-16.37263545337634
 20
-257.7293070490897
 30
0.0
 11
-16.37263545337634
 21
-375.7278469557953
 31
0.0
  0
LINE
  5
7D9
330
18
100
AcDbEntity
  8
BASE
100
AcDbLine
 10
-6.372635453376346
 20
-256.7278469557949
 30
0.0
 11
-6.372635453376346
 21
-376.7278469557948
 31
0.0
  0
LINE
  5
7DA
330
18
100
AcDbEntity
  8
BASE
100
AcDbLine
 10
-19.37268419057443
 20
-256.7278469557949
 30
0.0
 11
-19.3726841905742
 21
-376.7278469557948
 31
0.0
  0
LINE
  5
7DB
330
18
100
AcDbEntity
  8
DISEGNO
100
AcDbLine
 10
-81.37263545337679
 20
-256.727846955795
 30
0.0
 11
-81.37263545337679
 21
-376.727846955795
 31
0.0
  0
LINE
  5
7DC
330
18
100
AcDbEntity
  8
NORMALI
100
AcDbLine
 10
-101.372635453375
 20
-287.2278469557944
 30
0.0
 11
-101.372635453375
 21
-305.2278469557943
 31
0.0
  0
LINE
  5
7DD
330
18
100
AcDbEntity
  8
NORMALI
100
AcDbLine
 10
-100.372635453375
 20
-286.2278469557944
 30
0.0
 11
-100.372635453375
 21
-306.2278469557944
 31
0.0
  0
LINE
  5
7DE
330
18
100
AcDbEntity
  8
BASE
100
AcDbLine
 10
-116.4726354533743
 20
-257.7278469557953
 30
0.0
 11
-116.4726354533743
 21
-375.7278469557953
 31
0.0
  0
LINE
  5
7DF
330
18
100
AcDbEntity
  8
COMPONENTI
100
AcDbLine
 10
-106.3726354533759
 20
-392.2278469557952
 30
0.0
 11
-106.3726354533759
 21
-376.7278469557953
 31
0.0
  0
LINE
  5
7E0
330
18
100
AcDbEntity
  8
BASE
100
AcDbLine
 10
-116.4726354533743
 20
-375.7278469557953
 30
0.0
 11
-115.4726354533743
 21
-376.7278469557953
 31
0.0
  0
LINE
  5
7E1
330
18
100
AcDbEntity
  8
NORMALI
100
AcDbLine
 10
-81.37263545337498
 20
-306.2278469557944
 30
0.0
 11
-100.372635453375
 21
-306.2278469557944
 31
0.0
  0
LINE
  5
7E2
330
18
100
AcDbEntity
  8
NORMALI
100
AcDbLine
 10
-81.37263545337498
 20
-327.2278469557944
 30
0.0
 11
-100.372635453375
 21
-327.2278469557944
 31
0.0
  0
LINE
  5
7E3
330
18
100
AcDbEntity
  8
NORMALI
100
AcDbLine
 10
-81.37263545337498
 20
-347.2278469557943
 30
0.0
 11
-100.372635453375
 21
-347.2278469557943
 31
0.0
  0
LINE
  5
7E4
330
18
100
AcDbEntity
  8
ASSI
100
AcDbLine
 10
-101.372635453375
 20
-337.2278469557962
 30
0.0
 11
-62.9072868909642
 21
-337.2278469557962
 31
0.0
  0
LINE
  5
7E5
330
18
100
AcDbEntity
  8
NORMALI
100
AcDbLine
 10
-101.372635453375
 20
-346.2278469557944
 30
0.0
 11
-101.372635453375
 21
-328.2278469557943
 31
0.0
  0
LINE
  5
7E6
330
18
100
AcDbEntity
  8
NORMALI
100
AcDbLine
 10
-100.372635453375
 20
-347.2278469557943
 30
0.0
 11
-100.372635453375
 21
-327.2278469557944
 31
0.0
  0
LINE
  5
7E7
330
18
100
AcDbEntity
  8
NORMALI
100
AcDbLine
 10
-100.372635453375
 20
-327.2278469557944
 30
0.0
 11
-101.372635453375
 21
-328.2278469557943
 31
0.0
  0
LINE
  5
7E8
330
18
100
AcDbEntity
  8
NORMALI
100
AcDbLine
 10
-100.3726354533759
 20
-347.2278469557943
 30
0.0
 11
-101.3726354533759
 21
-346.2278469557944
 31
0.0
  0
LINE
  5
7E9
330
18
100
AcDbEntity
  8
NORMALI
100
AcDbLine
 10
-100.372635453375
 20
-306.2278469557944
 30
0.0
 11
-101.372635453375
 21
-305.2278469557943
 31
0.0
  0
LINE
  5
7EA
330
18
100
AcDbEntity
  8
BASE
100
AcDbLine
 10
-17.37263545337635
 20
-376.7278469557953
 30
0.0
 11
-16.37263545337634
 21
-375.7278469557953
 31
0.0
  0
LINE
  5
7EB
330
18
100
AcDbEntity
  8
NORMALI
100
AcDbLine
 10
-81.37263545337498
 20
-286.2278469557944
 30
0.0
 11
-100.372635453375
 21
-286.2278469557944
 31
0.0
  0
LINE
  5
7EC
330
18
100
AcDbEntity
  8
ASSI
100
AcDbLine
 10
-101.372635453375
 20
-296.2278469557944
 30
0.0
 11
-62.9072868909642
 21
-296.2278469557944
 31
0.0
  0
LINE
  5
7ED
330
18
100
AcDbEntity
  8
NORMALI
100
AcDbLine
 10
-100.3726354533759
 20
-286.2278469557944
 30
0.0
 11
-101.3726354533759
 21
-287.2278469557944
 31
0.0
  0
LINE
  5
7EE
330
18
100
AcDbEntity
  8
BASE
100
AcDbLine
 10
-115.4726354533743
 20
-256.7278469557952
 30
0.0
 11
-116.4726354533743
 21
-257.7278469557953
 31
0.0
  0
LINE
  5
7EF
330
18
100
AcDbEntity
  8
COMPONENTI
100
AcDbLine
 10
-106.3726354533759
 20
-241.2278469557953
 30
0.0
 11
-106.3726354533759
 21
-256.7278469557952
 31
0.0
  0
LINE
  5
7F0
330
18
100
AcDbEntity
  8
BASE
100
AcDbLine
 10
-16.37263545337634
 20
-257.7293070490898
 30
0.0
 11
-17.37263545337635
 21
-256.7293070490898
 31
0.0
  0
LINE
  5
7F2
330
18
100
AcDbEntity
  8
BASE
100
AcDbLine
 10
-16.37263545337657
 20
182.9999999303275
 30
0.0
 11
-16.37263545337634
 21
-49.99999999999989
 31
0.0
  0
LINE
  5
7F3
330
18
100
AcDbEntity
  8
BASE
100
AcDbLine
 10
-6.372635453375664
 20
184.9999999303267
 30
0.0
 11
-6.372635453376346
 21
-49.99999999999989
 31
0.0
  0
LINE
  5
7F4
330
18
100
AcDbEntity
  8
COMPONENTI
100
AcDbLine
 10
-106.272635453378
 20
145.0000000000003
 30
0.0
 11
-106.2726354533771
 21
125.0000000000003
 31
0.0
  0
LINE
  5
7F6
330
18
100
AcDbEntity
  8
BASE
100
AcDbLine
 10
-16.37263545337657
 20
182.9999999303266
 30
0.0
 11
-116.3726354533764
 21
182.9999999303266
 31
0.0
  0
LINE
  5
7F7
330
18
100
AcDbEntity
  8
DISEGNO
100
AcDbLine
 10
-81.27263545337894
 20
207.9999999303294
 30
0.0
 11
-19.37263545337657
 21
207.9999999303294
 31
0.0
  0
LINE
  5
7F8
330
18
100
AcDbEntity
  8
BASE
100
AcDbLine
 10
-16.37263545337657
 20
141.2499999999999
 30
0.0
 11
-106.3676354533783
 21
141.2499999999999
 31
0.0
  0
LINE
  5
7F9
330
18
100
AcDbEntity
  8
BASE
100
AcDbLine
 10
-16.37263545337657
 20
128.7499999999999
 30
0.0
 11
-106.3676354533783
 21
128.7499999999999
 31
0.0
  0
LINE
  5
7FA
330
18
100
AcDbEntity
  8
BASE
100
AcDbLine
 10
-116.3726354533764
 20
169.9999999303276
 30
0.0
 11
-116.3726354533764
 21
182.9999999303266
 31
0.0
  0
LINE
  5
7FB
330
18
100
AcDbEntity
  8
NORMALI
100
AcDbLine
 10
-81.27263545337894
 20
186.9999999303294
 30
0.0
 11
-100.1776354533786
 21
186.9999999303294
 31
0.0
  0
LINE
  5
7FC
330
18
100
AcDbEntity
  8
NORMALI
100
AcDbLine
 10
-81.27263545337894
 20
206.9999999303294
 30
0.0
 11
-100.2726354533789
 21
206.9999999303294
 31
0.0
  0
LINE
  5
7FE
330
18
100
AcDbEntity
  8
NORMALI
100
AcDbLine
 10
-100.2726354533789
 20
206.9999999303294
 30
0.0
 11
-100.2726354533789
 21
186.9999999303294
 31
0.0
  0
LINE
  5
7FF
330
18
100
AcDbEntity
  8
NORMALI
100
AcDbLine
 10
-101.2726354533789
 20
205.9999999303294
 30
0.0
 11
-101.2726354533789
 21
187.9999999303294
 31
0.0
  0
LINE
  5
800
330
18
100
AcDbEntity
  8
NORMALI
100
AcDbLine
 10
-100.1776354533786
 20
186.9999999303294
 30
0.0
 11
-101.1776354533787
 21
187.9999999303294
 31
0.0
  0
LINE
  5
801
330
18
100
AcDbEntity
  8
NORMALI
100
AcDbLine
 10
-100.2726354533789
 20
206.9999999303294
 30
0.0
 11
-101.2726354533789
 21
205.9999999303294
 31
0.0
  0
LINE
  5
802
330
18
100
AcDbEntity
  8
DISEGNO
100
AcDbLine
 10
-81.27263545337894
 20
207.9999999303294
 30
0.0
 11
-81.27263545337894
 21
182.9999999303275
 31
0.0
  0
LINE
  5
803
330
18
100
AcDbEntity
  8
BASE
100
AcDbLine
 10
-6.372635453375664
 20
184.9999999303267
 30
0.0
 11
-16.37263545337657
 21
184.9999999303267
 31
0.0
  0
LINE
  5
804
330
18
100
AcDbEntity
  8
DISEGNO
100
AcDbLine
 10
-19.37263545337748
 20
207.9999999303294
 30
0.0
 11
-16.37263545337748
 21
204.9999999303294
 31
0.0
  0
LINE
  5
805
330
18
100
AcDbEntity
  8
DISEGNO
100
AcDbLine
 10
-16.37263545337748
 20
204.9999999303294
 30
0.0
 11
-16.37263545337657
 21
182.9999999303275
 31
0.0
  0
LINE
  5
808
330
18
100
AcDbEntity
  8
DISEGNO
100
AcDbLine
 10
-1315.490841538299
 20
111.0000000000003
 30
0.0
 11
-1315.490841538299
 21
184.9999999303267
 31
0.0
  0
LINE
  5
80E
330
18
100
AcDbEntity
  8
COMPONENTI
100
AcDbLine
 10
-1277.596751538299
 20
126.1800000000006
 30
0.0
 11
-1278.776751538299
 21
125.0000000000003
 31
0.0
  0
LINE
  5
81D
330
18
100
AcDbEntity
  8
ASSI
100
AcDbLine
 10
-1217.489841538299
 20
349.8618367768616
 30
0.0
 11
-1217.489841538298
 21
-31.55962807460651
 31
0.0
  0
LINE
  5
825
330
18
100
AcDbEntity
  8
BASE
100
AcDbLine
 10
-1315.490841538299
 20
111.0000000000003
 30
0.0
 11
-1279.490141538299
 21
111.0000000000003
 31
0.0
  0
LINE
  5
826
330
18
100
AcDbEntity
  8
BASE
100
AcDbLine
 10
-1315.490841538299
 20
114.0000000000003
 30
0.0
 11
-1279.490141538299
 21
114.0000000000003
 31
0.0
  0
LINE
  5
857
330
18
100
AcDbEntity
  8
BASE
100
AcDbLine
 10
-1286.589641538299
 20
111.0000000000003
 30
0.0
 11
-1305.490841538299
 21
111.0000000000003
 31
0.0
  0
LINE
  5
867
330
18
100
AcDbEntity
  8
BASE
100
AcDbLine
 10
-1279.490141538299
 20
184.9999999303265
 30
0.0
 11
-1279.490141538299
 21
145.0000000000003
 31
0.0
  0
LINE
  5
868
330
18
100
AcDbEntity
  8
COMPONENTI
100
AcDbLine
 10
-1293.096751538299
 20
125.0000000000003
 30
0.0
 11
-1278.776751538299
 21
125.0000000000003
 31
0.0
  0
LINE
  5
8B6
330
18
100
AcDbEntity
  8
AX
100
AcDbLine
 10
-1160.39681846457
 20
262.9999999303276
 30
0.0
 11
-1276.822445463421
 21
262.9999999303276
 31
0.0
  0
LINE
  5
8B7
330
18
100
AcDbEntity
  8
BASE
  6
Continuous
100
AcDbLine
 10
-1077.489841538299
 20
184.9999999303276
 30
0.0
 11
-1157.597101538299
 21
184.9999999303262
 31
0.0
  0
LINE
  5
8B8
330
18
100
AcDbEntity
  8
BASE
100
AcDbLine
 10
-1077.489841538299
 20
198.9999999303276
 30
0.0
 11
-1157.597101538299
 21
198.9999999303276
 31
0.0
  0
LINE
  5
8BA
330
18
100
AcDbEntity
  8
0
100
AcDbLine
 10
-1277.589038167882
 20
184.9999999303267
 30
0.0
 11
-1157.586763352432
 21
184.9999999303267
 31
0.0
  0
LINE
  5
8BB
330
18
100
AcDbEntity
  8
DISEGNO
100
AcDbLine
 10
-1157.597101538299
 20
206.9996999303283
 30
0.0
 11
-1277.598101538299
 21
206.9996999303288
 31
0.0
  0
LINE
  5
8BC
330
18
100
AcDbEntity
  8
BASE
100
AcDbLine
 10
-1163.382581538301
 20
318.9999999303277
 30
0.0
 11
-1271.382581538298
 21
318.9999999303277
 31
0.0
  0
LINE
  5
8BE
330
18
100
AcDbEntity
  8
BASE
  6
DASHED
 62
     8
100
AcDbLine
 10
-1265.382581538298
 20
297.9999999303277
 30
0.0
 11
-1265.382581538298
 21
227.9999999303276
 31
0.0
  0
LINE
  5
8BF
330
18
100
AcDbEntity
  8
BASE
100
AcDbLine
 10
-1262.5825815383
 20
318.9999999303277
 30
0.0
 11
-1262.5825815383
 21
223.9999999303249
 31
0.0
  0
LINE
  5
8C0
330
18
100
AcDbEntity
  8
BASE
100
AcDbLine
 10
-1271.382581538298
 20
210.9999999303276
 30
0.0
 11
-1271.382581538298
 21
318.9999999303277
 31
0.0
  0
LINE
  5
8C1
330
18
100
AcDbEntity
  8
BASE
100
AcDbLine
 10
-1252.582581538299
 20
207.000111002891
 30
0.0
 11
-1252.582581538297
 21
318.9999999303277
 31
0.0
  0
LINE
  5
8C8
330
18
100
AcDbEntity
  8
BASE
100
AcDbLine
 10
-1293.7815815383
 20
208.9999999303276
 30
0.0
 11
-1310.5825815383
 21
208.9999999303276
 31
0.0
  0
LINE
  5
8C9
330
18
100
AcDbEntity
  8
BASE
  6
Continuous
100
AcDbLine
 10
-1277.598101538299
 20
184.9999999303267
 30
0.0
 11
-1357.489841538299
 21
184.9999999303267
 31
0.0
  0
LINE
  5
8CA
330
18
100
AcDbEntity
  8
BASE
100
AcDbLine
 10
-1277.598101538299
 20
198.9999999303271
 30
0.0
 11
-1357.489841538299
 21
198.9999999303276
 31
0.0
  0
LINE
  5
8CB
330
18
100
AcDbEntity
  8
BASE
100
AcDbLine
 10
-1357.489841538299
 20
184.9999999303267
 30
0.0
 11
-1357.489841538299
 21
198.9999999303276
 31
0.0
  0
LINE
  5
8CC
330
18
100
AcDbEntity
  8
BASE
100
AcDbLine
 10
-1312.5825815383
 20
206.9999999303276
 30
0.0
 11
-1312.5825815383
 21
198.9999999303276
 31
0.0
  0
ARC
  5
8CD
330
18
100
AcDbEntity
  8
BASE
100
AcDbCircle
 10
-1310.5825815383
 20
206.9999999303276
 30
0.0
 40
2.0
100
AcDbArc
 50
90.0
 51
180.0
  0
LINE
  5
8CF
330
18
100
AcDbEntity
  8
ASSI
100
AcDbLine
 10
-1297.989841538299
 20
220.108380792862
 30
0.0
 11
-1297.989841538299
 21
166.7403287325932
 31
0.0
  0
LINE
  5
8E2
330
18
100
AcDbEntity
  8
COMPONENTI
100
AcDbLine
 10
-1293.096751538299
 20
145.0000000000003
 30
0.0
 11
-1293.096751538299
 21
125.0000000000003
 31
0.0
  0
LINE
  5
8E7
330
18
100
AcDbEntity
  8
COMPONENTI
100
AcDbLine
 10
-1277.596751538299
 20
143.8200000000009
 30
0.0
 11
-1278.776751538299
 21
145.0000000000003
 31
0.0
  0
LINE
  5
8E8
330
18
100
AcDbEntity
  8
COMPONENTI
100
AcDbLine
 10
-1293.096751538299
 20
145.0000000000003
 30
0.0
 11
-1278.776751538299
 21
145.0000000000003
 31
0.0
  0
LINE
  5
8FC
330
18
100
AcDbEntity
  8
BASE
  6
DASHED
 62
     8
100
AcDbLine
 10
-1265.382581538298
 20
227.9999999303276
 30
0.0
 11
-1271.382581538298
 21
227.9999999303276
 31
0.0
  0
ARC
  5
8FD
330
18
100
AcDbEntity
  8
BASE
100
AcDbCircle
 10
-1277.582581538303
 20
223.9999999303276
 30
0.0
 40
15.00000000000006
100
AcDbArc
 50
270.0000000000108
 51
359.9999999999883
  0
LINE
  5
908
330
18
100
AcDbEntity
  8
BASE
100
AcDbLine
 10
-1277.5825815383
 20
208.9999999303276
 30
0.0
 11
-1291.383581538299
 21
208.9999999303276
 31
0.0
  0
LINE
  5
909
330
18
100
AcDbEntity
  8
BASE
100
AcDbLine
 10
-1302.182581538299
 20
199.4999999303276
 30
0.0
 11
-1277.598101538299
 21
199.4999999303276
 31
0.0
  0
ARC
  5
90A
330
18
100
AcDbEntity
  8
BASE
100
AcDbCircle
 10
-1302.182581538297
 20
199.0999999303261
 30
0.0
 40
0.4000000000017394
100
AcDbArc
 50
90.00000000023614
 51
179.9999999997394
  0
LINE
  5
90B
330
18
100
AcDbEntity
  8
BASE
100
AcDbLine
 10
-1293.5815815383
 20
208.7999999303278
 30
0.0
 11
-1293.7815815383
 21
208.9999999303276
 31
0.0
  0
LINE
  5
90C
330
18
100
AcDbEntity
  8
BASE
100
AcDbLine
 10
-1291.383581538299
 20
208.9999999303276
 30
0.0
 11
-1291.583581538299
 21
208.7999999303278
 31
0.0
  0
LINE
  5
90D
330
18
100
AcDbEntity
  8
BASE
100
AcDbLine
 10
-1291.583581538299
 20
208.7999999303278
 30
0.0
 11
-1293.5815815383
 21
208.7999999303278
 31
0.0
  0
LINE
  5
90F
330
18
100
AcDbEntity
  8
BASE
  6
DASHED
 62
     8
100
AcDbLine
 10
-1265.382581538298
 20
297.9999999303277
 30
0.0
 11
-1271.382581538298
 21
297.9999999303277
 31
0.0
  0
ARC
  5
910
330
18
100
AcDbEntity
  8
BASE
100
AcDbCircle
 10
-1260.5825815383
 20
316.9999999303277
 30
0.0
 40
2.0
100
AcDbArc
 50
90.0
 51
180.0
  0
LINE
  5
911
330
18
100
AcDbEntity
  8
BASE
  6
DASHED
 62
     8
100
AcDbLine
 10
-1169.382581538302
 20
297.9999999303277
 30
0.0
 11
-1169.382581538296
 21
227.9999999303276
 31
0.0
  0
LINE
  5
912
330
18
100
AcDbEntity
  8
BASE
100
AcDbLine
 10
-1172.182581538302
 20
318.9999999303277
 30
0.0
 11
-1172.182581538267
 21
223.9999999303222
 31
0.0
  0
LINE
  5
913
330
18
100
AcDbEntity
  8
BASE
100
AcDbLine
 10
-1182.182581538299
 20
206.9999999303285
 30
0.0
 11
-1182.182581538302
 21
318.9999999303277
 31
0.0
  0
LINE
  5
914
330
18
100
AcDbEntity
  8
BASE
100
AcDbLine
 10
-1163.382581538302
 20
210.9999999303276
 30
0.0
 11
-1163.382581538302
 21
318.9999999303277
 31
0.0
  0
LINE
  5
915
330
18
100
AcDbEntity
  8
BASE
  6
DASHED
 62
     8
100
AcDbLine
 10
-1169.382581538302
 20
227.9999999303276
 30
0.0
 11
-1163.382581538302
 21
227.9999999303276
 31
0.0
  0
ARC
  5
916
330
18
100
AcDbEntity
  8
BASE
100
AcDbCircle
 10
-1157.182581538299
 20
223.9999999303276
 30
0.0
 40
15.00000000000001
100
AcDbArc
 50
180.0000000000209
 51
270.0000000000005
  0
LINE
  5
918
330
18
100
AcDbEntity
  8
ASSI
100
AcDbLine
 10
-1136.989841538299
 20
219.3386473926488
 30
0.0
 11
-1136.989841538299
 21
166.075978196627
 31
0.0
  0
LINE
  5
945
330
18
100
AcDbEntity
  8
BASE
100
AcDbLine
 10
-1140.9835815383
 20
208.9999999303276
 30
0.0
 11
-1124.182581538299
 21
208.9999999303276
 31
0.0
  0
LINE
  5
955
330
18
100
AcDbEntity
  8
BASE
100
AcDbLine
 10
-1132.5825815383
 20
199.4999999303276
 30
0.0
 11
-1157.597101538298
 21
199.4999999303276
 31
0.0
  0
LINE
  5
957
330
18
100
AcDbEntity
  8
BASE
100
AcDbLine
 10
-1157.182581538299
 20
208.9999999303276
 30
0.0
 11
-1143.3815815383
 21
208.9999999303276
 31
0.0
  0
LINE
  5
958
330
18
100
AcDbEntity
  8
BASE
100
AcDbLine
 10
-1143.181581538299
 20
208.7999999303278
 30
0.0
 11
-1141.1835815383
 21
208.7999999303278
 31
0.0
  0
LINE
  5
959
330
18
100
AcDbEntity
  8
BASE
100
AcDbLine
 10
-1141.1835815383
 20
208.7999999303278
 30
0.0
 11
-1140.9835815383
 21
208.9999999303276
 31
0.0
  0
LINE
  5
95A
330
18
100
AcDbEntity
  8
BASE
100
AcDbLine
 10
-1143.3815815383
 20
208.9999999303276
 30
0.0
 11
-1143.181581538299
 21
208.7999999303278
 31
0.0
  0
LINE
  5
95C
330
18
100
AcDbEntity
  8
BASE
100
AcDbLine
 10
-1122.182581538299
 20
206.9999999303276
 30
0.0
 11
-1122.182581538299
 21
198.9999999303276
 31
0.0
  0
ARC
  5
95D
330
18
100
AcDbEntity
  8
BASE
100
AcDbCircle
 10
-1124.182581538299
 20
206.9999999303276
 30
0.0
 40
2.0
100
AcDbArc
 50
0.000000000000007
 51
90.0
  0
ARC
  5
95E
330
18
100
AcDbEntity
  8
BASE
100
AcDbCircle
 10
-1132.582581538301
 20
199.0999999303261
 30
0.0
 40
0.4000000000017394
100
AcDbArc
 50
0.0000000002605581
 51
89.99999999976386
  0
LINE
  5
95F
330
18
100
AcDbEntity
  8
BASE
  6
DASHED
 62
     8
100
AcDbLine
 10
-1169.382581538302
 20
297.9999999303277
 30
0.0
 11
-1163.382581538302
 21
297.9999999303277
 31
0.0
  0
LINE
  5
960
330
18
100
AcDbEntity
  8
BASE
100
AcDbLine
 10
-1182.3825815383
 20
318.9999999303277
 30
0.0
 11
-1174.182581538299
 21
318.9999999303277
 31
0.0
  0
ARC
  5
961
330
18
100
AcDbEntity
  8
BASE
100
AcDbCircle
 10
-1174.182581538299
 20
316.9999999303277
 30
0.0
 40
2.0
100
AcDbArc
 50
0.000000000000007
 51
90.0
  0
LINE
  5
962
330
18
100
AcDbEntity
  8
BASE
100
AcDbLine
 10
-1077.489841538299
 20
184.9999999303276
 30
0.0
 11
-1077.489841538299
 21
198.9999999303276
 31
0.0
  0
LINE
  5
BD0
330
18
100
AcDbEntity
  8
0
100
AcDbLine
 10
-6.372635453376346
 20
-50.0
 30
0.0
 11
-1016.372635453376
 21
-50.0
 31
0.0
  0
LINE
  5
BDB
330
18
100
AcDbEntity
  8
BASE
100
AcDbLine
 10
-1279.490141538299
 20
125.0000000000003
 30
0.0
 11
-1279.490141538299
 21
111.0000000000003
 31
0.0
  0
LINE
  5
BDE
330
18
100
AcDbEntity
  8
COMPONENTI
100
AcDbLine
 10
-1142.098451538299
 20
145.0000000000003
 30
0.0
 11
-1142.098451538299
 21
125.0000000000003
 31
0.0
  0
LINE
  5
BDF
330
18
100
AcDbEntity
  8
DISEGNO
100
AcDbLine
 10
-1119.488841538298
 20
111.0000000000003
 30
0.0
 11
-1119.488841538298
 21
184.9999999303267
 31
0.0
  0
LINE
  5
BE2
330
18
100
AcDbEntity
  8
BASE
100
AcDbLine
 10
-1119.488841538298
 20
114.0000000000003
 30
0.0
 11
-1155.489541538299
 21
114.0000000000003
 31
0.0
  0
LINE
  5
BE3
330
18
100
AcDbEntity
  8
BASE
100
AcDbLine
 10
-1119.488841538298
 20
111.0000000000003
 30
0.0
 11
-1155.489541538299
 21
111.0000000000003
 31
0.0
  0
LINE
  5
BE4
330
18
100
AcDbEntity
  8
BASE
100
AcDbLine
 10
-1148.390041538299
 20
111.0000000000003
 30
0.0
 11
-1129.488841538298
 21
111.0000000000003
 31
0.0
  0
LINE
  5
BEE
330
18
100
AcDbEntity
  8
BASE
100
AcDbLine
 10
-1155.489541538299
 20
125.0000000000003
 30
0.0
 11
-1155.489541538299
 21
111.0000000000003
 31
0.0
  0
LINE
  5
BF5
330
18
100
AcDbEntity
  8
COMPONENTI
100
AcDbLine
 10
-1142.098451538299
 20
125.0000000000003
 30
0.0
 11
-1156.418451538298
 21
125.0000000000003
 31
0.0
  0
LINE
  5
BF7
330
18
100
AcDbEntity
  8
COMPONENTI
100
AcDbLine
 10
-1157.598451538299
 20
126.1800000000006
 30
0.0
 11
-1156.418451538298
 21
125.0000000000003
 31
0.0
  0
LINE
  5
C04
330
18
100
AcDbEntity
  8
BASE
100
AcDbLine
 10
-1155.489541538299
 20
184.9999999303265
 30
0.0
 11
-1155.489541538299
 21
145.0000000000003
 31
0.0
  0
LINE
  5
C0C
330
18
100
AcDbEntity
  8
COMPONENTI
100
AcDbLine
 10
-1142.098451538299
 20
145.0000000000003
 30
0.0
 11
-1156.418451538298
 21
145.0000000000003
 31
0.0
  0
LINE
  5
C0D
330
18
100
AcDbEntity
  8
COMPONENTI
100
AcDbLine
 10
-1157.598451538299
 20
143.8200000000009
 30
0.0
 11
-1156.418451538298
 21
145.0000000000003
 31
0.0
  0
LINE
  5
C1D
330
18
100
AcDbEntity
  8
0
100
AcDbLine
 10
-841.2726354533761
 20
198.9999999303272
 30
0.0
 11
-631.2726354533761
 21
198.9999999303264
 31
0.0
  0
LINE
  5
CB2
330
18
100
AcDbEntity
  8
DISEGNO
100
AcDbLine
 10
-281.272635453376
 20
-351.7278469557953
 30
0.0
 11
-631.2726354533761
 21
-351.7278469557953
 31
0.0
  0
LINE
  5
CB3
330
18
100
AcDbEntity
  8
DISEGNO
100
AcDbLine
 10
-281.272635453376
 20
-361.7278469557955
 30
0.0
 11
-631.2726354533761
 21
-361.7278469557955
 31
0.0
  0
LINE
  5
CB4
330
18
100
AcDbEntity
  8
TRATTEGGI
 62
     8
100
AcDbLine
 10
-421.2726354533761
 20
-364.7278469557913
 30
0.0
 11
-491.272635453376
 21
-364.7278469557913
 31
0.0
  0
LINE
  5
CB5
330
18
100
AcDbEntity
  8
DISEGNO
100
AcDbLine
 10
-391.2726354533762
 20
-370.7278469557956
 30
0.0
 11
-521.2726354533762
 21
-370.7278469557956
 31
0.0
  0
LINE
  5
CB6
330
18
100
AcDbEntity
  8
DISEGNO
100
AcDbLine
 10
-391.2726354533762
 20
-370.7278469557956
 30
0.0
 11
-391.2726354533762
 21
-361.7278469557955
 31
0.0
  0
LINE
  5
CB7
330
18
100
AcDbEntity
  8
TRATTEGGI
 62
     8
100
AcDbLine
 10
-421.2726354533761
 20
-364.7278469557913
 30
0.0
 11
-421.2726354533761
 21
-370.3278469557913
 31
0.0
  0
LINE
  5
CB8
330
18
100
AcDbEntity
  8
TRATTEGGI
100
AcDbLine
 10
-468.7726354533761
 20
-364.7278469557913
 30
0.0
 11
-468.7726354533761
 21
-316.7278469557953
 31
0.0
  0
LINE
  5
CB9
330
18
100
AcDbEntity
  8
TRATTEGGI
100
AcDbLine
 10
-443.7726354533761
 20
-364.7278469557913
 30
0.0
 11
-443.7726354533761
 21
-316.7278469557953
 31
0.0
  0
LINE
  5
CBA
330
18
100
AcDbEntity
  8
ASSI
100
AcDbLine
 10
-456.2726354533761
 20
-258.5150334563697
 30
0.0
 11
-456.2726354533761
 21
-374.9406604552211
 31
0.0
  0
LINE
  5
CBB
330
18
100
AcDbEntity
  8
TRATTEGGI
 62
     8
100
AcDbLine
 10
-491.272635453376
 20
-364.7278469557913
 30
0.0
 11
-491.2726354533762
 21
-370.7278469557956
 31
0.0
  0
LINE
  5
CBC
330
18
100
AcDbEntity
  8
DISEGNO
100
AcDbLine
 10
-521.2726354533762
 20
-370.7278469557956
 30
0.0
 11
-521.2726354533762
 21
-361.7278469557955
 31
0.0
  0
LINE
  5
CBD
330
18
100
AcDbEntity
  8
DISEGNO
100
AcDbLine
 10
-281.272635453376
 20
-281.7278469557953
 30
0.0
 11
-631.2726354533761
 21
-281.7278469557953
 31
0.0
  0
LINE
  5
CBE
330
18
100
AcDbEntity
  8
DISEGNO
100
AcDbLine
 10
-281.272635453376
 20
-271.727846955795
 30
0.0
 11
-631.2726354533761
 21
-271.727846955795
 31
0.0
  0
LINE
  5
CBF
330
18
100
AcDbEntity
  8
TRATTEGGI
 62
     8
100
AcDbLine
 10
-421.2726354533761
 20
-268.727846955795
 30
0.0
 11
-491.272635453376
 21
-268.7278469557904
 31
0.0
  0
LINE
  5
CC0
330
18
100
AcDbEntity
  8
DISEGNO
100
AcDbLine
 10
-391.2726354533762
 20
-262.727846955795
 30
0.0
 11
-521.2726354533762
 21
-262.727846955795
 31
0.0
  0
LINE
  5
CC1
330
18
100
AcDbEntity
  8
DISEGNO
100
AcDbLine
 10
-391.2726354533762
 20
-262.727846955795
 30
0.0
 11
-391.2726354533762
 21
-271.727846955795
 31
0.0
  0
LINE
  5
CC2
330
18
100
AcDbEntity
  8
TRATTEGGI
 62
     8
100
AcDbLine
 10
-421.2726354533761
 20
-268.727846955795
 30
0.0
 11
-421.2726354533761
 21
-262.727846955795
 31
0.0
  0
LINE
  5
CC3
330
18
100
AcDbEntity
  8
TRATTEGGI
 62
     8
100
AcDbLine
 10
-491.272635453376
 20
-268.727846955795
 30
0.0
 11
-491.272635453376
 21
-262.727846955795
 31
0.0
  0
LINE
  5
CC4
330
18
100
AcDbEntity
  8
DISEGNO
100
AcDbLine
 10
-521.2726354533762
 20
-262.727846955795
 30
0.0
 11
-521.2726354533762
 21
-271.727846955795
 31
0.0
  0
LINE
  5
CC7
330
18
100
AcDbEntity
  8
TRATTEGGI
100
AcDbLine
 10
-1265.382581538298
 20
275.4999999303277
 30
0.0
 11
-1217.489841538299
 21
275.4999999303277
 31
0.0
  0
LINE
  5
CC9
330
18
100
AcDbEntity
  8
TRATTEGGI
100
AcDbLine
 10
-1265.382581538298
 20
250.4999999303275
 30
0.0
 11
-1217.489841538299
 21
250.4999999303275
 31
0.0
  0
LINE
  5
D56
330
18
100
AcDbEntity
  8
TRATTEGGI
100
AcDbLine
 10
-1169.3825815383
 20
278.9999999303276
 30
0.0
 11
-1217.489841538299
 21
278.9999999303276
 31
0.0
  0
LINE
  5
D57
330
18
100
AcDbEntity
  8
TRATTEGGI
100
AcDbLine
 10
-1169.382581538298
 20
246.9999999303276
 30
0.0
 11
-1217.489841538299
 21
246.9999999303276
 31
0.0
  0
LINE
  5
1BE5
330
18
100
AcDbEntity
  8
BASE
  6
Continuous
100
AcDbLine
 10
363.6271177243193
 20
184.9999999303265
 30
0.0
 11
443.5188577243193
 21
184.9999999303265
 31
0.0
  0
LINE
  5
1BE6
330
18
100
AcDbEntity
  8
BASE
100
AcDbLine
 10
241.8544044060668
 20
198.999999930327
 30
0.0
 11
443.5188577243193
 21
198.9999999303275
 31
0.0
  0
LINE
  5
1BE7
330
18
100
AcDbEntity
  8
BASE
100
AcDbLine
 10
443.5188577243193
 20
184.9999999303265
 30
0.0
 11
443.5188577243193
 21
198.9999999303275
 31
0.0
  0
LINE
  5
1BE9
330
18
100
AcDbEntity
  8
ASSI
100
AcDbLine
 10
384.0188577243194
 20
220.1083807928619
 30
0.0
 11
384.0188577243194
 21
166.7403287325931
 31
0.0
  0
LINE
  5
1BEA
330
18
100
AcDbEntity
  8
ASSI
100
AcDbLine
 10
223.0188577243193
 20
219.3386473926487
 30
0.0
 11
223.0188577243193
 21
166.0759781966269
 31
0.0
  0
LINE
  5
1BEB
330
18
100
AcDbEntity
  8
BASE
100
AcDbLine
 10
163.5188577243193
 20
184.9999999303275
 30
0.0
 11
163.5188577243193
 21
198.9999999303275
 31
0.0
  0
LINE
  5
1BEE
330
18
100
AcDbEntity
  8
BASE
  6
Continuous
100
AcDbLine
 10
163.5188577243193
 20
184.9999999303275
 30
0.0
 11
243.6261177243191
 21
184.9999999303261
 31
0.0
  0
LINE
  5
1BF8
330
18
100
AcDbEntity
  8
0
100
AcDbLine
 10
363.6180543539022
 20
184.9999999303265
 30
0.0
 11
243.615779538452
 21
184.9999999303265
 31
0.0
  0
LINE
  5
1BF9
330
18
100
AcDbEntity
  8
COMPONENTI
100
AcDbLine
 10
379.1257677243193
 20
145.0000000000002
 30
0.0
 11
379.1257677243193
 21
125.0000000000003
 31
0.0
  0
LINE
  5
1BFA
330
18
100
AcDbEntity
  8
DISEGNO
100
AcDbLine
 10
401.5198577243195
 20
111.0000000000003
 30
0.0
 11
401.5198577243195
 21
184.9999999303265
 31
0.0
  0
LINE
  5
1BFE
330
18
100
AcDbEntity
  8
BASE
100
AcDbLine
 10
372.6186577243193
 20
111.0000000000003
 30
0.0
 11
391.5198577243195
 21
111.0000000000003
 31
0.0
  0
LINE
  5
1BFF
330
18
100
AcDbEntity
  8
BASE
100
AcDbLine
 10
401.5198577243195
 20
111.0000000000003
 30
0.0
 11
365.519157724319
 21
111.0000000000003
 31
0.0
  0
LINE
  5
1C00
330
18
100
AcDbEntity
  8
BASE
100
AcDbLine
 10
401.5198577243195
 20
114.0000000000003
 30
0.0
 11
365.519157724319
 21
114.0000000000003
 31
0.0
  0
LINE
  5
1C01
330
18
100
AcDbEntity
  8
BASE
100
AcDbLine
 10
365.519157724319
 20
125.0000000000003
 30
0.0
 11
365.519157724319
 21
111.0000000000003
 31
0.0
  0
LINE
  5
1C02
330
18
100
AcDbEntity
  8
COMPONENTI
100
AcDbLine
 10
379.1257677243193
 20
125.0000000000003
 30
0.0
 11
364.8057677243196
 21
125.0000000000003
 31
0.0
  0
LINE
  5
1C03
330
18
100
AcDbEntity
  8
COMPONENTI
100
AcDbLine
 10
363.6257677243193
 20
126.1800000000005
 30
0.0
 11
364.8057677243196
 21
125.0000000000003
 31
0.0
  0
LINE
  5
1C05
330
18
100
AcDbEntity
  8
BASE
100
AcDbLine
 10
365.519157724319
 20
184.9999999303265
 30
0.0
 11
365.519157724319
 21
145.0000000000002
 31
0.0
  0
LINE
  5
1C06
330
18
100
AcDbEntity
  8
COMPONENTI
100
AcDbLine
 10
379.1257677243193
 20
145.0000000000002
 30
0.0
 11
364.8057677243196
 21
145.0000000000002
 31
0.0
  0
LINE
  5
1C07
330
18
100
AcDbEntity
  8
COMPONENTI
100
AcDbLine
 10
363.6257677243193
 20
143.8200000000008
 30
0.0
 11
364.8057677243196
 21
145.0000000000002
 31
0.0
  0
LINE
  5
1C08
330
18
100
AcDbEntity
  8
COMPONENTI
100
AcDbLine
 10
228.1274677243191
 20
145.0000000000002
 30
0.0
 11
228.1274677243191
 21
125.0000000000003
 31
0.0
  0
LINE
  5
1C0C
330
18
100
AcDbEntity
  8
DISEGNO
100
AcDbLine
 10
205.5178577243187
 20
111.0000000000003
 30
0.0
 11
205.5178577243187
 21
184.9999999303265
 31
0.0
  0
LINE
  5
1C0D
330
18
100
AcDbEntity
  8
COMPONENTI
100
AcDbLine
 10
228.1274677243191
 20
125.0000000000003
 30
0.0
 11
242.4474677243188
 21
125.0000000000003
 31
0.0
  0
LINE
  5
1C0E
330
18
100
AcDbEntity
  8
BASE
100
AcDbLine
 10
205.5178577243187
 20
114.0000000000003
 30
0.0
 11
241.5185577243192
 21
114.0000000000003
 31
0.0
  0
LINE
  5
1C0F
330
18
100
AcDbEntity
  8
BASE
100
AcDbLine
 10
205.5178577243187
 20
111.0000000000003
 30
0.0
 11
241.5185577243192
 21
111.0000000000003
 31
0.0
  0
LINE
  5
1C11
330
18
100
AcDbEntity
  8
BASE
100
AcDbLine
 10
241.5185577243192
 20
125.0000000000003
 30
0.0
 11
241.5185577243192
 21
111.0000000000003
 31
0.0
  0
LINE
  5
1C12
330
18
100
AcDbEntity
  8
COMPONENTI
100
AcDbLine
 10
243.5188577243193
 20
126.0713900000007
 30
0.0
 11
242.4474677243188
 21
125.0000000000003
 31
0.0
  0
LINE
  5
1C13
330
18
100
AcDbEntity
  8
BASE
100
AcDbLine
 10
234.4190577243189
 20
111.0000000000003
 30
0.0
 11
215.5178577243187
 21
111.0000000000003
 31
0.0
  0
LINE
  5
1C14
330
18
100
AcDbEntity
  8
COMPONENTI
100
AcDbLine
 10
228.1274677243191
 20
145.0000000000002
 30
0.0
 11
242.4474677243188
 21
145.0000000000002
 31
0.0
  0
LINE
  5
1C15
330
18
100
AcDbEntity
  8
BASE
100
AcDbLine
 10
241.5185577243192
 20
184.9999999303265
 30
0.0
 11
241.5185577243192
 21
145.0000000000002
 31
0.0
  0
LINE
  5
1C16
330
18
100
AcDbEntity
  8
COMPONENTI
100
AcDbLine
 10
243.5188577243193
 20
143.9286100000005
 30
0.0
 11
242.4474677243188
 21
145.0000000000002
 31
0.0
  0
LINE
  5
1C17
330
18
100
AcDbEntity
  8
BASE
100
AcDbLine
 10
163.5188577243193
 20
198.9999999303275
 30
0.0
 11
243.6261177243191
 21
198.9999999303275
 31
0.0
  0
LINE
  5
1C18
330
18
100
AcDbEntity
  8
TRATTEGGI
100
AcDbLine
 10
255.4115977243207
 20
278.9999999303275
 30
0.0
 11
303.5188577243193
 21
278.9999999303275
 31
0.0
  0
LINE
  5
1C19
330
18
100
AcDbEntity
  8
TRATTEGGI
100
AcDbLine
 10
255.4115977243184
 20
246.9999999303277
 30
0.0
 11
303.5188577243193
 21
246.9999999303277
 31
0.0
  0
LINE
  5
1C1A
330
18
100
AcDbEntity
  8
AX
100
AcDbLine
 10
246.4258346505908
 20
262.9999999303275
 30
0.0
 11
362.8514616494417
 21
262.9999999303275
 31
0.0
  0
LINE
  5
1C1C
330
18
100
AcDbEntity
  8
BASE
100
AcDbLine
 10
249.4115977243214
 20
318.9999999303277
 30
0.0
 11
357.4115977243187
 21
318.9999999303277
 31
0.0
  0
LINE
  5
1C1D
330
18
100
AcDbEntity
  8
BASE
  6
DASHED
 62
     8
100
AcDbLine
 10
351.4115977243187
 20
297.9999999303277
 30
0.0
 11
351.4115977243187
 21
227.9999999303275
 31
0.0
  0
LINE
  5
1C1E
330
18
100
AcDbEntity
  8
BASE
100
AcDbLine
 10
348.6115977243203
 20
318.9999999303277
 30
0.0
 11
348.6115977243203
 21
223.9999999303247
 31
0.0
  0
LINE
  5
1C1F
330
18
100
AcDbEntity
  8
BASE
100
AcDbLine
 10
357.4115977243187
 20
210.9999999303275
 30
0.0
 11
357.4115977243187
 21
318.9999999303277
 31
0.0
  0
LINE
  5
1C20
330
18
100
AcDbEntity
  8
BASE
100
AcDbLine
 10
338.6115977243194
 20
199.4999999303274
 30
0.0
 11
338.6115977243175
 21
318.9999999303277
 31
0.0
  0
ARC
  5
1C21
330
18
100
AcDbEntity
  8
BASE
100
AcDbCircle
 10
363.611597724323
 20
223.9999999303275
 30
0.0
 40
15.00000000000006
100
AcDbArc
 50
180.0000000000117
 51
269.9999999999891
  0
LINE
  5
1C28
330
18
100
AcDbEntity
  8
BASE
100
AcDbLine
 10
379.8105977243199
 20
208.9999999303275
 30
0.0
 11
396.6115977243203
 21
208.9999999303275
 31
0.0
  0
LINE
  5
1C31
330
18
100
AcDbEntity
  8
BASE
100
AcDbLine
 10
398.6115977243203
 20
206.9999999303275
 30
0.0
 11
398.6115977243203
 21
198.9999999303275
 31
0.0
  0
ARC
  5
1C32
330
18
100
AcDbEntity
  8
BASE
100
AcDbCircle
 10
396.6115977243203
 20
206.9999999303275
 30
0.0
 40
2.0
100
AcDbArc
 50
0.000000000000007
 51
90.0
  0
LINE
  5
1C35
330
18
100
AcDbEntity
  8
BASE
100
AcDbLine
 10
363.6115977243203
 20
208.9999999303275
 30
0.0
 11
377.4125977243198
 21
208.9999999303275
 31
0.0
  0
LINE
  5
1C36
330
18
100
AcDbEntity
  8
BASE
100
AcDbLine
 10
388.2115977243198
 20
199.4999999303274
 30
0.0
 11
241.8544044060668
 21
199.4999999303274
 31
0.0
  0
ARC
  5
1C37
330
18
100
AcDbEntity
  8
BASE
100
AcDbCircle
 10
388.2115977243179
 20
199.099999930326
 30
0.0
 40
0.4000000000017394
100
AcDbArc
 50
0.0000000002605581
 51
89.99999999976386
  0
LINE
  5
1C38
330
18
100
AcDbEntity
  8
BASE
100
AcDbLine
 10
379.6105977243201
 20
208.7999999303276
 30
0.0
 11
379.8105977243199
 21
208.9999999303275
 31
0.0
  0
LINE
  5
1C39
330
18
100
AcDbEntity
  8
BASE
100
AcDbLine
 10
377.4125977243198
 20
208.9999999303275
 30
0.0
 11
377.6125977243196
 21
208.7999999303276
 31
0.0
  0
LINE
  5
1C3A
330
18
100
AcDbEntity
  8
BASE
100
AcDbLine
 10
377.6125977243196
 20
208.7999999303276
 30
0.0
 11
379.6105977243201
 21
208.7999999303276
 31
0.0
  0
LINE
  5
1C3C
330
18
100
AcDbEntity
  8
BASE
  6
DASHED
 62
     8
100
AcDbLine
 10
351.4115977243187
 20
227.9999999303275
 30
0.0
 11
357.4115977243187
 21
227.9999999303275
 31
0.0
  0
LINE
  5
1C3D
330
18
100
AcDbEntity
  8
TRATTEGGI
100
AcDbLine
 10
351.4115977243187
 20
250.4999999303275
 30
0.0
 11
303.5188577243191
 21
250.4999999303275
 31
0.0
  0
LINE
  5
1C3E
330
18
100
AcDbEntity
  8
TRATTEGGI
100
AcDbLine
 10
351.4115977243187
 20
275.4999999303277
 30
0.0
 11
303.5188577243193
 21
275.4999999303277
 31
0.0
  0
LINE
  5
1C3F
330
18
100
AcDbEntity
  8
BASE
  6
DASHED
 62
     8
100
AcDbLine
 10
351.4115977243187
 20
297.9999999303277
 30
0.0
 11
357.4115977243187
 21
297.9999999303277
 31
0.0
  0
ARC
  5
1C40
330
18
100
AcDbEntity
  8
BASE
100
AcDbCircle
 10
346.6115977243203
 20
316.9999999303277
 30
0.0
 40
2.0
100
AcDbArc
 50
0.000000000000007
 51
90.0
  0
LINE
  5
1C41
330
18
100
AcDbEntity
  8
BASE
  6
DASHED
 62
     8
100
AcDbLine
 10
255.4115977243223
 20
297.9999999303277
 30
0.0
 11
255.4115977243168
 21
227.9999999303275
 31
0.0
  0
LINE
  5
1C42
330
18
100
AcDbEntity
  8
BASE
100
AcDbLine
 10
258.2115977243225
 20
318.9999999303277
 30
0.0
 11
258.2115977242879
 21
223.999999930322
 31
0.0
  0
LINE
  5
1C43
330
18
100
AcDbEntity
  8
BASE
100
AcDbLine
 10
268.2115977243197
 20
199.4999999303274
 30
0.0
 11
268.2115977243225
 21
318.9999999303277
 31
0.0
  0
LINE
  5
1C44
330
18
100
AcDbEntity
  8
BASE
100
AcDbLine
 10
249.4115977243223
 20
210.9999999303275
 30
0.0
 11
249.4115977243223
 21
318.9999999303277
 31
0.0
  0
LINE
  5
1C45
330
18
100
AcDbEntity
  8
BASE
100
AcDbLine
 10
218.6115977243203
 20
199.4999999303274
 30
0.0
 11
243.6261177243186
 21
199.4999999303274
 31
0.0
  0
LINE
  5
1C46
330
18
100
AcDbEntity
  8
BASE
100
AcDbLine
 10
243.2115977243197
 20
208.9999999303275
 30
0.0
 11
229.4105977243203
 21
208.9999999303275
 31
0.0
  0
ARC
  5
1C47
330
18
100
AcDbEntity
  8
BASE
100
AcDbCircle
 10
243.2115977243197
 20
223.9999999303275
 30
0.0
 40
15.00000000000001
100
AcDbArc
 50
269.9999999999995
 51
359.9999999999791
  0
LINE
  5
1C48
330
18
100
AcDbEntity
  8
BASE
  6
DASHED
 62
     8
100
AcDbLine
 10
255.4115977243223
 20
227.9999999303275
 30
0.0
 11
249.4115977243223
 21
227.9999999303275
 31
0.0
  0
ARC
  5
1C49
330
18
100
AcDbEntity
  8
BASE
100
AcDbCircle
 10
210.2115977243197
 20
206.9999999303275
 30
0.0
 40
2.0
100
AcDbArc
 50
90.0
 51
180.0
  0
LINE
  5
1C54
330
18
100
AcDbEntity
  8
BASE
100
AcDbLine
 10
227.0125977243201
 20
208.9999999303275
 30
0.0
 11
210.2115977243197
 21
208.9999999303275
 31
0.0
  0
LINE
  5
1C5B
330
18
100
AcDbEntity
  8
BASE
100
AcDbLine
 10
229.2105977243195
 20
208.7999999303276
 30
0.0
 11
227.21259772432
 21
208.7999999303276
 31
0.0
  0
LINE
  5
1C5C
330
18
100
AcDbEntity
  8
BASE
100
AcDbLine
 10
227.21259772432
 20
208.7999999303276
 30
0.0
 11
227.0125977243201
 21
208.9999999303275
 31
0.0
  0
LINE
  5
1C5D
330
18
100
AcDbEntity
  8
BASE
100
AcDbLine
 10
229.4105977243203
 20
208.9999999303275
 30
0.0
 11
229.2105977243195
 21
208.7999999303276
 31
0.0
  0
ARC
  5
1C5E
330
18
100
AcDbEntity
  8
BASE
100
AcDbCircle
 10
218.6115977243212
 20
199.099999930326
 30
0.0
 40
0.4000000000017394
100
AcDbArc
 50
90.00000000023614
 51
179.9999999997394
  0
LINE
  5
1C5F
330
18
100
AcDbEntity
  8
BASE
100
AcDbLine
 10
208.2115977243197
 20
206.9999999303275
 30
0.0
 11
208.2115977243197
 21
198.9999999303275
 31
0.0
  0
LINE
  5
1C61
330
18
100
AcDbEntity
  8
BASE
  6
DASHED
 62
     8
100
AcDbLine
 10
255.4115977243223
 20
297.9999999303277
 30
0.0
 11
249.4115977243223
 21
297.9999999303277
 31
0.0
  0
ARC
  5
1C62
330
18
100
AcDbEntity
  8
BASE
100
AcDbCircle
 10
260.2115977243197
 20
316.9999999303277
 30
0.0
 40
2.0
100
AcDbArc
 50
90.0
 51
180.0
  0
LINE
  5
1C63
330
18
100
AcDbEntity
  8
BASE
100
AcDbLine
 10
268.4115977243205
 20
318.9999999303277
 30
0.0
 11
260.2115977243197
 21
318.9999999303277
 31
0.0
  0
LINE
  5
242F
330
18
100
AcDbEntity
  8
DISEGNO
100
AcDbLine
 10
243.7343777243191
 20
183.0000000000004
 30
0.0
 11
363.7353777243193
 21
183.0
 31
0.0
  0
LINE
  5
2C7D
330
18
100
AcDbEntity
  8
ASSI
100
AcDbLine
 10
303.6266177243192
 20
-5.376123523305068
 30
0.0
 11
303.6266177243192
 21
334.3530343314196
 31
0.0
  0
LINE
  5
2C7E
330
18
100
AcDbEntity
  8
TRATTEGGI
 62
     8
100
AcDbLine
 10
-472.2726354533761
 20
-268.7278469557917
 30
0.0
 11
-472.2726354533761
 21
-316.7278469557953
 31
0.0
  0
LINE
  5
2C7F
330
18
100
AcDbEntity
  8
TRATTEGGI
 62
     8
100
AcDbLine
 10
-440.272635453376
 20
-268.7278469557938
 30
0.0
 11
-440.272635453376
 21
-316.7278469557953
 31
0.0
  0
LINE
  5
2C9F
330
18
100
AcDbEntity
  8
COMPONENTI
100
AcDbLine
 10
-961.3647169421014
 20
-241.2278469557953
 30
0.0
 11
-841.2726354533761
 21
-241.2278469557953
 31
0.0
  0
LINE
  5
2CA0
330
18
100
AcDbEntity
  8
COMPONENTI
100
AcDbLine
 10
-961.3647169421014
 20
-241.2278469557953
 30
0.0
 11
-961.3647169421014
 21
-256.7278469557952
 31
0.0
  0
LINE
  5
2CA1
330
18
100
AcDbEntity
  8
COMPONENTI
100
AcDbLine
 10
-961.3647169421014
 20
-392.2278469557952
 30
0.0
 11
-841.2726354533761
 21
-392.2278469557952
 31
0.0
  0
LINE
  5
2CA2
330
18
100
AcDbEntity
  8
COMPONENTI
100
AcDbLine
 10
-961.3647169421014
 20
-392.2278469557952
 30
0.0
 11
-961.3647169421014
 21
-376.7278469557953
 31
0.0
  0
LINE
  5
2CA3
330
18
100
AcDbEntity
  8
COMPONENTI
100
AcDbLine
 10
-858.0226291568843
 20
145.0000000000003
 30
0.0
 11
-961.5443780491988
 21
144.9999999999978
 31
0.0
  0
LINE
  5
2CA4
330
18
100
AcDbEntity
  8
COMPONENTI
100
AcDbLine
 10
-841.2726354533761
 20
125.0000000000002
 30
0.0
 11
-961.5443780491997
 21
124.9999999999978
 31
0.0
  0
LINE
  5
2CA5
330
18
100
AcDbEntity
  8
COMPONENTI
100
AcDbLine
 10
-841.2726354533752
 20
145.0000000000003
 30
0.0
 11
-858.0226291568843
 21
145.0000000000003
 31
0.0
  0
LINE
  5
2CA6
330
18
100
AcDbEntity
  8
COMPONENTI
100
AcDbLine
 10
-961.5443780491988
 20
145.0000000000003
 30
0.0
 11
-961.5443780491997
 21
125.0000000000003
 31
0.0
  0
LINE
  5
2CA7
330
18
100
AcDbEntity
  8
COMPONENTI
100
AcDbLine
 10
-961.372635453376
 20
-341.7278469557953
 30
0.0
 11
-841.2726354533761
 21
-341.7278469557953
 31
0.0
  0
LINE
  5
2CA8
330
18
100
AcDbEntity
  8
COMPONENTI
100
AcDbLine
 10
-961.372635453376
 20
-291.7278469557953
 30
0.0
 11
-841.2726354533761
 21
-291.7278469557953
 31
0.0
  0
LINE
  5
2D35
330
18
100
AcDbEntity
  8
ASSI
100
AcDbLine
 10
-710.7726354533744
 20
-247.7659591979191
 30
0.0
 11
-710.7726354533744
 21
-224.9641138110028
 31
0.0
  0
LINE
  5
3407
330
18
100
AcDbEntity
  8
ASSI
100
AcDbLine
 10
372.7189752728332
 20
-14.99999993033523
 30
0.0
 11
232.978969786096
 21
-14.99999993033523
 31
0.0
  0
LINE
  5
3408
330
18
100
AcDbEntity
  8
ASSI
100
AcDbLine
 10
372.9410375187736
 20
35.00000006966477
 30
0.0
 11
234.7150752897637
 21
35.00000006966477
 31
0.0
  0
ARC
  5
3409
330
18
100
AcDbEntity
  8
DISEGNO
100
AcDbCircle
 10
278.5188577243193
 20
163.780000069665
 30
0.0
 40
15.0
100
AcDbArc
 50
227.2680000000041
 51
312.7319999999958
  0
ARC
  5
340A
330
18
100
AcDbEntity
  8
DISEGNO
100
AcDbCircle
 10
278.5188577243193
 20
135.0000000696647
 30
0.0
 40
8.75
100
AcDbArc
 50
301.5409999999996
 51
326.4590000000046
  0
LINE
  5
340B
330
18
100
AcDbEntity
  8
DISEGNO
100
AcDbLine
 10
283.2488577243189
 20
142.6600000696651
 30
0.0
 11
283.54885772432
 21
143.3300000696647
 31
0.0
  0
ARC
  5
340C
330
18
100
AcDbEntity
  8
DISEGNO
100
AcDbCircle
 10
283.2688577243193
 20
143.4600000696648
 30
0.0
 40
0.3
100
AcDbArc
 50
335.9999999999971
 51
60.67599999999906
  0
ARC
  5
340D
330
18
100
AcDbEntity
  8
DISEGNO
100
AcDbCircle
 10
278.5188577243193
 20
135.0000000696647
 30
0.0
 40
8.75
100
AcDbArc
 50
30.54099999999755
 51
56.45900000000031
  0
ARC
  5
340E
330
18
100
AcDbEntity
  8
DISEGNO
100
AcDbCircle
 10
278.5188577243193
 20
135.0000000696647
 30
0.0
 40
13.5
100
AcDbArc
 50
270.0
 51
0.0
  0
ARC
  5
340F
330
18
100
AcDbEntity
  8
DISEGNO
100
AcDbCircle
 10
278.5188577243193
 20
-14.99999993033523
 30
0.0
 40
8.75
100
AcDbArc
 50
303.5409999999997
 51
329.4590000000024
  0
ARC
  5
3410
330
18
100
AcDbEntity
  8
DISEGNO
100
AcDbCircle
 10
283.2688577243193
 20
-23.45999993033527
 30
0.0
 40
0.3
100
AcDbArc
 50
299.324000000001
 51
24.00000000000284
  0
LINE
  5
3411
330
18
100
AcDbEntity
  8
DISEGNO
100
AcDbLine
 10
283.2488577243189
 20
-22.65999993033554
 30
0.0
 11
283.54885772432
 21
-23.32999993033516
 31
0.0
  0
ARC
  5
3412
330
18
100
AcDbEntity
  8
DISEGNO
100
AcDbCircle
 10
278.5188577243193
 20
-14.99999993033523
 30
0.0
 40
8.75
100
AcDbArc
 50
33.54099999999539
 51
58.45900000000043
  0
ARC
  5
3413
330
18
100
AcDbEntity
  8
DISEGNO
100
AcDbCircle
 10
278.5188577243193
 20
-14.99999993033523
 30
0.0
 40
13.5
100
AcDbArc
 50
0.0
 51
90.0
  0
LINE
  5
3414
330
18
100
AcDbEntity
  8
DISEGNO
100
AcDbLine
 10
272.0188577243193
 20
99.25000006966477
 30
0.0
 11
335.0188577243193
 21
99.25000006966477
 31
0.0
  0
LINE
  5
3415
330
18
100
AcDbEntity
  8
DISEGNO
100
AcDbLine
 10
255.0188577243194
 20
102.7500000696647
 30
0.0
 11
352.021857724319
 21
102.7500000696647
 31
0.0
  0
LINE
  5
3416
330
18
100
AcDbEntity
  8
DISEGNO
100
AcDbLine
 10
272.0188577243193
 20
20.75000006966476
 30
0.0
 11
335.0188577243193
 21
20.75000006966476
 31
0.0
  0
LINE
  5
3417
330
18
100
AcDbEntity
  8
DISEGNO
100
AcDbLine
 10
255.0188577243194
 20
17.25000006966476
 30
0.0
 11
352.021857724319
 21
17.25000006966476
 31
0.0
  0
ARC
  5
3418
330
18
100
AcDbEntity
  8
DISEGNO
100
AcDbCircle
 10
278.5188577243193
 20
-43.77999993033543
 30
0.0
 40
15.0
100
AcDbArc
 50
47.26800000000416
 51
132.7319999999958
  0
LINE
  5
341A
330
18
100
AcDbEntity
  8
DISEGNO
100
AcDbLine
 10
282.0178577243191
 20
170.0000000000002
 30
0.0
 11
325.0188577243193
 21
170.0
 31
0.0
  0
LINE
  5
341B
330
18
100
AcDbEntity
  8
DISEGNO
100
AcDbLine
 10
269.7688577243193
 20
180.2000000000002
 30
0.0
 11
337.2688577243193
 21
180.1999999999998
 31
0.0
  0
LINE
  5
3447
330
18
100
AcDbEntity
  8
ASSI
100
AcDbLine
 10
278.5188577243193
 20
-62.08584005549235
 30
0.0
 11
278.5188577243193
 21
172.2511191691492
 31
0.0
  0
LINE
  5
3448
330
18
100
AcDbEntity
  8
DISEGNO
100
AcDbLine
 10
249.5188577243193
 20
41.25000006966476
 30
0.0
 11
249.5188577243193
 21
45.25000006966476
 31
0.0
  0
LINE
  5
3449
330
18
100
AcDbEntity
  8
DISEGNO
100
AcDbLine
 10
243.5188577243193
 20
41.25000006966476
 30
0.0
 11
243.5188577243193
 21
78.75000006966454
 31
0.0
  0
LINE
  5
344A
330
18
100
AcDbEntity
  8
DISEGNO
100
AcDbLine
 10
260.5188577243193
 20
25.75000006966476
 30
0.0
 11
260.5188577243193
 21
44.25000006966476
 31
0.0
  0
LINE
  5
344B
330
18
100
AcDbEntity
  8
DISEGNO
100
AcDbLine
 10
268.0188577243193
 20
24.75000006966477
 30
0.0
 11
268.0188577243193
 21
52.7800000696645
 31
0.0
  0
LINE
  5
3450
330
18
100
AcDbEntity
  8
DISEGNO
100
AcDbLine
 10
262.6607278810666
 20
-33.68812977358883
 30
0.0
 11
267.0833526609317
 21
-29.26550499372368
 31
0.0
  0
ARC
  5
3451
330
18
100
AcDbEntity
  8
DISEGNO
100
AcDbCircle
 10
250.7688577243193
 20
-32.74999993033524
 30
0.0
 40
2.0
100
AcDbArc
 50
51.76799999999945
 51
218.2321999999992
  0
LINE
  5
3452
330
18
100
AcDbEntity
  8
DISEGNO
100
AcDbLine
 10
243.5188577243193
 20
-48.49999993033524
 30
0.0
 11
243.5188577243193
 21
-21.24999993033524
 31
0.0
  0
ARC
  5
3453
330
18
100
AcDbEntity
  8
DISEGNO
100
AcDbCircle
 10
255.7688577243193
 20
-37.74999993033524
 30
0.0
 40
7.0
100
AcDbArc
 50
246.8630000000015
 51
293.1369999999982
  0
LINE
  5
3454
330
18
100
AcDbEntity
  8
DISEGNO
100
AcDbLine
 10
245.0188577243193
 20
-49.99999993033523
 30
0.0
 11
272.2688577243193
 21
-49.99999993033523
 31
0.0
  0
ARC
  5
3455
330
18
100
AcDbEntity
  8
DISEGNO
100
AcDbCircle
 10
255.7688577243193
 20
-37.74999993033524
 30
0.0
 40
7.0
100
AcDbArc
 50
156.8630000000001
 51
203.1370999999985
  0
ARC
  5
3456
330
18
100
AcDbEntity
  8
DISEGNO
100
AcDbCircle
 10
248.418857724319
 20
-40.88999993033556
 30
0.0
 40
1.0
100
AcDbArc
 50
321.7680000000026
 51
23.13699999999991
  0
ARC
  5
3457
330
18
100
AcDbEntity
  8
DISEGNO
100
AcDbCircle
 10
250.7688577243193
 20
-42.74999993033524
 30
0.0
 40
2.0
100
AcDbArc
 50
141.7680000000026
 51
308.2320000000005
  0
ARC
  5
3458
330
18
100
AcDbEntity
  8
DISEGNO
100
AcDbCircle
 10
248.418857724319
 20
-34.5999999303356
 30
0.0
 40
1.0
100
AcDbArc
 50
336.863
 51
38.23199999999735
  0
ARC
  5
3459
330
18
100
AcDbEntity
  8
DISEGNO
100
AcDbCircle
 10
245.0188577243193
 20
-48.49999993033524
 30
0.0
 40
1.5
100
AcDbArc
 50
180.0000000048332
 51
270.0
  0
ARC
  5
345A
330
18
100
AcDbEntity
  8
DISEGNO
100
AcDbCircle
 10
252.6288577243199
 20
-45.09999993033559
 30
0.0
 40
1.0
100
AcDbArc
 50
66.86300000000148
 51
128.2320000000005
  0
ARC
  5
345B
330
18
100
AcDbEntity
  8
DISEGNO
100
AcDbCircle
 10
255.7688577243193
 20
-37.74999993033524
 30
0.0
 40
7.0
100
AcDbArc
 50
336.863
 51
20.67603384999768
  0
ARC
  5
345C
330
18
100
AcDbEntity
  8
DISEGNO
100
AcDbCircle
 10
263.1288577243199
 20
-40.88999993033556
 30
0.0
 40
1.0
100
AcDbArc
 50
156.8630000000001
 51
218.2321999999992
  0
ARC
  5
345D
330
18
100
AcDbEntity
  8
DISEGNO
100
AcDbCircle
 10
258.918857724319
 20
-45.09999993033559
 30
0.0
 40
1.0
100
AcDbArc
 50
51.76799999999945
 51
113.1369999999985
  0
ARC
  5
345E
330
18
100
AcDbEntity
  8
DISEGNO
100
AcDbCircle
 10
260.7688577243193
 20
-42.74999993033524
 30
0.0
 40
2.0
100
AcDbArc
 50
231.7679999999995
 51
38.23199999999735
  0
ARC
  5
345F
330
18
100
AcDbEntity
  8
DISEGNO
100
AcDbCircle
 10
263.7213880528457
 20
-34.74878994536837
 30
0.0
 40
1.5
100
AcDbArc
 50
135.0000000000023
 51
200.6760338499977
  0
LINE
  5
3460
330
18
100
AcDbEntity
  8
DISEGNO
100
AcDbLine
 10
268.0188577243193
 20
-33.49999993033524
 30
0.0
 11
268.0188577243193
 21
-42.99999993033523
 31
0.0
  0
LINE
  5
3461
330
18
100
AcDbEntity
  8
DISEGNO
100
AcDbLine
 10
272.2688577243193
 20
-49.99999993033523
 30
0.0
 11
272.2688577243193
 21
-42.99999993033523
 31
0.0
  0
LINE
  5
3462
330
18
100
AcDbEntity
  8
DISEGNO
100
AcDbLine
 10
268.0188577243193
 20
-42.99999993033523
 30
0.0
 11
272.2688577243193
 21
-42.99999993033523
 31
0.0
  0
ARC
  5
3463
330
18
100
AcDbEntity
  8
DISEGNO
100
AcDbCircle
 10
269.0188577243193
 20
-33.49999993033524
 30
0.0
 40
1.0
100
AcDbArc
 50
132.7319999999958
 51
180.0
  0
ARC
  5
3464
330
18
100
AcDbEntity
  8
DISEGNO
100
AcDbCircle
 10
255.0188577243194
 20
13.25000006966476
 30
0.0
 40
4.0
100
AcDbArc
 50
90.0
 51
180.0
  0
LINE
  5
3465
330
18
100
AcDbEntity
  8
DISEGNO
100
AcDbLine
 10
249.5188577243193
 20
24.75000006966477
 30
0.0
 11
259.5188577243193
 21
24.75000006966477
 31
0.0
  0
LINE
  5
3466
330
18
100
AcDbEntity
  8
DISEGNO
100
AcDbLine
 10
260.7211303448817
 20
-4.499999930335235
 30
0.0
 11
250.5188577243193
 21
-4.499999930335235
 31
0.0
  0
ARC
  5
3467
330
18
100
AcDbEntity
  8
DISEGNO
100
AcDbCircle
 10
255.0188577243194
 20
7.000000069664764
 30
0.0
 40
4.0
100
AcDbArc
 50
180.0
 51
270.0
  0
ARC
  5
3468
330
18
100
AcDbEntity
  8
DISEGNO
100
AcDbCircle
 10
255.7688577243193
 20
-37.74999993033524
 30
0.0
 40
7.0
100
AcDbArc
 50
69.32396615000165
 51
113.1369999999985
  0
LINE
  5
3469
330
18
100
AcDbEntity
  8
DISEGNO
100
AcDbLine
 10
260.7211303448817
 20
-25.49999993033523
 30
0.0
 11
250.5188577243193
 21
-25.49999993033523
 31
0.0
  0
LINE
  5
346A
330
18
100
AcDbEntity
  8
DISEGNO
100
AcDbLine
 10
249.5188577243193
 20
41.25000006966476
 30
0.0
 11
243.5188577243193
 21
41.25000006966476
 31
0.0
  0
LINE
  5
346B
330
18
100
AcDbEntity
  8
DISEGNO
100
AcDbLine
 10
251.0188577243193
 20
13.25000006966476
 30
0.0
 11
251.0188577243193
 21
7.000000069664764
 31
0.0
  0
LINE
  5
346C
330
18
100
AcDbEntity
  8
DISEGNO
100
AcDbLine
 10
243.5188577243193
 20
28.75000006966477
 30
0.0
 11
249.5188577243193
 21
28.75000006966477
 31
0.0
  0
LINE
  5
346D
330
18
100
AcDbEntity
  8
DISEGNO
100
AcDbLine
 10
249.5188577243193
 20
24.75000006966477
 30
0.0
 11
249.5188577243193
 21
28.75000006966477
 31
0.0
  0
LINE
  5
346E
330
18
100
AcDbEntity
  8
DISEGNO
100
AcDbLine
 10
250.5188577243193
 20
-21.24999993033524
 30
0.0
 11
243.5188577243193
 21
-21.24999993033524
 31
0.0
  0
LINE
  5
346F
330
18
100
AcDbEntity
  8
DISEGNO
100
AcDbLine
 10
243.5188577243193
 20
-8.749999930335235
 30
0.0
 11
250.5188577243193
 21
-8.749999930335235
 31
0.0
  0
LINE
  5
3470
330
18
100
AcDbEntity
  8
DISEGNO
100
AcDbLine
 10
250.5188577243193
 20
-4.499999930335235
 30
0.0
 11
250.5188577243221
 21
-8.749999930335235
 31
0.0
  0
LINE
  5
3471
330
18
100
AcDbEntity
  8
DISEGNO
100
AcDbLine
 10
243.5188577243193
 20
-8.749999930335235
 30
0.0
 11
243.5188577243193
 21
28.75000006966477
 31
0.0
  0
ARC
  5
3472
330
18
100
AcDbEntity
  8
DISEGNO
100
AcDbCircle
 10
252.6288577243199
 20
-30.38999993033556
 30
0.0
 40
1.0
100
AcDbArc
 50
231.7679999999995
 51
293.1369999999982
  0
LINE
  5
3473
330
18
100
AcDbEntity
  8
DISEGNO
100
AcDbLine
 10
250.5188577243221
 20
-21.24999993033524
 30
0.0
 11
250.5188577243193
 21
-25.49999993033523
 31
0.0
  0
ARC
  5
3474
330
18
100
AcDbEntity
  8
DISEGNO
100
AcDbCircle
 10
273.918857724319
 20
-22.7899999303352
 30
0.0
 40
0.3
100
AcDbArc
 50
339.0000000000024
 51
59.45899999999753
  0
LINE
  5
3475
330
18
100
AcDbEntity
  8
DISEGNO
100
AcDbLine
 10
273.9388577243194
 20
-23.57999993033516
 30
0.0
 11
274.1988577243196
 21
-22.89999993033533
 31
0.0
  0
ARC
  5
3476
330
18
100
AcDbEntity
  8
DISEGNO
100
AcDbCircle
 10
274.2188577243201
 20
-23.68999993033529
 30
0.0
 40
0.3
100
AcDbArc
 50
159.0000000000024
 51
243.6762000000036
  0
ARC
  5
3477
330
18
100
AcDbEntity
  8
DISEGNO
100
AcDbCircle
 10
275.8988577243195
 20
-24.33999993033538
 30
0.0
 40
0.3
100
AcDbArc
 50
254.3237999999976
 51
339.0000000000024
  0
LINE
  5
3478
330
18
100
AcDbEntity
  8
DISEGNO
100
AcDbLine
 10
276.1788577243192
 20
-24.43999993033529
 30
0.0
 11
276.4388577243194
 21
-23.75999993033545
 31
0.0
  0
ARC
  5
3479
330
18
100
AcDbEntity
  8
DISEGNO
100
AcDbCircle
 10
276.7188577243201
 20
-23.86999993033558
 30
0.0
 40
0.3
100
AcDbArc
 50
78.54100000000038
 51
159.0000000000024
  0
ARC
  5
347A
330
18
100
AcDbEntity
  8
DISEGNO
100
AcDbCircle
 10
278.5188577243193
 20
-14.99999993033523
 30
0.0
 40
8.75
100
AcDbArc
 50
258.5405999999977
 51
284.4589999999982
  0
ARC
  5
347B
330
18
100
AcDbEntity
  8
DISEGNO
100
AcDbCircle
 10
280.7788577243195
 20
-23.75999993033545
 30
0.0
 40
0.3
100
AcDbArc
 50
24.00000000000284
 51
104.4589999999982
  0
LINE
  5
347C
330
18
100
AcDbEntity
  8
DISEGNO
100
AcDbLine
 10
281.0588577243202
 20
-23.63999993033556
 30
0.0
 11
281.3588577243195
 21
-24.30999993033518
 31
0.0
  0
ARC
  5
347D
330
18
100
AcDbEntity
  8
DISEGNO
100
AcDbCircle
 10
281.6288577243199
 20
-24.18999993033529
 30
0.0
 40
0.3
100
AcDbArc
 50
204.0000000000028
 51
288.6759999999995
  0
ARC
  5
347E
330
18
100
AcDbEntity
  8
DISEGNO
100
AcDbCircle
 10
278.5188577243193
 20
-14.99999993033523
 30
0.0
 40
10.0
100
AcDbArc
 50
288.6759999999995
 51
299.324000000001
  0
ARC
  5
347F
330
18
100
AcDbEntity
  8
DISEGNO
100
AcDbCircle
 10
283.5188577243193
 20
-22.5399999303352
 30
0.0
 40
0.3
100
AcDbArc
 50
123.5409999999997
 51
204.0000000000028
  0
ARC
  5
3480
330
18
100
AcDbEntity
  8
DISEGNO
100
AcDbCircle
 10
278.5188577243193
 20
-14.99999993033523
 30
0.0
 40
10.0
100
AcDbArc
 50
243.6762000000036
 51
254.3237999999976
  0
ARC
  5
3481
330
18
100
AcDbEntity
  8
DISEGNO
100
AcDbCircle
 10
278.5188577243193
 20
-14.99999993033523
 30
0.0
 40
10.0
100
AcDbArc
 50
107.6759999999968
 51
118.3239999999972
  0
ARC
  5
3482
330
18
100
AcDbEntity
  8
DISEGNO
100
AcDbCircle
 10
273.918857724319
 20
-6.459999930335271
 30
0.0
 40
0.3
100
AcDbArc
 50
118.3239999999972
 51
202.9999999999992
  0
LINE
  5
3483
330
18
100
AcDbEntity
  8
DISEGNO
100
AcDbLine
 10
273.9288577243192
 20
-7.249999930335235
 30
0.0
 11
273.6388577243201
 21
-6.579999930335162
 31
0.0
  0
ARC
  5
3484
330
18
100
AcDbEntity
  8
DISEGNO
100
AcDbCircle
 10
273.6488577243195
 20
-7.36999993033558
 30
0.0
 40
0.3
100
AcDbArc
 50
302.5409999999971
 51
22.99999999999926
  0
ARC
  5
3485
330
18
100
AcDbEntity
  8
DISEGNO
100
AcDbCircle
 10
283.2588577243191
 20
-7.289999930335198
 30
0.0
 40
0.3
100
AcDbArc
 50
158.0000000000045
 51
238.4593999999972
  0
LINE
  5
3486
330
18
100
AcDbEntity
  8
DISEGNO
100
AcDbLine
 10
282.9788577243194
 20
-7.169999930335308
 30
0.0
 11
283.2488577243189
 21
-6.489999930335471
 31
0.0
  0
ARC
  5
3487
330
18
100
AcDbEntity
  8
DISEGNO
100
AcDbCircle
 10
282.9788577243194
 20
-6.379999930335344
 30
0.0
 40
0.3
100
AcDbArc
 50
338.0000000000046
 51
62.67600000000283
  0
ARC
  5
3488
330
18
100
AcDbEntity
  8
DISEGNO
100
AcDbCircle
 10
278.5188577243193
 20
-14.99999993033523
 30
0.0
 40
10.0
100
AcDbArc
 50
62.67600000000283
 51
73.32400000000129
  0
ARC
  5
3489
330
18
100
AcDbEntity
  8
DISEGNO
100
AcDbCircle
 10
281.3088577243202
 20
-5.709999930335271
 30
0.0
 40
0.3
100
AcDbArc
 50
73.32400000000129
 51
158.0000000000045
  0
LINE
  5
348A
330
18
100
AcDbEntity
  8
DISEGNO
100
AcDbLine
 10
280.7488577243189
 20
-6.269999930335217
 30
0.0
 11
281.0288577243195
 21
-5.58999993033538
 31
0.0
  0
ARC
  5
348B
330
18
100
AcDbEntity
  8
DISEGNO
100
AcDbCircle
 10
280.4788577243193
 20
-6.159999930335544
 30
0.0
 40
0.3
100
AcDbArc
 50
257.5405999999975
 51
338.0000000000046
  0
ARC
  5
348C
330
18
100
AcDbEntity
  8
DISEGNO
100
AcDbCircle
 10
278.5188577243193
 20
-14.99999993033523
 30
0.0
 40
8.75
100
AcDbArc
 50
77.54099999999768
 51
103.4589999999985
  0
ARC
  5
348D
330
18
100
AcDbEntity
  8
DISEGNO
100
AcDbCircle
 10
276.418857724319
 20
-6.199999930335508
 30
0.0
 40
0.3
100
AcDbArc
 50
202.9999999999992
 51
283.4589999999985
  0
LINE
  5
348E
330
18
100
AcDbEntity
  8
DISEGNO
100
AcDbLine
 10
276.1388577243201
 20
-6.30999993033518
 30
0.0
 11
275.8488577243193
 21
-5.639999930335562
 31
0.0
  0
ARC
  5
348F
330
18
100
AcDbEntity
  8
DISEGNO
100
AcDbCircle
 10
275.5788577243188
 20
-5.759999930335453
 30
0.0
 40
0.3
100
AcDbArc
 50
22.99999999999926
 51
107.6759999999968
  0
ARC
  5
3490
330
18
100
AcDbEntity
  8
DISEGNO
100
AcDbCircle
 10
272.0188577243193
 20
24.75000006966477
 30
0.0
 40
4.0
100
AcDbArc
 50
180.0000000048462
 51
270.0
  0
ARC
  5
3491
330
18
100
AcDbEntity
  8
DISEGNO
100
AcDbCircle
 10
259.5188577243193
 20
25.75000006966476
 30
0.0
 40
1.0
100
AcDbArc
 50
270.0
 51
0.0
  0
ARC
  5
3492
330
18
100
AcDbEntity
  8
DISEGNO
100
AcDbCircle
 10
236.5188577243193
 20
-14.99999993033523
 30
0.0
 40
27.0
100
AcDbArc
 50
338.5687454961772
 51
21.43125450382285
  0
ARC
  5
3493
330
18
100
AcDbEntity
  8
DISEGNO
100
AcDbCircle
 10
278.5188577243193
 20
-14.99999993033523
 30
0.0
 40
8.75
100
AcDbArc
 50
167.5409999999977
 51
193.4594000000031
  0
ARC
  5
3494
330
18
100
AcDbEntity
  8
DISEGNO
100
AcDbCircle
 10
278.5188577243193
 20
-14.99999993033523
 30
0.0
 40
10.0
100
AcDbArc
 50
197.6761999999972
 51
208.3238000000043
  0
LINE
  5
3495
330
18
100
AcDbEntity
  8
DISEGNO
100
AcDbLine
 10
270.0988577243192
 20
-19.87999993033534
 30
0.0
 11
270.7788577243196
 21
-19.58999993033538
 31
0.0
  0
ARC
  5
3496
330
18
100
AcDbEntity
  8
DISEGNO
100
AcDbCircle
 10
270.8888577243201
 20
-19.86999993033558
 30
0.0
 40
0.3
100
AcDbArc
 50
32.54099999999951
 51
113.0000000000002
  0
ARC
  5
3497
330
18
100
AcDbEntity
  8
DISEGNO
100
AcDbCircle
 10
269.71885772432
 20
-17.0999999303356
 30
0.0
 40
0.3
100
AcDbArc
 50
293.0000000000002
 51
13.45900000000542
  0
LINE
  5
3498
330
18
100
AcDbEntity
  8
DISEGNO
100
AcDbLine
 10
269.1588577243187
 20
-17.66999993033531
 30
0.0
 11
269.8388577243191
 21
-17.37999993033534
 31
0.0
  0
ARC
  5
3499
330
18
100
AcDbEntity
  8
DISEGNO
100
AcDbCircle
 10
269.2788577243196
 20
-17.93999993033529
 30
0.0
 40
0.3
100
AcDbArc
 50
113.0000000000002
 51
197.6761999999972
  0
ARC
  5
349A
330
18
100
AcDbEntity
  8
DISEGNO
100
AcDbCircle
 10
269.9788577243193
 20
-19.5999999303356
 30
0.0
 40
0.3
100
AcDbArc
 50
208.3238000000043
 51
293.0000000000002
  0
ARC
  5
349B
330
18
100
AcDbEntity
  8
DISEGNO
100
AcDbCircle
 10
268.635701694126
 20
0.5000000696647647
 30
0.0
 40
2.0
100
AcDbArc
 50
214.8499045790506
 51
270.0
  0
ARC
  5
349C
330
18
100
AcDbEntity
  8
DISEGNO
100
AcDbCircle
 10
260.7211303448817
 20
-5.499999930335235
 30
0.0
 40
1.0
100
AcDbArc
 50
21.43125450382285
 51
90.0
  0
LINE
  5
349D
330
18
100
AcDbEntity
  8
DISEGNO
100
AcDbLine
 10
260.0188577243193
 20
3.000000069664764
 30
0.0
 11
255.0188577243194
 21
3.000000069664764
 31
0.0
  0
ARC
  5
349E
330
18
100
AcDbEntity
  8
DISEGNO
100
AcDbCircle
 10
278.5188577243193
 20
-14.99999993033523
 30
0.0
 40
10.0
100
AcDbArc
 50
152.6759999999966
 51
163.3240000000022
  0
ARC
  5
349F
330
18
100
AcDbEntity
  8
DISEGNO
100
AcDbCircle
 10
269.2288577243194
 20
-12.20999993033527
 30
0.0
 40
0.3
100
AcDbArc
 50
163.3240000000022
 51
247.9999999999987
  0
LINE
  5
34A0
330
18
100
AcDbEntity
  8
DISEGNO
100
AcDbLine
 10
269.79885772432
 20
-12.76999993033522
 30
0.0
 11
269.1188577243197
 21
-12.48999993033547
 31
0.0
  0
ARC
  5
34A1
330
18
100
AcDbEntity
  8
DISEGNO
100
AcDbCircle
 10
269.6888577243194
 20
-13.04999993033542
 30
0.0
 40
0.3
100
AcDbArc
 50
347.5409999999977
 51
67.99999999999866
  0
ARC
  5
34A2
330
18
100
AcDbEntity
  8
DISEGNO
100
AcDbCircle
 10
270.8088577243202
 20
-10.25999993033545
 30
0.0
 40
0.3
100
AcDbArc
 50
247.9999999999987
 51
328.4589999999954
  0
LINE
  5
34A3
330
18
100
AcDbEntity
  8
DISEGNO
100
AcDbLine
 10
270.6988577243196
 20
-10.5399999303352
 30
0.0
 11
270.0188577243193
 21
-10.26999993033522
 31
0.0
  0
ARC
  5
34A4
330
18
100
AcDbEntity
  8
DISEGNO
100
AcDbCircle
 10
269.9088577243188
 20
-10.54999993033542
 30
0.0
 40
0.3
100
AcDbArc
 50
67.99999999999866
 51
152.6759999999966
  0
ARC
  5
34A5
330
18
100
AcDbEntity
  8
DISEGNO
100
AcDbCircle
 10
260.0188577243193
 20
-5.499999930335235
 30
0.0
 40
8.5
100
AcDbArc
 50
34.84990457905059
 51
90.0
  0
ARC
  5
34A6
330
18
100
AcDbEntity
  8
DISEGNO
100
AcDbCircle
 10
278.5188577243193
 20
-14.99999993033523
 30
0.0
 40
8.75
100
AcDbArc
 50
212.5405999999998
 51
239.459399999999
  0
ARC
  5
34A7
330
18
100
AcDbEntity
  8
DISEGNO
100
AcDbCircle
 10
278.5188577243193
 20
-14.99999993033523
 30
0.0
 40
8.75
100
AcDbArc
 50
122.5409999999971
 51
148.4589999999954
  0
LINE
  5
34A8
330
18
100
AcDbEntity
  8
DISEGNO
100
AcDbLine
 10
278.5188577243193
 20
-1.499999930335235
 30
0.0
 11
268.635701694126
 21
-1.499999930335235
 31
0.0
  0
LINE
  5
34A9
330
18
100
AcDbEntity
  8
DISEGNO
100
AcDbLine
 10
265.6675662233042
 20
-26.43550499372376
 30
0.0
 11
267.0833526609317
 21
-27.85129143135035
 31
0.0
  0
ARC
  5
34AA
330
18
100
AcDbEntity
  8
DISEGNO
100
AcDbCircle
 10
264.9604594421175
 20
-27.14261177491042
 30
0.0
 40
1.0
100
AcDbArc
 50
44.99999999999769
 51
135.0000000000023
  0
ARC
  5
34AB
330
18
100
AcDbEntity
  8
DISEGNO
100
AcDbCircle
 10
258.7700677092858
 20
-29.7974696018089
 30
0.0
 40
1.5
100
AcDbArc
 50
249.3239661500016
 51
314.9999999999925
  0
LINE
  5
34AC
330
18
100
AcDbEntity
  8
DISEGNO
100
AcDbLine
 10
259.8307278810667
 20
-30.85812977358845
 30
0.0
 11
264.2533526609318
 21
-26.43550499372376
 31
0.0
  0
ARC
  5
34AD
330
18
100
AcDbEntity
  8
DISEGNO
100
AcDbCircle
 10
266.376245879745
 20
-28.55839821253701
 30
0.0
 40
1.0
100
AcDbArc
 50
315.0000000000023
 51
44.99999999999769
  0
ARC
  5
34AE
330
18
100
AcDbEntity
  8
DISEGNO
100
AcDbCircle
 10
260.7211303448817
 20
-24.49999993033524
 30
0.0
 40
1.0
100
AcDbArc
 50
270.0
 51
338.5687454961772
  0
ARC
  5
3597
330
18
100
AcDbEntity
  8
DISEGNO
100
AcDbCircle
 10
255.0188577243194
 20
113.0000000696647
 30
0.0
 40
4.0
100
AcDbArc
 50
90.0
 51
180.0
  0
LINE
  5
3598
330
18
100
AcDbEntity
  8
DISEGNO
100
AcDbLine
 10
243.5188577243193
 20
128.7500000696647
 30
0.0
 11
243.5188577243189
 21
91.250000069665
 31
0.0
  0
ARC
  5
3599
330
18
100
AcDbEntity
  8
DISEGNO
100
AcDbCircle
 10
260.0188577243193
 20
125.5000000696647
 30
0.0
 40
8.5
100
AcDbArc
 50
270.0
 51
325.1500954209494
  0
ARC
  5
35A4
330
18
100
AcDbEntity
  8
DISEGNO
100
AcDbCircle
 10
255.0188577243194
 20
106.7500000696647
 30
0.0
 40
4.0
100
AcDbArc
 50
180.0
 51
270.0
  0
LINE
  5
35A5
330
18
100
AcDbEntity
  8
DISEGNO
100
AcDbLine
 10
249.5188577243193
 20
95.25000006966477
 30
0.0
 11
259.5188577243193
 21
95.25000006966477
 31
0.0
  0
LINE
  5
35A6
330
18
100
AcDbEntity
  8
DISEGNO
100
AcDbLine
 10
259.5188577243193
 20
74.75000006966476
 30
0.0
 11
249.5188577243193
 21
74.75000006966476
 31
0.0
  0
LINE
  5
35A7
330
18
100
AcDbEntity
  8
DISEGNO
100
AcDbLine
 10
259.5188577243193
 20
45.25000006966476
 30
0.0
 11
249.5188577243193
 21
45.25000006966476
 31
0.0
  0
ARC
  5
35A8
330
18
100
AcDbEntity
  8
DISEGNO
100
AcDbCircle
 10
258.5188577243193
 20
60.00000006966477
 30
0.0
 40
7.0
100
AcDbArc
 50
37.18006585821088
 51
322.8199341417891
  0
LINE
  5
35AF
330
18
100
AcDbEntity
  8
DISEGNO
100
AcDbLine
 10
249.5188577243193
 20
90.99989948447362
 30
0.0
 11
249.5188577243193
 21
93.99989948447339
 31
0.0
  0
LINE
  5
35B4
330
18
100
AcDbEntity
  8
DISEGNO
100
AcDbLine
 10
249.5188577243193
 20
78.99989948447362
 30
0.0
 11
249.5188577243193
 21
75.99989948447384
 31
0.0
  0
LINE
  5
35CA
330
18
100
AcDbEntity
  8
DISEGNO
100
AcDbLine
 10
243.5188577243193
 20
91.25000006966477
 30
0.0
 11
249.5188577243193
 21
91.25000006966477
 31
0.0
  0
LINE
  5
35CB
330
18
100
AcDbEntity
  8
DISEGNO
100
AcDbLine
 10
249.5188577243193
 20
95.25000006966477
 30
0.0
 11
249.5188577243193
 21
91.25000006966477
 31
0.0
  0
LINE
  5
35CC
330
18
100
AcDbEntity
  8
DISEGNO
100
AcDbLine
 10
251.0188577243193
 20
106.7500000696647
 30
0.0
 11
251.0188577243193
 21
113.0000000696647
 31
0.0
  0
LINE
  5
35CD
330
18
100
AcDbEntity
  8
DISEGNO
100
AcDbLine
 10
249.5188577243193
 20
78.75000006966477
 30
0.0
 11
243.5188577243193
 21
78.75000006966477
 31
0.0
  0
LINE
  5
35CE
330
18
100
AcDbEntity
  8
DISEGNO
100
AcDbLine
 10
249.5188577243193
 20
78.75000006966477
 30
0.0
 11
249.5188577243193
 21
74.75000006966476
 31
0.0
  0
ARC
  5
35D7
330
18
100
AcDbEntity
  8
DISEGNO
100
AcDbCircle
 10
272.0188577243193
 20
95.25000006966477
 30
0.0
 40
4.0
100
AcDbArc
 50
90.0
 51
179.9999999951537
  0
ARC
  5
35D8
330
18
100
AcDbEntity
  8
DISEGNO
100
AcDbCircle
 10
259.5188577243193
 20
94.25000006966476
 30
0.0
 40
1.0
100
AcDbArc
 50
0.0
 51
90.0
  0
LINE
  5
35D9
330
18
100
AcDbEntity
  8
DISEGNO
100
AcDbLine
 10
260.0188577243193
 20
117.0000000696648
 30
0.0
 11
255.0188577243194
 21
117.0000000696648
 31
0.0
  0
ARC
  5
35DA
330
18
100
AcDbEntity
  8
DISEGNO
100
AcDbCircle
 10
265.0188577243193
 20
67.22000006966502
 30
0.0
 40
3.0
100
AcDbArc
 50
299.9799999999996
 51
0.0
  0
ARC
  5
35DB
330
18
100
AcDbEntity
  8
DISEGNO
100
AcDbCircle
 10
264.8927794824308
 20
64.83457568924925
 30
0.0
 40
1.0
100
AcDbArc
 50
217.1800658582109
 51
300.0499136209863
  0
LINE
  5
35DC
330
18
100
AcDbEntity
  8
DISEGNO
100
AcDbLine
 10
266.5188577243193
 20
64.62000006966511
 30
0.0
 11
265.3935337367234
 21
63.96898619254327
 31
0.0
  0
ARC
  5
35DD
330
18
100
AcDbEntity
  8
DISEGNO
100
AcDbCircle
 10
259.5188577243193
 20
75.75000006966476
 30
0.0
 40
1.0
100
AcDbArc
 50
270.0
 51
0.0
  0
ARC
  5
35DE
330
18
100
AcDbEntity
  8
DISEGNO
100
AcDbCircle
 10
265.0188577243193
 20
52.7800000696645
 30
0.0
 40
3.0
100
AcDbArc
 50
0.0
 51
60.02000000000043
  0
ARC
  5
35DF
330
18
100
AcDbEntity
  8
DISEGNO
100
AcDbCircle
 10
259.5188577243193
 20
44.25000006966476
 30
0.0
 40
1.0
100
AcDbArc
 50
0.0
 51
90.0
  0
LINE
  5
35E0
330
18
100
AcDbEntity
  8
DISEGNO
100
AcDbLine
 10
266.5188577243193
 20
55.38000006966441
 30
0.0
 11
265.3935337367234
 21
56.03101394678626
 31
0.0
  0
ARC
  5
35E1
330
18
100
AcDbEntity
  8
DISEGNO
100
AcDbCircle
 10
264.8927794824308
 20
55.16542445008028
 30
0.0
 40
1.0
100
AcDbArc
 50
59.95008637901365
 51
142.8199341417891
  0
LINE
  5
35E2
330
18
100
AcDbEntity
  8
DISEGNO
100
AcDbLine
 10
260.5188577243193
 20
94.25000006966476
 30
0.0
 11
260.5188577243193
 21
75.75000006966476
 31
0.0
  0
LINE
  5
35E3
330
18
100
AcDbEntity
  8
DISEGNO
100
AcDbLine
 10
268.0188577243193
 20
95.25000006966477
 30
0.0
 11
268.0188577243193
 21
67.22000006966502
 31
0.0
  0
LINE
  5
35E4
330
18
100
AcDbEntity
  8
DISEGNO
100
AcDbLine
 10
253.6261177243191
 20
169.9997994844761
 30
0.0
 11
262.8761177243191
 21
169.9997994844761
 31
0.0
  0
ARC
  5
35E5
330
18
100
AcDbEntity
  8
DISEGNO
100
AcDbCircle
 10
255.7688577243193
 20
157.7500000696647
 30
0.0
 40
7.0
100
AcDbArc
 50
66.86300000000148
 51
113.1369999999985
  0
ARC
  5
35E6
330
18
100
AcDbEntity
  8
DISEGNO
100
AcDbCircle
 10
255.7688577243193
 20
157.7500000696647
 30
0.0
 40
7.0
100
AcDbArc
 50
246.8630000000015
 51
290.6760338499984
  0
LINE
  5
35E7
330
18
100
AcDbEntity
  8
DISEGNO
100
AcDbLine
 10
243.6261177243191
 20
170.0000000696647
 30
0.0
 11
272.2688577243193
 21
170.0000000696647
 31
0.0
  0
LINE
  5
35FB
330
18
100
AcDbEntity
  8
DISEGNO
100
AcDbLine
 10
250.5188577243207
 20
126.0001994844737
 30
0.0
 11
257.0188577243207
 21
126.0001994844735
 31
0.0
  0
LINE
  5
35FC
330
18
100
AcDbEntity
  8
DISEGNO
100
AcDbLine
 10
250.5188577243207
 20
144.0001994844733
 30
0.0
 11
257.0188577243207
 21
144.0001994844735
 31
0.0
  0
LINE
  5
35FD
330
18
100
AcDbEntity
  8
DISEGNO
100
AcDbLine
 10
260.7211303448817
 20
124.5000000696647
 30
0.0
 11
250.5188577243193
 21
124.5000000696647
 31
0.0
  0
LINE
  5
35FE
330
18
100
AcDbEntity
  8
DISEGNO
100
AcDbLine
 10
260.7211303448817
 20
145.5000000696647
 30
0.0
 11
250.5188577243193
 21
145.5000000696647
 31
0.0
  0
LINE
  5
3617
330
18
100
AcDbEntity
  8
DISEGNO
100
AcDbLine
 10
269.7688577243193
 20
174.4999999999993
 30
0.0
 11
249.1271177243193
 21
174.4999999999999
 31
0.0
  0
LINE
  5
3618
330
18
100
AcDbEntity
  8
DISEGNO
100
AcDbLine
 10
253.5178577243191
 20
170.0000000000002
 30
0.0
 11
275.0178577243191
 21
170.0000000000002
 31
0.0
  0
ARC
  5
3663
330
18
100
AcDbEntity
  8
DISEGNO
100
AcDbCircle
 10
250.7688577243193
 20
162.7500000696647
 30
0.0
 40
2.0
100
AcDbArc
 50
51.76799999999945
 51
218.2319999999973
  0
ARC
  5
3664
330
18
100
AcDbEntity
  8
DISEGNO
100
AcDbCircle
 10
248.418857724319
 20
160.8900000696651
 30
0.0
 40
1.0
100
AcDbArc
 50
336.863
 51
38.23199999999735
  0
ARC
  5
3665
330
18
100
AcDbEntity
  8
DISEGNO
100
AcDbCircle
 10
245.0188577243193
 20
168.5000000696647
 30
0.0
 40
1.5
100
AcDbArc
 50
90.0
 51
179.9999999951667
  0
ARC
  5
3666
330
18
100
AcDbEntity
  8
DISEGNO
100
AcDbCircle
 10
248.418857724319
 20
154.6000000696651
 30
0.0
 40
1.0
100
AcDbArc
 50
321.7680000000026
 51
23.13699999999991
  0
ARC
  5
3667
330
18
100
AcDbEntity
  8
DISEGNO
100
AcDbCircle
 10
250.7688577243193
 20
152.7500000696647
 30
0.0
 40
2.0
100
AcDbArc
 50
141.7678000000007
 51
308.2320000000005
  0
ARC
  5
3668
330
18
100
AcDbEntity
  8
DISEGNO
100
AcDbCircle
 10
255.7688577243193
 20
157.7500000696647
 30
0.0
 40
7.0
100
AcDbArc
 50
156.8629000000015
 51
203.1369999999999
  0
ARC
  5
3669
330
18
100
AcDbEntity
  8
DISEGNO
100
AcDbCircle
 10
252.6288577243199
 20
165.1000000696651
 30
0.0
 40
1.0
100
AcDbArc
 50
231.7679999999995
 51
293.1369999999982
  0
ARC
  5
366A
330
18
100
AcDbEntity
  8
DISEGNO
100
AcDbCircle
 10
252.6288577243199
 20
150.3900000696651
 30
0.0
 40
1.0
100
AcDbArc
 50
66.86300000000148
 51
128.2320000000005
  0
LINE
  5
366B
330
18
100
AcDbEntity
  8
DISEGNO
100
AcDbLine
 10
250.5188577243207
 20
129.0001994844735
 30
0.0
 11
250.5188577243207
 21
126.0001994844737
 31
0.0
  0
LINE
  5
366C
330
18
100
AcDbEntity
  8
DISEGNO
100
AcDbLine
 10
246.0188577243207
 20
129.0001994844735
 30
0.0
 11
250.5188577243207
 21
129.0001994844735
 31
0.0
  0
LINE
  5
366D
330
18
100
AcDbEntity
  8
DISEGNO
100
AcDbLine
 10
246.0188577243207
 20
135.0001994844735
 30
0.0
 11
246.0188577243207
 21
129.0001994844735
 31
0.0
  0
LINE
  5
366E
330
18
100
AcDbEntity
  8
DISEGNO
100
AcDbLine
 10
246.0188577243207
 20
135.0001994844735
 30
0.0
 11
246.0188577243207
 21
141.0001994844735
 31
0.0
  0
LINE
  5
366F
330
18
100
AcDbEntity
  8
DISEGNO
100
AcDbLine
 10
250.5188577243207
 20
141.0001994844735
 30
0.0
 11
250.5188577243207
 21
144.0001994844733
 31
0.0
  0
LINE
  5
3670
330
18
100
AcDbEntity
  8
DISEGNO
100
AcDbLine
 10
246.0188577243207
 20
141.0001994844735
 30
0.0
 11
250.5188577243207
 21
141.0001994844735
 31
0.0
  0
LINE
  5
3671
330
18
100
AcDbEntity
  8
DISEGNO
100
AcDbLine
 10
243.5188577243193
 20
128.7500000696647
 30
0.0
 11
250.5188577243193
 21
128.7500000696647
 31
0.0
  0
LINE
  5
3672
330
18
100
AcDbEntity
  8
DISEGNO
100
AcDbLine
 10
250.5188577243193
 20
141.2500000696647
 30
0.0
 11
243.5188577243193
 21
141.2500000696647
 31
0.0
  0
LINE
  5
3673
330
18
100
AcDbEntity
  8
DISEGNO
100
AcDbLine
 10
250.5188577243221
 20
141.2500000696647
 30
0.0
 11
250.5188577243193
 21
145.5000000696647
 31
0.0
  0
LINE
  5
3674
330
18
100
AcDbEntity
  8
DISEGNO
100
AcDbLine
 10
250.5188577243193
 20
124.5000000696647
 30
0.0
 11
250.5188577243221
 21
128.7500000696647
 31
0.0
  0
LINE
  5
3675
330
18
100
AcDbEntity
  8
DISEGNO
100
AcDbLine
 10
243.5188577243193
 20
168.5000000697914
 30
0.0
 11
243.5188577243193
 21
128.7500000696647
 31
0.0
  0
LINE
  5
367A
330
18
100
AcDbEntity
  8
DISEGNO
100
AcDbLine
 10
248.6271177243193
 20
173.9999999999997
 30
0.0
 11
248.6271177243193
 21
170.0000000000002
 31
0.0
  0
ARC
  5
367B
330
18
100
AcDbEntity
  8
DISEGNO
100
AcDbCircle
 10
249.1271177243193
 20
173.9999999999997
 30
0.0
 40
0.5
100
AcDbArc
 50
90.0
 51
180.0
  0
LINE
  5
3683
330
18
100
AcDbEntity
  8
DISEGNO
100
AcDbLine
 10
243.6261177243191
 20
170.0000000000002
 30
0.0
 11
243.6261177243191
 21
183.0000000000004
 31
0.0
  0
ARC
  5
3687
330
18
100
AcDbEntity
  8
DISEGNO
100
AcDbCircle
 10
258.918857724319
 20
165.1000000696651
 30
0.0
 40
1.0
100
AcDbArc
 50
246.8630000000015
 51
308.2320000000005
  0
ARC
  5
3688
330
18
100
AcDbEntity
  8
DISEGNO
100
AcDbCircle
 10
260.7688577243193
 20
162.7500000696647
 30
0.0
 40
2.0
100
AcDbArc
 50
321.7680000000026
 51
128.2320000000005
  0
ARC
  5
3689
330
18
100
AcDbEntity
  8
DISEGNO
100
AcDbCircle
 10
263.1288577243199
 20
160.8900000696651
 30
0.0
 40
1.0
100
AcDbArc
 50
141.7678000000007
 51
203.1369999999999
  0
ARC
  5
368A
330
18
100
AcDbEntity
  8
DISEGNO
100
AcDbCircle
 10
258.7700677092858
 20
149.7974697411384
 30
0.0
 40
1.5
100
AcDbArc
 50
45.00000000000748
 51
110.6760338499983
  0
LINE
  5
368B
330
18
100
AcDbEntity
  8
DISEGNO
100
AcDbLine
 10
262.6607278810666
 20
153.6881299129183
 30
0.0
 11
267.0833526609317
 21
149.2655051330532
 31
0.0
  0
ARC
  5
368C
330
18
100
AcDbEntity
  8
DISEGNO
100
AcDbCircle
 10
263.7213880528457
 20
154.7487900846979
 30
0.0
 40
1.5
100
AcDbArc
 50
159.3239661500023
 51
224.9999999999977
  0
ARC
  5
368D
330
18
100
AcDbEntity
  8
DISEGNO
100
AcDbCircle
 10
255.7688577243193
 20
157.7500000696647
 30
0.0
 40
7.0
100
AcDbArc
 50
339.3239661500023
 51
23.13699999999991
  0
LINE
  5
368E
330
18
100
AcDbEntity
  8
DISEGNO
100
AcDbLine
 10
272.2688577243193
 20
170.0000000696647
 30
0.0
 11
272.2688577243193
 21
163.0000000696647
 31
0.0
  0
LINE
  5
368F
330
18
100
AcDbEntity
  8
DISEGNO
100
AcDbLine
 10
268.0188577243193
 20
163.0000000696647
 30
0.0
 11
272.2688577243193
 21
163.0000000696647
 31
0.0
  0
ARC
  5
3690
330
18
100
AcDbEntity
  8
DISEGNO
100
AcDbCircle
 10
269.0188577243193
 20
153.5000000696648
 30
0.0
 40
1.0
100
AcDbArc
 50
180.0
 51
227.2680000000041
  0
LINE
  5
3691
330
18
100
AcDbEntity
  8
DISEGNO
100
AcDbLine
 10
268.0188577243193
 20
153.5000000696648
 30
0.0
 11
268.0188577243193
 21
163.0000000696647
 31
0.0
  0
ARC
  5
3692
330
18
100
AcDbEntity
  8
DISEGNO
100
AcDbCircle
 10
275.5788577243188
 20
125.760000069665
 30
0.0
 40
0.3
100
AcDbArc
 50
252.3240000000032
 51
337.0000000000008
  0
LINE
  5
3693
330
18
100
AcDbEntity
  8
DISEGNO
100
AcDbLine
 10
276.1388577243201
 20
126.3100000696647
 30
0.0
 11
275.8488577243193
 21
125.6400000696651
 31
0.0
  0
ARC
  5
3694
330
18
100
AcDbEntity
  8
DISEGNO
100
AcDbCircle
 10
276.418857724319
 20
126.200000069665
 30
0.0
 40
0.3
100
AcDbArc
 50
76.54100000000148
 51
157.0000000000007
  0
ARC
  5
3695
330
18
100
AcDbEntity
  8
DISEGNO
100
AcDbCircle
 10
278.5188577243193
 20
135.0000000696647
 30
0.0
 40
8.75
100
AcDbArc
 50
256.5410000000015
 51
282.4590000000023
  0
ARC
  5
3696
330
18
100
AcDbEntity
  8
DISEGNO
100
AcDbCircle
 10
280.4788577243193
 20
126.1600000696651
 30
0.0
 40
0.3
100
AcDbArc
 50
21.99999999999544
 51
102.4594000000025
  0
LINE
  5
3697
330
18
100
AcDbEntity
  8
DISEGNO
100
AcDbLine
 10
280.7488577243189
 20
126.2700000696647
 30
0.0
 11
281.0288577243195
 21
125.5900000696649
 31
0.0
  0
ARC
  5
3698
330
18
100
AcDbEntity
  8
DISEGNO
100
AcDbCircle
 10
281.3088577243202
 20
125.7100000696648
 30
0.0
 40
0.3
100
AcDbArc
 50
201.9999999999955
 51
286.6759999999987
  0
ARC
  5
3699
330
18
100
AcDbEntity
  8
DISEGNO
100
AcDbCircle
 10
278.5188577243193
 20
135.0000000696647
 30
0.0
 40
10.0
100
AcDbArc
 50
286.6759999999987
 51
297.3239999999972
  0
ARC
  5
369A
330
18
100
AcDbEntity
  8
DISEGNO
100
AcDbCircle
 10
282.9788577243194
 20
126.3800000696648
 30
0.0
 40
0.3
100
AcDbArc
 50
297.3239999999972
 51
21.99999999999544
  0
LINE
  5
369B
330
18
100
AcDbEntity
  8
DISEGNO
100
AcDbLine
 10
282.9788577243194
 20
127.1700000696648
 30
0.0
 11
283.2488577243189
 21
126.490000069665
 31
0.0
  0
ARC
  5
369C
330
18
100
AcDbEntity
  8
DISEGNO
100
AcDbCircle
 10
283.2588577243191
 20
127.2900000696647
 30
0.0
 40
0.3
100
AcDbArc
 50
121.5406000000028
 51
201.9999999999955
  0
ARC
  5
369D
330
18
100
AcDbEntity
  8
DISEGNO
100
AcDbCircle
 10
273.6488577243195
 20
127.3700000696651
 30
0.0
 40
0.3
100
AcDbArc
 50
337.0000000000008
 51
57.45900000000293
  0
LINE
  5
369E
330
18
100
AcDbEntity
  8
DISEGNO
100
AcDbLine
 10
273.9288577243192
 20
127.2500000696647
 30
0.0
 11
273.6388577243201
 21
126.5800000696647
 31
0.0
  0
ARC
  5
369F
330
18
100
AcDbEntity
  8
DISEGNO
100
AcDbCircle
 10
273.918857724319
 20
126.4600000696648
 30
0.0
 40
0.3
100
AcDbArc
 50
157.0000000000007
 51
241.6760000000028
  0
ARC
  5
36A0
330
18
100
AcDbEntity
  8
DISEGNO
100
AcDbCircle
 10
278.5188577243193
 20
135.0000000696647
 30
0.0
 40
10.0
100
AcDbArc
 50
241.6760000000028
 51
252.3240000000032
  0
ARC
  5
36A1
330
18
100
AcDbEntity
  8
DISEGNO
100
AcDbCircle
 10
278.5188577243193
 20
135.0000000696647
 30
0.0
 40
10.0
100
AcDbArc
 50
105.6762000000023
 51
116.3237999999964
  0
ARC
  5
36A2
330
18
100
AcDbEntity
  8
DISEGNO
100
AcDbCircle
 10
283.5188577243193
 20
142.5400000696647
 30
0.0
 40
0.3
100
AcDbArc
 50
155.9999999999971
 51
236.4590000000003
  0
ARC
  5
36A3
330
18
100
AcDbEntity
  8
DISEGNO
100
AcDbCircle
 10
278.5188577243193
 20
135.0000000696647
 30
0.0
 40
10.0
100
AcDbArc
 50
60.67599999999906
 51
71.32400000000053
  0
ARC
  5
36A4
330
18
100
AcDbEntity
  8
DISEGNO
100
AcDbCircle
 10
281.6288577243199
 20
144.1900000696648
 30
0.0
 40
0.3
100
AcDbArc
 50
71.32400000000053
 51
155.9999999999971
  0
LINE
  5
36A5
330
18
100
AcDbEntity
  8
DISEGNO
100
AcDbLine
 10
281.0588577243202
 20
143.6400000696651
 30
0.0
 11
281.3588577243195
 21
144.3100000696647
 31
0.0
  0
ARC
  5
36A6
330
18
100
AcDbEntity
  8
DISEGNO
100
AcDbCircle
 10
280.7788577243195
 20
143.760000069665
 30
0.0
 40
0.3
100
AcDbArc
 50
255.5410000000018
 51
335.9999999999971
  0
ARC
  5
36A7
330
18
100
AcDbEntity
  8
DISEGNO
100
AcDbCircle
 10
278.5188577243193
 20
135.0000000696647
 30
0.0
 40
8.75
100
AcDbArc
 50
75.54100000000183
 51
101.4594000000023
  0
ARC
  5
36A8
330
18
100
AcDbEntity
  8
DISEGNO
100
AcDbCircle
 10
276.7188577243201
 20
143.8700000696651
 30
0.0
 40
0.3
100
AcDbArc
 50
200.9999999999976
 51
281.4589999999996
  0
LINE
  5
36A9
330
18
100
AcDbEntity
  8
DISEGNO
100
AcDbLine
 10
276.1788577243192
 20
144.4400000696648
 30
0.0
 11
276.4388577243194
 21
143.760000069665
 31
0.0
  0
ARC
  5
36AA
330
18
100
AcDbEntity
  8
DISEGNO
100
AcDbCircle
 10
275.8988577243195
 20
144.3400000696649
 30
0.0
 40
0.3
100
AcDbArc
 50
20.99999999999756
 51
105.6762000000023
  0
ARC
  5
36AB
330
18
100
AcDbEntity
  8
DISEGNO
100
AcDbCircle
 10
274.2188577243201
 20
143.6900000696648
 30
0.0
 40
0.3
100
AcDbArc
 50
116.3237999999964
 51
200.9999999999976
  0
LINE
  5
36AC
330
18
100
AcDbEntity
  8
DISEGNO
100
AcDbLine
 10
273.9388577243194
 20
143.5800000696647
 30
0.0
 11
274.1988577243196
 21
142.9000000696648
 31
0.0
  0
ARC
  5
36AD
330
18
100
AcDbEntity
  8
DISEGNO
100
AcDbCircle
 10
273.918857724319
 20
142.7900000696647
 30
0.0
 40
0.3
100
AcDbArc
 50
300.5410000000024
 51
20.99999999999756
  0
LINE
  5
36AE
330
18
100
AcDbEntity
  8
DISEGNO
100
AcDbLine
 10
265.6675662233042
 20
146.4355051330533
 30
0.0
 11
267.0833526609317
 21
147.8512915706799
 31
0.0
  0
ARC
  5
36AF
330
18
100
AcDbEntity
  8
DISEGNO
100
AcDbCircle
 10
268.635701694126
 20
119.5000000696647
 30
0.0
 40
2.0
100
AcDbArc
 50
90.0
 51
145.1500954209494
  0
LINE
  5
36B0
330
18
100
AcDbEntity
  8
DISEGNO
100
AcDbLine
 10
257.5188577243207
 20
135.0001994844735
 30
0.0
 11
257.5188577243207
 21
126.5001994844735
 31
0.0
  0
LINE
  5
36B1
330
18
100
AcDbEntity
  8
DISEGNO
100
AcDbLine
 10
257.0188577243207
 20
126.0001994844735
 30
0.0
 11
257.5188577243207
 21
126.5001994844735
 31
0.0
  0
LINE
  5
36B2
330
18
100
AcDbEntity
  8
DISEGNO
100
AcDbLine
 10
257.0188577243207
 20
144.0001994844735
 30
0.0
 11
257.5188577243207
 21
143.5001994844735
 31
0.0
  0
LINE
  5
36B3
330
18
100
AcDbEntity
  8
DISEGNO
100
AcDbLine
 10
257.5188577243207
 20
135.0001994844735
 30
0.0
 11
257.5188577243207
 21
143.5001994844735
 31
0.0
  0
ARC
  5
36B4
330
18
100
AcDbEntity
  8
DISEGNO
100
AcDbCircle
 10
260.7211303448817
 20
125.5000000696647
 30
0.0
 40
1.0
100
AcDbArc
 50
270.0
 51
338.5687454961772
  0
ARC
  5
36B5
330
18
100
AcDbEntity
  8
DISEGNO
100
AcDbCircle
 10
260.7211303448817
 20
144.5000000696647
 30
0.0
 40
1.0
100
AcDbArc
 50
21.43125450382285
 51
90.0
  0
ARC
  5
36B6
330
18
100
AcDbEntity
  8
DISEGNO
100
AcDbCircle
 10
264.9604594421175
 20
147.1426119142399
 30
0.0
 40
1.0
100
AcDbArc
 50
224.9999999999977
 51
315.0000000000023
  0
ARC
  5
36B7
330
18
100
AcDbEntity
  8
DISEGNO
100
AcDbCircle
 10
236.5188577243193
 20
135.0000000696647
 30
0.0
 40
27.0
100
AcDbArc
 50
338.5687454961772
 51
21.43125450382285
  0
ARC
  5
36B8
330
18
100
AcDbEntity
  8
DISEGNO
100
AcDbCircle
 10
269.9088577243188
 20
130.5500000696649
 30
0.0
 40
0.3
100
AcDbArc
 50
207.3240000000033
 51
292.0000000000013
  0
LINE
  5
36B9
330
18
100
AcDbEntity
  8
DISEGNO
100
AcDbLine
 10
270.6988577243196
 20
130.5400000696647
 30
0.0
 11
270.0188577243193
 21
130.2700000696647
 31
0.0
  0
ARC
  5
36BA
330
18
100
AcDbEntity
  8
DISEGNO
100
AcDbCircle
 10
270.8088577243202
 20
130.260000069665
 30
0.0
 40
0.3
100
AcDbArc
 50
31.54100000000458
 51
112.0000000000013
  0
ARC
  5
36BB
330
18
100
AcDbEntity
  8
DISEGNO
100
AcDbCircle
 10
269.9788577243193
 20
139.6000000696651
 30
0.0
 40
0.3
100
AcDbArc
 50
66.99999999999978
 51
151.6761999999957
  0
ARC
  5
36BC
330
18
100
AcDbEntity
  8
DISEGNO
100
AcDbCircle
 10
269.2788577243196
 20
137.9400000696648
 30
0.0
 40
0.3
100
AcDbArc
 50
162.3238000000027
 51
246.9999999999998
  0
LINE
  5
36BD
330
18
100
AcDbEntity
  8
DISEGNO
100
AcDbLine
 10
269.1588577243187
 20
137.6700000696648
 30
0.0
 11
269.8388577243191
 21
137.3800000696649
 31
0.0
  0
ARC
  5
36BE
330
18
100
AcDbEntity
  8
DISEGNO
100
AcDbCircle
 10
269.71885772432
 20
137.1000000696651
 30
0.0
 40
0.3
100
AcDbArc
 50
346.5409999999945
 51
66.99999999999978
  0
ARC
  5
36BF
330
18
100
AcDbEntity
  8
DISEGNO
100
AcDbCircle
 10
278.5188577243193
 20
135.0000000696647
 30
0.0
 40
8.75
100
AcDbArc
 50
166.5405999999968
 51
192.4590000000023
  0
ARC
  5
36C0
330
18
100
AcDbEntity
  8
DISEGNO
100
AcDbCircle
 10
269.6888577243194
 20
133.0500000696649
 30
0.0
 40
0.3
100
AcDbArc
 50
292.0000000000013
 51
12.45900000000232
  0
LINE
  5
36C1
330
18
100
AcDbEntity
  8
DISEGNO
100
AcDbLine
 10
269.79885772432
 20
132.7700000696647
 30
0.0
 11
269.1188577243197
 21
132.490000069665
 31
0.0
  0
ARC
  5
36C2
330
18
100
AcDbEntity
  8
DISEGNO
100
AcDbCircle
 10
269.2288577243194
 20
132.2100000696648
 30
0.0
 40
0.3
100
AcDbArc
 50
112.0000000000013
 51
196.6759999999977
  0
ARC
  5
36C3
330
18
100
AcDbEntity
  8
DISEGNO
100
AcDbCircle
 10
270.8888577243201
 20
139.8700000696651
 30
0.0
 40
0.3
100
AcDbArc
 50
246.9999999999998
 51
327.4590000000005
  0
LINE
  5
36C4
330
18
100
AcDbEntity
  8
DISEGNO
100
AcDbLine
 10
270.0988577243192
 20
139.8800000696649
 30
0.0
 11
270.7788577243196
 21
139.5900000696649
 31
0.0
  0
ARC
  5
36C5
330
18
100
AcDbEntity
  8
DISEGNO
100
AcDbCircle
 10
278.5188577243193
 20
135.0000000696647
 30
0.0
 40
10.0
100
AcDbArc
 50
151.6761999999957
 51
162.3238000000027
  0
ARC
  5
36C6
330
18
100
AcDbEntity
  8
DISEGNO
100
AcDbCircle
 10
278.5188577243193
 20
135.0000000696647
 30
0.0
 40
10.0
100
AcDbArc
 50
196.6759999999977
 51
207.3240000000033
  0
LINE
  5
36C7
330
18
100
AcDbEntity
  8
DISEGNO
100
AcDbLine
 10
278.5188577243193
 20
121.5000000696647
 30
0.0
 11
268.635701694126
 21
121.5000000696647
 31
0.0
  0
ARC
  5
36C8
330
18
100
AcDbEntity
  8
DISEGNO
100
AcDbCircle
 10
278.5188577243193
 20
135.0000000696647
 30
0.0
 40
8.75
100
AcDbArc
 50
120.540600000001
 51
147.4594000000003
  0
ARC
  5
36C9
330
18
100
AcDbEntity
  8
DISEGNO
100
AcDbCircle
 10
278.5188577243193
 20
135.0000000696647
 30
0.0
 40
8.75
100
AcDbArc
 50
211.5410000000046
 51
237.459000000003
  0
LINE
  5
36CA
330
18
100
AcDbEntity
  8
DISEGNO
100
AcDbLine
 10
259.8307278810667
 20
150.858129912918
 30
0.0
 11
264.2533526609318
 21
146.4355051330533
 31
0.0
  0
ARC
  5
36CB
330
18
100
AcDbEntity
  8
DISEGNO
100
AcDbCircle
 10
266.376245879745
 20
148.5583983518665
 30
0.0
 40
1.0
100
AcDbArc
 50
315.0000000000023
 51
44.99999999999769
  0
LINE
  5
36CC
330
18
100
AcDbEntity
  8
DISEGNO
100
AcDbLine
 10
282.0178577243191
 20
167.0000000000002
 30
0.0
 11
282.0178577243191
 21
170.0000000000002
 31
0.0
  0
LINE
  5
36CD
330
18
100
AcDbEntity
  8
DISEGNO
100
AcDbLine
 10
275.0178577243191
 20
167.0000000000002
 30
0.0
 11
275.0178577243191
 21
170.0000000000002
 31
0.0
  0
LINE
  5
36CE
330
18
100
AcDbEntity
  8
DISEGNO
100
AcDbLine
 10
275.0178577243191
 20
167.0000000000002
 30
0.0
 11
282.0178577243191
 21
167.0000000000002
 31
0.0
  0
LINE
  5
36D4
330
18
100
AcDbEntity
  8
ASSI
100
AcDbLine
 10
271.932566585027
 20
175.0000000000002
 30
0.0
 11
278.53722289185
 21
175.0000000000002
 31
0.0
  0
LINE
  5
36D5
330
18
100
AcDbEntity
  8
ASSI
100
AcDbLine
 10
275.2688577243193
 20
178.3796268436408
 30
0.0
 11
275.2688577243193
 21
171.7571758323074
 31
0.0
  0
LINE
  5
36D6
330
18
100
AcDbEntity
  8
DISEGNO
100
AcDbLine
 10
269.7688577243193
 20
180.2
 30
0.0
 11
269.7688577243193
 21
174.4999999999995
 31
0.0
  0
LINE
  5
36DB
330
18
100
AcDbEntity
  8
DISEGNO
100
AcDbLine
 10
267.5188577243194
 20
174.4999999999995
 30
0.0
 11
267.5188577243194
 21
170.0000000000002
 31
0.0
  0
LINE
  5
3745
330
18
100
AcDbEntity
  8
ASSI
100
AcDbLine
 10
328.5188577243193
 20
-62.08584005549235
 30
0.0
 11
328.5188577243193
 21
172.2511191691492
 31
0.0
  0
LINE
  5
3746
330
18
100
AcDbEntity
  8
DISEGNO
100
AcDbLine
 10
357.5218577243191
 20
41.25000006966476
 30
0.0
 11
357.5218577243191
 21
45.25000006966476
 31
0.0
  0
LINE
  5
3747
330
18
100
AcDbEntity
  8
DISEGNO
100
AcDbLine
 10
363.521857724319
 20
41.25000006966476
 30
0.0
 11
363.521857724319
 21
78.75000006966477
 31
0.0
  0
LINE
  5
3748
330
18
100
AcDbEntity
  8
DISEGNO
100
AcDbLine
 10
339.021857724319
 20
24.75000006966477
 30
0.0
 11
339.021857724319
 21
52.7800000696645
 31
0.0
  0
LINE
  5
3749
330
18
100
AcDbEntity
  8
DISEGNO
100
AcDbLine
 10
346.521857724319
 20
25.75000006966476
 30
0.0
 11
346.521857724319
 21
44.25000006966476
 31
0.0
  0
ARC
  5
374A
330
18
100
AcDbEntity
  8
DISEGNO
100
AcDbCircle
 10
347.0218577243191
 20
-5.499999930335235
 30
0.0
 40
8.5
100
AcDbArc
 50
90.0
 51
143.1309999999973
  0
ARC
  5
374B
330
18
100
AcDbEntity
  8
DISEGNO
100
AcDbCircle
 10
342.0772560065211
 20
-27.14261177491042
 30
0.0
 40
1.0
100
AcDbArc
 50
44.99999999999769
 51
135.0000000000023
  0
LINE
  5
374C
330
18
100
AcDbEntity
  8
DISEGNO
100
AcDbLine
 10
344.376987567573
 20
-33.68812977358883
 30
0.0
 11
339.9543627877079
 21
-29.26550499372368
 31
0.0
  0
LINE
  5
374D
330
18
100
AcDbEntity
  8
DISEGNO
100
AcDbLine
 10
334.7688577243193
 20
-49.99999993033523
 30
0.0
 11
362.021857724319
 21
-49.99999993033523
 31
0.0
  0
ARC
  5
374E
330
18
100
AcDbEntity
  8
DISEGNO
100
AcDbCircle
 10
328.5188577243193
 20
-43.77999993033543
 30
0.0
 40
15.0
100
AcDbArc
 50
47.26800000000416
 51
132.7319999999958
  0
ARC
  5
374F
330
18
100
AcDbEntity
  8
DISEGNO
100
AcDbCircle
 10
319.0188577243193
 20
-33.49999993033524
 30
0.0
 40
8.5
100
AcDbArc
 50
126.8700000000032
 51
180.0
  0
ARC
  5
3750
330
18
100
AcDbEntity
  8
DISEGNO
100
AcDbCircle
 10
288.0188577243193
 20
-33.49999993033524
 30
0.0
 40
8.5
100
AcDbArc
 50
0.0
 51
55.15009542095461
  0
LINE
  5
3751
330
18
100
AcDbEntity
  8
DISEGNO
100
AcDbLine
 10
284.7688577243193
 20
-49.99999993033615
 30
0.0
 11
322.2688577243193
 21
-49.99999993033569
 31
0.0
  0
ARC
  5
3752
330
18
100
AcDbEntity
  8
DISEGNO
100
AcDbCircle
 10
300.5188577243193
 20
-38.49999993033524
 30
0.0
 40
4.0
100
AcDbArc
 50
180.0
 51
270.0
  0
LINE
  5
3753
330
18
100
AcDbEntity
  8
DISEGNO
100
AcDbLine
 10
296.5188577243193
 20
-33.49999993033524
 30
0.0
 11
296.5188577243193
 21
-38.49999993033524
 31
0.0
  0
LINE
  5
3754
330
18
100
AcDbEntity
  8
DISEGNO
100
AcDbLine
 10
310.5188577243193
 20
-33.49999993033524
 30
0.0
 11
310.5188577243193
 21
-38.49999993033524
 31
0.0
  0
LINE
  5
3755
330
18
100
AcDbEntity
  8
DISEGNO
100
AcDbLine
 10
306.5188577243193
 20
-42.49999993033523
 30
0.0
 11
300.5188577243193
 21
-42.49999993033523
 31
0.0
  0
ARC
  5
3756
330
18
100
AcDbEntity
  8
DISEGNO
100
AcDbCircle
 10
306.5188577243193
 20
-38.49999993033524
 30
0.0
 40
4.0
100
AcDbArc
 50
270.0
 51
0.0
  0
LINE
  5
3757
330
18
100
AcDbEntity
  8
DISEGNO
100
AcDbLine
 10
289.0188577243193
 20
-33.49999993033524
 30
0.0
 11
289.0188577243193
 21
-42.99999993033523
 31
0.0
  0
LINE
  5
3758
330
18
100
AcDbEntity
  8
DISEGNO
100
AcDbLine
 10
284.7688577243193
 20
-42.99999993033523
 30
0.0
 11
284.7688577243193
 21
-49.99999993033523
 31
0.0
  0
LINE
  5
3759
330
18
100
AcDbEntity
  8
DISEGNO
100
AcDbLine
 10
284.7688577243193
 20
-42.99999993033523
 30
0.0
 11
289.0188577243193
 21
-42.99999993033523
 31
0.0
  0
ARC
  5
375A
330
18
100
AcDbEntity
  8
DISEGNO
100
AcDbCircle
 10
288.0188577243193
 20
-33.49999993033524
 30
0.0
 40
1.0
100
AcDbArc
 50
0.0
 51
47.26800000000416
  0
LINE
  5
375B
330
18
100
AcDbEntity
  8
DISEGNO
100
AcDbLine
 10
339.021857724319
 20
-33.49999993033524
 30
0.0
 11
339.021857724319
 21
-42.99999993033523
 31
0.0
  0
ARC
  5
375C
330
18
100
AcDbEntity
  8
DISEGNO
100
AcDbCircle
 10
338.021857724319
 20
-33.49999993033524
 30
0.0
 40
1.0
100
AcDbArc
 50
0.0
 51
47.26800000000416
  0
LINE
  5
375D
330
18
100
AcDbEntity
  8
DISEGNO
100
AcDbLine
 10
318.0188577243193
 20
-33.49999993033524
 30
0.0
 11
318.0188577243193
 21
-42.99999993033523
 31
0.0
  0
LINE
  5
375E
330
18
100
AcDbEntity
  8
DISEGNO
100
AcDbLine
 10
322.2688577243193
 20
-42.99999993033523
 30
0.0
 11
318.0188577243193
 21
-42.99999993033523
 31
0.0
  0
LINE
  5
375F
330
18
100
AcDbEntity
  8
DISEGNO
100
AcDbLine
 10
322.2688577243193
 20
-42.99999993033523
 30
0.0
 11
322.2688577243193
 21
-49.99999993033523
 31
0.0
  0
ARC
  5
3760
330
18
100
AcDbEntity
  8
DISEGNO
100
AcDbCircle
 10
319.0188577243193
 20
-33.49999993033524
 30
0.0
 40
1.0
100
AcDbArc
 50
132.7319999999958
 51
180.0
  0
LINE
  5
3761
330
18
100
AcDbEntity
  8
DISEGNO
100
AcDbLine
 10
334.7688577243193
 20
-49.99999993033523
 30
0.0
 11
334.7688577243193
 21
-42.99999993033523
 31
0.0
  0
LINE
  5
3762
330
18
100
AcDbEntity
  8
DISEGNO
100
AcDbLine
 10
339.021857724319
 20
-42.99999993033523
 30
0.0
 11
334.7688577243193
 21
-42.99999993033523
 31
0.0
  0
ARC
  5
3763
330
18
100
AcDbEntity
  8
DISEGNO
100
AcDbCircle
 10
328.5188577243193
 20
-14.99999993033523
 30
0.0
 40
13.5
100
AcDbArc
 50
90.0
 51
180.0
  0
ARC
  5
3764
330
18
100
AcDbEntity
  8
DISEGNO
100
AcDbCircle
 10
287.3888577243201
 20
-16.79999993033542
 30
0.0
 40
0.3
100
AcDbArc
 50
168.5409999999933
 51
249.0000000000024
  0
LINE
  5
3765
330
18
100
AcDbEntity
  8
DISEGNO
100
AcDbLine
 10
292.0188577243193
 20
-14.99999993033523
 30
0.0
 11
292.0188577243193
 21
-24.88315596052852
 31
0.0
  0
ARC
  5
3766
330
18
100
AcDbEntity
  8
DISEGNO
100
AcDbCircle
 10
287.2188577243201
 20
-19.29999993033542
 30
0.0
 40
0.3
100
AcDbArc
 50
249.0000000000024
 51
333.6759999999961
  0
LINE
  5
3767
330
18
100
AcDbEntity
  8
DISEGNO
100
AcDbLine
 10
286.418857724319
 20
-19.3199999303354
 30
0.0
 11
287.1088577243195
 21
-19.57999993033516
 31
0.0
  0
LINE
  5
3768
330
18
100
AcDbEntity
  8
DISEGNO
100
AcDbLine
 10
287.2888577243198
 20
-17.07999993033516
 30
0.0
 11
287.96885772432
 21
-17.33999993033538
 31
0.0
  0
ARC
  5
3769
330
18
100
AcDbEntity
  8
DISEGNO
100
AcDbCircle
 10
278.5188577243193
 20
-14.99999993033523
 30
0.0
 40
10.0
100
AcDbArc
 50
333.6759999999961
 51
344.3240000000057
  0
ARC
  5
376A
330
18
100
AcDbEntity
  8
DISEGNO
100
AcDbCircle
 10
287.8588577243195
 20
-17.61999993033558
 30
0.0
 40
0.3
100
AcDbArc
 50
344.3240000000057
 51
69.00000000000244
  0
ARC
  5
376B
330
18
100
AcDbEntity
  8
DISEGNO
100
AcDbCircle
 10
286.3188577243195
 20
-19.5999999303356
 30
0.0
 40
0.3
100
AcDbArc
 50
69.00000000000244
 51
149.4590000000024
  0
ARC
  5
376C
330
18
100
AcDbEntity
  8
DISEGNO
100
AcDbCircle
 10
278.5188577243193
 20
-14.99999993033523
 30
0.0
 40
10.0
100
AcDbArc
 50
18.67599999999842
 51
29.32400000000173
  0
ARC
  5
376D
330
18
100
AcDbEntity
  8
DISEGNO
100
AcDbCircle
 10
278.5188577243193
 20
-14.99999993033523
 30
0.0
 40
8.75
100
AcDbArc
 50
348.5409999999934
 51
14.45899999999899
  0
ARC
  5
376E
330
18
100
AcDbEntity
  8
DISEGNO
100
AcDbCircle
 10
287.2888577243198
 20
-12.73999993033547
 30
0.0
 40
0.3
100
AcDbArc
 50
113.9999999999976
 51
194.4593999999997
  0
LINE
  5
376F
330
18
100
AcDbEntity
  8
DISEGNO
100
AcDbLine
 10
287.1588577243187
 20
-12.45999993033527
 30
0.0
 11
287.8288577243188
 21
-12.16999993033531
 31
0.0
  0
ARC
  5
3770
330
18
100
AcDbEntity
  8
DISEGNO
100
AcDbCircle
 10
287.7088577243199
 20
-11.88999993033556
 30
0.0
 40
0.3
100
AcDbArc
 50
293.9999999999976
 51
18.67599999999842
  0
LINE
  5
3771
330
18
100
AcDbEntity
  8
DISEGNO
100
AcDbLine
 10
286.1888577243194
 20
-10.26999993033522
 30
0.0
 11
286.8588577243195
 21
-9.96999993033549
 31
0.0
  0
ARC
  5
3772
330
18
100
AcDbEntity
  8
DISEGNO
100
AcDbCircle
 10
286.9788577243194
 20
-10.24999993033523
 30
0.0
 40
0.3
100
AcDbArc
 50
29.32400000000173
 51
113.9999999999976
  0
ARC
  5
3773
330
18
100
AcDbEntity
  8
DISEGNO
100
AcDbCircle
 10
286.0688577243195
 20
-9.999999930335235
 30
0.0
 40
0.3
100
AcDbArc
 50
213.5406000000044
 51
293.9999999999976
  0
ARC
  5
3774
330
18
100
AcDbEntity
  8
DISEGNO
100
AcDbCircle
 10
294.0188577243193
 20
-24.88315596052852
 30
0.0
 40
2.0
100
AcDbArc
 50
180.0
 51
235.1500954209546
  0
ARC
  5
3775
330
18
100
AcDbEntity
  8
DISEGNO
100
AcDbCircle
 10
335.0188577243193
 20
24.75000006966477
 30
0.0
 40
4.0
100
AcDbArc
 50
270.0
 51
0.0
  0
ARC
  5
3776
330
18
100
AcDbEntity
  8
DISEGNO
100
AcDbCircle
 10
328.5188577243193
 20
-14.99999993033523
 30
0.0
 40
8.75
100
AcDbArc
 50
346.5409999999945
 51
12.45900000000232
  0
ARC
  5
3777
330
18
100
AcDbEntity
  8
DISEGNO
100
AcDbCircle
 10
328.5188577243193
 20
-14.99999993033523
 30
0.0
 40
10.0
100
AcDbArc
 50
331.6759999999959
 51
342.3239999999972
  0
LINE
  5
3778
330
18
100
AcDbEntity
  8
DISEGNO
100
AcDbLine
 10
336.9388577243194
 20
-19.87999993033534
 30
0.0
 11
336.2688577243194
 21
-19.58999993033538
 31
0.0
  0
ARC
  5
3779
330
18
100
AcDbEntity
  8
DISEGNO
100
AcDbCircle
 10
336.1488577243195
 20
-19.86999993033558
 30
0.0
 40
0.3
100
AcDbArc
 50
66.99999999999978
 51
147.4590000000005
  0
ARC
  5
377A
330
18
100
AcDbEntity
  8
DISEGNO
100
AcDbCircle
 10
337.3188577243195
 20
-17.0999999303356
 30
0.0
 40
0.3
100
AcDbArc
 50
166.5409999999945
 51
246.9999999999998
  0
LINE
  5
377B
330
18
100
AcDbEntity
  8
DISEGNO
100
AcDbLine
 10
337.8808577243194
 20
-17.66999993033531
 30
0.0
 11
337.2088577243189
 21
-17.37999993033534
 31
0.0
  0
ARC
  5
377C
330
18
100
AcDbEntity
  8
DISEGNO
100
AcDbCircle
 10
337.7638577243192
 20
-17.93999993033529
 30
0.0
 40
0.3
100
AcDbArc
 50
342.3239999999972
 51
66.99999999999978
  0
ARC
  5
377D
330
18
100
AcDbEntity
  8
DISEGNO
100
AcDbCircle
 10
337.0588577243193
 20
-19.5999999303356
 30
0.0
 40
0.3
100
AcDbArc
 50
246.9999999999998
 51
331.6759999999959
  0
ARC
  5
377E
330
18
100
AcDbEntity
  8
DISEGNO
100
AcDbCircle
 10
338.4020137545126
 20
0.5000000696647647
 30
0.0
 40
2.0
100
AcDbArc
 50
270.0
 51
325.1500954209494
  0
ARC
  5
377F
330
18
100
AcDbEntity
  8
DISEGNO
100
AcDbCircle
 10
328.5188577243193
 20
-14.99999993033523
 30
0.0
 40
10.0
100
AcDbArc
 50
16.67599999999778
 51
27.32400000000336
  0
ARC
  5
3780
330
18
100
AcDbEntity
  8
DISEGNO
100
AcDbCircle
 10
337.8138577243194
 20
-12.20999993033527
 30
0.0
 40
0.3
100
AcDbArc
 50
292.0000000000013
 51
16.67599999999778
  0
LINE
  5
3781
330
18
100
AcDbEntity
  8
DISEGNO
100
AcDbLine
 10
337.2488577243189
 20
-12.76999993033522
 30
0.0
 11
337.9258577243195
 21
-12.48999993033547
 31
0.0
  0
ARC
  5
3782
330
18
100
AcDbEntity
  8
DISEGNO
100
AcDbCircle
 10
337.3588577243195
 20
-13.04999993033542
 30
0.0
 40
0.3
100
AcDbArc
 50
112.0000000000013
 51
192.4593999999956
  0
ARC
  5
3783
330
18
100
AcDbEntity
  8
DISEGNO
100
AcDbCircle
 10
336.2388577243196
 20
-10.25999993033545
 30
0.0
 40
0.3
100
AcDbArc
 50
211.5406000000041
 51
292.0000000000013
  0
LINE
  5
3784
330
18
100
AcDbEntity
  8
DISEGNO
100
AcDbLine
 10
336.3488577243193
 20
-10.5399999303352
 30
0.0
 11
337.0288577243195
 21
-10.26999993033522
 31
0.0
  0
ARC
  5
3785
330
18
100
AcDbEntity
  8
DISEGNO
100
AcDbCircle
 10
337.1388577243192
 20
-10.54999993033542
 30
0.0
 40
0.3
100
AcDbArc
 50
27.32400000000336
 51
112.0000000000013
  0
LINE
  5
3786
330
18
100
AcDbEntity
  8
DISEGNO
100
AcDbLine
 10
325.9888577243196
 20
-23.63999993033556
 30
0.0
 11
325.6888577243194
 21
-24.30999993033518
 31
0.0
  0
ARC
  5
3787
330
18
100
AcDbEntity
  8
DISEGNO
100
AcDbCircle
 10
325.7388577243196
 20
-5.709999930335271
 30
0.0
 40
0.3
100
AcDbArc
 50
21.99999999999544
 51
106.6759999999987
  0
ARC
  5
3788
330
18
100
AcDbEntity
  8
DISEGNO
100
AcDbCircle
 10
319.6488577243195
 20
-16.79999993033542
 30
0.0
 40
0.3
100
AcDbArc
 50
290.9999999999976
 51
11.45900000000665
  0
LINE
  5
3789
330
18
100
AcDbEntity
  8
DISEGNO
100
AcDbLine
 10
315.0188577243193
 20
-14.99999993033523
 30
0.0
 11
315.0188577243193
 21
-24.88315596052852
 31
0.0
  0
ARC
  5
378A
330
18
100
AcDbEntity
  8
DISEGNO
100
AcDbCircle
 10
328.5188577243193
 20
-14.99999993033523
 30
0.0
 40
8.75
100
AcDbArc
 50
210.5405999999998
 51
236.4594000000015
  0
ARC
  5
378B
330
18
100
AcDbEntity
  8
DISEGNO
100
AcDbCircle
 10
319.8288577243188
 20
-19.29999993033542
 30
0.0
 40
0.3
100
AcDbArc
 50
206.3237999999964
 51
290.9999999999976
  0
LINE
  5
378C
330
18
100
AcDbEntity
  8
DISEGNO
100
AcDbLine
 10
320.6188577243188
 20
-19.3199999303354
 30
0.0
 11
319.9388577243194
 21
-19.57999993033516
 31
0.0
  0
ARC
  5
378D
330
18
100
AcDbEntity
  8
DISEGNO
100
AcDbCircle
 10
320.7288577243194
 20
-19.5999999303356
 30
0.0
 40
0.3
100
AcDbArc
 50
30.54099999999755
 51
110.9999999999975
  0
LINE
  5
378E
330
18
100
AcDbEntity
  8
DISEGNO
100
AcDbLine
 10
319.7588577243191
 20
-17.07999993033516
 30
0.0
 11
319.0788577243188
 21
-17.33999993033538
 31
0.0
  0
ARC
  5
378F
330
18
100
AcDbEntity
  8
DISEGNO
100
AcDbCircle
 10
328.5188577243193
 20
-14.99999993033523
 30
0.0
 40
10.0
100
AcDbArc
 50
195.6761999999967
 51
206.3237999999964
  0
ARC
  5
3790
330
18
100
AcDbEntity
  8
DISEGNO
100
AcDbCircle
 10
319.1788577243192
 20
-17.61999993033558
 30
0.0
 40
0.3
100
AcDbArc
 50
110.9999999999975
 51
195.6761999999967
  0
ARC
  5
3791
330
18
100
AcDbEntity
  8
DISEGNO
100
AcDbCircle
 10
325.418857724319
 20
-24.18999993033529
 30
0.0
 40
0.3
100
AcDbArc
 50
251.3237999999994
 51
335.9999999999971
  0
ARC
  5
3792
330
18
100
AcDbEntity
  8
DISEGNO
100
AcDbCircle
 10
328.5188577243193
 20
-14.99999993033523
 30
0.0
 40
10.0
100
AcDbArc
 50
240.6762999999989
 51
251.3237999999994
  0
ARC
  5
3793
330
18
100
AcDbEntity
  8
DISEGNO
100
AcDbCircle
 10
323.7688577243194
 20
-23.45999993033527
 30
0.0
 40
0.3
100
AcDbArc
 50
155.9999999999971
 51
240.6762999999989
  0
LINE
  5
3794
330
18
100
AcDbEntity
  8
DISEGNO
100
AcDbLine
 10
323.7988577243191
 20
-22.65999993033554
 30
0.0
 11
323.4988577243189
 21
-23.32999993033516
 31
0.0
  0
ARC
  5
3795
330
18
100
AcDbEntity
  8
DISEGNO
100
AcDbCircle
 10
323.5188577243193
 20
-22.5399999303352
 30
0.0
 40
0.3
100
AcDbArc
 50
335.9999999999971
 51
56.45900000000031
  0
ARC
  5
3796
330
18
100
AcDbEntity
  8
DISEGNO
100
AcDbCircle
 10
328.5188577243193
 20
-14.99999993033523
 30
0.0
 40
10.0
100
AcDbArc
 50
150.6759999999983
 51
161.3240000000016
  0
ARC
  5
3797
330
18
100
AcDbEntity
  8
DISEGNO
100
AcDbCircle
 10
328.5188577243193
 20
-14.99999993033523
 30
0.0
 40
8.75
100
AcDbArc
 50
165.541000000001
 51
191.459400000003
  0
ARC
  5
3798
330
18
100
AcDbEntity
  8
DISEGNO
100
AcDbCircle
 10
319.7588577243191
 20
-12.73999993033547
 30
0.0
 40
0.3
100
AcDbArc
 50
345.541000000001
 51
66.00000000000237
  0
LINE
  5
3799
330
18
100
AcDbEntity
  8
DISEGNO
100
AcDbLine
 10
319.878857724319
 20
-12.45999993033527
 30
0.0
 11
319.2088577243189
 21
-12.16999993033531
 31
0.0
  0
ARC
  5
379A
330
18
100
AcDbEntity
  8
DISEGNO
100
AcDbCircle
 10
319.3288577243188
 20
-11.88999993033556
 30
0.0
 40
0.3
100
AcDbArc
 50
161.3240000000016
 51
246.0000000000023
  0
LINE
  5
379B
330
18
100
AcDbEntity
  8
DISEGNO
100
AcDbLine
 10
320.8588577243195
 20
-10.26999993033522
 30
0.0
 11
320.1888577243194
 21
-9.96999993033549
 31
0.0
  0
ARC
  5
379C
330
18
100
AcDbEntity
  8
DISEGNO
100
AcDbCircle
 10
320.9788577243194
 20
-9.999999930335235
 30
0.0
 40
0.3
100
AcDbArc
 50
246.0000000000023
 51
326.4590000000046
  0
ARC
  5
379D
330
18
100
AcDbEntity
  8
DISEGNO
100
AcDbCircle
 10
328.5188577243193
 20
-14.99999993033523
 30
0.0
 40
8.75
100
AcDbArc
 50
121.5409999999995
 51
146.4590000000046
  0
ARC
  5
379E
330
18
100
AcDbEntity
  8
DISEGNO
100
AcDbCircle
 10
323.7888577243189
 20
-7.289999930335198
 30
0.0
 40
0.3
100
AcDbArc
 50
301.5409999999996
 51
21.99999999999544
  0
LINE
  5
379F
330
18
100
AcDbEntity
  8
DISEGNO
100
AcDbLine
 10
324.0688577243195
 20
-7.169999930335308
 30
0.0
 11
323.7888577243189
 21
-6.489999930335471
 31
0.0
  0
ARC
  5
37A0
330
18
100
AcDbEntity
  8
DISEGNO
100
AcDbCircle
 10
324.0688577243195
 20
-6.379999930335344
 30
0.0
 40
0.3
100
AcDbArc
 50
117.3239999999971
 51
201.9999999999955
  0
ARC
  5
37A1
330
18
100
AcDbEntity
  8
DISEGNO
100
AcDbCircle
 10
328.5188577243193
 20
-14.99999993033523
 30
0.0
 40
10.0
100
AcDbArc
 50
106.6759999999987
 51
117.3239999999971
  0
ARC
  5
37A2
330
18
100
AcDbEntity
  8
DISEGNO
100
AcDbCircle
 10
320.0688577243195
 20
-10.24999993033523
 30
0.0
 40
0.3
100
AcDbArc
 50
66.00000000000237
 51
150.6759999999983
  0
ARC
  5
37A3
330
18
100
AcDbEntity
  8
DISEGNO
100
AcDbCircle
 10
328.5188577243193
 20
-14.99999993033523
 30
0.0
 40
10.0
100
AcDbArc
 50
285.6760000000003
 51
296.323999999997
  0
ARC
  5
37A4
330
18
100
AcDbEntity
  8
DISEGNO
100
AcDbCircle
 10
333.1188577243188
 20
-22.7899999303352
 30
0.0
 40
0.3
100
AcDbArc
 50
120.5410000000024
 51
200.9999999999976
  0
LINE
  5
37A5
330
18
100
AcDbEntity
  8
DISEGNO
100
AcDbLine
 10
333.0988577243193
 20
-23.57999993033516
 30
0.0
 11
332.838857724319
 21
-22.89999993033533
 31
0.0
  0
ARC
  5
37A6
330
18
100
AcDbEntity
  8
DISEGNO
100
AcDbCircle
 10
332.8188577243195
 20
-23.68999993033529
 30
0.0
 40
0.3
100
AcDbArc
 50
296.323999999997
 51
20.99999999999756
  0
ARC
  5
37A7
330
18
100
AcDbEntity
  8
DISEGNO
100
AcDbCircle
 10
331.1388577243192
 20
-24.33999993033538
 30
0.0
 40
0.3
100
AcDbArc
 50
200.9999999999976
 51
285.6760000000003
  0
LINE
  5
37A8
330
18
100
AcDbEntity
  8
DISEGNO
100
AcDbLine
 10
330.8588577243195
 20
-24.43999993033529
 30
0.0
 11
330.5988577243192
 21
-23.75999993033545
 31
0.0
  0
ARC
  5
37A9
330
18
100
AcDbEntity
  8
DISEGNO
100
AcDbCircle
 10
330.3188577243195
 20
-23.86999993033558
 30
0.0
 40
0.3
100
AcDbArc
 50
20.99999999999756
 51
101.4589999999996
  0
ARC
  5
37AA
330
18
100
AcDbEntity
  8
DISEGNO
100
AcDbCircle
 10
328.5188577243193
 20
-14.99999993033523
 30
0.0
 40
8.75
100
AcDbArc
 50
255.5406000000004
 51
281.4589999999996
  0
ARC
  5
37AB
330
18
100
AcDbEntity
  8
DISEGNO
100
AcDbCircle
 10
326.2588577243191
 20
-23.75999993033545
 30
0.0
 40
0.3
100
AcDbArc
 50
75.54100000000183
 51
155.9999999999971
  0
ARC
  5
37AC
330
18
100
AcDbEntity
  8
DISEGNO
100
AcDbCircle
 10
328.5188577243193
 20
-14.99999993033523
 30
0.0
 40
10.0
100
AcDbArc
 50
61.67600000000281
 51
72.32400000000317
  0
ARC
  5
37AD
330
18
100
AcDbEntity
  8
DISEGNO
100
AcDbCircle
 10
333.128857724319
 20
-6.459999930335271
 30
0.0
 40
0.3
100
AcDbArc
 50
337.0000000000008
 51
61.67600000000281
  0
LINE
  5
37AE
330
18
100
AcDbEntity
  8
DISEGNO
100
AcDbLine
 10
333.1088577243195
 20
-7.249999930335235
 30
0.0
 11
333.3988577243194
 21
-6.579999930335162
 31
0.0
  0
ARC
  5
37AF
330
18
100
AcDbEntity
  8
DISEGNO
100
AcDbCircle
 10
333.3888577243192
 20
-7.36999993033558
 30
0.0
 40
0.3
100
AcDbArc
 50
157.0000000000007
 51
237.459400000001
  0
LINE
  5
37B0
330
18
100
AcDbEntity
  8
DISEGNO
100
AcDbLine
 10
326.2888577243189
 20
-6.269999930335217
 30
0.0
 11
326.0188577243193
 21
-5.58999993033538
 31
0.0
  0
ARC
  5
37B1
330
18
100
AcDbEntity
  8
DISEGNO
100
AcDbCircle
 10
326.5688577243195
 20
-6.159999930335544
 30
0.0
 40
0.3
100
AcDbArc
 50
201.9999999999955
 51
282.4590000000023
  0
ARC
  5
37B2
330
18
100
AcDbEntity
  8
DISEGNO
100
AcDbCircle
 10
328.5188577243193
 20
-14.99999993033523
 30
0.0
 40
8.75
100
AcDbArc
 50
76.54100000000148
 51
102.4590000000023
  0
ARC
  5
37B3
330
18
100
AcDbEntity
  8
DISEGNO
100
AcDbCircle
 10
330.628857724319
 20
-6.199999930335508
 30
0.0
 40
0.3
100
AcDbArc
 50
256.540599999997
 51
337.0000000000008
  0
LINE
  5
37B4
330
18
100
AcDbEntity
  8
DISEGNO
100
AcDbLine
 10
330.9088577243187
 20
-6.30999993033518
 30
0.0
 11
331.1888577243194
 21
-5.639999930335562
 31
0.0
  0
ARC
  5
37B5
330
18
100
AcDbEntity
  8
DISEGNO
100
AcDbCircle
 10
331.4688577243192
 20
-5.759999930335453
 30
0.0
 40
0.3
100
AcDbArc
 50
72.32400000000317
 51
157.0000000000007
  0
ARC
  5
37B6
330
18
100
AcDbEntity
  8
DISEGNO
100
AcDbCircle
 10
328.5188577243193
 20
-14.99999993033523
 30
0.0
 40
8.75
100
AcDbArc
 50
300.5410000000024
 51
327.4590000000005
  0
ARC
  5
37B7
330
18
100
AcDbEntity
  8
DISEGNO
100
AcDbCircle
 10
328.5188577243193
 20
-14.99999993033523
 30
0.0
 40
8.75
100
AcDbArc
 50
31.54100000000458
 51
57.45900000000293
  0
LINE
  5
37B8
330
18
100
AcDbEntity
  8
DISEGNO
100
AcDbLine
 10
328.5188577243193
 20
-1.499999930335235
 30
0.0
 11
338.4020137545126
 21
-1.499999930335235
 31
0.0
  0
LINE
  5
37B9
330
18
100
AcDbEntity
  8
DISEGNO
100
AcDbLine
 10
341.3701492253344
 20
-26.43550499372376
 30
0.0
 11
339.9543627877079
 21
-27.85129143135035
 31
0.0
  0
ARC
  5
37BA
330
18
100
AcDbEntity
  8
DISEGNO
100
AcDbCircle
 10
340.6614695688945
 20
-28.55839821253701
 30
0.0
 40
1.0
100
AcDbArc
 50
135.0000000000023
 51
224.9999999999977
  0
ARC
  5
37BB
330
18
100
AcDbEntity
  8
DISEGNO
100
AcDbCircle
 10
313.0188577243193
 20
-24.88315596052852
 30
0.0
 40
2.0
100
AcDbArc
 50
304.8499045790454
 51
0.0
  0
ARC
  5
37BC
330
18
100
AcDbEntity
  8
DISEGNO
100
AcDbCircle
 10
356.2688577243193
 20
-32.74999993033524
 30
0.0
 40
2.0
100
AcDbArc
 50
321.7678000000008
 51
128.2320000000005
  0
LINE
  5
37BD
330
18
100
AcDbEntity
  8
DISEGNO
100
AcDbLine
 10
363.521857724319
 20
-48.49999993033524
 30
0.0
 11
363.521857724319
 21
-21.24999993033524
 31
0.0
  0
ARC
  5
37BE
330
18
100
AcDbEntity
  8
DISEGNO
100
AcDbCircle
 10
351.2688577243193
 20
-37.74999993033524
 30
0.0
 40
7.0
100
AcDbArc
 50
336.8629000000015
 51
23.13699999999991
  0
ARC
  5
37BF
330
18
100
AcDbEntity
  8
DISEGNO
100
AcDbCircle
 10
358.6188577243197
 20
-40.88999993033556
 30
0.0
 40
1.0
100
AcDbArc
 50
156.8630000000001
 51
218.2319999999973
  0
ARC
  5
37C0
330
18
100
AcDbEntity
  8
DISEGNO
100
AcDbCircle
 10
362.021857724319
 20
-48.49999993033524
 30
0.0
 40
1.5
100
AcDbArc
 50
270.0
 51
0.0
  0
ARC
  5
37C1
330
18
100
AcDbEntity
  8
DISEGNO
100
AcDbCircle
 10
358.6188577243197
 20
-34.5999999303356
 30
0.0
 40
1.0
100
AcDbArc
 50
141.7680000000026
 51
203.1369999999999
  0
ARC
  5
37C2
330
18
100
AcDbEntity
  8
DISEGNO
100
AcDbCircle
 10
354.4088577243197
 20
-45.09999993033559
 30
0.0
 40
1.0
100
AcDbArc
 50
51.76799999999945
 51
113.1369999999985
  0
ARC
  5
37C3
330
18
100
AcDbEntity
  8
DISEGNO
100
AcDbCircle
 10
351.2688577243193
 20
-37.74999993033524
 30
0.0
 40
7.0
100
AcDbArc
 50
159.3239661500023
 51
203.1369999999999
  0
ARC
  5
37C4
330
18
100
AcDbEntity
  8
DISEGNO
100
AcDbCircle
 10
343.9088577243197
 20
-40.88999993033556
 30
0.0
 40
1.0
100
AcDbArc
 50
321.7678000000008
 51
23.13699999999991
  0
ARC
  5
37C5
330
18
100
AcDbEntity
  8
DISEGNO
100
AcDbCircle
 10
351.2688577243193
 20
-37.74999993033524
 30
0.0
 40
7.0
100
AcDbArc
 50
246.8630000000015
 51
293.1369999999982
  0
ARC
  5
37C6
330
18
100
AcDbEntity
  8
DISEGNO
100
AcDbCircle
 10
348.1188577243197
 20
-45.09999993033559
 30
0.0
 40
1.0
100
AcDbArc
 50
66.86300000000148
 51
128.2320000000005
  0
ARC
  5
37C7
330
18
100
AcDbEntity
  8
DISEGNO
100
AcDbCircle
 10
346.2688577243193
 20
-42.74999993033524
 30
0.0
 40
2.0
100
AcDbArc
 50
141.7680000000026
 51
308.2320000000005
  0
ARC
  5
37C8
330
18
100
AcDbEntity
  8
DISEGNO
100
AcDbCircle
 10
343.316327395793
 20
-34.74878994536837
 30
0.0
 40
1.5
100
AcDbArc
 50
339.3239661500023
 51
44.99999999999769
  0
ARC
  5
37C9
330
18
100
AcDbEntity
  8
DISEGNO
100
AcDbCircle
 10
356.2688577243193
 20
-42.74999993033524
 30
0.0
 40
2.0
100
AcDbArc
 50
231.7679999999995
 51
38.23199999999735
  0
LINE
  5
37CA
330
18
100
AcDbEntity
  8
DISEGNO
100
AcDbLine
 10
357.5218577243191
 20
41.25000006966476
 30
0.0
 11
363.521857724319
 21
41.25000006966476
 31
0.0
  0
LINE
  5
37CB
330
18
100
AcDbEntity
  8
DISEGNO
100
AcDbLine
 10
356.021857724319
 20
13.25000006966476
 30
0.0
 11
356.021857724319
 21
7.000000069664764
 31
0.0
  0
LINE
  5
37CC
330
18
100
AcDbEntity
  8
DISEGNO
100
AcDbLine
 10
357.5218577243191
 20
24.75000006966477
 30
0.0
 11
357.5218577243191
 21
28.75000006966477
 31
0.0
  0
LINE
  5
37CD
330
18
100
AcDbEntity
  8
DISEGNO
100
AcDbLine
 10
363.521857724319
 20
28.75000006966477
 30
0.0
 11
357.5218577243191
 21
28.75000006966477
 31
0.0
  0
LINE
  5
37CE
330
18
100
AcDbEntity
  8
DISEGNO
100
AcDbLine
 10
356.521857724319
 20
-21.24999993033524
 30
0.0
 11
363.521857724319
 21
-21.24999993033524
 31
0.0
  0
LINE
  5
37CF
330
18
100
AcDbEntity
  8
DISEGNO
100
AcDbLine
 10
363.521857724319
 20
-8.749999930335235
 30
0.0
 11
356.521857724319
 21
-8.749999930335235
 31
0.0
  0
LINE
  5
37D0
330
18
100
AcDbEntity
  8
DISEGNO
100
AcDbLine
 10
356.521857724319
 20
-4.499999930335235
 30
0.0
 11
356.521857724319
 21
-8.749999930335235
 31
0.0
  0
LINE
  5
37D1
330
18
100
AcDbEntity
  8
DISEGNO
100
AcDbLine
 10
363.521857724319
 20
-8.749999930335235
 30
0.0
 11
363.521857724319
 21
28.75000006966477
 31
0.0
  0
ARC
  5
37D2
330
18
100
AcDbEntity
  8
DISEGNO
100
AcDbCircle
 10
347.521857724319
 20
25.75000006966476
 30
0.0
 40
1.0
100
AcDbArc
 50
180.000005347771
 51
270.0
  0
ARC
  5
37D3
330
18
100
AcDbEntity
  8
DISEGNO
100
AcDbCircle
 10
370.5188577243193
 20
-14.99999993033523
 30
0.0
 40
27.0
100
AcDbArc
 50
158.5687454961771
 51
201.4312545038229
  0
LINE
  5
37D4
330
18
100
AcDbEntity
  8
DISEGNO
100
AcDbLine
 10
347.0218577243191
 20
3.000000069664764
 30
0.0
 11
352.021857724319
 21
3.000000069664764
 31
0.0
  0
ARC
  5
37D5
330
18
100
AcDbEntity
  8
DISEGNO
100
AcDbCircle
 10
346.316585103757
 20
-5.499999930335235
 30
0.0
 40
1.0
100
AcDbArc
 50
90.0
 51
158.5687454961771
  0
ARC
  5
37D6
330
18
100
AcDbEntity
  8
DISEGNO
100
AcDbCircle
 10
352.021857724319
 20
13.25000006966476
 30
0.0
 40
4.0
100
AcDbArc
 50
0.0
 51
90.0
  0
ARC
  5
37D7
330
18
100
AcDbEntity
  8
DISEGNO
100
AcDbCircle
 10
352.021857724319
 20
7.000000069664764
 30
0.0
 40
4.0
100
AcDbArc
 50
270.0
 51
0.0
  0
LINE
  5
37D8
330
18
100
AcDbEntity
  8
DISEGNO
100
AcDbLine
 10
346.316585103757
 20
-4.499999930335235
 30
0.0
 11
356.521857724319
 21
-4.499999930335235
 31
0.0
  0
LINE
  5
37D9
330
18
100
AcDbEntity
  8
DISEGNO
100
AcDbLine
 10
357.5218577243191
 20
24.75000006966477
 30
0.0
 11
347.521857724319
 21
24.75000006966477
 31
0.0
  0
ARC
  5
37DA
330
18
100
AcDbEntity
  8
DISEGNO
100
AcDbCircle
 10
354.4088577243197
 20
-30.38999993033556
 30
0.0
 40
1.0
100
AcDbArc
 50
246.8630000000015
 51
308.2320000000005
  0
ARC
  5
37DB
330
18
100
AcDbEntity
  8
DISEGNO
100
AcDbCircle
 10
351.2688577243193
 20
-37.74999993033524
 30
0.0
 40
7.0
100
AcDbArc
 50
66.86300000000148
 51
110.6760338499983
  0
ARC
  5
37DC
330
18
100
AcDbEntity
  8
DISEGNO
100
AcDbCircle
 10
348.2676477393529
 20
-29.7974696018089
 30
0.0
 40
1.5
100
AcDbArc
 50
225.0000000000075
 51
290.6760338499984
  0
LINE
  5
37DD
330
18
100
AcDbEntity
  8
DISEGNO
100
AcDbLine
 10
347.2069875675729
 20
-30.85812977358845
 30
0.0
 11
342.7843627877078
 21
-26.43550499372376
 31
0.0
  0
LINE
  5
37DE
330
18
100
AcDbEntity
  8
DISEGNO
100
AcDbLine
 10
346.316585103757
 20
-25.49999993033523
 30
0.0
 11
356.521857724319
 21
-25.49999993033523
 31
0.0
  0
ARC
  5
37DF
330
18
100
AcDbEntity
  8
DISEGNO
100
AcDbCircle
 10
346.316585103757
 20
-24.49999993033524
 30
0.0
 40
1.0
100
AcDbArc
 50
201.4312545038229
 51
270.0
  0
LINE
  5
37E0
330
18
100
AcDbEntity
  8
DISEGNO
100
AcDbLine
 10
356.521857724319
 20
-21.24999993033524
 30
0.0
 11
356.521857724319
 21
-25.49999993033523
 31
0.0
  0
LINE
  5
37E1
330
18
100
AcDbEntity
  8
DISEGNO
100
AcDbLine
 10
344.376987567573
 20
153.6881299129183
 30
0.0
 11
339.9543627877079
 21
149.2655051330532
 31
0.0
  0
LINE
  5
37E2
330
18
100
AcDbEntity
  8
DISEGNO
  6
Continuous
100
AcDbLine
 10
341.8768177243187
 20
170.000199484476
 30
0.0
 11
332.6268177243187
 21
170.000199484476
 31
0.0
  0
ARC
  5
37E3
330
18
100
AcDbEntity
  8
DISEGNO
100
AcDbCircle
 10
342.0772560065211
 20
147.1426119142399
 30
0.0
 40
1.0
100
AcDbArc
 50
224.9999999999977
 51
315.0000000000023
  0
ARC
  5
37E4
330
18
100
AcDbEntity
  8
DISEGNO
100
AcDbCircle
 10
347.0218577243191
 20
125.5000000696647
 30
0.0
 40
8.5
100
AcDbArc
 50
216.8690000000027
 51
270.0
  0
ARC
  5
37E5
330
18
100
AcDbEntity
  8
DISEGNO
100
AcDbCircle
 10
342.1449359662079
 20
64.83457568924925
 30
0.0
 40
1.0
100
AcDbArc
 50
239.9500863790137
 51
322.8199341417891
  0
ARC
  5
37E6
330
18
100
AcDbEntity
  8
DISEGNO
100
AcDbCircle
 10
342.1449359662079
 20
55.16542445008028
 30
0.0
 40
1.0
100
AcDbArc
 50
37.18006585821088
 51
120.0499136209863
  0
ARC
  5
37E7
330
18
100
AcDbEntity
  8
DISEGNO
100
AcDbCircle
 10
348.5188577243193
 20
60.00000006966477
 30
0.0
 40
7.0
100
AcDbArc
 50
217.1800658582109
 51
142.8199341417891
  0
LINE
  5
37E8
330
18
100
AcDbEntity
  8
DISEGNO
100
AcDbLine
 10
358.1271177243193
 20
174.4999999999999
 30
0.0
 11
337.2688577243193
 21
174.4999999999997
 31
0.0
  0
LINE
  5
37E9
330
18
100
AcDbEntity
  8
DISEGNO
100
AcDbLine
 10
341.7688577243193
 20
170.0000000000002
 30
0.0
 11
332.5188577243193
 21
170.0000000000002
 31
0.0
  0
ARC
  5
37EA
330
18
100
AcDbEntity
  8
DISEGNO
100
AcDbCircle
 10
335.0188577243193
 20
95.25000006966477
 30
0.0
 40
4.0
100
AcDbArc
 50
0.0
 51
90.0
  0
ARC
  5
37EB
330
18
100
AcDbEntity
  8
DISEGNO
100
AcDbCircle
 10
342.0188577243193
 20
67.22000006966502
 30
0.0
 40
3.0
100
AcDbArc
 50
180.0
 51
240.0200000000004
  0
LINE
  5
37EC
330
18
100
AcDbEntity
  8
DISEGNO
100
AcDbLine
 10
340.5188577243194
 20
64.62000006966511
 30
0.0
 11
341.6441817119153
 21
63.96898619254327
 31
0.0
  0
ARC
  5
37ED
330
18
100
AcDbEntity
  8
DISEGNO
100
AcDbCircle
 10
342.0188577243193
 20
52.7800000696645
 30
0.0
 40
3.0
100
AcDbArc
 50
119.9799999999995
 51
180.0
  0
LINE
  5
37EE
330
18
100
AcDbEntity
  8
DISEGNO
100
AcDbLine
 10
340.5188577243194
 20
55.38000006966441
 30
0.0
 11
341.6441817119153
 21
56.03101394678626
 31
0.0
  0
LINE
  5
37EF
330
18
100
AcDbEntity
  8
DISEGNO
100
AcDbLine
 10
339.021857724319
 20
95.25000006966477
 30
0.0
 11
339.021857724319
 21
67.22000006966502
 31
0.0
  0
ARC
  5
37F0
330
18
100
AcDbEntity
  8
DISEGNO
100
AcDbCircle
 10
319.0188577243193
 20
153.5000000696648
 30
0.0
 40
8.5
100
AcDbArc
 50
180.0
 51
233.1299999999968
  0
ARC
  5
37F1
330
18
100
AcDbEntity
  8
DISEGNO
100
AcDbCircle
 10
328.5188577243193
 20
135.0000000696647
 30
0.0
 40
13.5
100
AcDbArc
 50
180.0
 51
270.0
  0
LINE
  5
37F2
330
18
100
AcDbEntity
  8
DISEGNO
100
AcDbLine
 10
284.7688577243193
 20
170.0000000696656
 30
0.0
 11
322.2688577243193
 21
170.0000000696652
 31
0.0
  0
ARC
  5
37F3
330
18
100
AcDbEntity
  8
DISEGNO
100
AcDbCircle
 10
300.5188577243193
 20
158.5000000696647
 30
0.0
 40
4.0
100
AcDbArc
 50
90.0
 51
180.0
  0
LINE
  5
37F4
330
18
100
AcDbEntity
  8
DISEGNO
100
AcDbLine
 10
296.5188577243193
 20
153.5000000696648
 30
0.0
 11
296.5188577243193
 21
158.5000000696647
 31
0.0
  0
LINE
  5
37F5
330
18
100
AcDbEntity
  8
DISEGNO
100
AcDbLine
 10
306.5188577243193
 20
162.5000000696647
 30
0.0
 11
300.5188577243193
 21
162.5000000696647
 31
0.0
  0
LINE
  5
37F6
330
18
100
AcDbEntity
  8
DISEGNO
100
AcDbLine
 10
310.5188577243193
 20
153.5000000696648
 30
0.0
 11
310.5188577243193
 21
158.5000000696647
 31
0.0
  0
ARC
  5
37F7
330
18
100
AcDbEntity
  8
DISEGNO
100
AcDbCircle
 10
306.5188577243193
 20
158.5000000696647
 30
0.0
 40
4.0
100
AcDbArc
 50
0.0
 51
90.0
  0
LINE
  5
37F8
330
18
100
AcDbEntity
  8
DISEGNO
100
AcDbLine
 10
284.7688577243193
 20
163.0000000696647
 30
0.0
 11
284.7688577243193
 21
170.0000000696647
 31
0.0
  0
LINE
  5
37F9
330
18
100
AcDbEntity
  8
DISEGNO
100
AcDbLine
 10
284.7688577243193
 20
163.0000000696647
 30
0.0
 11
289.0188577243193
 21
163.0000000696647
 31
0.0
  0
ARC
  5
37FA
330
18
100
AcDbEntity
  8
DISEGNO
100
AcDbCircle
 10
288.0188577243193
 20
153.5000000696648
 30
0.0
 40
1.0
100
AcDbArc
 50
312.7319999999958
 51
0.0
  0
LINE
  5
37FB
330
18
100
AcDbEntity
  8
DISEGNO
100
AcDbLine
 10
289.0188577243193
 20
153.5000000696648
 30
0.0
 11
289.0188577243193
 21
163.0000000696647
 31
0.0
  0
ARC
  5
37FC
330
18
100
AcDbEntity
  8
DISEGNO
100
AcDbCircle
 10
286.0688577243195
 20
130.0000000696647
 30
0.0
 40
0.3
100
AcDbArc
 50
66.00000000000237
 51
146.4593999999956
  0
ARC
  5
37FD
330
18
100
AcDbEntity
  8
DISEGNO
100
AcDbCircle
 10
286.9788577243194
 20
130.2500000696647
 30
0.0
 40
0.3
100
AcDbArc
 50
246.0000000000023
 51
330.6759999999983
  0
LINE
  5
37FE
330
18
100
AcDbEntity
  8
DISEGNO
100
AcDbLine
 10
286.1888577243194
 20
130.2700000696647
 30
0.0
 11
286.8588577243195
 21
129.970000069665
 31
0.0
  0
ARC
  5
37FF
330
18
100
AcDbEntity
  8
DISEGNO
100
AcDbCircle
 10
294.0188577243193
 20
144.883156099858
 30
0.0
 40
2.0
100
AcDbArc
 50
124.8499045790454
 51
180.0
  0
LINE
  5
3800
330
18
100
AcDbEntity
  8
DISEGNO
100
AcDbLine
 10
292.0188577243193
 20
135.0000000696647
 30
0.0
 11
292.0188577243193
 21
144.883156099858
 31
0.0
  0
ARC
  5
3801
330
18
100
AcDbEntity
  8
DISEGNO
100
AcDbCircle
 10
286.3188577243195
 20
139.6000000696651
 30
0.0
 40
0.3
100
AcDbArc
 50
210.5409999999976
 51
290.9999999999976
  0
ARC
  5
3802
330
18
100
AcDbEntity
  8
DISEGNO
100
AcDbCircle
 10
287.8588577243195
 20
137.6200000696651
 30
0.0
 40
0.3
100
AcDbArc
 50
290.9999999999976
 51
15.67599999999433
  0
ARC
  5
3803
330
18
100
AcDbEntity
  8
DISEGNO
100
AcDbCircle
 10
278.5188577243193
 20
135.0000000696647
 30
0.0
 40
10.0
100
AcDbArc
 50
15.67599999999433
 51
26.32400000000386
  0
ARC
  5
3804
330
18
100
AcDbEntity
  8
DISEGNO
100
AcDbCircle
 10
287.7088577243199
 20
131.8900000696651
 30
0.0
 40
0.3
100
AcDbArc
 50
341.3240000000016
 51
66.00000000000237
  0
LINE
  5
3805
330
18
100
AcDbEntity
  8
DISEGNO
100
AcDbLine
 10
287.1588577243187
 20
132.4600000696648
 30
0.0
 11
287.8288577243188
 21
132.1700000696648
 31
0.0
  0
ARC
  5
3806
330
18
100
AcDbEntity
  8
DISEGNO
100
AcDbCircle
 10
287.2888577243198
 20
132.740000069665
 30
0.0
 40
0.3
100
AcDbArc
 50
165.5406000000002
 51
246.0000000000023
  0
ARC
  5
3807
330
18
100
AcDbEntity
  8
DISEGNO
100
AcDbCircle
 10
278.5188577243193
 20
135.0000000696647
 30
0.0
 40
8.75
100
AcDbArc
 50
345.541000000001
 51
11.45900000000665
  0
ARC
  5
3808
330
18
100
AcDbEntity
  8
DISEGNO
100
AcDbCircle
 10
287.3888577243201
 20
136.8000000696649
 30
0.0
 40
0.3
100
AcDbArc
 50
110.9999999999975
 51
191.4590000000066
  0
LINE
  5
3809
330
18
100
AcDbEntity
  8
DISEGNO
100
AcDbLine
 10
287.2888577243198
 20
137.0800000696647
 30
0.0
 11
287.96885772432
 21
137.3400000696649
 31
0.0
  0
LINE
  5
380A
330
18
100
AcDbEntity
  8
DISEGNO
100
AcDbLine
 10
286.418857724319
 20
139.3200000696649
 30
0.0
 11
287.1088577243195
 21
139.5800000696647
 31
0.0
  0
ARC
  5
380B
330
18
100
AcDbEntity
  8
DISEGNO
100
AcDbCircle
 10
287.2188577243201
 20
139.3000000696649
 30
0.0
 40
0.3
100
AcDbArc
 50
26.32400000000386
 51
110.9999999999975
  0
ARC
  5
380C
330
18
100
AcDbEntity
  8
DISEGNO
100
AcDbCircle
 10
278.5188577243193
 20
135.0000000696647
 30
0.0
 40
10.0
100
AcDbArc
 50
330.6759999999983
 51
341.3240000000016
  0
ARC
  5
380D
330
18
100
AcDbEntity
  8
DISEGNO
100
AcDbCircle
 10
288.0188577243193
 20
153.5000000696648
 30
0.0
 40
8.5
100
AcDbArc
 50
304.8499045790454
 51
0.0
  0
ARC
  5
380E
330
18
100
AcDbEntity
  8
DISEGNO
100
AcDbCircle
 10
338.021857724319
 20
153.5000000696648
 30
0.0
 40
1.0
100
AcDbArc
 50
312.7319999999958
 51
0.0
  0
LINE
  5
380F
330
18
100
AcDbEntity
  8
DISEGNO
100
AcDbLine
 10
339.021857724319
 20
153.5000000696648
 30
0.0
 11
339.021857724319
 21
163.0000000696647
 31
0.0
  0
LINE
  5
3810
330
18
100
AcDbEntity
  8
DISEGNO
100
AcDbLine
 10
322.2688577243193
 20
163.0000000696647
 30
0.0
 11
322.2688577243193
 21
170.0000000696647
 31
0.0
  0
LINE
  5
3811
330
18
100
AcDbEntity
  8
DISEGNO
100
AcDbLine
 10
322.2688577243193
 20
163.0000000696647
 30
0.0
 11
318.0188577243193
 21
163.0000000696647
 31
0.0
  0
ARC
  5
3812
330
18
100
AcDbEntity
  8
DISEGNO
100
AcDbCircle
 10
319.0188577243193
 20
153.5000000696648
 30
0.0
 40
1.0
100
AcDbArc
 50
180.0
 51
227.2680000000041
  0
LINE
  5
3813
330
18
100
AcDbEntity
  8
DISEGNO
100
AcDbLine
 10
318.0188577243193
 20
153.5000000696648
 30
0.0
 11
318.0188577243193
 21
163.0000000696647
 31
0.0
  0
LINE
  5
3814
330
18
100
AcDbEntity
  8
DISEGNO
100
AcDbLine
 10
334.7688577243193
 20
170.0000000696647
 30
0.0
 11
334.7688577243193
 21
163.0000000696647
 31
0.0
  0
ARC
  5
3815
330
18
100
AcDbEntity
  8
DISEGNO
100
AcDbCircle
 10
328.5188577243193
 20
163.780000069665
 30
0.0
 40
15.0
100
AcDbArc
 50
227.2680000000041
 51
312.7319999999958
  0
LINE
  5
3816
330
18
100
AcDbEntity
  8
DISEGNO
100
AcDbLine
 10
339.021857724319
 20
163.0000000696647
 30
0.0
 11
334.7688577243193
 21
163.0000000696647
 31
0.0
  0
LINE
  5
3817
330
18
100
AcDbEntity
  8
DISEGNO
100
AcDbLine
 10
341.3701492253344
 20
146.4355051330533
 30
0.0
 11
339.9543627877079
 21
147.8512915706799
 31
0.0
  0
ARC
  5
3818
330
18
100
AcDbEntity
  8
DISEGNO
100
AcDbCircle
 10
338.4020137545126
 20
119.5000000696647
 30
0.0
 40
2.0
100
AcDbArc
 50
34.84990457905059
 51
90.0
  0
ARC
  5
3819
330
18
100
AcDbEntity
  8
DISEGNO
100
AcDbCircle
 10
337.1388577243192
 20
130.5500000696649
 30
0.0
 40
0.3
100
AcDbArc
 50
247.9999999999987
 51
332.6759999999966
  0
LINE
  5
381A
330
18
100
AcDbEntity
  8
DISEGNO
100
AcDbLine
 10
336.3488577243193
 20
130.5400000696647
 30
0.0
 11
337.0288577243195
 21
130.2700000696647
 31
0.0
  0
ARC
  5
381B
330
18
100
AcDbEntity
  8
DISEGNO
100
AcDbCircle
 10
336.2388577243196
 20
130.260000069665
 30
0.0
 40
0.3
100
AcDbArc
 50
67.99999999999866
 51
148.4593999999959
  0
ARC
  5
381C
330
18
100
AcDbEntity
  8
DISEGNO
100
AcDbCircle
 10
337.0588577243193
 20
139.6000000696651
 30
0.0
 40
0.3
100
AcDbArc
 50
28.32400000000414
 51
113.0000000000002
  0
ARC
  5
381D
330
18
100
AcDbEntity
  8
DISEGNO
100
AcDbCircle
 10
337.7638577243192
 20
137.9400000696648
 30
0.0
 40
0.3
100
AcDbArc
 50
293.0000000000002
 51
17.6760000000028
  0
LINE
  5
381E
330
18
100
AcDbEntity
  8
DISEGNO
100
AcDbLine
 10
337.8808577243194
 20
137.6700000696648
 30
0.0
 11
337.2088577243189
 21
137.3800000696649
 31
0.0
  0
ARC
  5
381F
330
18
100
AcDbEntity
  8
DISEGNO
100
AcDbCircle
 10
337.3188577243195
 20
137.1000000696651
 30
0.0
 40
0.3
100
AcDbArc
 50
113.0000000000002
 51
193.4590000000054
  0
ARC
  5
3820
330
18
100
AcDbEntity
  8
DISEGNO
100
AcDbCircle
 10
328.5188577243193
 20
135.0000000696647
 30
0.0
 40
8.75
100
AcDbArc
 50
347.5409999999977
 51
13.45900000000542
  0
ARC
  5
3821
330
18
100
AcDbEntity
  8
DISEGNO
100
AcDbCircle
 10
337.3588577243195
 20
133.0500000696649
 30
0.0
 40
0.3
100
AcDbArc
 50
167.5406000000044
 51
247.9999999999987
  0
LINE
  5
3822
330
18
100
AcDbEntity
  8
DISEGNO
100
AcDbLine
 10
337.2488577243189
 20
132.7700000696647
 30
0.0
 11
337.9258577243195
 21
132.490000069665
 31
0.0
  0
ARC
  5
3823
330
18
100
AcDbEntity
  8
DISEGNO
100
AcDbCircle
 10
337.8138577243194
 20
132.2100000696648
 30
0.0
 40
0.3
100
AcDbArc
 50
343.3240000000022
 51
67.99999999999866
  0
ARC
  5
3824
330
18
100
AcDbEntity
  8
DISEGNO
100
AcDbCircle
 10
336.1488577243195
 20
139.8700000696651
 30
0.0
 40
0.3
100
AcDbArc
 50
212.5409999999995
 51
293.0000000000002
  0
LINE
  5
3825
330
18
100
AcDbEntity
  8
DISEGNO
100
AcDbLine
 10
336.9388577243194
 20
139.8800000696649
 30
0.0
 11
336.2688577243194
 21
139.5900000696649
 31
0.0
  0
ARC
  5
3826
330
18
100
AcDbEntity
  8
DISEGNO
100
AcDbCircle
 10
328.5188577243193
 20
135.0000000696647
 30
0.0
 40
10.0
100
AcDbArc
 50
17.6760000000028
 51
28.32400000000414
  0
ARC
  5
3827
330
18
100
AcDbEntity
  8
DISEGNO
100
AcDbCircle
 10
328.5188577243193
 20
135.0000000696647
 30
0.0
 40
10.0
100
AcDbArc
 50
332.6759999999966
 51
343.3240000000022
  0
ARC
  5
3828
330
18
100
AcDbEntity
  8
DISEGNO
100
AcDbCircle
 10
325.7388577243196
 20
125.7100000696648
 30
0.0
 40
0.3
100
AcDbArc
 50
253.3240000000013
 51
338.0000000000046
  0
LINE
  5
3829
330
18
100
AcDbEntity
  8
DISEGNO
100
AcDbLine
 10
325.9888577243196
 20
143.6400000696651
 30
0.0
 11
325.6888577243194
 21
144.3100000696647
 31
0.0
  0
ARC
  5
382A
330
18
100
AcDbEntity
  8
DISEGNO
100
AcDbCircle
 10
320.0688577243195
 20
130.2500000696647
 30
0.0
 40
0.3
100
AcDbArc
 50
209.3240000000017
 51
293.9999999999976
  0
ARC
  5
382B
330
18
100
AcDbEntity
  8
DISEGNO
100
AcDbCircle
 10
328.5188577243193
 20
135.0000000696647
 30
0.0
 40
10.0
100
AcDbArc
 50
242.6760000000028
 51
253.3240000000013
  0
ARC
  5
382C
330
18
100
AcDbEntity
  8
DISEGNO
100
AcDbCircle
 10
324.0688577243195
 20
126.3800000696648
 30
0.0
 40
0.3
100
AcDbArc
 50
158.0000000000045
 51
242.6760000000028
  0
LINE
  5
382D
330
18
100
AcDbEntity
  8
DISEGNO
100
AcDbLine
 10
324.0688577243195
 20
127.1700000696648
 30
0.0
 11
323.7888577243189
 21
126.490000069665
 31
0.0
  0
ARC
  5
382E
330
18
100
AcDbEntity
  8
DISEGNO
100
AcDbCircle
 10
323.7888577243189
 20
127.2900000696647
 30
0.0
 40
0.3
100
AcDbArc
 50
338.0000000000046
 51
58.45900000000043
  0
ARC
  5
382F
330
18
100
AcDbEntity
  8
DISEGNO
100
AcDbCircle
 10
328.5188577243193
 20
135.0000000696647
 30
0.0
 40
8.75
100
AcDbArc
 50
213.5409999999954
 51
238.4590000000005
  0
ARC
  5
3830
330
18
100
AcDbEntity
  8
DISEGNO
100
AcDbCircle
 10
320.9788577243194
 20
130.0000000696647
 30
0.0
 40
0.3
100
AcDbArc
 50
33.54099999999539
 51
113.9999999999976
  0
LINE
  5
3831
330
18
100
AcDbEntity
  8
DISEGNO
100
AcDbLine
 10
320.8588577243195
 20
130.2700000696647
 30
0.0
 11
320.1888577243194
 21
129.970000069665
 31
0.0
  0
LINE
  5
3832
330
18
100
AcDbEntity
  8
DISEGNO
100
AcDbLine
 10
315.0188577243193
 20
135.0000000696647
 30
0.0
 11
315.0188577243193
 21
144.883156099858
 31
0.0
  0
ARC
  5
3833
330
18
100
AcDbEntity
  8
DISEGNO
100
AcDbCircle
 10
323.5188577243193
 20
142.5400000696647
 30
0.0
 40
0.3
100
AcDbArc
 50
303.5409999999997
 51
24.00000000000284
  0
LINE
  5
3834
330
18
100
AcDbEntity
  8
DISEGNO
100
AcDbLine
 10
323.7988577243191
 20
142.6600000696651
 30
0.0
 11
323.4988577243189
 21
143.3300000696647
 31
0.0
  0
ARC
  5
3835
330
18
100
AcDbEntity
  8
DISEGNO
100
AcDbCircle
 10
323.7688577243194
 20
143.4600000696648
 30
0.0
 40
0.3
100
AcDbArc
 50
119.323700000001
 51
204.0000000000028
  0
ARC
  5
3836
330
18
100
AcDbEntity
  8
DISEGNO
100
AcDbCircle
 10
328.5188577243193
 20
135.0000000696647
 30
0.0
 40
10.0
100
AcDbArc
 50
108.6762000000005
 51
119.323700000001
  0
ARC
  5
3837
330
18
100
AcDbEntity
  8
DISEGNO
100
AcDbCircle
 10
325.418857724319
 20
144.1900000696648
 30
0.0
 40
0.3
100
AcDbArc
 50
24.00000000000284
 51
108.6762000000005
  0
ARC
  5
3838
330
18
100
AcDbEntity
  8
DISEGNO
100
AcDbCircle
 10
319.1788577243192
 20
137.6200000696651
 30
0.0
 40
0.3
100
AcDbArc
 50
164.3238000000033
 51
249.0000000000024
  0
ARC
  5
3839
330
18
100
AcDbEntity
  8
DISEGNO
100
AcDbCircle
 10
328.5188577243193
 20
135.0000000696647
 30
0.0
 40
10.0
100
AcDbArc
 50
153.6762000000036
 51
164.3238000000033
  0
ARC
  5
383A
330
18
100
AcDbEntity
  8
DISEGNO
100
AcDbCircle
 10
319.3288577243188
 20
131.8900000696651
 30
0.0
 40
0.3
100
AcDbArc
 50
113.9999999999976
 51
198.6759999999984
  0
LINE
  5
383B
330
18
100
AcDbEntity
  8
DISEGNO
100
AcDbLine
 10
319.878857724319
 20
132.4600000696648
 30
0.0
 11
319.2088577243189
 21
132.1700000696648
 31
0.0
  0
ARC
  5
383C
330
18
100
AcDbEntity
  8
DISEGNO
100
AcDbCircle
 10
319.7588577243191
 20
132.740000069665
 30
0.0
 40
0.3
100
AcDbArc
 50
293.9999999999976
 51
14.45899999999899
  0
ARC
  5
383D
330
18
100
AcDbEntity
  8
DISEGNO
100
AcDbCircle
 10
328.5188577243193
 20
135.0000000696647
 30
0.0
 40
8.75
100
AcDbArc
 50
168.540599999997
 51
194.458999999999
  0
ARC
  5
383E
330
18
100
AcDbEntity
  8
DISEGNO
100
AcDbCircle
 10
319.6488577243195
 20
136.8000000696649
 30
0.0
 40
0.3
100
AcDbArc
 50
348.5409999999934
 51
69.00000000000244
  0
LINE
  5
383F
330
18
100
AcDbEntity
  8
DISEGNO
100
AcDbLine
 10
319.7588577243191
 20
137.0800000696647
 30
0.0
 11
319.0788577243188
 21
137.3400000696649
 31
0.0
  0
ARC
  5
3840
330
18
100
AcDbEntity
  8
DISEGNO
100
AcDbCircle
 10
320.7288577243194
 20
139.6000000696651
 30
0.0
 40
0.3
100
AcDbArc
 50
249.0000000000024
 51
329.4590000000024
  0
LINE
  5
3841
330
18
100
AcDbEntity
  8
DISEGNO
100
AcDbLine
 10
320.6188577243188
 20
139.3200000696649
 30
0.0
 11
319.9388577243194
 21
139.5800000696647
 31
0.0
  0
ARC
  5
3842
330
18
100
AcDbEntity
  8
DISEGNO
100
AcDbCircle
 10
319.8288577243188
 20
139.3000000696649
 30
0.0
 40
0.3
100
AcDbArc
 50
69.00000000000244
 51
153.6762000000036
  0
ARC
  5
3843
330
18
100
AcDbEntity
  8
DISEGNO
100
AcDbCircle
 10
328.5188577243193
 20
135.0000000696647
 30
0.0
 40
8.75
100
AcDbArc
 50
123.5405999999985
 51
149.4594000000002
  0
ARC
  5
3844
330
18
100
AcDbEntity
  8
DISEGNO
100
AcDbCircle
 10
328.5188577243193
 20
135.0000000696647
 30
0.0
 40
10.0
100
AcDbArc
 50
198.6759999999984
 51
209.3240000000017
  0
ARC
  5
3845
330
18
100
AcDbEntity
  8
DISEGNO
100
AcDbCircle
 10
331.4688577243192
 20
125.760000069665
 30
0.0
 40
0.3
100
AcDbArc
 50
202.9999999999992
 51
287.6759999999968
  0
LINE
  5
3846
330
18
100
AcDbEntity
  8
DISEGNO
100
AcDbLine
 10
330.9088577243187
 20
126.3100000696647
 30
0.0
 11
331.1888577243194
 21
125.6400000696651
 31
0.0
  0
ARC
  5
3847
330
18
100
AcDbEntity
  8
DISEGNO
100
AcDbCircle
 10
330.628857724319
 20
126.200000069665
 30
0.0
 40
0.3
100
AcDbArc
 50
22.99999999999926
 51
103.4594000000029
  0
ARC
  5
3848
330
18
100
AcDbEntity
  8
DISEGNO
100
AcDbCircle
 10
328.5188577243193
 20
135.0000000696647
 30
0.0
 40
8.75
100
AcDbArc
 50
257.5409999999977
 51
283.4589999999985
  0
ARC
  5
3849
330
18
100
AcDbEntity
  8
DISEGNO
100
AcDbCircle
 10
326.5688577243195
 20
126.1600000696651
 30
0.0
 40
0.3
100
AcDbArc
 50
77.54099999999768
 51
158.0000000000045
  0
LINE
  5
384A
330
18
100
AcDbEntity
  8
DISEGNO
100
AcDbLine
 10
326.2888577243189
 20
126.2700000696647
 30
0.0
 11
326.0188577243193
 21
125.5900000696649
 31
0.0
  0
ARC
  5
384B
330
18
100
AcDbEntity
  8
DISEGNO
100
AcDbCircle
 10
333.3888577243192
 20
127.3700000696651
 30
0.0
 40
0.3
100
AcDbArc
 50
122.540599999999
 51
202.9999999999992
  0
LINE
  5
384C
330
18
100
AcDbEntity
  8
DISEGNO
100
AcDbLine
 10
333.1088577243195
 20
127.2500000696647
 30
0.0
 11
333.3988577243194
 21
126.5800000696647
 31
0.0
  0
ARC
  5
384D
330
18
100
AcDbEntity
  8
DISEGNO
100
AcDbCircle
 10
333.128857724319
 20
126.4600000696648
 30
0.0
 40
0.3
100
AcDbArc
 50
298.3239999999972
 51
22.99999999999926
  0
ARC
  5
384E
330
18
100
AcDbEntity
  8
DISEGNO
100
AcDbCircle
 10
328.5188577243193
 20
135.0000000696647
 30
0.0
 40
10.0
100
AcDbArc
 50
287.6759999999968
 51
298.3239999999972
  0
ARC
  5
384F
330
18
100
AcDbEntity
  8
DISEGNO
100
AcDbCircle
 10
326.2588577243191
 20
143.760000069665
 30
0.0
 40
0.3
100
AcDbArc
 50
204.0000000000028
 51
284.4589999999982
  0
ARC
  5
3850
330
18
100
AcDbEntity
  8
DISEGNO
100
AcDbCircle
 10
328.5188577243193
 20
135.0000000696647
 30
0.0
 40
8.75
100
AcDbArc
 50
78.54100000000038
 51
104.4593999999996
  0
ARC
  5
3851
330
18
100
AcDbEntity
  8
DISEGNO
100
AcDbCircle
 10
330.3188577243195
 20
143.8700000696651
 30
0.0
 40
0.3
100
AcDbArc
 50
258.5410000000004
 51
339.0000000000024
  0
LINE
  5
3852
330
18
100
AcDbEntity
  8
DISEGNO
100
AcDbLine
 10
330.8588577243195
 20
144.4400000696648
 30
0.0
 11
330.5988577243192
 21
143.760000069665
 31
0.0
  0
ARC
  5
3853
330
18
100
AcDbEntity
  8
DISEGNO
100
AcDbCircle
 10
331.1388577243192
 20
144.3400000696649
 30
0.0
 40
0.3
100
AcDbArc
 50
74.32399999999974
 51
159.0000000000024
  0
ARC
  5
3854
330
18
100
AcDbEntity
  8
DISEGNO
100
AcDbCircle
 10
332.8188577243195
 20
143.6900000696648
 30
0.0
 40
0.3
100
AcDbArc
 50
339.0000000000024
 51
63.67600000000305
  0
LINE
  5
3855
330
18
100
AcDbEntity
  8
DISEGNO
100
AcDbLine
 10
333.0988577243193
 20
143.5800000696647
 30
0.0
 11
332.838857724319
 21
142.9000000696648
 31
0.0
  0
ARC
  5
3856
330
18
100
AcDbEntity
  8
DISEGNO
100
AcDbCircle
 10
333.1188577243188
 20
142.7900000696647
 30
0.0
 40
0.3
100
AcDbArc
 50
159.0000000000024
 51
239.4589999999976
  0
ARC
  5
3857
330
18
100
AcDbEntity
  8
DISEGNO
100
AcDbCircle
 10
328.5188577243193
 20
135.0000000696647
 30
0.0
 40
10.0
100
AcDbArc
 50
63.67600000000305
 51
74.32399999999974
  0
LINE
  5
3858
330
18
100
AcDbEntity
  8
DISEGNO
100
AcDbLine
 10
328.5188577243193
 20
121.5000000696647
 30
0.0
 11
338.4020137545126
 21
121.5000000696647
 31
0.0
  0
ARC
  5
3859
330
18
100
AcDbEntity
  8
DISEGNO
100
AcDbCircle
 10
328.5188577243193
 20
135.0000000696647
 30
0.0
 40
8.75
100
AcDbArc
 50
302.5409999999971
 51
328.4589999999954
  0
ARC
  5
385A
330
18
100
AcDbEntity
  8
DISEGNO
100
AcDbCircle
 10
328.5188577243193
 20
135.0000000696647
 30
0.0
 40
8.75
100
AcDbArc
 50
32.54099999999951
 51
59.45899999999753
  0
ARC
  5
385B
330
18
100
AcDbEntity
  8
DISEGNO
100
AcDbCircle
 10
340.6614695688945
 20
148.5583983518665
 30
0.0
 40
1.0
100
AcDbArc
 50
135.0000000000023
 51
224.9999999999977
  0
ARC
  5
385C
330
18
100
AcDbEntity
  8
DISEGNO
100
AcDbCircle
 10
313.0188577243193
 20
144.883156099858
 30
0.0
 40
2.0
100
AcDbArc
 50
0.0
 51
55.15009542095461
  0
LINE
  5
385E
330
18
100
AcDbEntity
  8
DISEGNO
100
AcDbLine
 10
332.0188577243194
 20
170.0
 30
0.0
 11
340.5188577243194
 21
170.0000000000002
 31
0.0
  0
LINE
  5
385F
330
18
100
AcDbEntity
  8
DISEGNO
100
AcDbLine
 10
325.0188577243193
 20
167.0000000000002
 30
0.0
 11
325.0188577243193
 21
170.0000000000002
 31
0.0
  0
LINE
  5
3860
330
18
100
AcDbEntity
  8
DISEGNO
100
AcDbLine
 10
325.0188577243193
 20
167.0000000000002
 30
0.0
 11
332.0188577243194
 21
167.0000000000002
 31
0.0
  0
LINE
  5
3861
330
18
100
AcDbEntity
  8
DISEGNO
100
AcDbLine
 10
332.0188577243194
 20
167.0000000000002
 30
0.0
 11
332.0188577243194
 21
170.0000000000002
 31
0.0
  0
LINE
  5
3862
330
18
100
AcDbEntity
  8
ASSI
100
AcDbLine
 10
331.7688577243193
 20
178.3796268436408
 30
0.0
 11
331.7688577243193
 21
171.7571758323074
 31
0.0
  0
LINE
  5
3863
330
18
100
AcDbEntity
  8
ASSI
100
AcDbLine
 10
335.1051488636117
 20
175.0000000000002
 30
0.0
 11
328.3785599527223
 21
175.0000000000002
 31
0.0
  0
LINE
  5
3866
330
18
100
AcDbEntity
  8
DISEGNO
100
AcDbLine
 10
337.2688577243193
 20
180.2
 30
0.0
 11
337.2688577243193
 21
174.5000000000002
 31
0.0
  0
LINE
  5
386A
330
18
100
AcDbEntity
  8
DISEGNO
100
AcDbLine
 10
339.5188577243184
 20
174.5000000000004
 30
0.0
 11
339.5188577243193
 21
170.0000000000002
 31
0.0
  0
ARC
  5
3873
330
18
100
AcDbEntity
  8
DISEGNO
100
AcDbCircle
 10
352.021857724319
 20
113.0000000696647
 30
0.0
 40
4.0
100
AcDbArc
 50
0.0
 51
90.0
  0
LINE
  5
3874
330
18
100
AcDbEntity
  8
DISEGNO
100
AcDbLine
 10
363.521857724319
 20
128.7500000696647
 30
0.0
 11
363.521857724319
 21
91.25000006966477
 31
0.0
  0
LINE
  5
3879
330
18
100
AcDbEntity
  8
DISEGNO
100
AcDbLine
 10
363.521857724319
 20
91.25000006966477
 30
0.0
 11
357.5218577243191
 21
91.25000006966477
 31
0.0
  0
LINE
  5
387A
330
18
100
AcDbEntity
  8
DISEGNO
100
AcDbLine
 10
357.5218577243191
 20
95.25000006966477
 30
0.0
 11
357.5218577243191
 21
91.25000006966477
 31
0.0
  0
LINE
  5
387B
330
18
100
AcDbEntity
  8
DISEGNO
100
AcDbLine
 10
356.021857724319
 20
106.7500000696647
 30
0.0
 11
356.021857724319
 21
113.0000000696647
 31
0.0
  0
ARC
  5
387C
330
18
100
AcDbEntity
  8
DISEGNO
100
AcDbCircle
 10
347.521857724319
 20
94.25000006966476
 30
0.0
 40
1.0
100
AcDbArc
 50
90.0
 51
179.999994652229
  0
LINE
  5
387D
330
18
100
AcDbEntity
  8
DISEGNO
100
AcDbLine
 10
347.0218577243191
 20
117.0000000696648
 30
0.0
 11
352.021857724319
 21
117.0000000696648
 31
0.0
  0
ARC
  5
387E
330
18
100
AcDbEntity
  8
DISEGNO
100
AcDbCircle
 10
352.021857724319
 20
106.7500000696647
 30
0.0
 40
4.0
100
AcDbArc
 50
270.0
 51
0.0
  0
LINE
  5
387F
330
18
100
AcDbEntity
  8
DISEGNO
100
AcDbLine
 10
357.5218577243191
 20
95.25000006966477
 30
0.0
 11
347.521857724319
 21
95.25000006966477
 31
0.0
  0
LINE
  5
3880
330
18
100
AcDbEntity
  8
DISEGNO
100
AcDbLine
 10
357.5218577243191
 20
78.75000006966477
 30
0.0
 11
357.5218577243191
 21
74.75000006966476
 31
0.0
  0
LINE
  5
3881
330
18
100
AcDbEntity
  8
DISEGNO
100
AcDbLine
 10
357.5218577243191
 20
78.75000006966477
 30
0.0
 11
363.521857724319
 21
78.75000006966477
 31
0.0
  0
ARC
  5
3882
330
18
100
AcDbEntity
  8
DISEGNO
100
AcDbCircle
 10
347.521857724319
 20
75.75000006966476
 30
0.0
 40
1.0
100
AcDbArc
 50
179.999994652229
 51
270.0
  0
ARC
  5
3883
330
18
100
AcDbEntity
  8
DISEGNO
100
AcDbCircle
 10
347.521857724319
 20
44.25000006966476
 30
0.0
 40
1.0
100
AcDbArc
 50
90.0
 51
180.000005347771
  0
LINE
  5
3884
330
18
100
AcDbEntity
  8
DISEGNO
100
AcDbLine
 10
347.521857724319
 20
45.25000006966476
 30
0.0
 11
357.5218577243191
 21
45.25000006966476
 31
0.0
  0
LINE
  5
3885
330
18
100
AcDbEntity
  8
DISEGNO
100
AcDbLine
 10
347.521857724319
 20
74.75000006966476
 30
0.0
 11
357.5218577243191
 21
74.75000006966476
 31
0.0
  0
LINE
  5
3886
330
18
100
AcDbEntity
  8
DISEGNO
100
AcDbLine
 10
346.521857724319
 20
94.25000006966476
 30
0.0
 11
346.521857724319
 21
75.75000006966476
 31
0.0
  0
ARC
  5
38BA
330
18
100
AcDbEntity
  8
DISEGNO
100
AcDbCircle
 10
362.021857724319
 20
168.5000000696647
 30
0.0
 40
1.5
100
AcDbArc
 50
0.0
 51
90.0
  0
ARC
  5
38BB
330
18
100
AcDbEntity
  8
DISEGNO
100
AcDbCircle
 10
358.6188577243197
 20
160.8900000696651
 30
0.0
 40
1.0
100
AcDbArc
 50
141.7680000000026
 51
203.1369999999999
  0
ARC
  5
38BC
330
18
100
AcDbEntity
  8
DISEGNO
100
AcDbCircle
 10
358.6188577243197
 20
154.6000000696651
 30
0.0
 40
1.0
100
AcDbArc
 50
156.8630000000001
 51
218.2319999999973
  0
ARC
  5
38BD
330
18
100
AcDbEntity
  8
DISEGNO
100
AcDbCircle
 10
351.2688577243193
 20
157.7500000696647
 30
0.0
 40
7.0
100
AcDbArc
 50
336.863
 51
23.1370999999985
  0
ARC
  5
38BE
330
18
100
AcDbEntity
  8
DISEGNO
100
AcDbCircle
 10
354.4088577243197
 20
165.1000000696651
 30
0.0
 40
1.0
100
AcDbArc
 50
246.8630000000015
 51
308.2320000000005
  0
ARC
  5
38BF
330
18
100
AcDbEntity
  8
DISEGNO
100
AcDbCircle
 10
354.4088577243197
 20
150.3900000696651
 30
0.0
 40
1.0
100
AcDbArc
 50
51.76799999999945
 51
113.1369999999985
  0
LINE
  5
38C1
330
18
100
AcDbEntity
  8
DISEGNO
100
AcDbLine
 10
363.6271177243193
 20
170.0000183182407
 30
0.0
 11
344.3771177243193
 21
169.9997994844761
 31
0.0
  0
ARC
  5
38C4
330
18
100
AcDbEntity
  8
DISEGNO
100
AcDbCircle
 10
348.1188577243197
 20
165.1000000696651
 30
0.0
 40
1.0
100
AcDbArc
 50
231.7679999999995
 51
293.1369999999982
  0
ARC
  5
38C5
330
18
100
AcDbEntity
  8
DISEGNO
100
AcDbCircle
 10
346.2688577243193
 20
162.7500000696647
 30
0.0
 40
2.0
100
AcDbArc
 50
51.76799999999945
 51
218.2319999999973
  0
ARC
  5
38C6
330
18
100
AcDbEntity
  8
DISEGNO
100
AcDbCircle
 10
351.2688577243193
 20
157.7500000696647
 30
0.0
 40
7.0
100
AcDbArc
 50
66.86300000000148
 51
113.1369999999985
  0
ARC
  5
38C7
330
18
100
AcDbEntity
  8
DISEGNO
100
AcDbCircle
 10
343.9088577243197
 20
160.8900000696651
 30
0.0
 40
1.0
100
AcDbArc
 50
336.863
 51
38.23219999999927
  0
ARC
  5
38C8
330
18
100
AcDbEntity
  8
DISEGNO
100
AcDbCircle
 10
348.2676477393529
 20
149.7974697411384
 30
0.0
 40
1.5
100
AcDbArc
 50
69.32396615000165
 51
134.9999999999925
  0
ARC
  5
38C9
330
18
100
AcDbEntity
  8
DISEGNO
100
AcDbCircle
 10
351.2688577243193
 20
157.7500000696647
 30
0.0
 40
7.0
100
AcDbArc
 50
249.3239661500016
 51
293.1369999999982
  0
ARC
  5
38CA
330
18
100
AcDbEntity
  8
DISEGNO
100
AcDbCircle
 10
343.316327395793
 20
154.7487900846979
 30
0.0
 40
1.5
100
AcDbArc
 50
315.0000000000023
 51
20.67603384999768
  0
ARC
  5
38CB
330
18
100
AcDbEntity
  8
DISEGNO
100
AcDbCircle
 10
351.2688577243193
 20
157.7500000696647
 30
0.0
 40
7.0
100
AcDbArc
 50
156.8630000000001
 51
200.6760338499977
  0
ARC
  5
38DF
330
18
100
AcDbEntity
  8
DISEGNO
100
AcDbCircle
 10
356.2688577243193
 20
162.7500000696647
 30
0.0
 40
2.0
100
AcDbArc
 50
321.7680000000026
 51
128.2320000000005
  0
ARC
  5
38E0
330
18
100
AcDbEntity
  8
DISEGNO
100
AcDbCircle
 10
356.2688577243193
 20
152.7500000696647
 30
0.0
 40
2.0
100
AcDbArc
 50
231.7679999999995
 51
38.23219999999927
  0
LINE
  5
38E1
330
18
100
AcDbEntity
  8
DISEGNO
100
AcDbLine
 10
361.018857724318
 20
135.0001994844735
 30
0.0
 11
361.018857724318
 21
129.0001994844735
 31
0.0
  0
LINE
  5
38E2
330
18
100
AcDbEntity
  8
DISEGNO
100
AcDbLine
 10
361.018857724318
 20
129.0001994844735
 30
0.0
 11
356.518857724318
 21
129.0001994844735
 31
0.0
  0
LINE
  5
38E3
330
18
100
AcDbEntity
  8
DISEGNO
100
AcDbLine
 10
356.518857724318
 20
129.0001994844735
 30
0.0
 11
356.518857724318
 21
126.0001994844737
 31
0.0
  0
LINE
  5
38E4
330
18
100
AcDbEntity
  8
DISEGNO
100
AcDbLine
 10
356.518857724318
 20
141.0001994844735
 30
0.0
 11
356.518857724318
 21
144.0001994844733
 31
0.0
  0
LINE
  5
38E5
330
18
100
AcDbEntity
  8
DISEGNO
100
AcDbLine
 10
361.018857724318
 20
141.0001994844735
 30
0.0
 11
356.518857724318
 21
141.0001994844735
 31
0.0
  0
LINE
  5
38E6
330
18
100
AcDbEntity
  8
DISEGNO
100
AcDbLine
 10
361.018857724318
 20
135.0001994844735
 30
0.0
 11
361.018857724318
 21
141.0001994844735
 31
0.0
  0
LINE
  5
38E7
330
18
100
AcDbEntity
  8
DISEGNO
100
AcDbLine
 10
356.521857724319
 20
124.5000000696647
 30
0.0
 11
356.521857724319
 21
128.7500000696647
 31
0.0
  0
LINE
  5
38E8
330
18
100
AcDbEntity
  8
DISEGNO
100
AcDbLine
 10
363.521857724319
 20
128.7500000696647
 30
0.0
 11
356.521857724319
 21
128.7500000696647
 31
0.0
  0
LINE
  5
38E9
330
18
100
AcDbEntity
  8
DISEGNO
100
AcDbLine
 10
356.521857724319
 20
141.2500000696647
 30
0.0
 11
356.521857724319
 21
145.5000000696647
 31
0.0
  0
LINE
  5
38EA
330
18
100
AcDbEntity
  8
DISEGNO
100
AcDbLine
 10
356.521857724319
 20
141.2500000696647
 30
0.0
 11
363.521857724319
 21
141.2500000696647
 31
0.0
  0
LINE
  5
38EB
330
18
100
AcDbEntity
  8
DISEGNO
100
AcDbLine
 10
350.0188577243179
 20
126.0001994844735
 30
0.0
 11
349.518857724318
 21
126.5001994844735
 31
0.0
  0
LINE
  5
38EC
330
18
100
AcDbEntity
  8
DISEGNO
100
AcDbLine
 10
349.518857724318
 20
135.0001994844735
 30
0.0
 11
349.518857724318
 21
126.5001994844735
 31
0.0
  0
LINE
  5
38ED
330
18
100
AcDbEntity
  8
DISEGNO
100
AcDbLine
 10
349.518857724318
 20
135.0001994844735
 30
0.0
 11
349.518857724318
 21
143.5001994844735
 31
0.0
  0
LINE
  5
38EE
330
18
100
AcDbEntity
  8
DISEGNO
100
AcDbLine
 10
350.0188577243179
 20
144.0001994844735
 30
0.0
 11
349.518857724318
 21
143.5001994844735
 31
0.0
  0
ARC
  5
38EF
330
18
100
AcDbEntity
  8
DISEGNO
100
AcDbCircle
 10
346.316585103757
 20
125.5000000696647
 30
0.0
 40
1.0
100
AcDbArc
 50
201.4312545038229
 51
270.0
  0
ARC
  5
38F0
330
18
100
AcDbEntity
  8
DISEGNO
100
AcDbCircle
 10
346.316585103757
 20
144.5000000696647
 30
0.0
 40
1.0
100
AcDbArc
 50
90.0
 51
158.5687454961771
  0
ARC
  5
38F1
330
18
100
AcDbEntity
  8
DISEGNO
100
AcDbCircle
 10
370.5188577243193
 20
135.0000000696647
 30
0.0
 40
27.0
100
AcDbArc
 50
158.5687454961771
 51
201.4312545038229
  0
LINE
  5
38F2
330
18
100
AcDbEntity
  8
DISEGNO
100
AcDbLine
 10
356.518857724318
 20
126.0001994844737
 30
0.0
 11
350.0188577243179
 21
126.0001994844735
 31
0.0
  0
LINE
  5
38F3
330
18
100
AcDbEntity
  8
DISEGNO
100
AcDbLine
 10
356.518857724318
 20
144.0001994844733
 30
0.0
 11
350.0188577243179
 21
144.0001994844735
 31
0.0
  0
LINE
  5
38F4
330
18
100
AcDbEntity
  8
DISEGNO
100
AcDbLine
 10
346.316585103757
 20
124.5000000696647
 30
0.0
 11
356.521857724319
 21
124.5000000696647
 31
0.0
  0
LINE
  5
38F5
330
18
100
AcDbEntity
  8
DISEGNO
100
AcDbLine
 10
346.316585103757
 20
145.5000000696647
 30
0.0
 11
356.521857724319
 21
145.5000000696647
 31
0.0
  0
LINE
  5
38F6
330
18
100
AcDbEntity
  8
DISEGNO
100
AcDbLine
 10
347.2069875675729
 20
150.858129912918
 30
0.0
 11
342.7843627877078
 21
146.4355051330533
 31
0.0
  0
LINE
  5
38F7
330
18
100
AcDbEntity
  8
DISEGNO
100
AcDbLine
 10
363.521857724319
 20
168.5000000696647
 30
0.0
 11
363.521857724319
 21
141.2500000696647
 31
0.0
  0
ARC
  5
3918
330
18
100
AcDbEntity
  8
DISEGNO
100
AcDbCircle
 10
358.1271177243193
 20
174.0000000000002
 30
0.0
 40
0.5
100
AcDbArc
 50
0.0
 51
90.0
  0
LINE
  5
3919
330
18
100
AcDbEntity
  8
DISEGNO
100
AcDbLine
 10
358.6271177243193
 20
174.0000000000002
 30
0.0
 11
358.6271177243193
 21
170.0000000000002
 31
0.0
  0
LINE
  5
391A
330
18
100
AcDbEntity
  8
DISEGNO
100
AcDbLine
 10
353.5188577243193
 20
170.0000000000002
 30
0.0
 11
344.2688577243193
 21
170.0000000000002
 31
0.0
  0
LINE
  5
391B
330
18
100
AcDbEntity
  8
DISEGNO
100
AcDbLine
 10
344.2688577243193
 20
169.8000000000004
 30
0.0
 11
344.2688577243193
 21
170.0000000000002
 31
0.0
  0
LINE
  5
391C
330
18
100
AcDbEntity
  8
DISEGNO
100
AcDbLine
 10
341.7688577243193
 20
169.8000000000004
 30
0.0
 11
341.7688577243193
 21
170.0000000000002
 31
0.0
  0
LINE
  5
391D
330
18
100
AcDbEntity
  8
DISEGNO
100
AcDbLine
 10
341.7688577243193
 20
169.8000000000004
 30
0.0
 11
344.2688577243193
 21
169.8000000000004
 31
0.0
  0
LINE
  5
391F
330
18
100
AcDbEntity
  8
DISEGNO
100
AcDbLine
 10
363.5188577243193
 20
143.8200000696649
 30
0.0
 11
363.5188577243193
 21
131.9000000696648
 31
0.0
  0
LINE
  5
3922
330
18
100
AcDbEntity
  8
DISEGNO
100
AcDbLine
 10
363.5188577243193
 20
126.180000069665
 30
0.0
 11
363.5188577243193
 21
131.9000000696648
 31
0.0
  0
LINE
  5
3924
330
18
100
AcDbEntity
  8
DISEGNO
100
AcDbLine
 10
363.6271177243193
 20
170.0000000000002
 30
0.0
 11
363.6271177243193
 21
183.0000000000004
 31
0.0
  0
LINE
  5
3AE5
330
18
100
AcDbEntity
  8
BASE
100
AcDbLine
 10
-841.2726354533761
 20
28.56839789089906
 30
0.0
 11
-264.5226417498676
 21
28.56839789089815
 31
0.0
  0
LINE
  5
3AE6
330
18
100
AcDbEntity
  8
BASE
100
AcDbLine
 10
-841.2726354533761
 20
41.06839789089928
 30
0.0
 11
-264.5226417498676
 21
41.06839789089814
 31
0.0
  0
LINE
  5
3AE7
330
18
100
AcDbEntity
  8
BASE
100
AcDbLine
 10
-264.5226417498681
 20
41.06839789089996
 30
0.0
 11
-16.37263545337657
 21
41.06839789089906
 31
0.0
  0
LINE
  5
3AE8
330
18
100
AcDbEntity
  8
BASE
100
AcDbLine
 10
-264.5226417498681
 20
28.56839789089815
 30
0.0
 11
-16.37263545337657
 21
28.56839789089906
 31
0.0
  0
LINE
  5
3AE9
330
18
100
AcDbEntity
  8
BASE
100
AcDbLine
 10
-841.2726354533761
 20
90.88679578179892
 30
0.0
 11
-264.5226417498676
 21
90.88679578179778
 31
0.0
  0
LINE
  5
3AEA
330
18
100
AcDbEntity
  8
BASE
100
AcDbLine
 10
-841.2726354533761
 20
78.3867957817987
 30
0.0
 11
-264.5226417498676
 21
78.38679578179778
 31
0.0
  0
LINE
  5
3AEB
330
18
100
AcDbEntity
  8
BASE
100
AcDbLine
 10
-264.5226417498681
 20
78.38679578179778
 30
0.0
 11
-16.37263545337657
 21
78.3867957817987
 31
0.0
  0
LINE
  5
3AEC
330
18
100
AcDbEntity
  8
BASE
100
AcDbLine
 10
-264.5226417498681
 20
90.88679578179961
 30
0.0
 11
-16.37263545337657
 21
90.88679578179869
 31
0.0
  0
LINE
  5
3AED
330
18
100
AcDbEntity
  8
BASE
100
AcDbLine
 10
-1016.372635453376
 20
28.56839789089906
 30
0.0
 11
-841.2726354533761
 21
28.56839789089906
 31
0.0
  0
LINE
  5
3AEE
330
18
100
AcDbEntity
  8
BASE
100
AcDbLine
 10
-1016.372635453376
 20
41.06839789089906
 30
0.0
 11
-841.2726354533761
 21
41.06839789089906
 31
0.0
  0
LINE
  5
3AEF
330
18
100
AcDbEntity
  8
BASE
100
AcDbLine
 10
-1016.372635453376
 20
90.88679578179869
 30
0.0
 11
-841.2726354533761
 21
90.88679578179869
 31
0.0
  0
LINE
  5
3AF0
330
18
100
AcDbEntity
  8
BASE
100
AcDbLine
 10
-1016.372635453376
 20
78.3867957817987
 30
0.0
 11
-841.2726354533761
 21
78.3867957817987
 31
0.0
  0
LINE
  5
47DD
330
18
100
AcDbEntity
  8
DISEGNO
100
AcDbLine
 10
-1277.597601538298
 20
-48.50030000000936
 30
0.0
 11
-1277.597601538298
 21
183.4996999303256
 31
0.0
  0
LINE
  5
47DE
330
18
100
AcDbEntity
  8
DISEGNO
100
AcDbLine
 10
-1157.594601538298
 20
-48.50030000000936
 30
0.0
 11
-1157.594601538298
 21
183.4996999303256
 31
0.0
  0
LINE
  5
47DF
330
18
100
AcDbEntity
  8
DISEGNO
100
AcDbLine
 10
-1276.097601538298
 20
-50.00030000000936
 30
0.0
 11
-1159.094601538298
 21
-50.00030000000936
 31
0.0
  0
ARC
  5
47E0
330
18
100
AcDbEntity
  8
DISEGNO
100
AcDbCircle
 10
-1276.097601538298
 20
-48.50030000000936
 30
0.0
 40
1.5
100
AcDbArc
 50
180.0000000048332
 51
270.0
  0
LINE
  5
47E1
330
18
100
AcDbEntity
  8
ASSI
100
AcDbLine
 10
-1265.347601538298
 20
-30.85047596659172
 30
0.0
 11
-1265.347601538298
 21
-44.22058017911297
 31
0.0
  0
CIRCLE
  5
47E3
330
18
100
AcDbEntity
  8
NORMALI
100
AcDbCircle
 10
-1265.347601538298
 20
-37.75030000000891
 30
0.0
 40
5.0
1001
COMAU_ACADLIB
1000
00302052
1000
Vite T.C.E.I. UNI 5931 - M6x20 - 8.8
  0
LINE
  5
47ED
330
18
100
AcDbEntity
  8
ASSI
100
AcDbLine
 10
-1258.572436180067
 20
-37.75030000000891
 30
0.0
 11
-1271.982029716804
 21
-37.75030000000891
 31
0.0
  0
CIRCLE
  5
47F6
330
18
100
AcDbEntity
  8
NORMALI
100
AcDbCircle
 10
-1169.847601538298
 20
-37.75030000000891
 30
0.0
 40
5.0
1001
COMAU_ACADLIB
1000
00302052
1000
Vite T.C.E.I. UNI 5931 - M6x20 - 8.8
  0
LINE
  5
47F9
330
18
100
AcDbEntity
  8
ASSI
100
AcDbLine
 10
-1163.072436180067
 20
-37.75030000000891
 30
0.0
 11
-1176.482029716804
 21
-37.75030000000891
 31
0.0
  0
LINE
  5
47FA
330
18
100
AcDbEntity
  8
ASSI
100
AcDbLine
 10
-1169.847601538298
 20
-30.85047596659172
 30
0.0
 11
-1169.847601538298
 21
-44.22058017911297
 31
0.0
  0
ARC
  5
47FB
330
18
100
AcDbEntity
  8
DISEGNO
100
AcDbCircle
 10
-1159.094601538298
 20
-48.50030000000936
 30
0.0
 40
1.5
100
AcDbArc
 50
270.0
 51
0.0
  0
LINE
  5
47FC
330
18
100
AcDbEntity
  8
ASSI
100
AcDbLine
 10
-1242.597601538298
 20
120.8294202916087
 30
0.0
 11
-1242.597601538298
 21
147.2019485146075
 31
0.0
  0
LINE
  5
47FD
330
18
100
AcDbEntity
  8
ASSI
100
AcDbLine
 10
-1242.597601538298
 20
141.8995240334087
 30
0.0
 11
-1242.597601538298
 21
128.5294198208875
 31
0.0
  0
CIRCLE
  5
4807
330
18
100
AcDbEntity
  8
NORMALI
100
AcDbCircle
 10
-1242.597601538298
 20
134.9996999999913
 30
0.0
 40
5.0
1001
COMAU_ACADLIB
1000
00302052
1000
Vite T.C.E.I. UNI 5931 - M6x20 - 8.8
  0
LINE
  5
4809
330
18
100
AcDbEntity
  8
ASSI
100
AcDbLine
 10
-1235.822436180067
 20
134.9996999999913
 30
0.0
 11
-1249.232029716804
 21
134.9996999999913
 31
0.0
  0
CIRCLE
  5
4814
330
18
100
AcDbEntity
  8
NORMALI
100
AcDbCircle
 10
-1192.597601538298
 20
134.9996999999913
 30
0.0
 40
5.0
1001
COMAU_ACADLIB
1000
00302052
1000
Vite T.C.E.I. UNI 5931 - M6x20 - 8.8
  0
LINE
  5
4815
330
18
100
AcDbEntity
  8
ASSI
100
AcDbLine
 10
-1192.597601538298
 20
120.8294202916087
 30
0.0
 11
-1192.597601538298
 21
146.6647434673724
 31
0.0
  0
LINE
  5
4816
330
18
100
AcDbEntity
  8
ASSI
100
AcDbLine
 10
-1192.597601538298
 20
141.8995240334087
 30
0.0
 11
-1192.597601538298
 21
128.5294198208875
 31
0.0
  0
LINE
  5
4817
330
18
100
AcDbEntity
  8
ASSI
100
AcDbLine
 10
-1185.822436180067
 20
134.9996999999913
 30
0.0
 11
-1199.232029716803
 21
134.9996999999913
 31
0.0
  0
LINE
  5
4818
330
18
100
AcDbEntity
  8
DISEGNO
100
AcDbLine
 10
-1277.490341538298
 20
184.9996999303256
 30
0.0
 11
-1248.847601538298
 21
184.9996999303256
 31
0.0
  0
LINE
  5
4819
330
18
100
AcDbEntity
  8
DISEGNO
100
AcDbLine
 10
-1277.490341538298
 20
206.9996999303283
 30
0.0
 11
-1157.489341538299
 21
206.9996999303288
 31
0.0
  0
LINE
  5
481A
330
18
100
AcDbEntity
  8
DISEGNO
100
AcDbLine
 10
-1277.490341538298
 20
184.9996999303256
 30
0.0
 11
-1277.490341538298
 21
206.9996999303283
 31
0.0
  0
ARC
  5
481B
330
18
100
AcDbEntity
  8
DISEGNO
100
AcDbCircle
 10
-1276.100601538297
 20
183.4996999303256
 30
0.0
 40
1.5
100
AcDbArc
 50
90.0
 51
180.0
  0
LINE
  5
481C
330
18
100
AcDbEntity
  8
DISEGNO
100
AcDbLine
 10
-1236.347601538298
 20
184.9996999303265
 30
0.0
 11
-1198.847601538298
 21
184.9996999303261
 31
0.0
  0
LINE
  5
481D
330
18
100
AcDbEntity
  8
DISEGNO
100
AcDbLine
 10
-1259.489341538298
 20
184.9998993451371
 30
0.0
 11
-1175.489341538298
 21
184.999499345137
 31
0.0
  0
LINE
  5
481E
330
18
100
AcDbEntity
  8
ASSI
100
AcDbLine
 10
-1252.300375718307
 20
174.999699414802
 30
0.0
 11
-1238.385918627628
 21
174.999699414802
 31
0.0
  0
LINE
  5
481F
330
18
100
AcDbEntity
  8
ASSI
100
AcDbLine
 10
-1245.847601538297
 20
168.0306886212139
 30
0.0
 11
-1245.847601538297
 21
188.9860654315169
 31
0.0
  0
CIRCLE
  5
4829
330
18
100
AcDbEntity
  8
NORMALI
100
AcDbCircle
 10
-1245.847601538297
 20
174.999699414802
 30
0.0
 40
5.0
1001
COMAU_ACADLIB
1000
00302052
1000
Vite T.C.E.I. UNI 5931 - M6x20 - 8.8
  0
LINE
  5
482B
330
18
100
AcDbEntity
  8
DISEGNO
100
AcDbLine
 10
-1157.489341538298
 20
184.9996999303256
 30
0.0
 11
-1157.489341538299
 21
206.9996999303288
 31
0.0
  0
LINE
  5
482C
330
18
100
AcDbEntity
  8
DISEGNO
100
AcDbLine
 10
-1186.347601538298
 20
184.9996999303256
 30
0.0
 11
-1157.489341538298
 21
184.9996999303256
 31
0.0
  0
LINE
  5
482D
330
18
100
AcDbEntity
  8
ASSI
100
AcDbLine
 10
-1189.347601538297
 20
167.7249065424122
 30
0.0
 11
-1189.347601538297
 21
191.6398308652025
 31
0.0
  0
LINE
  5
482E
330
18
100
AcDbEntity
  8
ASSI
100
AcDbLine
 10
-1181.826546403656
 20
174.999699414802
 30
0.0
 11
-1196.689380166292
 21
174.999699414802
 31
0.0
  0
CIRCLE
  5
4831
330
18
100
AcDbEntity
  8
NORMALI
100
AcDbCircle
 10
-1189.347601538297
 20
174.999699414802
 30
0.0
 40
5.0
1001
COMAU_ACADLIB
1000
00302052
1000
Vite T.C.E.I. UNI 5931 - M6x20 - 8.8
  0
ARC
  5
483A
330
18
100
AcDbEntity
  8
DISEGNO
100
AcDbCircle
 10
-1159.094601538298
 20
183.4996999303256
 30
0.0
 40
1.5
100
AcDbArc
 50
0.0
 51
90.0
  0
LINE
  5
484E
330
18
100
AcDbEntity
  8
ASSI
100
AcDbLine
 10
372.9410375187736
 20
85.00000006966477
 30
0.0
 11
234.7150752897637
 21
85.00000006966477
 31
0.0
  0
LINE
  5
484F
330
18
100
AcDbEntity
  8
ASSI
100
AcDbLine
 10
410.1932969857252
 20
135.0000000696647
 30
0.0
 11
193.0658367499882
 21
135.0000000696647
 31
0.0
  0
LINE
  5
4851
330
18
100
AcDbEntity
  8
DISEGNO
100
AcDbLine
 10
-391.2726354533777
 20
213.035586005971
 30
0.0
 11
-393.2726354533777
 21
211.035586005971
 31
0.0
  0
LINE
  5
4852
330
18
100
AcDbEntity
  8
DISEGNO
100
AcDbLine
 10
-521.2726354533777
 20
213.035586005971
 30
0.0
 11
-519.2726354533776
 21
211.035586005971
 31
0.0
  0
LINE
  5
4853
330
18
100
AcDbEntity
  8
DISEGNO
100
AcDbLine
 10
-393.2726354533777
 20
211.035586005971
 30
0.0
 11
-519.2726354533776
 21
211.035586005971
 31
0.0
  0
CIRCLE
  5
4879
330
18
100
AcDbEntity
  8
DISEGNO
100
AcDbCircle
 10
-456.2726354533761
 20
262.9999999303268
 30
0.0
 40
35.0
  0
LINE
  5
487A
330
18
100
AcDbEntity
  8
ASSI
100
AcDbLine
 10
-401.2726354533762
 20
280.3211271835216
 30
0.0
 11
-401.2726354533762
 21
303.6650288612508
 31
0.0
  0
LINE
  5
487B
330
18
100
AcDbEntity
  8
ASSI
100
AcDbLine
 10
-426.2205972529478
 20
282.5327333752024
 30
0.0
 11
-426.2205972529478
 21
303.5713428863081
 31
0.0
  0
CIRCLE
  5
487C
330
18
100
AcDbEntity
  8
DISEGNO
100
AcDbCircle
 10
-456.2726354533761
 20
262.9999999303268
 30
0.0
 40
28.25000000000841
  0
LINE
  5
487D
330
18
100
AcDbEntity
  8
ASSI
100
AcDbLine
 10
-436.7399020085009
 20
293.0520381307553
 30
0.0
 11
-415.7012924973952
 21
293.0520381307553
 31
0.0
  0
CIRCLE
  5
487E
330
18
100
AcDbEntity
  8
TRATTEGGI
100
AcDbCircle
 10
-426.2205972529478
 20
293.0520381307553
 30
0.0
 40
7.0
  0
CIRCLE
  5
487F
330
18
100
AcDbEntity
  8
DISEGNO
100
AcDbCircle
 10
-426.2205972529478
 20
293.0520381307553
 30
0.0
 40
4.5
  0
LINE
  5
4880
330
18
100
AcDbEntity
  8
ASSI
100
AcDbLine
 10
-392.3671455301693
 20
292.9999999303267
 30
0.0
 11
-410.145498423356
 21
292.9999999303267
 31
0.0
  0
LINE
  5
4881
330
18
100
AcDbEntity
  8
ASSI
100
AcDbLine
 10
-511.2726354533761
 20
280.3211271835216
 30
0.0
 11
-511.2726354533761
 21
303.6650288612508
 31
0.0
  0
LINE
  5
4882
330
18
100
AcDbEntity
  8
ASSI
100
AcDbLine
 10
-486.3246736538045
 20
282.5327333752024
 30
0.0
 11
-486.3246736538045
 21
303.5713428863081
 31
0.0
  0
LINE
  5
4883
330
18
100
AcDbEntity
  8
ASSI
100
AcDbLine
 10
-520.1781253765831
 20
292.9999999303267
 30
0.0
 11
-502.3997724833963
 21
292.9999999303267
 31
0.0
  0
CIRCLE
  5
4884
330
18
100
AcDbEntity
  8
TRATTEGGI
100
AcDbCircle
 10
-486.3246736538045
 20
293.0520381307553
 30
0.0
 40
7.0
  0
LINE
  5
4885
330
18
100
AcDbEntity
  8
ASSI
100
AcDbLine
 10
-475.8053688982519
 20
293.0520381307553
 30
0.0
 11
-496.8439784093576
 21
293.0520381307553
 31
0.0
  0
CIRCLE
  5
4886
330
18
100
AcDbEntity
  8
DISEGNO
100
AcDbCircle
 10
-486.3246736538077
 20
293.0520381307553
 30
0.0
 40
4.5
  0
LINE
  5
4887
330
18
100
AcDbEntity
  8
ASSI
100
AcDbLine
 10
-511.2726354533761
 20
245.6788726771319
 30
0.0
 11
-511.2726354533761
 21
222.3349709994026
 31
0.0
  0
CIRCLE
  5
4888
330
18
100
AcDbEntity
  8
TRATTEGGI
100
AcDbCircle
 10
-486.3246736538045
 20
232.9479617298984
 30
0.0
 40
7.0
  0
CIRCLE
  5
4889
330
18
100
AcDbEntity
  8
DISEGNO
100
AcDbCircle
 10
-486.3246736538077
 20
232.9479617298984
 30
0.0
 40
4.5
  0
LINE
  5
488A
330
18
100
AcDbEntity
  8
ASSI
100
AcDbLine
 10
-486.3246736538045
 20
243.4672664854507
 30
0.0
 11
-486.3246736538045
 21
222.428656974345
 31
0.0
  0
LINE
  5
488B
330
18
100
AcDbEntity
  8
ASSI
100
AcDbLine
 10
-520.1781253765831
 20
232.9999999303268
 30
0.0
 11
-502.3997724833963
 21
232.9999999303268
 31
0.0
  0
LINE
  5
488C
330
18
100
AcDbEntity
  8
ASSI
100
AcDbLine
 10
-475.8053688982519
 20
232.9479617298979
 30
0.0
 11
-496.8439784093576
 21
232.9479617298979
 31
0.0
  0
LINE
  5
488D
330
18
100
AcDbEntity
  8
ASSI
100
AcDbLine
 10
-401.2726354533762
 20
245.6788726771319
 30
0.0
 11
-401.2726354533762
 21
222.3349709994026
 31
0.0
  0
CIRCLE
  5
488E
330
18
100
AcDbEntity
  8
DISEGNO
100
AcDbCircle
 10
-426.2205972529478
 20
232.9479617298984
 30
0.0
 40
4.5
  0
CIRCLE
  5
488F
330
18
100
AcDbEntity
  8
TRATTEGGI
100
AcDbCircle
 10
-426.2205972529478
 20
232.9479617298984
 30
0.0
 40
7.0
  0
LINE
  5
4890
330
18
100
AcDbEntity
  8
ASSI
100
AcDbLine
 10
-426.2205972529478
 20
243.4672664854507
 30
0.0
 11
-426.2205972529478
 21
222.428656974345
 31
0.0
  0
LINE
  5
4891
330
18
100
AcDbEntity
  8
ASSI
100
AcDbLine
 10
-436.7399020085009
 20
232.9479617298979
 30
0.0
 11
-415.7012924973952
 21
232.9479617298979
 31
0.0
  0
LINE
  5
4892
330
18
100
AcDbEntity
  8
ASSI
100
AcDbLine
 10
-392.3671455301693
 20
232.9999999303268
 30
0.0
 11
-410.145498423356
 21
232.9999999303268
 31
0.0
  0
LINE
  5
4893
330
18
100
AcDbEntity
  8
ASSI
100
AcDbLine
 10
-397.4308206506595
 20
262.9999999303268
 30
0.0
 11
-515.1144502560933
 21
262.9999999303266
 31
0.0
  0
LINE
  5
4894
330
18
100
AcDbEntity
  8
ASSI
100
AcDbLine
 10
-456.2726354533761
 20
204.1581851276098
 30
0.0
 11
-456.2726354533761
 21
321.8418147330436
 31
0.0
  0
LINE
  5
4895
330
18
100
AcDbEntity
  8
ASSI
100
AcDbLine
 10
-1040.943632224668
 20
135.0000000000003
 30
0.0
 11
10.0126952838882
 21
135.0000000000003
 31
0.0
  0
LINE
  5
4896
330
18
100
AcDbEntity
  8
ASSI
100
AcDbLine
 10
-1040.943632224668
 20
85.00000000000033
 30
0.0
 11
10.0126952838882
 21
85.00000000000033
 31
0.0
  0
LINE
  5
4897
330
18
100
AcDbEntity
  8
ASSI
100
AcDbLine
 10
-1040.943632224668
 20
35.00000000000034
 30
0.0
 11
10.0126952838882
 21
35.00000000000034
 31
0.0
  0
LINE
  5
4898
330
18
100
AcDbEntity
  8
ASSI
100
AcDbLine
 10
-1040.943632224668
 20
-14.99999999999965
 30
0.0
 11
10.0126952838882
 21
-14.99999999999965
 31
0.0
  0
LINE
  5
48AD
330
18
100
AcDbEntity
  8
ASSI
100
AcDbLine
 10
-571.2726354533762
 20
-247.9369037390932
 30
0.0
 11
-571.2726354533753
 21
-224.5187942388782
 31
0.0
  0
LINE
  5
48AE
330
18
100
AcDbEntity
  8
ASSI
100
AcDbLine
 10
-571.2726354533762
 20
-385.5187901724974
 30
0.0
 11
-571.2726354533753
 21
-408.9368996727118
 31
0.0
  0
LINE
  5
48AF
330
18
100
AcDbEntity
  8
ASSI
100
AcDbLine
 10
-341.272635453378
 20
-247.6287696492543
 30
0.0
 11
-341.272635453378
 21
-224.826924262338
 31
0.0
  0
LINE
  5
48B0
330
18
100
AcDbEntity
  8
ASSI
100
AcDbLine
 10
-341.272635453378
 20
-385.8269242623358
 30
0.0
 11
-341.272635453378
 21
-408.628769649252
 31
0.0
  0
LINE
  5
48B1
330
18
100
AcDbEntity
  8
DISEGNO
100
AcDbLine
 10
-521.7726354533762
 20
198.9999999303265
 30
0.0
 11
-521.7726354533762
 21
223.999999930322
 31
0.0
  0
LINE
  5
48B2
330
18
100
AcDbEntity
  8
DISEGNO
100
AcDbLine
 10
-390.7726354533762
 20
198.9999999303266
 30
0.0
 11
-390.7726354533761
 21
223.999999930322
 31
0.0
  0
LINE
  5
48B3
330
18
100
AcDbEntity
  8
BASE
100
AcDbLine
 10
-521.7726354533762
 20
208.9999999303276
 30
0.0
 11
-631.2726354533761
 21
208.9999999303276
 31
0.0
  0
LINE
  5
48B5
330
18
100
AcDbEntity
  8
DISEGNO
100
AcDbLine
 10
-521.7726354533762
 20
-271.727846955795
 30
0.0
 11
-521.7726354533762
 21
-226.7278469557953
 31
0.0
  0
LINE
  5
48B6
330
18
100
AcDbEntity
  8
DISEGNO
100
AcDbLine
 10
-390.7726354533761
 20
-271.727846955795
 30
0.0
 11
-390.7726354533761
 21
-226.7278469557953
 31
0.0
  0
LINE
  5
48B7
330
18
100
AcDbEntity
  8
BASE
100
AcDbLine
 10
-526.7726354533762
 20
-221.7278469557953
 30
0.0
 11
-626.2726354533762
 21
-221.7278469557952
 31
0.0
  0
LINE
  5
48B8
330
18
100
AcDbEntity
  8
BASE
100
AcDbLine
 10
-526.7726354533762
 20
-221.7278469557953
 30
0.0
 11
-521.7726354533762
 21
-226.7278469557953
 31
0.0
  0
LINE
  5
48B9
330
18
100
AcDbEntity
  8
BASE
100
AcDbLine
 10
-385.7726354533761
 20
-221.7278469557953
 30
0.0
 11
-390.7726354533761
 21
-226.7278469557953
 31
0.0
  0
LINE
  5
48BA
330
18
100
AcDbEntity
  8
BASE
100
AcDbLine
 10
-286.2726354533762
 20
-221.7278469557953
 30
0.0
 11
-281.2726354533762
 21
-226.7278469557953
 31
0.0
  0
LINE
  5
48BB
330
18
100
AcDbEntity
  8
BASE
100
AcDbLine
 10
-281.2726354533762
 20
-406.7278469557952
 30
0.0
 11
-286.2726354533762
 21
-411.7278469557952
 31
0.0
  0
LINE
  5
48BC
330
18
100
AcDbEntity
  8
BASE
100
AcDbLine
 10
-631.2726354533761
 20
-406.7278469557952
 30
0.0
 11
-626.2726354533762
 21
-411.7278469557952
 31
0.0
  0
LINE
  5
48BD
330
18
100
AcDbEntity
  8
BASE
100
AcDbLine
 10
-626.2726354533762
 20
-221.7278469557952
 30
0.0
 11
-631.2726354533761
 21
-226.7278469557952
 31
0.0
  0
LINE
  5
48BE
330
18
100
AcDbEntity
  8
DISEGNO
100
AcDbLine
 10
-521.7726354533762
 20
-361.7278469557965
 30
0.0
 11
-521.7726354533762
 21
-406.7278469557961
 31
0.0
  0
LINE
  5
48BF
330
18
100
AcDbEntity
  8
BASE
100
AcDbLine
 10
-526.7726354533762
 20
-411.7278469557962
 30
0.0
 11
-521.7726354533762
 21
-406.7278469557961
 31
0.0
  0
LINE
  5
48C0
330
18
100
AcDbEntity
  8
DISEGNO
100
AcDbLine
 10
-390.7726354533761
 20
-361.7278469557965
 30
0.0
 11
-390.7726354533761
 21
-406.7278469557961
 31
0.0
  0
LINE
  5
48C1
330
18
100
AcDbEntity
  8
BASE
100
AcDbLine
 10
-385.7726354533761
 20
-411.7278469557962
 30
0.0
 11
-390.7726354533761
 21
-406.7278469557961
 31
0.0
  0
LINE
  5
48C2
330
18
100
AcDbEntity
  8
BASE
100
AcDbLine
 10
-526.7726354533754
 20
-411.7278469557952
 30
0.0
 11
-626.2726354533762
 21
-411.7278469557952
 31
0.0
  0
ENDSEC
  0
SECTION
  2
OBJECTS
  0
DICTIONARY
  5
C
330
0
100
AcDbDictionary
281
     1
  3
ACAD_COLOR
350
48F0
  3
ACAD_GROUP
350
D
  3
ACAD_LAYOUT
350
CFB
  3
ACAD_MATERIAL
350
48C6
  3
ACAD_MLEADERSTYLE
350
4915
  3
ACAD_MLINESTYLE
350
1B
  3
ACAD_PLOTSETTINGS
350
CFC
  3
ACAD_PLOTSTYLENAME
350
CF9
  3
ACAD_SCALELIST
350
48F3
  3
ACAD_TABLESTYLE
350
48F1
  3
ACAD_VISUALSTYLE
350
48DF
  3
ACDB_RECOMPOSE_DATA
350
4926
  3
AcDbVariableDictionary
350
2CB9
  3
ACGREF_MASTER
350
D16
  3
ACGREFACAD_MASTER
350
D1A
  3
AcmDictionary
350
D1C
  3
ACME_BOM_MANAGER_NAME
350
D0F
  3
ACME_COMMAND_HISTORY
350
D0A
  3
ACME_SCOPE_NAME
350
D09
  3
ACMESTATEMGR
350
D14
  3
AcmeSysVarManager
350
D0B
  3
AcmSystemVariableManager
350
D20
  3
AMG
350
D02
  3
AMGSNAPSETTINGS
350
D4F
  3
AMI_MASTER
350
D1B
  0
DICTIONARY
  5
2CA9
330
18
100
AcDbDictionary
280
     1
281
     1
  3
ACAD_INDEX
360
2CAA
  0
DICTIONARY
  5
48F0
102
{ACAD_REACTORS
330
C
102
}
330
C
100
AcDbDictionary
281
     1
  0
DICTIONARY
  5
D
102
{ACAD_REACTORS
330
C
102
}
330
C
100
AcDbDictionary
281
     1
  0
DICTIONARY
  5
CFB
102
{ACAD_REACTORS
330
C
102
}
330
C
100
AcDbDictionary
281
     1
  3
Layout1
350
CFE
  3
Model
350
CFD
  0
DICTIONARY
  5
48C6
102
{ACAD_REACTORS
330
C
102
}
330
C
100
AcDbDictionary
281
     1
  3
ByBlock
350
48CF
  3
ByLayer
350
48C7
  3
Global
350
48D7
  0
DICTIONARY
  5
4915
102
{ACAD_REACTORS
330
C
102
}
330
C
100
AcDbDictionary
281
     1
  3
Standard
350
4916
  0
DICTIONARY
  5
1B
102
{ACAD_REACTORS
330
C
102
}
330
C
100
AcDbDictionary
281
     1
  3
STANDARD
350
1C
  0
DICTIONARY
  5
CFC
102
{ACAD_REACTORS
330
C
102
}
330
C
100
AcDbDictionary
281
     1
  0
ACDBDICTIONARYWDFLT
  5
CF9
102
{ACAD_REACTORS
330
C
102
}
330
C
100
AcDbDictionary
281
     1
  3
Normal
350
CFA
100
AcDbDictionaryWithDefault
340
CFA
  0
DICTIONARY
  5
48F3
102
{ACAD_REACTORS
330
C
102
}
330
C
100
AcDbDictionary
281
     1
  3
A0
350
48F4
  3
A1
350
48F5
  3
A2
350
48F6
  3
A3
350
48F7
  3
A4
350
48F8
  3
A5
350
48F9
  3
A6
350
48FA
  3
A7
350
48FB
  3
A8
350
48FC
  3
A9
350
48FD
  3
B0
350
48FE
  3
B1
350
48FF
  3
B2
350
4900
  3
B3
350
4901
  3
B4
350
4902
  3
B5
350
4903
  3
B6
350
4904
  3
B7
350
4905
  3
B8
350
4906
  3
B9
350
4907
  3
C0
350
4908
  3
C1
350
4909
  3
C2
350
490A
  3
C3
350
490B
  3
C4
350
490C
  3
C5
350
490D
  3
C6
350
490E
  3
C7
350
490F
  3
C8
350
4910
  3
C9
350
4911
  3
D0
350
4912
  3
D1
350
4913
  3
D2
350
4914
  0
DICTIONARY
  5
48F1
102
{ACAD_REACTORS
330
C
102
}
330
C
100
AcDbDictionary
281
     1
  3
Standard
350
48F2
  0
DICTIONARY
  5
48DF
102
{ACAD_REACTORS
330
C
102
}
330
C
100
AcDbDictionary
281
     1
  3
2dWireframe
350
48E5
  3
3D Hidden
350
48E7
  3
3dWireframe
350
48E6
  3
Basic
350
48E4
  3
Brighten
350
48EB
  3
ColorChange
350
48EF
  3
Conceptual
350
48E8
  3
Dim
350
48EA
  3
Facepattern
350
48EE
  3
Flat
350
48E0
  3
FlatWithEdges
350
48E1
  3
Gouraud
350
48E2
  3
GouraudWithEdges
350
48E3
  3
Linepattern
350
48ED
  3
Realistic
350
48E9
  3
Thicken
350
48EC
  0
XRECORD
  5
4926
102
{ACAD_REACTORS
330
C
102
}
330
C
100
AcDbXrecord
280
     1
 90
        1
330
48F2
  0
DICTIONARY
  5
2CB9
102
{ACAD_REACTORS
330
C
102
}
330
C
100
AcDbDictionary
281
     1
  3
CANNOSCALE
350
4922
  3
CMLEADERSTYLE
350
4920
  3
CTABLESTYLE
350
491F
  3
DIMASSOC
350
2CBB
  3
INDEXCTL
350
2CBA
  3
LIGHTINGUNITS
350
4923
  3
MSLTSCALE
350
4921
  0
ACAD_PROXY_OBJECT
  5
D16
102
{ACAD_REACTORS
330
C
102
}
330
C
100
AcDbProxyObject
 90
      499
 91
      516
 95
   851991
 70
     0
 93
       34
310
040000428C
 94
        0
  0
ACAD_PROXY_OBJECT
  5
D1A
102
{ACAD_REACTORS
330
C
102
}
330
C
100
AcDbProxyObject
 90
      499
 91
      519
 95
   851991
 70
     0
 93
      114
310
04000041C00000000000000000000C
 94
        0
  0
DICTIONARY
  5
D1C
102
{ACAD_REACTORS
330
C
102
}
330
C
100
AcDbDictionary
281
     1
  3
AcmBOMDATA
350
D1D
  3
AcmStdDictionary
350
D22
  0
ACAD_PROXY_OBJECT
  5
D0F
102
{ACAD_REACTORS
330
C
102
}
330
C
100
AcDbProxyObject
 90
      499
 91
      510
 95
   851991
 70
     0
 93
       50
310
0001004040000C
330
0
330
0
330
D10
 94
        0
  0
ACAD_PROXY_OBJECT
  5
D0A
102
{ACAD_REACTORS
330
C
102
}
330
C
100
AcDbProxyObject
 90
      499
 91
      506
 95
   851991
 70
     0
 93
     2746
310
478050350414E805045452494D40405184D5347202D20436F6D6D616E642043414E43454C4C45442E014151549054D16014110D3D41660140D41053A01411514925350101461354D1C80B4810DBDB5B585B990810D05390D1531311510B80506455854454E4440405184D5347202D20436F6D6D616E642043414E43454C4C4
310
5442E0140D41053A01415094915052E0141D0D21053519154A0141D0D21053519154A0141D0D21053519154A0141D0D21053519154A0141D0D21053519154A0141D0D21053519154A014311D4925417D4D514915510D22014253505510D2141493D420140D41053A014311D4925417D4D514915510D220140D41053A014193
310
52549493D4A0140D41053A01411514925350101461354D1C80B4810DBDB5B585B990810D05390D1531311510B8050350414E805045A4F4F4D8050551534156458050350414E8050350414E805045A4F4F4D8050551534156458C
 94
        0
  0
ACAD_PROXY_OBJECT
  5
D09
102
{ACAD_REACTORS
330
C
102
}
330
C
100
AcDbProxyObject
 90
      499
 91
      505
 95
   851991
 70
     0
 93
      218
310
060000444000000000000000000010641E000000000000AAA406AA8C
360
D0C
360
D0D
360
D0E
360
D10
360
D21
360
1BDB
 94
        0
  0
ACAD_PROXY_OBJECT
  5
D14
102
{ACAD_REACTORS
330
C
102
}
330
C
100
AcDbProxyObject
 90
      499
 91
      515
 95
   851991
 70
     0
 93
       50
310
0600004164128C
 94
        0
  0
ACAD_PROXY_OBJECT
  5
D0B
102
{ACAD_REACTORS
330
C
102
}
330
C
100
AcDbProxyObject
 90
      499
 91
      507
 95
   851991
 70
     0
 93
       48
310
90341200000004
330
D0C
330
D0D
330
D0E
 94
        0
  0
ACAD_PROXY_OBJECT
  5
D20
102
{ACAD_REACTORS
330
C
102
}
330
C
100
AcDbProxyObject
 90
      499
 91
      507
 95
   851991
 70
     0
 93
       32
310
90140A00FE
330
D21
 94
        0
  0
DICTIONARY
  5
D02
102
{ACAD_REACTORS
330
C
102
}
330
C
100
AcDbDictionary
281
     1
  3
AcMgSettings
350
D03
  3
AMGLAYCFG
350
D24
  0
DICTIONARY
  5
D4F
102
{ACAD_REACTORS
330
C
102
}
330
C
100
AcDbDictionary
281
     1
  3
DIMENSION
350
D54
  3
FEA
350
D53
  3
HATCH (1)
350
D50
  3
HATCH (2)
350
D51
  3
SIMPLE WELD
350
D55
  3
SYMBOLS
350
D52
  0
ACAD_PROXY_OBJECT
  5
D1B
102
{ACAD_REACTORS
330
C
102
}
330
C
100
AcDbProxyObject
 90
      499
 91
      520
 95
   851991
 70
     0
 93
       34
310
050000428C
 94
        0
  0
DICTIONARY
  5
2CAA
102
{ACAD_REACTORS
330
2CA9
102
}
330
2CA9
100
AcDbDictionary
281
     1
  3
*A1
350
2CAB
  0
LAYOUT
  5
CFE
102
{ACAD_REACTORS
330
CFB
102
}
330
CFB
100
AcDbPlotSettings
  1

  2
C:\Programmi\Acadm 6\plotters\Cadjet 2.pc3
  4

  6

 40
0.0
 41
0.0
 42
0.0
 43
0.0
 44
0.0
 45
0.0
 46
0.0
 47
0.0
 48
0.0
 49
0.0
140
0.0
141
0.0
142
1.0
143
1.0
 70
   688
 72
     0
 73
     0
 74
     5
  7

 75
    16
147
1.0
 76
     0
 77
     2
 78
   300
148
0.0
149
0.0
100
AcDbLayout
  1
Layout1
 70
     1
 71
     1
 10
0.0
 20
0.0
 11
420.0
 21
297.0
 12
0.0
 22
0.0
 32
0.0
 14
1.000000000000000E+20
 24
1.000000000000000E+20
 34
1.000000000000000E+20
 15
-1.000000000000000E+20
 25
-1.000000000000000E+20
 35
-1.000000000000000E+20
146
0.0
 13
0.0
 23
0.0
 33
0.0
 16
1.0
 26
0.0
 36
0.0
 17
0.0
 27
1.0
 37
0.0
 76
     0
330
15
  0
LAYOUT
  5
CFD
102
{ACAD_REACTORS
330
CFB
102
}
330
CFB
100
AcDbPlotSettings
  1

  2
C:\Programmi\Acadm 6\plotters\Cadjet 2.pc3
  4

  6

 40
0.0
 41
0.0
 42
0.0
 43
0.0
 44
0.0
 45
0.0
 46
0.0
 47
0.0
 48
0.0
 49
0.0
140
0.0
141
0.0
142
1.0
143
1.0
 70
  1712
 72
     0
 73
     0
 74
     0
  7

 75
     0
147
1.0
 76
     0
 77
     2
 78
   300
148
0.0
149
0.0
100
AcDbLayout
  1
Model
 70
     1
 71
     0
 10
0.0
 20
0.0
 11
12.0
 21
9.0
 12
0.0
 22
0.0
 32
0.0
 14
0.0
 24
0.0
 34
0.0
 15
0.0
 25
0.0
 35
0.0
146
0.0
 13
0.0
 23
0.0
 33
0.0
 16
1.0
 26
0.0
 36
0.0
 17
0.0
 27
1.0
 37
0.0
 76
     0
330
18
331
48C4
  0
MATERIAL
  5
48CF
102
{ACAD_XDICTIONARY
360
48D0
102
}
102
{ACAD_REACTORS
330
48C6
102
}
330
48C6
100
AcDbMaterial
  1
ByBlock
 72
     0
 43
0.0208333333333333
 43
0.0
 43
0.0
 43
0.0
 43
0.0
 43
0.0208333333333333
 43
0.0
 43
0.0
 43
0.0
 43
0.0
 43
1.0
 43
0.0
 43
0.0
 43
0.0
 43
0.0
 43
1.0
 77
     0
 47
0.0208333333333333
 47
0.0
 47
0.0
 47
0.0
 47
0.0
 47
0.0208333333333333
 47
0.0
 47
0.0
 47
0.0
 47
0.0
 47
1.0
 47
0.0
 47
0.0
 47
0.0
 47
0.0
 47
1.0
171
     0
 49
0.0208333333333333
 49
0.0
 49
0.0
 49
0.0
 49
0.0
 49
0.0208333333333333
 49
0.0
 49
0.0
 49
0.0
 49
0.0
 49
1.0
 49
0.0
 49
0.0
 49
0.0
 49
0.0
 49
1.0
175
     0
142
0.0208333333333333
142
0.0
142
0.0
142
0.0
142
0.0
142
0.0208333333333333
142
0.0
142
0.0
142
0.0
142
0.0
142
1.0
142
0.0
142
0.0
142
0.0
142
0.0
142
1.0
179
     0
144
0.0208333333333333
144
0.0
144
0.0
144
0.0
144
0.0
144
0.0208333333333333
144
0.0
144
0.0
144
0.0
144
0.0
144
1.0
144
0.0
144
0.0
144
0.0
144
0.0
144
1.0
147
0.0208333333333333
147
0.0
147
0.0
147
0.0
147
0.0
147
0.0208333333333333
147
0.0
147
0.0
147
0.0
147
0.0
147
1.0
147
0.0
147
0.0
147
0.0
147
0.0
147
1.0
  0
MATERIAL
  5
48C7
102
{ACAD_XDICTIONARY
360
48C8
102
}
102
{ACAD_REACTORS
330
48C6
102
}
330
48C6
100
AcDbMaterial
  1
ByLayer
 72
     0
 43
0.0208333333333333
 43
0.0
 43
0.0
 43
0.0
 43
0.0
 43
0.0208333333333333
 43
0.0
 43
0.0
 43
0.0
 43
0.0
 43
1.0
 43
0.0
 43
0.0
 43
0.0
 43
0.0
 43
1.0
 77
     0
 47
0.0208333333333333
 47
0.0
 47
0.0
 47
0.0
 47
0.0
 47
0.0208333333333333
 47
0.0
 47
0.0
 47
0.0
 47
0.0
 47
1.0
 47
0.0
 47
0.0
 47
0.0
 47
0.0
 47
1.0
171
     0
 49
0.0208333333333333
 49
0.0
 49
0.0
 49
0.0
 49
0.0
 49
0.0208333333333333
 49
0.0
 49
0.0
 49
0.0
 49
0.0
 49
1.0
 49
0.0
 49
0.0
 49
0.0
 49
0.0
 49
1.0
175
     0
142
0.0208333333333333
142
0.0
142
0.0
142
0.0
142
0.0
142
0.0208333333333333
142
0.0
142
0.0
142
0.0
142
0.0
142
1.0
142
0.0
142
0.0
142
0.0
142
0.0
142
1.0
179
     0
144
0.0208333333333333
144
0.0
144
0.0
144
0.0
144
0.0
144
0.0208333333333333
144
0.0
144
0.0
144
0.0
144
0.0
144
1.0
144
0.0
144
0.0
144
0.0
144
0.0
144
1.0
147
0.0208333333333333
147
0.0
147
0.0
147
0.0
147
0.0
147
0.0208333333333333
147
0.0
147
0.0
147
0.0
147
0.0
147
1.0
147
0.0
147
0.0
147
0.0
147
0.0
147
1.0
  0
MATERIAL
  5
48D7
102
{ACAD_XDICTIONARY
360
48D8
102
}
102
{ACAD_REACTORS
330
48C6
102
}
330
48C6
100
AcDbMaterial
  1
Global
 72
     0
 43
0.0208333333333333
 43
0.0
 43
0.0
 43
0.0
 43
0.0
 43
0.0208333333333333
 43
0.0
 43
0.0
 43
0.0
 43
0.0
 43
1.0
 43
0.0
 43
0.0
 43
0.0
 43
0.0
 43
1.0
 77
     0
 47
0.0208333333333333
 47
0.0
 47
0.0
 47
0.0
 47
0.0
 47
0.0208333333333333
 47
0.0
 47
0.0
 47
0.0
 47
0.0
 47
1.0
 47
0.0
 47
0.0
 47
0.0
 47
0.0
 47
1.0
171
     0
 49
0.0208333333333333
 49
0.0
 49
0.0
 49
0.0
 49
0.0
 49
0.0208333333333333
 49
0.0
 49
0.0
 49
0.0
 49
0.0
 49
1.0
 49
0.0
 49
0.0
 49
0.0
 49
0.0
 49
1.0
175
     0
142
0.0208333333333333
142
0.0
142
0.0
142
0.0
142
0.0
142
0.0208333333333333
142
0.0
142
0.0
142
0.0
142
0.0
142
1.0
142
0.0
142
0.0
142
0.0
142
0.0
142
1.0
179
     0
144
0.0208333333333333
144
0.0
144
0.0
144
0.0
144
0.0
144
0.0208333333333333
144
0.0
144
0.0
144
0.0
144
0.0
144
1.0
144
0.0
144
0.0
144
0.0
144
0.0
144
1.0
147
0.0208333333333333
147
0.0
147
0.0
147
0.0
147
0.0
147
0.0208333333333333
147
0.0
147
0.0
147
0.0
147
0.0
147
1.0
147
0.0
147
0.0
147
0.0
147
0.0
147
1.0
  0
MLEADERSTYLE
  5
4916
102
{ACAD_REACTORS
330
4915
102
}
330
4915
100
AcDbMLeaderStyle
170
     2
171
     1
172
     0
 90
        2
 40
0.0
 41
0.0
173
     1
 91
-1056964608
340
12
 92
       -2
290
     1
 42
2.0
291
     1
 43
0.36
  3
Standard
 44
4.0
300

342
F
174
     1
178
     6
175
     1
176
     0
 93
-1056964608
 45
4.0
292
     0
297
     0
 46
4.0
 94
-1056964608
 47
1.0
 49
1.0
140
1.0
293
     1
141
0.0
294
     1
177
     0
142
1.0
295
     1
296
     0
143
0.125
1001
ACAD_MLEADERVER
1070
     2
  0
MLINESTYLE
  5
1C
102
{ACAD_REACTORS
330
1B
102
}
330
1B
100
AcDbMlineStyle
  2
STANDARD
 70
     0
  3

 62
   256
 51
90.0
 52
90.0
 71
     2
 49
0.5
 62
   256
  6
BYLAYER
 49
-0.5
 62
   256
  6
BYLAYER
  0
ACDBPLACEHOLDER
  5
CFA
102
{ACAD_REACTORS
330
CF9
102
}
330
CF9
  0
SCALE
  5
48F4
102
{ACAD_REACTORS
330
48F3
102
}
330
48F3
100
AcDbScale
 70
     0
300
1:1
140
1.0
141
1.0
290
     1
  0
SCALE
  5
48F5
102
{ACAD_REACTORS
330
48F3
102
}
330
48F3
100
AcDbScale
 70
     0
300
1:2
140
1.0
141
2.0
290
     0
  0
SCALE
  5
48F6
102
{ACAD_REACTORS
330
48F3
102
}
330
48F3
100
AcDbScale
 70
     0
300
1:4
140
1.0
141
4.0
290
     0
  0
SCALE
  5
48F7
102
{ACAD_REACTORS
330
48F3
102
}
330
48F3
100
AcDbScale
 70
     0
300
1:5
140
1.0
141
5.0
290
     0
  0
SCALE
  5
48F8
102
{ACAD_REACTORS
330
48F3
102
}
330
48F3
100
AcDbScale
 70
     0
300
1:8
140
1.0
141
8.0
290
     0
  0
SCALE
  5
48F9
102
{ACAD_REACTORS
330
48F3
102
}
330
48F3
100
AcDbScale
 70
     0
300
1:10
140
1.0
141
10.0
290
     0
  0
SCALE
  5
48FA
102
{ACAD_REACTORS
330
48F3
102
}
330
48F3
100
AcDbScale
 70
     0
300
1:16
140
1.0
141
16.0
290
     0
  0
SCALE
  5
48FB
102
{ACAD_REACTORS
330
48F3
102
}
330
48F3
100
AcDbScale
 70
     0
300
1:20
140
1.0
141
20.0
290
     0
  0
SCALE
  5
48FC
102
{ACAD_REACTORS
330
48F3
102
}
330
48F3
100
AcDbScale
 70
     0
300
1:30
140
1.0
141
30.0
290
     0
  0
SCALE
  5
48FD
102
{ACAD_REACTORS
330
48F3
102
}
330
48F3
100
AcDbScale
 70
     0
300
1:40
140
1.0
141
40.0
290
     0
  0
SCALE
  5
48FE
102
{ACAD_REACTORS
330
48F3
102
}
330
48F3
100
AcDbScale
 70
     0
300
1:50
140
1.0
141
50.0
290
     0
  0
SCALE
  5
48FF
102
{ACAD_REACTORS
330
48F3
102
}
330
48F3
100
AcDbScale
 70
     0
300
1:100
140
1.0
141
100.0
290
     0
  0
SCALE
  5
4900
102
{ACAD_REACTORS
330
48F3
102
}
330
48F3
100
AcDbScale
 70
     0
300
2:1
140
2.0
141
1.0
290
     0
  0
SCALE
  5
4901
102
{ACAD_REACTORS
330
48F3
102
}
330
48F3
100
AcDbScale
 70
     0
300
4:1
140
4.0
141
1.0
290
     0
  0
SCALE
  5
4902
102
{ACAD_REACTORS
330
48F3
102
}
330
48F3
100
AcDbScale
 70
     0
300
8:1
140
8.0
141
1.0
290
     0
  0
SCALE
  5
4903
102
{ACAD_REACTORS
330
48F3
102
}
330
48F3
100
AcDbScale
 70
     0
300
10:1
140
10.0
141
1.0
290
     0
  0
SCALE
  5
4904
102
{ACAD_REACTORS
330
48F3
102
}
330
48F3
100
AcDbScale
 70
     0
300
100:1
140
100.0
141
1.0
290
     0
  0
SCALE
  5
4905
102
{ACAD_REACTORS
330
48F3
102
}
330
48F3
100
AcDbScale
 70
     0
300
1/128" = 1'-0"
140
0.0078125
141
12.0
290
     0
  0
SCALE
  5
4906
102
{ACAD_REACTORS
330
48F3
102
}
330
48F3
100
AcDbScale
 70
     0
300
1/64" = 1'-0"
140
0.015625
141
12.0
290
     0
  0
SCALE
  5
4907
102
{ACAD_REACTORS
330
48F3
102
}
330
48F3
100
AcDbScale
 70
     0
300
1/32" = 1'-0"
140
0.03125
141
12.0
290
     0
  0
SCALE
  5
4908
102
{ACAD_REACTORS
330
48F3
102
}
330
48F3
100
AcDbScale
 70
     0
300
1/16" = 1'-0"
140
0.0625
141
12.0
290
     0
  0
SCALE
  5
4909
102
{ACAD_REACTORS
330
48F3
102
}
330
48F3
100
AcDbScale
 70
     0
300
3/32" = 1'-0"
140
0.09375
141
12.0
290
     0
  0
SCALE
  5
490A
102
{ACAD_REACTORS
330
48F3
102
}
330
48F3
100
AcDbScale
 70
     0
300
1/8" = 1'-0"
140
0.125
141
12.0
290
     0
  0
SCALE
  5
490B
102
{ACAD_REACTORS
330
48F3
102
}
330
48F3
100
AcDbScale
 70
     0
300
3/16" = 1'-0"
140
0.1875
141
12.0
290
     0
  0
SCALE
  5
490C
102
{ACAD_REACTORS
330
48F3
102
}
330
48F3
100
AcDbScale
 70
     0
300
1/4" = 1'-0"
140
0.25
141
12.0
290
     0
  0
SCALE
  5
490D
102
{ACAD_REACTORS
330
48F3
102
}
330
48F3
100
AcDbScale
 70
     0
300
3/8" = 1'-0"
140
0.375
141
12.0
290
     0
  0
SCALE
  5
490E
102
{ACAD_REACTORS
330
48F3
102
}
330
48F3
100
AcDbScale
 70
     0
300
1/2" = 1'-0"
140
0.5
141
12.0
290
     0
  0
SCALE
  5
490F
102
{ACAD_REACTORS
330
48F3
102
}
330
48F3
100
AcDbScale
 70
     0
300
3/4" = 1'-0"
140
0.75
141
12.0
290
     0
  0
SCALE
  5
4910
102
{ACAD_REACTORS
330
48F3
102
}
330
48F3
100
AcDbScale
 70
     0
300
1" = 1'-0"
140
1.0
141
12.0
290
     0
  0
SCALE
  5
4911
102
{ACAD_REACTORS
330
48F3
102
}
330
48F3
100
AcDbScale
 70
     0
300
1-1/2" = 1'-0"
140
1.5
141
12.0
290
     0
  0
SCALE
  5
4912
102
{ACAD_REACTORS
330
48F3
102
}
330
48F3
100
AcDbScale
 70
     0
300
3" = 1'-0"
140
3.0
141
12.0
290
     0
  0
SCALE
  5
4913
102
{ACAD_REACTORS
330
48F3
102
}
330
48F3
100
AcDbScale
 70
     0
300
6" = 1'-0"
140
6.0
141
12.0
290
     0
  0
SCALE
  5
4914
102
{ACAD_REACTORS
330
48F3
102
}
330
48F3
100
AcDbScale
 70
     0
300
1'-0" = 1'-0"
140
12.0
141
12.0
290
     0
  0
TABLESTYLE
  5
48F2
102
{ACAD_XDICTIONARY
360
4924
102
}
102
{ACAD_REACTORS
330
48F1
102
}
330
48F1
100
AcDbTableStyle
  3
Standard
 70
     0
 71
     0
 40
1.5
 41
1.5
280
     0
281
     0
  7
STANDARD
140
4.5
170
     2
 62
     0
 63
     7
283
     0
 90
      512
 91
        0
  1

274
    -2
284
     1
 64
     0
275
    -2
285
     1
 65
     0
276
    -2
286
     1
 66
     0
277
    -2
287
     1
 67
     0
278
    -2
288
     1
 68
     0
279
    -2
289
     1
 69
     0
  7
STANDARD
140
6.0
170
     5
 62
     0
 63
     7
283
     0
 90
      512
 91
        0
  1

274
    -2
284
     1
 64
     0
275
    -2
285
     1
 65
     0
276
    -2
286
     1
 66
     0
277
    -2
287
     1
 67
     0
278
    -2
288
     1
 68
     0
279
    -2
289
     1
 69
     0
  7
STANDARD
140
4.5
170
     5
 62
     0
 63
     7
283
     0
 90
      512
 91
        0
  1

274
    -2
284
     1
 64
     0
275
    -2
285
     1
 65
     0
276
    -2
286
     1
 66
     0
277
    -2
287
     1
 67
     0
278
    -2
288
     1
 68
     0
279
    -2
289
     1
 69
     0
  0
VISUALSTYLE
  5
48E5
102
{ACAD_REACTORS
330
48DF
102
}
330
48DF
100
AcDbVisualStyle
  2
2dWireframe
 70
     4
 71
     0
 72
     2
 73
     0
 90
        0
 40
-0.6
 41
-30.0
 62
     5
 63
     7
421
 16777215
 74
     1
 91
        4
 64
     7
 65
   257
 75
     1
175
     1
 42
1.0
 92
        0
 66
   257
 43
1.0
 76
     1
 77
     6
 78
     2
 67
     7
 79
     5
170
     0
171
     0
290
     0
174
     0
 93
        1
 44
0.0
173
     0
291
     0
 45
0.0
  0
VISUALSTYLE
  5
48E7
102
{ACAD_REACTORS
330
48DF
102
}
330
48DF
100
AcDbVisualStyle
  2
3D Hidden
 70
     6
 71
     1
 72
     2
 73
     2
 90
        0
 40
-0.6
 41
-30.0
 62
     5
 63
     7
421
 16777215
 74
     2
 91
        2
 64
     7
 65
   257
 75
     2
175
     1
 42
40.0
 92
        0
 66
   257
 43
1.0
 76
     1
 77
     6
 78
     2
 67
     7
 79
     3
170
     0
171
     0
290
     0
174
     0
 93
        1
 44
0.0
173
     0
291
     0
 45
0.0
  0
VISUALSTYLE
  5
48E6
102
{ACAD_REACTORS
330
48DF
102
}
330
48DF
100
AcDbVisualStyle
  2
3dWireframe
 70
     5
 71
     0
 72
     2
 73
     0
 90
        0
 40
-0.6
 41
-30.0
 62
     5
 63
     7
421
 16777215
 74
     1
 91
        4
 64
     7
 65
   257
 75
     1
175
     1
 42
1.0
 92
        0
 66
   257
 43
1.0
 76
     1
 77
     6
 78
     2
 67
     7
 79
     5
170
     0
171
     0
290
     0
174
     0
 93
        1
 44
0.0
173
     0
291
     0
 45
0.0
  0
VISUALSTYLE
  5
48E4
102
{ACAD_REACTORS
330
48DF
102
}
330
48DF
100
AcDbVisualStyle
  2
Basic
 70
     7
 71
     1
 72
     0
 73
     1
 90
        0
 40
-0.6
 41
-30.0
 62
     5
 63
     7
421
 16777215
 74
     0
 91
        4
 64
     7
 65
   257
 75
     1
175
     1
 42
1.0
 92
        8
 66
     7
 43
1.0
 76
     1
 77
     6
 78
     2
 67
     7
 79
     5
170
     0
171
     0
290
     0
174
     0
 93
        1
 44
0.0
173
     0
291
     1
 45
0.0
  0
VISUALSTYLE
  5
48EB
102
{ACAD_REACTORS
330
48DF
102
}
330
48DF
100
AcDbVisualStyle
  2
Brighten
 70
    12
 71
     2
 72
     2
 73
     0
 90
        0
 40
-0.6
 41
-30.0
 62
     5
 63
     7
421
 16777215
 74
     1
 91
        4
 64
     7
 65
   257
 75
     1
175
     1
 42
1.0
 92
        8
 66
     7
 43
1.0
 76
     1
 77
     6
 78
     2
 67
     7
 79
     5
170
     0
171
     0
290
     0
174
     0
 93
        1
 44
50.0
173
     0
291
     1
 45
0.0
  0
VISUALSTYLE
  5
48EF
102
{ACAD_REACTORS
330
48DF
102
}
330
48DF
100
AcDbVisualStyle
  2
ColorChange
 70
    16
 71
     2
 72
     2
 73
     3
 90
        0
 40
-0.6
 41
-30.0
 62
     5
 63
     8
421
  8421504
 74
     1
 91
        4
 64
     7
 65
   257
 75
     1
175
     1
 42
1.0
 92
        8
 66
     8
424
  8421504
 43
1.0
 76
     1
 77
     6
 78
     2
 67
     7
 79
     5
170
     0
171
     0
290
     0
174
     0
 93
        1
 44
0.0
173
     0
291
     1
 45
0.0
  0
VISUALSTYLE
  5
48E8
102
{ACAD_REACTORS
330
48DF
102
}
330
48DF
100
AcDbVisualStyle
  2
Conceptual
 70
     9
 71
     3
 72
     2
 73
     0
 90
        0
 40
-0.6
 41
-30.0
 62
     5
 63
     7
421
 16777215
 74
     2
 91
        2
 64
     7
 65
   257
 75
     1
175
     1
 42
40.0
 92
        8
 66
     7
 43
1.0
 76
     1
 77
     6
 78
     2
 67
     7
 79
     3
170
     0
171
     0
290
     0
174
     0
 93
        1
 44
0.0
173
     0
291
     0
 45
0.0
  0
VISUALSTYLE
  5
48EA
102
{ACAD_REACTORS
330
48DF
102
}
330
48DF
100
AcDbVisualStyle
  2
Dim
 70
    11
 71
     2
 72
     2
 73
     0
 90
        0
 40
-0.6
 41
-30.0
 62
     5
 63
     7
421
 16777215
 74
     1
 91
        4
 64
     7
 65
   257
 75
     1
175
     1
 42
1.0
 92
        8
 66
     7
 43
1.0
 76
     1
 77
     6
 78
     2
 67
     7
 79
     5
170
     0
171
     0
290
     0
174
     0
 93
        1
 44
-50.0
173
     0
291
     1
 45
0.0
  0
VISUALSTYLE
  5
48EE
102
{ACAD_REACTORS
330
48DF
102
}
330
48DF
100
AcDbVisualStyle
  2
Facepattern
 70
    15
 71
     2
 72
     2
 73
     0
 90
        0
 40
-0.6
 41
-30.0
 62
     5
 63
     7
421
 16777215
 74
     1
 91
        4
 64
     7
 65
   257
 75
     1
175
     1
 42
1.0
 92
        8
 66
     7
 43
1.0
 76
     1
 77
     6
 78
     2
 67
     7
 79
     5
170
     0
171
     0
290
     0
174
     0
 93
        1
 44
0.0
173
     0
291
     1
 45
0.0
  0
VISUALSTYLE
  5
48E0
102
{ACAD_REACTORS
330
48DF
102
}
330
48DF
100
AcDbVisualStyle
  2
Flat
 70
     0
 71
     2
 72
     1
 73
     1
 90
        2
 40
-0.6
 41
30.0
 62
     5
 63
     7
421
 16777215
 74
     0
 91
        4
 64
     7
 65
   257
 75
     1
175
     1
 42
1.0
 92
        8
 66
     7
 43
1.0
 76
     1
 77
     6
 78
     2
 67
     7
 79
     5
170
     0
171
     0
290
     0
174
     0
 93
       13
 44
0.0
173
     0
291
     1
 45
0.0
  0
VISUALSTYLE
  5
48E1
102
{ACAD_REACTORS
330
48DF
102
}
330
48DF
100
AcDbVisualStyle
  2
FlatWithEdges
 70
     1
 71
     2
 72
     1
 73
     1
 90
        2
 40
-0.6
 41
30.0
 62
     5
 63
     7
421
 16777215
 74
     1
 91
        4
 64
     7
 65
   257
 75
     1
175
     1
 42
1.0
 92
        0
 66
   257
 43
1.0
 76
     1
 77
     6
 78
     2
 67
     7
 79
     5
170
     0
171
     0
290
     0
174
     0
 93
       13
 44
0.0
173
     0
291
     1
 45
0.0
  0
VISUALSTYLE
  5
48E2
102
{ACAD_REACTORS
330
48DF
102
}
330
48DF
100
AcDbVisualStyle
  2
Gouraud
 70
     2
 71
     2
 72
     2
 73
     1
 90
        2
 40
-0.6
 41
30.0
 62
     5
 63
     7
421
 16777215
 74
     0
 91
        4
 64
     7
 65
   257
 75
     1
175
     1
 42
1.0
 92
        0
 66
     7
 43
1.0
 76
     1
 77
     6
 78
     2
 67
     7
 79
     5
170
     0
171
     0
290
     0
174
     0
 93
       13
 44
0.0
173
     0
291
     1
 45
0.0
  0
VISUALSTYLE
  5
48E3
102
{ACAD_REACTORS
330
48DF
102
}
330
48DF
100
AcDbVisualStyle
  2
GouraudWithEdges
 70
     3
 71
     2
 72
     2
 73
     1
 90
        2
 40
-0.6
 41
30.0
 62
     5
 63
     7
421
 16777215
 74
     1
 91
        4
 64
     7
 65
   257
 75
     1
175
     1
 42
1.0
 92
        0
 66
   257
 43
1.0
 76
     1
 77
     6
 78
     2
 67
     7
 79
     5
170
     0
171
     0
290
     0
174
     0
 93
       13
 44
0.0
173
     0
291
     1
 45
0.0
  0
VISUALSTYLE
  5
48ED
102
{ACAD_REACTORS
330
48DF
102
}
330
48DF
100
AcDbVisualStyle
  2
Linepattern
 70
    14
 71
     2
 72
     2
 73
     0
 90
        0
 40
-0.6
 41
-30.0
 62
     5
 63
     7
421
 16777215
 74
     1
 91
        4
 64
     7
 65
   257
 75
     7
175
     7
 42
1.0
 92
        8
 66
     7
 43
1.0
 76
     1
 77
     6
 78
     2
 67
     7
 79
     5
170
     0
171
     0
290
     0
174
     0
 93
        1
 44
0.0
173
     0
291
     1
 45
0.0
  0
VISUALSTYLE
  5
48E9
102
{ACAD_REACTORS
330
48DF
102
}
330
48DF
100
AcDbVisualStyle
  2
Realistic
 70
     8
 71
     2
 72
     2
 73
     0
 90
        0
 40
-0.6
 41
-30.0
 62
     5
 63
     7
421
 16777215
 74
     1
 91
        0
 64
     7
 65
   257
 75
     1
175
     1
 42
1.0
 92
        8
 66
     8
424
  7895160
 43
1.0
 76
     1
 77
     6
 78
     2
 67
     7
 79
     5
170
     0
171
     0
290
     0
174
     0
 93
       13
 44
0.0
173
     0
291
     0
 45
0.0
  0
VISUALSTYLE
  5
48EC
102
{ACAD_REACTORS
330
48DF
102
}
330
48DF
100
AcDbVisualStyle
  2
Thicken
 70
    13
 71
     2
 72
     2
 73
     0
 90
        0
 40
-0.6
 41
-30.0
 62
     5
 63
     7
421
 16777215
 74
     1
 91
        4
 64
     7
 65
   257
 75
     1
175
     1
 42
1.0
 92
       12
 66
     7
 43
1.0
 76
     1
 77
     6
 78
     2
 67
     7
 79
     5
170
     0
171
     0
290
     0
174
     0
 93
        1
 44
0.0
173
     0
291
     1
 45
0.0
  0
DICTIONARYVAR
  5
4922
102
{ACAD_REACTORS
330
2CB9
102
}
330
2CB9
100
DictionaryVariables
280
     0
  1
1:1
  0
DICTIONARYVAR
  5
4920
102
{ACAD_REACTORS
330
2CB9
102
}
330
2CB9
100
DictionaryVariables
280
     0
  1
STANDARD
  0
DICTIONARYVAR
  5
491F
102
{ACAD_REACTORS
330
2CB9
102
}
330
2CB9
100
DictionaryVariables
280
     0
  1
STANDARD
  0
DICTIONARYVAR
  5
2CBB
102
{ACAD_REACTORS
330
2CB9
102
}
330
2CB9
100
DictionaryVariables
280
     0
  1
1
  0
DICTIONARYVAR
  5
2CBA
102
{ACAD_REACTORS
330
2CB9
102
}
330
2CB9
100
DictionaryVariables
280
     0
  1
1
  0
DICTIONARYVAR
  5
4923
102
{ACAD_REACTORS
330
2CB9
102
}
330
2CB9
100
DictionaryVariables
280
     0
  1
0
  0
DICTIONARYVAR
  5
4921
102
{ACAD_REACTORS
330
2CB9
102
}
330
2CB9
100
DictionaryVariables
280
     0
  1
0
  0
ACAD_PROXY_OBJECT
  5
D1D
102
{ACAD_REACTORS
330
D1C
102
}
330
D1C
100
AcDbProxyObject
 90
      499
 91
      521
 95
   851991
 70
     0
 93
      118
310
405010040CA904C415CD5B07571088
350
D1E
 94
        0
  0
DICTIONARY
  5
D22
102
{ACAD_REACTORS
330
D1C
102
}
330
D1C
100
AcDbDictionary
281
     1
  3
ANSI
350
1442
  3
ISO
350
D23
  0
ACAD_PROXY_OBJECT
  5
D0C
330
0
100
AcDbProxyObject
 90
      499
 91
      508
 95
   851991
 70
     0
 93
      156
310
00010143D050D351505391D5531054925390D49C
330
D09
 94
        0
  0
ACAD_PROXY_OBJECT
  5
D0D
330
0
100
AcDbProxyObject
 90
      499
 91
      508
 95
   851991
 70
     0
 93
      148
310
000101439050D351531253915054925390D49C
330
D09
 94
        0
  0
ACAD_PROXY_OBJECT
  5
D0E
330
0
100
AcDbProxyObject
 90
      499
 91
      509
 95
   851991
 70
     0
 93
      156
310
000101439050D35154D6535093D314D25691508C
330
D09
 94
        0
  0
ACAD_PROXY_OBJECT
  5
D10
330
0
100
AcDbProxyObject
 90
      499
 91
      511
 95
   851991
 70
     0
 93
      216
310
00010145111A5CDD1A5B9D184818DBDB5C1BDB995B9D1A4C402B0000
330
D09
330
0
330
0
 94
        0
  0
ACAD_PROXY_OBJECT
  5
D21
330
0
100
AcDbProxyObject
 90
      499
 91
      523
 95
   851991
 70
     0
 93
      140
310
00010142105350D55494D5110050349534FC
330
D09
 94
        0
  0
ACAD_PROXY_OBJECT
  5
1BDB
330
0
100
AcDbProxyObject
 90
      499
 91
      554
 95
   851991
 70
     0
 93
       28
310
0001406C
330
D09
 94
        0
  0
DICTIONARY
  5
D03
102
{ACAD_REACTORS
330
D02
102
}
330
D02
100
AcDbDictionary
281
     1
  3
DWGSETTINGS
350
D04
  3
TRANSSETTINGS
350
D05
  0
ACAD_PROXY_OBJECT
  5
D24
102
{ACAD_REACTORS
330
D02
102
}
330
D02
100
AcDbProxyObject
 90
      499
 91
      525
 95
   851991
 70
     0
 93
    12938
310
41102491013041105357CC1074CA404C504414D5F31439329013241105357CC9054CA404CD04414D5F33419199013441105357CD103466404D504414D5F3540D199013641105357CD90248E404DD04414D5F37411199013841105357CE101466404E504414D5F397F641102324141505357CC4C1074CA408D10505414D5F31
310
3140D19902495041505357CC4C9074C902408C13905414D5F304E41D32902314E41505357CC5390E4CA408C93905414D5F324E41532902334E41505357CCD3906466408D13905414D5F344E40D19902354E41505357CD53903466408D93905414D5F364E40923902374E41505357CDD3904466408E13905414D5F384E40519
310
902394E41505357CE539FD90440CC9053906414D5F31304E41D3290334414E41905357CC4C5390346640D25413906414D5F31324E41D32409044B4C494E41505357D0D3101465094112539193D08414D5F50415245464111942D055241484D3541905357D093D49074C9094115925155D08414D5F56494557534051942D064
310
24548494E4441905357D253959FD90D415514905253105414D5F545240D194250348494441905357D212511074650940D59254D06414D5F56495341D324250650415244494D42505357D410549112535034650941949151911253509414D5F52454644494D4111942553411092139590139CFFFFFFFF415092139594D06424
310
548494E44CFFFFFFFF411093D48C9055241484D3540519411093D48CD055241484D3540923411093D48D5055241484D35CFFFFFFFF4110D0530C90134CFFFFFFFF4110D0530CD0134409234110D0530D5013441D324110D0530DD0134479464110D1539390137CFFFFFFFF4110D15395D0137CFFFFFFFF4110D312539044B4
310
C494ECFFFFFFFF4110D3D38C50130CFFFFFFFF4110D3D38C90131CFFFFFFFF4110D3D38CD0132CFFFFFFFF4110D3D38D10132CFFFFFFFF411111551050134CFFFFFFFF4111125051D0135CFFFFFFFF411112531250135CFFFFFFFF411112535410650415244494DCFFFFFFFF411112535490652454644494DCFFFFFFFF4111
310
91535390138CFFFFFFFF4151915354139013840CFFFFFFFF4151915354D41023441CFFFFFFFF4151915354D5102344140D1941519153559390132CFFFFFFFF4151915355951013240D194112105510D0138CFFFFFFFF411212511390133CFFFFFFFF4112125115D0133CFFFFFFFF411213125390134CFFFFFFFF411213D0D3
310
90137CFFFFFFFF411213D0D5D0137CFFFFFFFF4112539193D04494E464FCFFFFFFFF411311505110135CFFFFFFFF419397D0921395902394ECFFFFFFFF419397D0D3D38C502304ECFFFFFFFF419397D0D3D38C902314ECFFFFFFFF419397D0D3D38CD02324ECFFFFFFFF419397D0D3D38D102324ECFFFFFFFF419397D0D153
310
93902374ECFFFFFFFF419397D0D15395D02374ECFFFFFFFF419397D1125312502354ECFFFFFFFF419397D2105510D02384ECFFFFFFFF419397D2125113902334ECFFFFFFFF419397D2125115D02334ECFFFFFFFF419397D3115051102354ECFFFFFFFF419397D391D25410349504ECFFFFFFFF419397D412105390334414EC
310
FFFFFFFF419397D510D3D3902304ECFFFFFFFF419397D5121312502344ECFFFFFFFF419397D5131153902304ECFFFFFFFF419397D594131250332414ECFFFFFFFF411391D2541024950CFFFFFFFF411410530C9055241484D3540519411410530CD055241484D3540923411410530D5055241484D35CFFFFFFFF4114121053
310
9023441CFFFFFFFF411413D4D390135CFFFFFFFF411490D1D390137CFFFFFFFF411490D1D5D0137CFFFFFFFF4114D09492D0134CFFFFFFFF4114D150D510134CFFFFFFFF4114D6508CD013540923411354D6535013540923411510D3D390130CFFFFFFFF411512131250134CFFFFFFFF411512550C9055241484D354051941
310
1512550CD055241484D3540923411512550D5055241484D35CFFFFFFFF411513115390130CFFFFFFFF415514905253105545241494CCFFFFFFFF411514931250134CFFFFFFFF411516150C5013640D19411516150C9013640D19411516150CD0136CFFFFFFFF411516150D5013641D32411516150DD0136479464115925155
310
D0456494557CFFFFFFFF4115915112103484944CFFFFFFFF4115915115903564953CFFFFFFFF41159413125023241CFFFFFFFF411692569050134CFFFFFFFFAA9FD404FE429014650248D0346504465054C906465074C90E4C91E519FD8C
340
14
340
14
340
14
340
D25
340
14
340
14
340
14
340
D26
340
14
340
14
340
D26
340
D27
340
14
340
14
340
14
340
14
340
D25
340
14
340
14
340
14
340
D26
340
14
340
14
340
D26
340
D27
340
14
340
D28
340
14
340
14
340
14
340
14
340
14
340
D25
340
14
340
14
340
14
340
13
340
13
340
13
340
13
340
13
340
13
340
13
340
13
340
13
340
D29
340
13
340
13
340
13
340
13
340
13
340
13
340
13
340
13
340
13
340
13
340
13
340
13
340
13
340
14
340
13
340
13
340
13
340
13
340
D2A
340
13
340
13
340
D29
340
13
340
13
340
13
340
13
340
13
340
13
340
13
340
13
340
D29
340
13
340
13
340
13
340
D2A
340
13
340
13
340
13
340
13
340
13
340
13
340
13
340
13
340
13
340
13
340
13
340
13
340
13
340
13
340
D29
340
13
340
13
340
13
340
13
340
13
340
13
340
13
340
13
340
13
340
13
340
13
340
13
340
13
340
13
340
13
340
13
340
13
340
13
340
13
340
13
340
13
340
13
340
D2D
 94
        0
  0
ACAD_PROXY_OBJECT
  5
D54
102
{ACAD_REACTORS
330
D4F
102
}
330
D4F
100
AcDbProxyObject
 90
      499
 91
      541
 95
   851991
 70
     0
 93
      253
310
43D1444494D454E53494F4E2C414D44545F2A5F44494D404A9012A404A9012AC
 94
        0
  0
ACAD_PROXY_OBJECT
  5
D53
102
{ACAD_REACTORS
330
D4F
102
}
330
D4F
100
AcDbProxyObject
 90
      499
 91
      541
 95
   851991
 70
     0
 93
      181
310
43D012A42D05357D191504B505357CA9012A404A9012AC
 94
        0
  0
ACAD_PROXY_OBJECT
  5
D50
102
{ACAD_REACTORS
330
D4F
102
}
330
D4F
100
AcDbProxyObject
 90
      499
 91
      541
 95
   851991
 70
     0
 93
      133
310
43D054841544348404A9012A404A9012AC
 94
        0
  0
ACAD_PROXY_OBJECT
  5
D51
102
{ACAD_REACTORS
330
D4F
102
}
330
D4F
100
AcDbProxyObject
 90
      499
 91
      541
 95
   851991
 70
     0
 93
      549
310
43D044C494E4549CE0B0E138B0A8B4E0B0A8B4E138B105357CE0B105357CE138B0A8B505357CE0B0A8B505357CE139012A404A910494E534552542C535444504152543244C
 94
        0
  0
ACAD_PROXY_OBJECT
  5
D55
102
{ACAD_REACTORS
330
D4F
102
}
330
D4F
100
AcDbProxyObject
 90
      499
 91
      541
 95
   851991
 70
     0
 93
      181
310
43D0341524341105357CD5012A404C906494E534552544
 94
        0
  0
ACAD_PROXY_OBJECT
  5
D52
102
{ACAD_REACTORS
330
D4F
102
}
330
D4F
100
AcDbProxyObject
 90
      499
 91
      541
 95
   851991
 70
     0
 93
     1053
310
43D7841434D46434652414D452C41434D444154554D5441524745542C41434D444154554D49442C41434D57454C4453594D2C41434D5355524653594D2C41434D4645415449442C41434D504152545245462C41434D42414C4C4F4F4E2C414D44544544474553594D2C414D47534352455743414C435441424C45404A9012A
310
404A9012AC
 94
        0
  0
LAYER_INDEX
  5
2CAB
102
{ACAD_REACTORS
330
2CAA
102
}
330
2CAA
100
AcDbIndex
 40
2455405.392513299
100
AcDbLayerIndex
  8
0
360
2CAC
 90
        5
  8
DISEGNO
360
2CAD
 90
      663
  8
ASSI
360
2CAE
 90
       84
  8
NORMALI
360
2CAF
 90
       37
  8
COMPONENTI
360
2CB0
 90
       54
  8
BASE
360
2CB1
 90
      181
  8
AX
360
2CB2
 90
       19
  8
TRATTEGGI
360
2CB3
 90
       22
  8
DEFPOINTS
360
2CB6
 90
        0
  0
DICTIONARY
  5
48D0
330
48CF
100
AcDbDictionary
280
     1
281
     1
  3
BUMPTILE
360
48D2
  3
DIFFUSETILE
360
48D1
  3
OPACITYTILE
360
48D5
  3
REFLECTIONTILE
360
48D4
  3
REFRACTIONTILE
360
48D6
  3
SPECULARTILE
360
48D3
  0
DICTIONARY
  5
48C8
330
48C7
100
AcDbDictionary
280
     1
281
     1
  3
BUMPTILE
360
48CA
  3
DIFFUSETILE
360
48C9
  3
OPACITYTILE
360
48CD
  3
REFLECTIONTILE
360
48CC
  3
REFRACTIONTILE
360
48CE
  3
SPECULARTILE
360
48CB
  0
DICTIONARY
  5
48D8
330
48D7
100
AcDbDictionary
280
     1
281
     1
  3
BUMPTILE
360
48DA
  3
DIFFUSETILE
360
48D9
  3
OPACITYTILE
360
48DD
  3
REFLECTIONTILE
360
48DC
  3
REFRACTIONTILE
360
48DE
  3
SPECULARTILE
360
48DB
  0
DICTIONARY
  5
4924
330
48F2
100
AcDbDictionary
280
     1
281
     1
  3
ACAD_ROUNDTRIP_2008_TABLESTYLE_CELLSTYLEMAP
360
4925
  0
ACAD_PROXY_OBJECT
  5
D1E
102
{ACAD_REACTORS
330
D1D
102
}
330
D1D
100
AcDbProxyObject
 90
      499
 91
      522
 95
   851991
 70
     0
 93
      139
310
057356C1D5C406406AA8FFFFFFFF0AE2404C
330
18
330
0
330
0
 94
        0
  0
ACAD_PROXY_OBJECT
  5
1442
102
{ACAD_REACTORS
330
D22
102
}
330
D22
100
AcDbProxyObject
 90
      499
 91
      542
 95
   851991
 70
     0
 93
     2109
310
570B81E85EB51B8BE3FD04414E5349405901409022E07A17AD46E2F8FD2208721C82C6DAA6EAE4CCA8CAF0E8A6E8C88120284A0B1B6A321A329BA3220480A1A82C6DAAECAD8C8D2DCCEA6E8C8812028420B1B6A4B229BA3220480A1682C6DA88C2E8EADAA6E8C88120284A0B1B6A127A6A9BA3220480A2082DAC8E888CAE8C
310
2D2D8A6F2DAA6E8C88120288A0B6B23A29B2B1BA34B7B729BCB6A9BA3220480A2282DAC8E886CADCE8CAE498D2DCCAA6E8C88120285A0B6B23A2737BA32A9BA3220480A1682C682DACE98C2F2A6E8C88120285A0B1A0B6B3A234B6A9BA3220480A2282C682DACE90DED8CA86D0C2E4E8A6E8C88120286A0B1A0B6B3AA34BA3
310
632A9BA3220480A02814
340
E55
360
1443
360
1444
360
1445
360
1446
360
1447
360
1448
360
1449
360
144A
360
144B
360
144C
360
144D
360
144E
360
144F
360
1450
 94
        0
  0
ACAD_PROXY_OBJECT
  5
D23
102
{ACAD_REACTORS
330
D22
102
}
330
D22
100
AcDbProxyObject
 90
      499
 91
      524
 95
   851991
 70
     0
 93
     2211
310
5700000000000000C40D0349534F405901409020000000000000310322287A1682DAC8E88AC8CECAA6E8C8812028720B1B6A9BAB9332A32BC3A29BA3220480A1282C6DA8C868CA6E8C88120286A0B1B6ABB2B63234B733A9BA3220480A1082C6DA92C8A6E8C88120285A0B1B6A230BA3AB6A9BA3220480A1282C6DA849E9AA
310
6E8C8812028820B6B23A2232BA30B4B629BCB6A9BA3220480A2282DAC8E8A6CAC6E8D2DEDCA6F2DAA6E8C88120288A0B6B23A21B2B73A32B92634B732A9BA3220480A1682DAC8E89CDEE8CAA6E8C88120285A0B1A0B6B3A630BCA9BA3220480A1682C682DACE88D2DAA6E8C88120288A0B1A0B6B3A437B632A1B430B93A29B
310
A3220480A1A82C682DACEA8D2E8D8CAA6E8C881203204C
340
D2E
360
D2F
360
D30
360
D31
360
D32
360
D33
360
D34
360
D35
360
D36
360
D37
360
D38
360
D39
360
D3F
360
D40
360
D4C
360
D4D
 94
        0
  0
ACAD_PROXY_OBJECT
  5
D04
102
{ACAD_REACTORS
330
D03
102
}
330
D03
100
AcDbProxyObject
 90
      499
 91
      504
 95
   851991
 70
     0
 93
     2396
310
4050B44574753455454494E4753A1286829C8E82A4A482B282A106660F8686AF86C608321A2A720A723A0A849A1ABE1C983E18999AA0C868A9C889282940000000000000488083A1A2A72224A0A9A0A8418983E19183E199820E868A9C8892A6A894000000000000010808321A2A72622A7250000000000000122020C868A9
310
C9E8C8C940000000000000488084A1A624A720A92920ACA0A8418983E19183E19982108698929C8AA8B2A082A0AB098929C8A84A22BA3AAA9A1A0A622A50A0E9882A6A89E849482A02608426A0A5A2AB24A2ABA7E8120CA0A68682988A0C00800010652455649534941501304154D0D0531150540CC4E8C50954494D455354
310
414D504A048066021F817734141D5915494D253D3905414C4D4B8C0C1107B44574753455454494E4753454E447DC
 94
        0
  0
ACAD_PROXY_OBJECT
  5
D05
102
{ACAD_REACTORS
330
D03
102
}
330
D03
100
AcDbProxyObject
 90
      499
 91
      504
 95
   851991
 70
     0
 93
      852
310
4050D5452414E5353455454494E4753A2488A482AE929C8EA8A4829CA69882A8929E9C0C00800050D4F524947494E414C4C595F4F4E0600400008529A7AAA921A2A620A723A0A81A4AA20A12AAA0A48AA68AA4AC8A0C0080001107B44574753455454494E4753454E447DC
 94
        0
  0
IDBUFFER
  5
2CAC
330
0
100
AcDbIdBuffer
330
702
330
8BA
330
BD0
330
C1D
330
1BF8
  0
IDBUFFER
  5
2CAD
330
0
100
AcDbIdBuffer
330
5A9
330
6E9
330
6ED
330
703
330
70D
330
70E
330
72E
330
733
330
73D
330
77A
330
77F
330
7AC
330
7DB
330
7F7
330
802
330
804
330
805
330
808
330
8BB
330
BDF
330
CB2
330
CB3
330
CB5
330
CB6
330
CBC
330
CBD
330
CBE
330
CC0
330
CC1
330
CC4
330
1BFA
330
1C0C
330
242F
330
3409
330
340A
330
340B
330
340C
330
340D
330
340E
330
340F
330
3410
330
3411
330
3412
330
3413
330
3414
330
3415
330
3416
330
3417
330
3418
330
341A
330
341B
330
3448
330
3449
330
344A
330
344B
330
3450
330
3451
330
3452
330
3453
330
3454
330
3455
330
3456
330
3457
330
3458
330
3459
330
345A
330
345B
330
345C
330
345D
330
345E
330
345F
330
3460
330
3461
330
3462
330
3463
330
3464
330
3465
330
3466
330
3467
330
3468
330
3469
330
346A
330
346B
330
346C
330
346D
330
346E
330
346F
330
3470
330
3471
330
3472
330
3473
330
3474
330
3475
330
3476
330
3477
330
3478
330
3479
330
347A
330
347B
330
347C
330
347D
330
347E
330
347F
330
3480
330
3481
330
3482
330
3483
330
3484
330
3485
330
3486
330
3487
330
3488
330
3489
330
348A
330
348B
330
348C
330
348D
330
348E
330
348F
330
3490
330
3491
330
3492
330
3493
330
3494
330
3495
330
3496
330
3497
330
3498
330
3499
330
349A
330
349B
330
349C
330
349D
330
349E
330
349F
330
34A0
330
34A1
330
34A2
330
34A3
330
34A4
330
34A5
330
34A6
330
34A7
330
34A8
330
34A9
330
34AA
330
34AB
330
34AC
330
34AD
330
34AE
330
3597
330
3598
330
3599
330
35A4
330
35A5
330
35A6
330
35A7
330
35A8
330
35AF
330
35B4
330
35CA
330
35CB
330
35CC
330
35CD
330
35CE
330
35D7
330
35D8
330
35D9
330
35DA
330
35DB
330
35DC
330
35DD
330
35DE
330
35DF
330
35E0
330
35E1
330
35E2
330
35E3
330
35E4
330
35E5
330
35E6
330
35E7
330
35FB
330
35FC
330
35FD
330
35FE
330
3617
330
3618
330
3663
330
3664
330
3665
330
3666
330
3667
330
3668
330
3669
330
366A
330
366B
330
366C
330
366D
330
366E
330
366F
330
3670
330
3671
330
3672
330
3673
330
3674
330
3675
330
367A
330
367B
330
3683
330
3687
330
3688
330
3689
330
368A
330
368B
330
368C
330
368D
330
368E
330
368F
330
3690
330
3691
330
3692
330
3693
330
3694
330
3695
330
3696
330
3697
330
3698
330
3699
330
369A
330
369B
330
369C
330
369D
330
369E
330
369F
330
36A0
330
36A1
330
36A2
330
36A3
330
36A4
330
36A5
330
36A6
330
36A7
330
36A8
330
36A9
330
36AA
330
36AB
330
36AC
330
36AD
330
36AE
330
36AF
330
36B0
330
36B1
330
36B2
330
36B3
330
36B4
330
36B5
330
36B6
330
36B7
330
36B8
330
36B9
330
36BA
330
36BB
330
36BC
330
36BD
330
36BE
330
36BF
330
36C0
330
36C1
330
36C2
330
36C3
330
36C4
330
36C5
330
36C6
330
36C7
330
36C8
330
36C9
330
36CA
330
36CB
330
36CC
330
36CD
330
36CE
330
36D6
330
36DB
330
3746
330
3747
330
3748
330
3749
330
374A
330
374B
330
374C
330
374D
330
374E
330
374F
330
3750
330
3751
330
3752
330
3753
330
3754
330
3755
330
3756
330
3757
330
3758
330
3759
330
375A
330
375B
330
375C
330
375D
330
375E
330
375F
330
3760
330
3761
330
3762
330
3763
330
3764
330
3765
330
3766
330
3767
330
3768
330
3769
330
376A
330
376B
330
376C
330
376D
330
376E
330
376F
330
3770
330
3771
330
3772
330
3773
330
3774
330
3775
330
3776
330
3777
330
3778
330
3779
330
377A
330
377B
330
377C
330
377D
330
377E
330
377F
330
3780
330
3781
330
3782
330
3783
330
3784
330
3785
330
3786
330
3787
330
3788
330
3789
330
378A
330
378B
330
378C
330
378D
330
378E
330
378F
330
3790
330
3791
330
3792
330
3793
330
3794
330
3795
330
3796
330
3797
330
3798
330
3799
330
379A
330
379B
330
379C
330
379D
330
379E
330
379F
330
37A0
330
37A1
330
37A2
330
37A3
330
37A4
330
37A5
330
37A6
330
37A7
330
37A8
330
37A9
330
37AA
330
37AB
330
37AC
330
37AD
330
37AE
330
37AF
330
37B0
330
37B1
330
37B2
330
37B3
330
37B4
330
37B5
330
37B6
330
37B7
330
37B8
330
37B9
330
37BA
330
37BB
330
37BC
330
37BD
330
37BE
330
37BF
330
37C0
330
37C1
330
37C2
330
37C3
330
37C4
330
37C5
330
37C6
330
37C7
330
37C8
330
37C9
330
37CA
330
37CB
330
37CC
330
37CD
330
37CE
330
37CF
330
37D0
330
37D1
330
37D2
330
37D3
330
37D4
330
37D5
330
37D6
330
37D7
330
37D8
330
37D9
330
37DA
330
37DB
330
37DC
330
37DD
330
37DE
330
37DF
330
37E0
330
37E1
330
37E2
330
37E3
330
37E4
330
37E5
330
37E6
330
37E7
330
37E8
330
37E9
330
37EA
330
37EB
330
37EC
330
37ED
330
37EE
330
37EF
330
37F0
330
37F1
330
37F2
330
37F3
330
37F4
330
37F5
330
37F6
330
37F7
330
37F8
330
37F9
330
37FA
330
37FB
330
37FC
330
37FD
330
37FE
330
37FF
330
3800
330
3801
330
3802
330
3803
330
3804
330
3805
330
3806
330
3807
330
3808
330
3809
330
380A
330
380B
330
380C
330
380D
330
380E
330
380F
330
3810
330
3811
330
3812
330
3813
330
3814
330
3815
330
3816
330
3817
330
3818
330
3819
330
381A
330
381B
330
381C
330
381D
330
381E
330
381F
330
3820
330
3821
330
3822
330
3823
330
3824
330
3825
330
3826
330
3827
330
3828
330
3829
330
382A
330
382B
330
382C
330
382D
330
382E
330
382F
330
3830
330
3831
330
3832
330
3833
330
3834
330
3835
330
3836
330
3837
330
3838
330
3839
330
383A
330
383B
330
383C
330
383D
330
383E
330
383F
330
3840
330
3841
330
3842
330
3843
330
3844
330
3845
330
3846
330
3847
330
3848
330
3849
330
384A
330
384B
330
384C
330
384D
330
384E
330
384F
330
3850
330
3851
330
3852
330
3853
330
3854
330
3855
330
3856
330
3857
330
3858
330
3859
330
385A
330
385B
330
385C
330
385E
330
385F
330
3860
330
3861
330
3866
330
386A
330
3873
330
3874
330
3879
330
387A
330
387B
330
387C
330
387D
330
387E
330
387F
330
3880
330
3881
330
3882
330
3883
330
3884
330
3885
330
3886
330
38BA
330
38BB
330
38BC
330
38BD
330
38BE
330
38BF
330
38C1
330
38C4
330
38C5
330
38C6
330
38C7
330
38C8
330
38C9
330
38CA
330
38CB
330
38DF
330
38E0
330
38E1
330
38E2
330
38E3
330
38E4
330
38E5
330
38E6
330
38E7
330
38E8
330
38E9
330
38EA
330
38EB
330
38EC
330
38ED
330
38EE
330
38EF
330
38F0
330
38F1
330
38F2
330
38F3
330
38F4
330
38F5
330
38F6
330
38F7
330
3918
330
3919
330
391A
330
391B
330
391C
330
391D
330
391F
330
3922
330
3924
330
47DD
330
47DE
330
47DF
330
47E0
330
47FB
330
4818
330
4819
330
481A
330
481B
330
481C
330
481D
330
482B
330
482C
330
483A
330
4851
330
4852
330
4853
330
4879
330
487C
330
487F
330
4886
330
4889
330
488E
330
48B1
330
48B2
330
48B5
330
48B6
330
48BE
330
48C0
  0
IDBUFFER
  5
2CAE
330
0
100
AcDbIdBuffer
330
596
330
597
330
5B5
330
5C8
330
5DD
330
5F1
330
5F2
330
600
330
633
330
64F
330
651
330
664
330
682
330
696
330
6B4
330
6C9
330
729
330
734
330
740
330
751
330
767
330
78F
330
7AD
330
7B7
330
7E4
330
7EC
330
81D
330
8CF
330
918
330
CBA
330
1BE9
330
1BEA
330
2C7D
330
2D35
330
3407
330
3408
330
3447
330
36D4
330
36D5
330
3745
330
3862
330
3863
330
47E1
330
47ED
330
47F9
330
47FA
330
47FC
330
47FD
330
4809
330
4815
330
4816
330
4817
330
481E
330
481F
330
482D
330
482E
330
484E
330
484F
330
487A
330
487B
330
487D
330
4880
330
4881
330
4882
330
4883
330
4885
330
4887
330
488A
330
488B
330
488C
330
488D
330
4890
330
4891
330
4892
330
4893
330
4894
330
4895
330
4896
330
4897
330
4898
330
48AD
330
48AE
330
48AF
330
48B0
  0
IDBUFFER
  5
2CAF
330
0
100
AcDbIdBuffer
330
5AB
330
5AC
330
5AD
330
5AE
330
5AF
330
5BF
330
5C0
330
5C1
330
5C2
330
5C3
330
5C4
330
5CB
330
7A4
330
7DC
330
7DD
330
7E1
330
7E2
330
7E3
330
7E5
330
7E6
330
7E7
330
7E8
330
7E9
330
7EB
330
7ED
330
7FB
330
7FC
330
7FE
330
7FF
330
800
330
801
330
47E3
330
47F6
330
4807
330
4814
330
4829
330
4831
  0
IDBUFFER
  5
2CB0
330
0
100
AcDbIdBuffer
330
570
330
572
330
573
330
579
330
580
330
583
330
584
330
585
330
6C7
330
6C8
330
6DC
330
6DD
330
6FC
330
6FD
330
709
330
70A
330
70B
330
70C
330
7C7
330
7C8
330
7C9
330
7DF
330
7EF
330
7F4
330
80E
330
868
330
8E2
330
8E7
330
8E8
330
BDE
330
BF5
330
BF7
330
C0C
330
C0D
330
1BF9
330
1C02
330
1C03
330
1C06
330
1C07
330
1C08
330
1C0D
330
1C12
330
1C14
330
1C16
330
2C9F
330
2CA0
330
2CA1
330
2CA2
330
2CA3
330
2CA4
330
2CA5
330
2CA6
330
2CA7
330
2CA8
  0
IDBUFFER
  5
2CB1
330
0
100
AcDbIdBuffer
330
571
330
577
330
578
330
581
330
582
330
589
330
58E
330
595
330
59D
330
5AA
330
5B0
330
5B1
330
5C5
330
5C6
330
60F
330
614
330
615
330
6AA
330
6E1
330
6E4
330
6E5
330
6EA
330
6EB
330
6EC
330
6EE
330
6F1
330
6FA
330
6FB
330
6FE
330
6FF
330
700
330
704
330
705
330
706
330
708
330
70F
330
72B
330
72C
330
7CA
330
7D8
330
7D9
330
7DA
330
7DE
330
7E0
330
7EA
330
7EE
330
7F0
330
7F2
330
7F3
330
7F6
330
7F8
330
7F9
330
7FA
330
803
330
825
330
826
330
857
330
867
330
8B7
330
8B8
330
8BC
330
8BE
330
8BF
330
8C0
330
8C1
330
8C8
330
8C9
330
8CA
330
8CB
330
8CC
330
8CD
330
8FC
330
8FD
330
908
330
909
330
90A
330
90B
330
90C
330
90D
330
90F
330
910
330
911
330
912
330
913
330
914
330
915
330
916
330
945
330
955
330
957
330
958
330
959
330
95A
330
95C
330
95D
330
95E
330
95F
330
960
330
961
330
962
330
BDB
330
BE2
330
BE3
330
BE4
330
BEE
330
C04
330
1BE5
330
1BE6
330
1BE7
330
1BEB
330
1BEE
330
1BFE
330
1BFF
330
1C00
330
1C01
330
1C05
330
1C0E
330
1C0F
330
1C11
330
1C13
330
1C15
330
1C17
330
1C1C
330
1C1D
330
1C1E
330
1C1F
330
1C20
330
1C21
330
1C28
330
1C31
330
1C32
330
1C35
330
1C36
330
1C37
330
1C38
330
1C39
330
1C3A
330
1C3C
330
1C3F
330
1C40
330
1C41
330
1C42
330
1C43
330
1C44
330
1C45
330
1C46
330
1C47
330
1C48
330
1C49
330
1C54
330
1C5B
330
1C5C
330
1C5D
330
1C5E
330
1C5F
330
1C61
330
1C62
330
1C63
330
3AE5
330
3AE6
330
3AE7
330
3AE8
330
3AE9
330
3AEA
330
3AEB
330
3AEC
330
3AED
330
3AEE
330
3AEF
330
3AF0
330
48B3
330
48B7
330
48B8
330
48B9
330
48BA
330
48BB
330
48BC
330
48BD
330
48BF
330
48C1
330
48C2
  0
IDBUFFER
  5
2CB2
330
0
100
AcDbIdBuffer
330
586
330
58A
330
58D
330
59B
330
59C
330
59F
330
5A0
330
5A2
330
5A4
330
5A6
330
5A7
330
5D6
330
5D7
330
5D8
330
60B
330
60C
330
60D
330
8B6
330
1C1A
  0
IDBUFFER
  5
2CB3
330
0
100
AcDbIdBuffer
330
CB4
330
CB7
330
CB8
330
CB9
330
CBB
330
CBF
330
CC2
330
CC3
330
CC7
330
CC9
330
D56
330
D57
330
1C18
330
1C19
330
1C3D
330
1C3E
330
2C7E
330
2C7F
330
487E
330
4884
330
4888
330
488F
  0
IDBUFFER
  5
2CB6
330
0
100
AcDbIdBuffer
  0
XRECORD
  5
48D2
102
{ACAD_REACTORS
330
48D0
102
}
330
48D0
100
AcDbXrecord
280
     1
270
     1
271
     1
  0
XRECORD
  5
48D1
102
{ACAD_REACTORS
330
48D0
102
}
330
48D0
100
AcDbXrecord
280
     1
270
     1
271
     1
  0
XRECORD
  5
48D5
102
{ACAD_REACTORS
330
48D0
102
}
330
48D0
100
AcDbXrecord
280
     1
270
     1
271
     1
  0
XRECORD
  5
48D4
102
{ACAD_REACTORS
330
48D0
102
}
330
48D0
100
AcDbXrecord
280
     1
270
     1
271
     1
  0
XRECORD
  5
48D6
102
{ACAD_REACTORS
330
48D0
102
}
330
48D0
100
AcDbXrecord
280
     1
270
     1
271
     1
  0
XRECORD
  5
48D3
102
{ACAD_REACTORS
330
48D0
102
}
330
48D0
100
AcDbXrecord
280
     1
270
     1
271
     1
  0
XRECORD
  5
48CA
102
{ACAD_REACTORS
330
48C8
102
}
330
48C8
100
AcDbXrecord
280
     1
270
     1
271
     1
  0
XRECORD
  5
48C9
102
{ACAD_REACTORS
330
48C8
102
}
330
48C8
100
AcDbXrecord
280
     1
270
     1
271
     1
  0
XRECORD
  5
48CD
102
{ACAD_REACTORS
330
48C8
102
}
330
48C8
100
AcDbXrecord
280
     1
270
     1
271
     1
  0
XRECORD
  5
48CC
102
{ACAD_REACTORS
330
48C8
102
}
330
48C8
100
AcDbXrecord
280
     1
270
     1
271
     1
  0
XRECORD
  5
48CE
102
{ACAD_REACTORS
330
48C8
102
}
330
48C8
100
AcDbXrecord
280
     1
270
     1
271
     1
  0
XRECORD
  5
48CB
102
{ACAD_REACTORS
330
48C8
102
}
330
48C8
100
AcDbXrecord
280
     1
270
     1
271
     1
  0
XRECORD
  5
48DA
102
{ACAD_REACTORS
330
48D8
102
}
330
48D8
100
AcDbXrecord
280
     1
270
     1
271
     1
  0
XRECORD
  5
48D9
102
{ACAD_REACTORS
330
48D8
102
}
330
48D8
100
AcDbXrecord
280
     1
270
     1
271
     1
  0
XRECORD
  5
48DD
102
{ACAD_REACTORS
330
48D8
102
}
330
48D8
100
AcDbXrecord
280
     1
270
     1
271
     1
  0
XRECORD
  5
48DC
102
{ACAD_REACTORS
330
48D8
102
}
330
48D8
100
AcDbXrecord
280
     1
270
     1
271
     1
  0
XRECORD
  5
48DE
102
{ACAD_REACTORS
330
48D8
102
}
330
48D8
100
AcDbXrecord
280
     1
270
     1
271
     1
  0
XRECORD
  5
48DB
102
{ACAD_REACTORS
330
48D8
102
}
330
48D8
100
AcDbXrecord
280
     1
270
     1
271
     1
  0
CELLSTYLEMAP
  5
4925
102
{ACAD_REACTORS
330
4924
102
}
330
4924
100
AcDbCellStyleMap
 90
        3
300
CELLSTYLE
  1
TABLEFORMAT_BEGIN
 90
        5
170
     1
 91
        0
 92
    32768
 62
   257
 93
        1
300
CONTENTFORMAT
  1
CONTENTFORMAT_BEGIN
 90
        0
 91
        0
 92
      512
 93
        0
300

 40
0.0
140
1.0
 94
        5
 62
     0
340
F
144
6.0
309
CONTENTFORMAT_END
171
     1
301
MARGIN
  1
CELLMARGIN_BEGIN
 40
1.5
 40
1.5
 40
1.5
 40
1.5
 40
4.5
 40
4.5
309
CELLMARGIN_END
 94
        6
 95
        1
302
GRIDFORMAT
  1
GRIDFORMAT_BEGIN
 90
        0
 91
        1
 62
     0
 92
       -2
340
0
 93
        0
 40
1.125
309
GRIDFORMAT_END
 95
        2
302
GRIDFORMAT
  1
GRIDFORMAT_BEGIN
 90
        0
 91
        1
 62
     0
 92
       -2
340
0
 93
        0
 40
1.125
309
GRIDFORMAT_END
 95
        4
302
GRIDFORMAT
  1
GRIDFORMAT_BEGIN
 90
        0
 91
        1
 62
     0
 92
       -2
340
0
 93
        0
 40
1.125
309
GRIDFORMAT_END
 95
        8
302
GRIDFORMAT
  1
GRIDFORMAT_BEGIN
 90
        0
 91
        1
 62
     0
 92
       -2
340
0
 93
        0
 40
1.125
309
GRIDFORMAT_END
 95
       16
302
GRIDFORMAT
  1
GRIDFORMAT_BEGIN
 90
        0
 91
        1
 62
     0
 92
       -2
340
0
 93
        0
 40
1.125
309
GRIDFORMAT_END
 95
       32
302
GRIDFORMAT
  1
GRIDFORMAT_BEGIN
 90
        0
 91
        1
 62
     0
 92
       -2
340
0
 93
        0
 40
1.125
309
GRIDFORMAT_END
309
TABLEFORMAT_END
  1
CELLSTYLE_BEGIN
 90
        1
 91
        1
300
_TITLE
309
CELLSTYLE_END
300
CELLSTYLE
  1
TABLEFORMAT_BEGIN
 90
        5
170
     1
 91
        0
 92
        0
 62
   257
 93
        1
300
CONTENTFORMAT
  1
CONTENTFORMAT_BEGIN
 90
        0
 91
        0
 92
      512
 93
        0
300

 40
0.0
140
1.0
 94
        5
 62
     0
340
F
144
4.5
309
CONTENTFORMAT_END
171
     1
301
MARGIN
  1
CELLMARGIN_BEGIN
 40
1.5
 40
1.5
 40
1.5
 40
1.5
 40
4.5
 40
4.5
309
CELLMARGIN_END
 94
        6
 95
        1
302
GRIDFORMAT
  1
GRIDFORMAT_BEGIN
 90
        0
 91
        1
 62
     0
 92
       -2
340
0
 93
        0
 40
1.125
309
GRIDFORMAT_END
 95
        2
302
GRIDFORMAT
  1
GRIDFORMAT_BEGIN
 90
        0
 91
        1
 62
     0
 92
       -2
340
0
 93
        0
 40
1.125
309
GRIDFORMAT_END
 95
        4
302
GRIDFORMAT
  1
GRIDFORMAT_BEGIN
 90
        0
 91
        1
 62
     0
 92
       -2
340
0
 93
        0
 40
1.125
309
GRIDFORMAT_END
 95
        8
302
GRIDFORMAT
  1
GRIDFORMAT_BEGIN
 90
        0
 91
        1
 62
     0
 92
       -2
340
0
 93
        0
 40
1.125
309
GRIDFORMAT_END
 95
       16
302
GRIDFORMAT
  1
GRIDFORMAT_BEGIN
 90
        0
 91
        1
 62
     0
 92
       -2
340
0
 93
        0
 40
1.125
309
GRIDFORMAT_END
 95
       32
302
GRIDFORMAT
  1
GRIDFORMAT_BEGIN
 90
        0
 91
        1
 62
     0
 92
       -2
340
0
 93
        0
 40
1.125
309
GRIDFORMAT_END
309
TABLEFORMAT_END
  1
CELLSTYLE_BEGIN
 90
        2
 91
        1
300
_HEADER
309
CELLSTYLE_END
300
CELLSTYLE
  1
TABLEFORMAT_BEGIN
 90
        5
170
     1
 91
        0
 92
        0
 62
   257
 93
        1
300
CONTENTFORMAT
  1
CONTENTFORMAT_BEGIN
 90
        0
 91
        0
 92
      512
 93
        0
300

 40
0.0
140
1.0
 94
        2
 62
     0
340
F
144
4.5
309
CONTENTFORMAT_END
171
     1
301
MARGIN
  1
CELLMARGIN_BEGIN
 40
1.5
 40
1.5
 40
1.5
 40
1.5
 40
4.5
 40
4.5
309
CELLMARGIN_END
 94
        6
 95
        1
302
GRIDFORMAT
  1
GRIDFORMAT_BEGIN
 90
        0
 91
        1
 62
     0
 92
       -2
340
0
 93
        0
 40
1.125
309
GRIDFORMAT_END
 95
        2
302
GRIDFORMAT
  1
GRIDFORMAT_BEGIN
 90
        0
 91
        1
 62
     0
 92
       -2
340
0
 93
        0
 40
1.125
309
GRIDFORMAT_END
 95
        4
302
GRIDFORMAT
  1
GRIDFORMAT_BEGIN
 90
        0
 91
        1
 62
     0
 92
       -2
340
0
 93
        0
 40
1.125
309
GRIDFORMAT_END
 95
        8
302
GRIDFORMAT
  1
GRIDFORMAT_BEGIN
 90
        0
 91
        1
 62
     0
 92
       -2
340
0
 93
        0
 40
1.125
309
GRIDFORMAT_END
 95
       16
302
GRIDFORMAT
  1
GRIDFORMAT_BEGIN
 90
        0
 91
        1
 62
     0
 92
       -2
340
0
 93
        0
 40
1.125
309
GRIDFORMAT_END
 95
       32
302
GRIDFORMAT
  1
GRIDFORMAT_BEGIN
 90
        0
 91
        1
 62
     0
 92
       -2
340
0
 93
        0
 40
1.125
309
GRIDFORMAT_END
309
TABLEFORMAT_END
  1
CELLSTYLE_BEGIN
 90
        3
 91
        2
300
_DATA
309
CELLSTYLE_END
  0
ACAD_PROXY_OBJECT
  5
1443
330
1442
100
AcDbProxyObject
 90
      499
 91
      543
 95
   851991
 70
     0
 93
       96
310
57020E80A0280A0280A02808E9
 94
        0
  0
ACAD_PROXY_OBJECT
  5
1444
330
1442
100
AcDbProxyObject
 90
      499
 91
      544
 95
   851991
 70
     0
 93
      332
310
5710E405014050140501405014050140501405014250140501405014050140501200000000000000040C
340
E56
 94
        0
  0
ACAD_PROXY_OBJECT
  5
1445
330
1442
100
AcDbProxyObject
 90
      499
 91
      545
 95
   851991
 70
     0
 93
      402
310
570C199999999999E99F91F405014050140501405014050140501405014050140501405014050140501405014050140501404C
340
0
 94
        0
  0
ACAD_PROXY_OBJECT
  5
1446
330
1442
100
AcDbProxyObject
 90
      499
 91
      546
 95
   851991
 70
     0
 93
       10
310
570C
 94
        0
  0
ACAD_PROXY_OBJECT
  5
1447
330
1442
100
AcDbProxyObject
 90
      499
 91
      547
 95
   851991
 70
     0
 93
      223
310
572290EA22A7D90F49F9353333333333727F44D4CCCCCCCCCDC9FA04
340
E4B
340
E4C
 94
        0
  0
ACAD_PROXY_OBJECT
  5
1448
330
1442
100
AcDbProxyObject
 90
      499
 91
      548
 95
   851991
 70
     0
 93
    12881
310
5710E4112551153501411413D4CB901405014069011349A4F2590CB64FD3347454E545241434F2C4954412C302C504F532E2C47454E54524154582C25732C2847454E4D53472067656E647767203232322940690120281A8AA2CA0281A8AA602028120280A03202269349E4B2196C9FA648E8A9CA8A482869E5892A8825860
310
58A2A980588E8A9CA8A482A8B0584AE658508E8A9C9AA68E40CECADCC8EECE406464665280D202405044E414D45405044E4F4D454051C40640A8BA5C2E97CBE502404CD1D15395149050D3CB1255104B0C0B1393D3514B11D15395149055160B095CCB0A11D1539354D1C819D95B991DD9C80C8C8D8A50190B3D424C4F434B
310
3A4E414D4540480A0A888AA686A480A16888AA686A492B4929E9C8A80A3A80C81D10782C06030180C809D23A2A72A2920A1A79624AA209618162222A9A1A924AD24A7A7229623A2A72A2920AA2C1612B9961423A2A726A9A39033B2B7323BB39019189B94A024809014214D51053911054911014214D510539110549110147
310
501904A383BFDFEFF5FBFCFD3747454E545241434F2C4954412C302C5354414E444152442C47454E54524154582C25732C2847454E4D53472067656E64776720323138294049012028426A0AA22A924A0A620284A6A0AA22A924A0A622A028EA0320B41416D838E9017D9FA708E8A9CA8A482869E5892A8825860589A82A88
310
AA49282988A588E8A9CA8A482A8B0584AE658508E8A9C9AA68E40CECADCC8EECE406464625280D202405044E4F5445405044E4F54414051D40641A8BA5C2E97CBE5F23F4CD1D15395149050D3CB1255104B0C0B1393D5104B11D15395149055160B095CCB0A11D1539354D1C819D95B991DD9C80C8C8D4A501A40480A0CAC8
310
A9C889EA480A128C9EA49C92A89EA48A80A3A80C83D174B85D2F97CBE47E9C23A2A72A2920A1A79624AA209618162327A92724AA27A9229623A2A72A2920AA2C1612B9961423A2A726A9A39033B2B7323BB39019191A14A0348090141911154D0D48C90143511154D0D492569253D391480C90147501908A20F0580C060301
310
9013B47454E545241434F2C4954412C302C4445534352495A494F4E4520322C47454E54524154582C25732C2847454E4D53472067656E6477672033362940490120284A9AA20A72220A922192028529AA20A72220A92210192028EA0321347077FBFDFEBF7F9FA728E8A9CA8A482869E5892A882586058A6A8829C8882A488
310
4064588E8A9CA8A482A8B0584AE658508E8A9C9AA68E40CECADCC8EECE4064646052809202405094D4154455249414C324050B4D4154455249414C4520324051D40642A8282DB071D202FB3F4E51D15395149050D3CB1255104B0C0B135055115492505311480C8B11D15395149055160B095CCB0A11D1539354D1C819D95B
310
991DD9C80D0C0A501240480A089A82A6A680A0A9A82A6A68280A3A80A0485A0681174B85D2F97CBE47E99A3A2A72A2920A1A79624AA2096181626A0A9A9A09623A2A72A2920AA2C1612B9961423A2A726A9A39033B2B7323BB3901A1914A024809014154149250D150141941491569693D01475014090C409022E970BA5F2F
310
97C8FD3447454E545241434F2C4954412C302C5052455A5A4F2C47454E54524154582C25732C2847454E4D53472067656E6477672034332940490120281A224A6A028326A4A9AAA920A028EA028121A81A045D2E174BE5F2F91FA688E8A9CA8A482869E5892A8825860589A92A6AAA482588E8A9CA8A482A8B0584AE658508
310
E8A9C9AA68E40CECADCC8EECE406868528092024050E441022E07A17AD46E338FD1E004062B355AAD56AB7D8FCACD56AB55AADF63F41CF4F125511534F9014062B355AAD56AB7D8FCACD56AB55AADF63F41CF4F125511534F9014062431F8FC5E0F3B8FC90C7E3F1783CEE3F41CF4F125511534F9014062431F8FC5E0F3B8F
310
C90C7E3F1783CEE3F41CF4F125511534F90140A404ACD56AB55AADF63F2B355AAD56AB7D8FD073D3C4954454D3E405063D3C5154593E405018ACD56AB55AADF63F2B355AAD56AB7D8FD073D3C4954454D3E40640400ACD56AB55AADF63F2B355AAD56AB7D8FE8800000000000002081A0881A068120480A032208521122080
310
D21480D211480A1485214852050000000000003C2FC000000000000F0BF4050241C3BDF4F8D976EA23F0EF7D3E365DBA88FCB81E85EB51B8BE3FC80D069014090541D06901A5C0F42F5A8DC5F1FA0483A048098A0280CC
340
0
340
0
 94
        0
  0
ACAD_PROXY_OBJECT
  5
1449
330
1442
100
AcDbProxyObject
 90
      499
 91
      549
 95
   851991
 70
     0
 93
      960
310
5700B81E85EB51B8CE3F4BCF511155105253080F11115510525317D3105091530F971414D0D05311480F11115510525317D05094D4D0D053114F92341C9A9999999999B93F26A666666666724FC000000000000E03F40000000000000040000000000000051000000000000002440478B81E85EB51B8CE3F00
340
E47
340
E55
 94
        0
  0
ACAD_PROXY_OBJECT
  5
144A
330
1442
100
AcDbProxyObject
 90
      499
 91
      550
 95
   851991
 70
     0
 93
      745
310
570031703D0BD6A3719C7E999EA9A2A1AA24A7A7101E29A2A1AA24A7A72FA620A122A62FA324A929AA1F169E29A2A1AA24A7A72FA620A122A62FA620A9AA1F1353333333333B27EFF41C8823C4D4CCCCCCCCCEC9FC5C0F42F5A8DC671FCC
340
E47
340
E55
 94
        0
  0
ACAD_PROXY_OBJECT
  5
144B
330
1442
100
AcDbProxyObject
 90
      499
 91
      551
 95
   851991
 70
     0
 93
      279
310
5702B8716D9CEF7C33F0A5723F0BD4A2F0FC295C8FC2F528BC3FA199999999999F99FC
 94
        0
  0
ACAD_PROXY_OBJECT
  5
144C
330
1442
100
AcDbProxyObject
 90
      499
 91
      552
 95
   851991
 70
     0
 93
     5890
310
571084050B90142A40502405094D6F64656C6C6F2031405EA3D3C696628657175616C28486F6C653A7461707065642C223022292C222525632220486F6C653A6469612C20486F6C653A6E6F6D696E616C2022202220696628657175616C28486F6C653A756E6974732C223122292C2278222C222D22292022202220486F6C6
310
53A706974636864657363293E207B5C46414D4744543B787D203C696628657175616C28486F6C653A7465726D696E6174696F6E2C223022292C486F6C653A64657074682C225448525522293E5C507B5C46414D4744543B767D2525633C486F6C653A63746469613E207B5C46414D4744543B787D203C486F6C653A6374646
310
57074683E40640503405094D6F64656C6C6F2031405E33D3C696628657175616C28486F6C653A7461707065642C223022292C222525632220486F6C653A6469612C20486F6C653A6E6F6D696E616C2022202220696628657175616C28486F6C653A756E6974732C223122292C2278222C222D22292022202220486F6C653A7
310
06974636864657363293E207B5C46414D4744543B787D203C696628657175616C28486F6C653A7465726D696E6174696F6E2C223022292C486F6C653A64657074682C225448525522293E5C507B5C46414D4744543B777D2525633C486F6C653A63746469613E2058203C486F6C653A6374616E676C653E252564406405014
310
05094D6F64656C6C6F2031405B43D3C696628657175616C28486F6C653A7461707065642C223022292C222525632220486F6C653A6469612C20486F6C653A6E6F6D696E616C2022202220696628657175616C28486F6C653A756E6974732C223122292C2278222C222D22292022202220486F6C653A7069746368646573632
310
93E5C507B5C46414D4744543B787D203C696628657175616C28486F6C653A7465726D696E6174696F6E2C223022292C486F6C653A64657074682C225448525522293E4064051E405094D6F64656C6C6F20314050C3D3C535444503A444553433E40640515A8C
 94
        0
  0
ACAD_PROXY_OBJECT
  5
144D
330
1442
100
AcDbProxyObject
 90
      499
 91
      537
 95
   851991
 70
     0
 93
       20
310
57101C
340
0
 94
        0
  0
ACAD_PROXY_OBJECT
  5
144E
330
1442
100
AcDbProxyObject
 90
      499
 91
      538
 95
   851991
 70
     0
 93
      258
310
57102000000000000380FC000000000000E03F408F0F9023C3E40DB18CCCFFFF8C
340
E58
340
0
340
0
340
E59
340
E5A
340
0
340
E5B
340
E5C
340
E5D
340
0
 94
        0
  0
ACAD_PROXY_OBJECT
  5
144F
330
1442
100
AcDbProxyObject
 90
      499
 91
      553
 95
   851991
 70
     0
 93
    13409
310
5711A023FFFFFFFD010300002E07A17AD46E2F8FC09010300002E07A17AD46E2F8FC080511454C454E434F20434F4F5244494E415445015011D15395149050D3CB1255104B0C0B1153115390D3C810D3D3D49112539055114B11D15395149055160B095CCB0A11D1539354D1C819D95B991A5B5E880CCC0A78000C00000000
310
0000000000000000000000007B14AE47E17AA43F2E07A17AD46E2F8FD021EC52B91F85EA90FCB81E85EB51B8BE3F40A014315105091531310481193D4924053B47454E545241434F2C4954412C302C544142454C4C4120464F52492C47454E54524154582C25732C2847454E4D53472067656E64696D7A20333129E0003000
310
000000000000000000000000000001EC52B91F85EA90FCB81E85EB51B8BE3F4087B14AE47E17AA43F2E07A17AD46E2F8FD0290B4410F4450240D04415014391244D05449074510C4350F000141D3D49251D253914053547454E545241434F2C4954412C302C4F524947494E452C47454E54524154582C25732C2847454E4D5
310
3472067656E64696D7A20312900010105002214000283A7A924A3A4A72280A6A8E8A9CA8A482869E5892A8825860589EA4928E929C8A588E8A9CA8A482A8B0584AE658508E8A9C9AA68E40CECADCC8D2DAF4406252000202080043E8000504464F524F014C91D15395149050D3CB1255104B0C0B1193D493CB11D153951490
310
55160B095CCB0A11D1539354D1C819D95B991A5B5E880C8A405163D3C486F6C654974656D3E3C486F6C65496E6465783E010104002234000280AC00A5E8E8A9CA8A482869E5892A882586058B0588E8A9CA8A482A8B0584AE658508E8A9C9AA68E40CECADCC8D2DAF4406652000202000040A800050159014BD1D153951490
310
50D3CB1255104B0C0B164B11D15395149055160B095CCB0A11D1539354D1C819D95B991A5B5E880D0A4000404000081D0000A02A40297A3A2A72A2920A1A79624AA20961816291623A2A72A2920AA2C1612B9961423A2A726A9A39033B2B73234B6BD101B148000808000104A000141954ACC0D0D0D0053447454E54524143
310
4F2C4954412C302C552B303434342C47454E54524154582C25732C2847454E4D53472067656E64696D7A203729000101030020B40002822827A99700A668E8A9CA8A482869E5892A882586058A09EA65C588E8A9CA8A482A8B0584AE658508E8A9C9AA68E40CECADCC8D2DAF4406268520002020A004068000506494E44494
310
345014D51D15395149050D3CB1255104B0C0B1253911250D14B11D15395149055160B095CCB0A11D1539354D1C819D95B991A5B5E880C4D4A400040414008750000A088C9EA49E0299A3A2A72A2920A1A79624AA209618162327A9279623A2A72A2920AA2C1612B9961423A2A726A9A39033B2B73234B6BD10189B14800080
310
8200112A000142D253911250D1481193D493C053A47454E545241434F2C4954412C302C494E4449434520464F524F2C47454E54524154582C25732C2847454E4D53472067656E64696D7A20313729000101050022740002819292A180A628E8A9CA8A482869E5892A8825860584A4A86588E8A9CA8A482A8B0584AE658508E
310
8A9C9AA68E40CECADCC8D2DAF4407052000202020041E80005035154C0014C91D15395149050D3CB1255104B0C0B1455300B11D15395149055160B095CCB0A11D1539354D1C819D95B991A5B5E880C4E4A400040418008A50000A16888AA686A492B4929E9C8A029D23A2A72A2920A1A79624AA209618162222A9A1A924AD2
310
4A7A7229623A2A72A2920AA2C1612B9961423A2A726A9A39033B2B73234B6BD10191814800080020010CA00014214D51053911054910053747454E545241434F2C4954412C302C5354414E444152442C47454E54524154582C25732C2847454E4D53472067656E64696D7A20323129000100040021B4878030026A66666666
310
67A4FE064D4CCCCCCCCCF49FC049A9999999999E93F809353333333333D27F0226A6666666667A4FE044D4CCCCCCCCCF49FC009A9999999999D93F801353333333333D27F0026A6666666667A4FE004D4CCCCCCCCCF49FC0D819703D0BD6A371BC7F03000000000000001020633B333333333032050F006004D4CCCCCCCCCF
310
49FC0C9A9999999999E93F819353333333333D27F0326A6666666667A4FE064D4CCCCCCCCCF49FC0C9A9999999999E93F801353333333333B27F0026A6666666667A4FE064D4CCCCCCCCCF49FC009A9999999999E93F81B032E07A17AD46E378FE06000000000000002040C6766666666660640A088800000021E000000890
310
000002260000008220E00020089000000206000200810000804C
340
0
340
0
340
0
340
0
 94
        0
  0
ACAD_PROXY_OBJECT
  5
1450
330
1442
100
AcDbProxyObject
 90
      499
 91
      540
 95
   851991
 70
     0
 93
     5766
310
5719741105394D2506414E53495F4342905394D257D512551554D15414E53495F54525F5265766973696F6E6C697374614191243202831372E307832322E30706F6C6C2E2941905394D257D0D1246202832382E307834302E30706F6C6C2E2941905394D257D1911412028382E357831312E30706F6C6C2E2941905394D257
310
D051242202831312E307831372E30706F6C6C2E2941905394D257D091244202832322E307833342E30706F6C6C2E2941905394D257D111245202833342E307834342E30706F6C6C2E2941905394D257D150544505394D24810D85C9D1A59DB1A5BC81050D0C414E53495F5449544C4541434310D85C9D1A59DB1A5BC81554D
310
0A414E53495F544954555344105394D24810D85C9D1A59DB1A5BC81050B414E53495F5449544C454144105394D24810D85C9D1A59DB1A5BC81110B414E53495F5449544C454444505394D24810D85C9D1A59DB1A5BC81110D0C414E53495F5449544C45444342116456C656E636F207265766973696F6E6920445F54525F45
310
505394D257D51497D4995D9A5CDA5BDB9B1A5CDD19116456C656E636F207265766973696F6E6920415F424C5F45505394D257D09317D4995D9A5CDA5BDB9B1A5CDD18516456C656E636F207265766973696F6E6920415F544C5F45505394D257D51317D4995D9A5CDA5BDB9B1A5CDD18516456C656E636F207265766973696
310
F6E6920445F424C5F45505394D257D09317D4995D9A5CDA5BDB9B1A5CDD19116456C656E636F207265766973696F6E6920445F544C5F45505394D257D51317D4995D9A5CDA5BDB9B1A5CDD19116456C656E636F207265766973696F6E6920415F42525F45505394D257D09497D4995D9A5CDA5BDB9B1A5CDD18516456C656E
310
636F207265766973696F6E6920415F54525F45505394D257D51497D4995D9A5CDA5BDB9B1A5CDD18516456C656E636F207265766973696F6E6920445F42525F45505394D257D09497D4995D9A5CDA5BDB9B1A5CDD190
 94
        0
  0
ACAD_PROXY_OBJECT
  5
D2F
330
D23
100
AcDbProxyObject
 90
      499
 91
      526
 95
   851991
 70
     0
 93
       12
310
571C
 94
        0
  0
ACAD_PROXY_OBJECT
  5
D30
330
D23
100
AcDbProxyObject
 90
      499
 91
      527
 95
   851991
 70
     0
 93
       96
310
572A0E80A0280A0280A0280FF0
 94
        0
  0
ACAD_PROXY_OBJECT
  5
D31
330
D23
100
AcDbProxyObject
 90
      499
 91
      528
 95
   851991
 70
     0
 93
      272
310
5710E4050140501405014050140501405014050140D01405012C00000000000000406C
340
D3A
 94
        0
  0
ACAD_PROXY_OBJECT
  5
D32
330
D23
100
AcDbProxyObject
 90
      499
 91
      529
 95
   851991
 70
     0
 93
      496
310
5728666666666667A67E199999999999E99FD22405014050140501405014050140501405014050140501405014050140501405014050140501405014050140
340
D3B
 94
        0
  0
ACAD_PROXY_OBJECT
  5
D33
330
D23
100
AcDbProxyObject
 90
      499
 91
      530
 95
   851991
 70
     0
 93
       10
310
570C
 94
        0
  0
ACAD_PROXY_OBJECT
  5
D34
330
D23
100
AcDbProxyObject
 90
      499
 91
      531
 95
   851991
 70
     0
 93
      223
310
572290EA22A7D90F49F8000000000000108140000000000000420204
340
D3C
340
D3D
 94
        0
  0
ACAD_PROXY_OBJECT
  5
D35
330
D23
100
AcDbProxyObject
 90
      499
 91
      532
 95
   851991
 70
     0
 93
    12879
310
5710E411255115350141141BDCCB90140501406901000000000000091013347454E545241434F2C4954412C302C506F732E2C47454E54524154582C25732C2847454E4D53472067656E647767203232322940690120281A8AA2CA0281A8BA702028120280A0320200000000000012202648E8A9CA8A482869E5892A8825860
310
58A2E9C0588E8A9CA8A482A8B0584AE658508E8A9C9AA68E40CECADCC8EECE406464665280D202405044E414D45405044E6F6D654051C40640A80000000000004E404CD1D15395149050D3CB1255104B0C0B139BDB594B11D15395149055160B095CCB0A11D1539354D1C819D95B991DD9C80C8C8D8A50190B3D424C4F434B
310
3A4E414D4540480A0A888AA686A480A1688CAE6C6E4D2F4D2DEDCCA80A3A80C81D0000000000100A2809D23A2A72A2920A1A79624AA209618162232B9B1B934BD34B7B7329623A2A72A2920AA2C1612B9961423A2A726A9A39033B2B7323BB39019189B94A034809014214D51053911054911014214DD185B99185C9910147
310
501904A000000000000125013747454E545241434F2C4954412C302C5374616E646172642C47454E54524154582C25732C2847454E4D53472067656E64776720323138294069012028426A0AA22A924A0A620284A6B0BA32B934B0B632A028EA0320B40000000000001CA02708E8A9CA8A482869E5892A8825860589AC2E8C
310
AE4D2C2D8CA588E8A9CA8A482A8B0584AE658508E8A9C9AA68E40CECADCC8EECE406464625280D202405044E4F5445405044E6F74614051D40641A80000000000003E404CD1D15395149050D3CB1255104B0C0B139BDD184B11D15395149055160B095CCB0A11D1539354D1C819D95B991DD9C80C8C8D4A501240480A0CAC8
310
A9C889EA480A128CDEE4DCD2E8DEE4CA80A3A80C83D00000000000007C809C23A2A72A2920A1A79624AA209618162337B93734BA37B9329623A2A72A2920AA2C1612B9961423A2A726A9A39033B2B7323BB39019191A14A0248090141911154D0D48C9014351195CD8DC9A5E9A5BDB99480C90147501908A00000000002014
310
5013B47454E545241434F2C4954412C302C4465736372697A696F6E6520322C47454E54524154582C25732C2847454E4D53472067656E6477672033362940490120284A9AA20A72220A922192028529BA30B73230B93210192028EA03213400000000000024A02728E8A9CA8A482869E5892A882586058A6E8C2DCC8C2E4C8
310
4064588E8A9CA8A482A8B0584AE658508E8A9C9AA68E40CECADCC8EECE4064646052809202405094D4154455249414C324050B4D6174657269616C6520324051D40642A8713D0AD7A37045404E51D15395149050D3CB1255104B0C0B13585D195C9A585B19480C8B11D15395149055160B095CCB0A11D1539354D1C819D95B
310
991DD9C80D0C0A501240480A089A82A6A680A0A9AC2E6E6C280A3A80A0485A068100000000000007C8099A3A2A72A2920A1A79624AA2096181626B0B9B9B09623A2A72A2920AA2C1612B9961423A2A726A9A39033B2B7323BB3901A1914A024809014154149250D150141941C995E9E9BD01475014090C4090200000000000
310
00F9013447454E545241434F2C4954412C302C5072657A7A6F2C47454E54524154582C25732C2847454E4D53472067656E6477672034332940490120281A224A6A028326B4B9BAB930A028EA028121A81A040000000000001F202688E8A9CA8A482869E5892A8825860589AD2E6EAE4C2588E8A9CA8A482A8B0584AE658508
310
E8A9C9AA68E40CECADCC8EECE406868528092024050E445020000000000000510107004060000000000000F9000000000000003E4041CF4F125511534F9014060000000000000F9000000000000003E4041CF4F125511534F9014060000000000000D100000000000000344041CF4F125511534F9014060000000000000D10
310
0000000000000344041CF4F125511534F90140A4040000000000003E400000000000000F901073D3C4954454D3E405063D3C5154593E4050180000000000003E400000000000000F901073D3C4954454D3E406404000000000000003E400000000000000F902888000000000000208081A0881A068120480A0322085211220
310
80D21480D211480A1485214852050000000000003C2FC000000000000F0BF4050241CCDCCCCCCCCCCEC3F3373333333333B0FC0000000000000C40480D0590140D04416406800000000000018808120480A026280A02
340
0
340
0
 94
        0
  0
ACAD_PROXY_OBJECT
  5
D36
330
D23
100
AcDbProxyObject
 90
      499
 91
      533
 95
   851991
 70
     0
 93
      864
310
5704000000000000144048CF4F11115510525317D3105091530F880A0F11115510525317D05094D4D0D053114F8A51141C9A9999999999B93F26A666666666724FC000000000000E03F4000000000000004000000000000005100000000000000244041C000000000000144000
340
14
340
D2E
 94
        0
  0
ACAD_PROXY_OBJECT
  5
D37
330
D23
100
AcDbProxyObject
 90
      499
 91
      534
 95
   851991
 70
     0
 93
      745
310
5700B00000000000002880959E9E29A2A1AA24A7A72FA620A122A62FA324A929AA1F169E29A2A1AA24A7A72FA620A122A62FA620A9AA1F00000000000004880FF41C88A0E0000000000001220000000000000028800000000000000A204C
340
163
340
D2E
 94
        0
  0
ACAD_PROXY_OBJECT
  5
D38
330
D23
100
AcDbProxyObject
 90
      499
 91
      535
 95
   851991
 70
     0
 93
      151
310
57280000000000000840A3D0A5723F0BD1F200
 94
        0
  0
ACAD_PROXY_OBJECT
  5
D39
330
D23
100
AcDbProxyObject
 90
      499
 91
      536
 95
   851991
 70
     0
 93
     5762
310
571084050B90142A40502405094D6F64656C6C6F2031405DC3D2525633C486F6C653A63746469613E2078203C486F6C653A637464657074683E20555C503C696628657175616C28486F6C653A7461707065642C223022292C222525632220486F6C653A6469612C20486F6C653A6E6F6D696E616C20222078202220486F6C6
310
53A70697463686465736320696628657175616C28486F6C653A7461707065642C223122292C222078202220486F6C653A74617064657074682C222229293E203C696628657175616C28486F6C653A7465726D696E6174696F6E2C223022292C22202F202220486F6C653A64657074682C222022293E40640503405094D6F64
310
656C6C6F2031405DD3D2525633C486F6C653A63746469613E2078203C486F6C653A6374616E676C653E2525645C503C696628657175616C28486F6C653A7461707065642C223022292C222525632220486F6C653A6469612C20486F6C653A6E6F6D696E616C20222078202220486F6C653A706974636864657363206966286
310
57175616C28486F6C653A7461707065642C223122292C222078202220486F6C653A74617064657074682C222229293E203C696628657175616C28486F6C653A7465726D696E6174696F6E2C223022292C22202F202220486F6C653A64657074682C222022293E40640501405094D6F64656C6C6F2031405B83D3C696628657
310
175616C28486F6C653A7461707065642C223022292C222525632220486F6C653A6469612C20486F6C653A6E6F6D696E616C20222078202220486F6C653A70697463686465736320696628657175616C28486F6C653A7461707065642C223122292C222078202220486F6C653A74617064657074682C222229293E203C69662
310
8657175616C28486F6C653A7465726D696E6174696F6E2C223022292C22202F202220486F6C653A64657074682C222022293E4064051E405094D6F64656C6C6F20314050C3D3C535444503A444553433E40640515A8C
 94
        0
  0
ACAD_PROXY_OBJECT
  5
D3F
330
D23
100
AcDbProxyObject
 90
      499
 91
      537
 95
   851991
 70
     0
 93
       20
310
57101C
340
D24
 94
        0
  0
ACAD_PROXY_OBJECT
  5
D40
330
D23
100
AcDbProxyObject
 90
      499
 91
      538
 95
   851991
 70
     0
 93
      250
310
571020000000000000A1000000000000002440408F0F9023C3E409A0DCFFFF8C
340
D41
340
0
340
0
340
D42
340
D43
340
D44
340
D45
340
D46
340
D4B
340
0
 94
        0
  0
ACAD_PROXY_OBJECT
  5
D4C
330
D23
100
AcDbProxyObject
 90
      499
 91
      539
 95
   851991
 70
     0
 93
    13755
310
5711A003FFFFFFFD0303000300000000000003100090303000300000000000003100080511456C656E636F20636F6F7264696E617465015011D15395149050D3CB1255104B0C0B115B195B98DBC818DBDBDC991A5B985D194B11D15395149055160B095CCB0A11D1539354D1C819D95B991A5B5E880CCC0A78000C00000000
310
000000000000000000000001000000000000031010240000000000000C4040A0143151858995B1B1848199BDC9A4053B47454E545241434F2C4954412C302C546162656C6C6120666F72692C47454E54524154582C25732C2847454E4D53472067656E64696D7A20333129E000300000000000000000000000000000000400
310
00000000000C40409000000000000031010290D44111409034110541D0C4350F4050E44D03449074510F000141D3DC9A59DA5B994053547454E545241434F2C4954412C302C4F726967696E652C47454E54524154582C25732C2847454E4D53472067656E64696D7A203129000101050022140002822337B93780A648E8A9C
310
A8A482869E5892A8825860588CDEE4DE588E8A9CA8A482A8B0584AE658508E8A9C9AA68E40CECADCC8D2DAF4406452029F9E9E27B934B3B4B71F1E24A31427A91424A9A12620A7259427B934B3B4B7149624A9A12620A7259424B73232BC149496111116111711149F1E24B73232BC1F00808200111A000140560052F47454
310
E545241434F2C4954412C302C582C47454E54524154582C25732C2847454E4D53472067656E64696D7A20332900010100002054000280AC80A5E8E8A9CA8A482869E5892A882586058B2588E8A9CA8A482A8B0584AE658508E8A9C9AA68E40CECADCC8D2DAF4406852000202000040E800050172014BD1D15395149050D3CB
310
1255104B0C0B1C8B11D15395149055160B095CCB0A11D1539354D1C819D95B991A5B5E880D8A400040400008250000A0CAA5660686868029A23A2A72A2920A1A79624AA209618162A95981A1A1A1623A2A72A2920AA2C1612B9961423A2A726A9A39033B2B73234B6BD101B948000808180105A000140C94958C053147454E
310
545241434F2C4954412C302C2525632C47454E54524154582C25732C2847454E4D53472067656E64696D7A203829000101010020F4000285A232B9B1B934BD34B7B73280A748E8A9CA8A482869E5892A88258605888CAE6C6E4D2F4D2DEDCCA588E8A9CA8A482A8B0584AE658508E8A9C9AA68E40CECADCC8D2DAF44064605
310
2000200080043280005085374616E64617264014DD1D15395149050D3CB1255104B0C0B14DD185B99185C990B11D15395149055160B095CCB0A11D1539354D1C819D95B991A5B5E880C8C4A4000400100086D0000A0E9EE4D2CED2DCCA029AA3A2A72A2920A1A79624AA2096181627B934B3B4B7329623A2A72A2920AA2C16
310
12B9961423A2A726A9A39033B2B73234B6BD10189480A026202020A0043E8000504506F732E014CD1D15395149050D3CB1255104B0C0B141BDCCB8B11D15395149055160B095CCB0A11D1539354D1C819D95B991A5B5E880C4D0A4000404140080D0000A0C92DCC8D2C6CA029AA3A2A72A2920A1A79624AA2096181624B732
310
34B1B29623A2A72A2920AA2C1612B9961423A2A726A9A39033B2B73234B6BD10189A94800080828010EA000142D25B991A58D948199BDC9BC053A47454E545241434F2C4954412C302C496E6469636520666F726F2C47454E54524154582C25732C2847454E4D53472067656E64696D7A20313729000101050022740002822
310
337B93780A668E8A9CA8A482869E5892A8825860588CDEE4DE588E8A9CA8A482A8B0584AE658508E8A9C9AA68E40CECADCC8D2DAF440626C52000202080044A80005035174E0014C91D15395149050D3CB1255104B0C0B145D380B11D15395149055160B095CCB0A11D1539354D1C819D95B991A5B5E880C4E4A4000404180
310
08A521E000000000000001CA040C00000000000034408080000000000006881010000000000000D102040000000000001A204080000000000003440818000000000000728103000000000000125020600000000004028A040000000000000034408000000000000004881000000000000000D102000000000000001A204000
310
000000000003440818000000000000508143C0000000000000039408180000000000006881030000000000000D102060000000000001A2040C00000000000034408180000000000006881030000000000000E5020600000000000024A040C00000000008051408000000000000006881000000000000000910200000000000
310
0001A2040000000000000034408180000000000006881030000000000000A10283A2000000087800000204000000818000002080000008280000020E00000080A24000000C
340
0
340
0
340
0
340
0
 94
        0
  0
ACAD_PROXY_OBJECT
  5
D4D
330
D23
100
AcDbProxyObject
 90
      499
 91
      540
 95
   851991
 70
     0
 93
     7258
310
5719740D254D3D0649534F5F4133429254D3D7D5125513115051349534F5F42525F5265766973696F6E6C69737446111413478342028323937783834316D6D2920421254D3D7D04D1E0D11141327835202835393478323130326D6D29421254D3D7D04C9E0D51141337837202834323078323038306D6D29421254D3D7D04C
310
DE0DD1141347839202832393778313839326D6D29421254D3D7D04D1E0E50E41312028353934783834316D6D29419254D3D7D04C51141327834202835393478313638326D6D29421254D3D7D04C9E0D11141347838202832393778313638326D6D29421254D3D7D04D1E0E10E41332028323937783432306D6D29419254D3D
310
7D04CD104130202838343078313138396D6D2920419254D3D7D04C11141347835202832393778313035316D6D29421254D3D7D04D1E0D51141347836202832393778313236316D6D29421254D3D7D04D1E0D91141347837202832393778313437316D6D29421254D3D7D04D1E0DD1141327833202835393478313236316D6D
310
29421254D3D7D04C9E0CD1141337834202834323078313138396D6D29421254D3D7D04CDE0D110413478332028323937783633306D6D29421254D3D7D04D1E0CD1141337835202834323078313438366D6D29421254D3D7D04CDE0D51141337836202834323078313738336D6D29421254D3D7D04CDE0D9104133783320283
310
43230783839316D6D29421254D3D7D04CDE0CD0E41322028343230783539346D6D29419254D3D7D04C9124130783220283131383978313638326D6D29421254D3D7D04C1E0C90E41342028323937783231306D6D29419254D3D7D04D1124130783320283131383978323532336D6D29421254D3D7D04C1E0CD114131783420
310
2838343178323337386D6D29421254D3D7D04C5E0D11141317833202838343178313738336D6D29421254D3D7D04C5E0CD0243D254D3C810D85C9D1A59DB1A5BC81050A49534F5F5449544C454143D254D3C810D85C9D1A59DB1A5BC81090A49534F5F5449544C454241114456C656E636F207265766973696F6E695F54525
310
F44D254D3D7D51497D4995D9A5CDA5BDB9B1A5CDD114456C656E636F207265766973696F6E695F424C5F44D254D3D7D09317D4995D9A5CDA5BDB9B1A5CDD114456C656E636F207265766973696F6E695F544C5F44D254D3D7D51317D4995D9A5CDA5BDB9B1A5CDD114456C656E636F207265766973696F6E695F42525F44D2
310
54D3D7D09497D4995D9A5CDA5BDB9B1A5CDD0C
 94
        0
  0
ENDSEC
  0
EOF
