  0
SECTION
  2
HEADER
  9
$ACADVER
  1
AC1018
  9
$ACADMAINTVER
 70
   104
  9
$DWGCODEPAGE
  3
ANSI_1252
  9
$LASTSAVEDBY
  1
Achim
  9
$CUSTOMPROPERTYTAG
  1
AmdtFileType
  9
$CUSTOMPROPERTY
  1
84
  9
$INSBASE
 10
0.0
 20
0.0
 30
0.0
  9
$EXTMIN
 10
-1687.003425099606
 20
-468.690639344525
 30
0.0
  9
$EXTMAX
 10
-9.19012796456127
 20
264.5565932735458
 30
0.0
  9
$LIMMIN
 10
0.0
 20
0.0
  9
$LIMMAX
 10
420.0
 20
297.0
  9
$ORTHOMODE
 70
     1
  9
$REGENMODE
 70
     1
  9
$FILLMODE
 70
     1
  9
$QTEXTMODE
 70
     0
  9
$MIRRTEXT
 70
     1
  9
$LTSCALE
 40
20.0
  9
$ATTMODE
 70
     1
  9
$TEXTSIZE
 40
2.5
  9
$TRACEWID
 40
1.0
  9
$TEXTSTYLE
  7
STANDARD
  9
$CLAYER
  8
ASSI
  9
$CELTYPE
  6
BYLAYER
  9
$CECOLOR
 62
   256
  9
$CELTSCALE
 40
1.0
  9
$DISPSILH
 70
     0
  9
$DIMSCALE
 40
1.0
  9
$DIMASZ
 40
2.5
  9
$DIMEXO
 40
0.625
  9
$DIMDLI
 40
3.75
  9
$DIMRND
 40
0.0
  9
$DIMDLE
 40
0.0
  9
$DIMEXE
 40
1.25
  9
$DIMTP
 40
0.0
  9
$DIMTM
 40
0.0
  9
$DIMTXT
 40
2.5
  9
$DIMCEN
 40
2.5
  9
$DIMTSZ
 40
0.0
  9
$DIMTOL
 70
     0
  9
$DIMLIM
 70
     0
  9
$DIMTIH
 70
     0
  9
$DIMTOH
 70
     0
  9
$DIMSE1
 70
     0
  9
$DIMSE2
 70
     0
  9
$DIMTAD
 70
     1
  9
$DIMZIN
 70
     8
  9
$DIMBLK
  1

  9
$DIMASO
 70
     1
  9
$DIMSHO
 70
     1
  9
$DIMPOST
  1

  9
$DIMAPOST
  1

  9
$DIMALT
 70
     0
  9
$DIMALTD
 70
     4
  9
$DIMALTF
 40
0.0394
  9
$DIMLFAC
 40
1.0
  9
$DIMTOFL
 70
     1
  9
$DIMTVP
 40
0.0
  9
$DIMTIX
 70
     0
  9
$DIMSOXD
 70
     0
  9
$DIMSAH
 70
     0
  9
$DIMBLK1
  1

  9
$DIMBLK2
  1

  9
$DIMSTYLE
  2
STANDARD
  9
$DIMCLRD
 70
     0
  9
$DIMCLRE
 70
     0
  9
$DIMCLRT
 70
     0
  9
$DIMTFAC
 40
1.0
  9
$DIMGAP
 40
0.625
  9
$DIMJUST
 70
     0
  9
$DIMSD1
 70
     0
  9
$DIMSD2
 70
     0
  9
$DIMTOLJ
 70
     1
  9
$DIMTZIN
 70
     0
  9
$DIMALTZ
 70
     0
  9
$DIMALTTZ
 70
     0
  9
$DIMUPT
 70
     0
  9
$DIMDEC
 70
     4
  9
$DIMTDEC
 70
     4
  9
$DIMALTU
 70
     8
  9
$DIMALTTD
 70
     4
  9
$DIMTXSTY
  7
STANDARD
  9
$DIMAUNIT
 70
     0
  9
$DIMADEC
 70
     0
  9
$DIMALTRND
 40
0.0
  9
$DIMAZIN
 70
     0
  9
$DIMDSEP
 70
    46
  9
$DIMATFIT
 70
     3
  9
$DIMFRAC
 70
     0
  9
$DIMLDRBLK
  1

  9
$DIMLUNIT
 70
     6
  9
$DIMLWD
 70
    -2
  9
$DIMLWE
 70
    -2
  9
$DIMTMOVE
 70
     0
  9
$LUNITS
 70
     2
  9
$LUPREC
 70
     4
  9
$SKETCHINC
 40
1.0
  9
$FILLETRAD
 40
10.0
  9
$AUNITS
 70
     0
  9
$AUPREC
 70
     0
  9
$MENU
  1
.
  9
$ELEVATION
 40
0.0
  9
$PELEVATION
 40
0.0
  9
$THICKNESS
 40
0.0
  9
$LIMCHECK
 70
     0
  9
$CHAMFERA
 40
5.0
  9
$CHAMFERB
 40
5.0
  9
$CHAMFERC
 40
20.0
  9
$CHAMFERD
 40
0.0
  9
$SKPOLY
 70
     0
  9
$TDCREATE
 40
2451849.758561400
  9
$TDUCREATE
 40
2451849.675228067
  9
$TDUPDATE
 40
2455405.392242130
  9
$TDUUPDATE
 40
2455405.308908797
  9
$TDINDWG
 40
0.1096422454
  9
$TDUSRTIMER
 40
0.1096422454
  9
$USRTIMER
 70
     1
  9
$ANGBASE
 50
0.0
  9
$ANGDIR
 70
     0
  9
$PDMODE
 70
     0
  9
$PDSIZE
 40
0.0
  9
$PLINEWID
 40
0.0
  9
$SPLFRAME
 70
     0
  9
$SPLINETYPE
 70
     6
  9
$SPLINESEGS
 70
     8
  9
$HANDSEED
  5
29A8
  9
$SURFTAB1
 70
     6
  9
$SURFTAB2
 70
     6
  9
$SURFTYPE
 70
     6
  9
$SURFU
 70
     6
  9
$SURFV
 70
     6
  9
$UCSBASE
  2

  9
$UCSNAME
  2

  9
$UCSORG
 10
0.0
 20
0.0
 30
0.0
  9
$UCSXDIR
 10
1.0
 20
0.0
 30
0.0
  9
$UCSYDIR
 10
0.0
 20
1.0
 30
0.0
  9
$UCSORTHOREF
  2

  9
$UCSORTHOVIEW
 70
     0
  9
$UCSORGTOP
 10
0.0
 20
0.0
 30
0.0
  9
$UCSORGBOTTOM
 10
0.0
 20
0.0
 30
0.0
  9
$UCSORGLEFT
 10
0.0
 20
0.0
 30
0.0
  9
$UCSORGRIGHT
 10
0.0
 20
0.0
 30
0.0
  9
$UCSORGFRONT
 10
0.0
 20
0.0
 30
0.0
  9
$UCSORGBACK
 10
0.0
 20
0.0
 30
0.0
  9
$PUCSBASE
  2

  9
$PUCSNAME
  2

  9
$PUCSORG
 10
0.0
 20
0.0
 30
0.0
  9
$PUCSXDIR
 10
1.0
 20
0.0
 30
0.0
  9
$PUCSYDIR
 10
0.0
 20
1.0
 30
0.0
  9
$PUCSORTHOREF
  2

  9
$PUCSORTHOVIEW
 70
     0
  9
$PUCSORGTOP
 10
0.0
 20
0.0
 30
0.0
  9
$PUCSORGBOTTOM
 10
0.0
 20
0.0
 30
0.0
  9
$PUCSORGLEFT
 10
0.0
 20
0.0
 30
0.0
  9
$PUCSORGRIGHT
 10
0.0
 20
0.0
 30
0.0
  9
$PUCSORGFRONT
 10
0.0
 20
0.0
 30
0.0
  9
$PUCSORGBACK
 10
0.0
 20
0.0
 30
0.0
  9
$USERI1
 70
     0
  9
$USERI2
 70
     0
  9
$USERI3
 70
     0
  9
$USERI4
 70
     0
  9
$USERI5
 70
     0
  9
$USERR1
 40
0.0
  9
$USERR2
 40
0.0
  9
$USERR3
 40
0.0
  9
$USERR4
 40
0.0
  9
$USERR5
 40
0.0
  9
$WORLDVIEW
 70
     1
  9
$SHADEDGE
 70
     3
  9
$SHADEDIF
 70
    70
  9
$TILEMODE
 70
     1
  9
$MAXACTVP
 70
    48
  9
$PINSBASE
 10
0.0
 20
0.0
 30
0.0
  9
$PLIMCHECK
 70
     0
  9
$PEXTMIN
 10
1.000000000000000E+20
 20
1.000000000000000E+20
 30
1.000000000000000E+20
  9
$PEXTMAX
 10
-1.000000000000000E+20
 20
-1.000000000000000E+20
 30
-1.000000000000000E+20
  9
$PLIMMIN
 10
0.0
 20
0.0
  9
$PLIMMAX
 10
420.0
 20
297.0
  9
$UNITMODE
 70
     0
  9
$VISRETAIN
 70
     1
  9
$PLINEGEN
 70
     0
  9
$PSLTSCALE
 70
     1
  9
$TREEDEPTH
 70
  3020
  9
$CMLSTYLE
  2
STANDARD
  9
$CMLJUST
 70
     0
  9
$CMLSCALE
 40
20.0
  9
$PROXYGRAPHICS
 70
     1
  9
$MEASUREMENT
 70
     1
  9
$CELWEIGHT
370
    -1
  9
$ENDCAPS
280
     0
  9
$JOINSTYLE
280
     0
  9
$LWDISPLAY
290
     0
  9
$INSUNITS
 70
     0
  9
$HYPERLINKBASE
  1

  9
$STYLESHEET
  1

  9
$XEDIT
290
     1
  9
$CEPSNTYPE
380
     0
  9
$PSTYLEMODE
290
     1
  9
$FINGERPRINTGUID
  2
{A4E3B0BD-8385-11D6-9A29-000102212E7C}
  9
$VERSIONGUID
  2
{7DD50775-BB85-4900-8DCD-DE187F3AD036}
  9
$EXTNAMES
290
     1
  9
$PSVPSCALE
 40
0.0
  9
$OLESTARTUP
290
     0
  9
$SORTENTS
280
   127
  9
$INDEXCTL
280
     1
  9
$HIDETEXT
280
     0
  9
$XCLIPFRAME
290
     0
  9
$HALOGAP
280
     0
  9
$OBSCOLOR
 70
   257
  9
$OBSLTYPE
280
     0
  9
$INTERSECTIONDISPLAY
280
     0
  9
$INTERSECTIONCOLOR
 70
   257
  9
$DIMASSOC
280
     1
  9
$PROJECTNAME
  1

  0
ENDSEC
  0
SECTION
  2
CLASSES
  0
CLASS
  1
LWPOLYLINE
  2
AcDbPolyline
  3
ObjectDBX Classes
 90
        0
 91
        0
280
     0
281
     1
  0
CLASS
  1
ACDBDICTIONARYWDFLT
  2
AcDbDictionaryWithDefault
  3
ObjectDBX Classes
 90
        0
 91
        1
280
     0
281
     0
  0
CLASS
  1
ACDBPLACEHOLDER
  2
AcDbPlaceHolder
  3
ObjectDBX Classes
 90
        0
 91
        1
280
     0
281
     0
  0
CLASS
  1
LAYOUT
  2
AcDbLayout
  3
ObjectDBX Classes
 90
        0
 91
        2
280
     0
281
     0
  0
CLASS
  1
ACME_DOCUMENT
  2
AcMeDbDoc
  3
AcMeServices
 90
        0
 91
        0
280
     0
281
     0
  0
CLASS
  1
AMGSETTINGSOBJ
  2
AmgSettingsObj
  3
"AcadM|Product Description: AutoCAD Mechanical 2000|Company: Autodesk"
 90
        0
 91
        2
280
     0
281
     0
  0
CLASS
  1
ACMESCOPE
  2
AcMeScope
  3
AcMeServices
 90
        0
 91
        1
280
     0
281
     0
  0
CLASS
  1
ACMECOMMANDHISTORY
  2
AcMeCommandHistory
  3
AcMeServices
 90
        0
 91
        1
280
     0
281
     0
  0
CLASS
  1
ACIMSYSVARMAN
  2
AcImSysVarManager
  3
AcMeServices
 90
        0
 91
        2
280
     0
281
     0
  0
CLASS
  1
ACIMREALSYSVAR
  2
AcImRealSysVar
  3
AcMeServices
 90
        0
 91
        2
280
     0
281
     0
  0
CLASS
  1
ACIMINTSYSVAR
  2
AcImIntSysVar
  3
AcMeServices
 90
        0
 91
        1
280
     0
281
     0
  0
CLASS
  1
ACMEDRAWINGMAN
  2
AcMeDrawingMan
  3
AcMeServices
 90
        0
 91
        1
280
     0
281
     0
  0
CLASS
  1
ACMEVIEW
  2
AcMeView
  3
AcMeServices
 90
        0
 91
        1
280
     0
281
     0
  0
CLASS
  1
ACDBENTITYCACHE
  2
AcMeEntityCache
  3
AcMeServices
 90
        0
 91
        0
280
     0
281
     0
  0
CLASS
  1
GSMANAGER
  2
AcMeGSManager
  3
AcMeServices
 90
        0
 91
        0
280
     0
281
     0
  0
CLASS
  1
AMDTINTERNALREACTOR
  2
AmdtInternalReactor
  3
AcMeServices
 90
        0
 91
        0
280
     0
281
     0
  0
CLASS
  1
ACMESTATEMGR
  2
AcMeStateMgr
  3
AcMeServices
 90
        0
 91
        1
280
     0
281
     0
  0
CLASS
  1
ACGREFMASTER
  2
AcGrefMaster
  3
AcAttribServices
 90
        0
 91
        1
280
     0
281
     0
  0
CLASS
  1
ACME_DATABASE
  2
AcMeDbDatabase
  3
AcMeServices
 90
        0
 91
        0
280
     0
281
     0
  0
CLASS
  1
ACRFINSADJUSTERMGR
  2
AcRfInsAdjusterMgr
  3
AcMeServices
 90
        0
 91
        0
280
     0
281
     0
  0
CLASS
  1
ACGREFACADMASTER
  2
AcGrefacadMaster
  3
AcGrefServices
 90
        0
 91
        1
280
     0
281
     0
  0
CLASS
  1
AMIMASTER
  2
AmiMaster
  3
AmiServices
 90
        0
 91
        1
280
     0
281
     0
  0
CLASS
  1
ACMDATADICTIONARY
  2
AcmDataDictionary
  3
"AcmSymBB|Product Description: AutoCAD Mechanical 2000|Company: Autodesk"
 90
        0
 91
        1
280
     0
281
     0
  0
CLASS
  1
ACMDATAENTRYBLOCK
  2
AcmDataEntryBlock
  3
"AcmSymBB|Product Description: AutoCAD Mechanical 2000|Company: Autodesk"
 90
        0
 91
        1
280
     0
281
     0
  0
CLASS
  1
ACIMSTRSYSVAR
  2
AcImStrSysVar
  3
AcMeServices
 90
        0
 91
        1
280
     0
281
     0
  0
CLASS
  1
ACMSTANDARDISO
  2
AcmStandardISO
  3
"Amdt_StdImp|Product Description: AutoCAD Mechanical 2000|Company: Autodesk"
 90
        0
 91
        1
280
     0
281
     0
  0
CLASS
  1
AMGOBJPROPCFG
  2
AmgObjPropCfg
  3
"AmgLay|Product Description: AutoCAD Mechanical 2000|Company: Autodesk"
 90
        1
 91
        1
280
     0
281
     0
  0
CLASS
  1
AMDTEDGESTANDARDISO
  2
AmdtEdgeStdISO
  3
"Amdt_StdImp|Product Description: AutoCAD Mechanical 2000|Company: Autodesk"
 90
        0
 91
        1
280
     0
281
     0
  0
CLASS
  1
ACMSURFSTANDARDISO
  2
AcmSurfTextStdISO
  3
"Amdt_StdImp|Product Description: AutoCAD Mechanical 2000|Company: Autodesk"
 90
        0
 91
        1
280
     0
281
     0
  0
CLASS
  1
ACMFCFSTANDARDISO
  2
AcmFCFStdISO
  3
"Amdt_StdImp|Product Description: AutoCAD Mechanical 2000|Company: Autodesk"
 90
        0
 91
        1
280
     0
281
     0
  0
CLASS
  1
ACMWELDSTANDARDISO
  2
AcmWeldingStdISO
  3
"Amdt_StdImp|Product Description: AutoCAD Mechanical 2000|Company: Autodesk"
 90
        0
 91
        1
280
     0
281
     0
  0
CLASS
  1
ACMIDSTANDARDISO
  2
AcmIdStdISO
  3
"Amdt_StdImp|Product Description: AutoCAD Mechanical 2000|Company: Autodesk"
 90
        0
 91
        1
280
     0
281
     0
  0
CLASS
  1
ACMDATUMSTANDARDISO
  2
AcmDatumStdISO
  3
"Amdt_StdImp|Product Description: AutoCAD Mechanical 2000|Company: Autodesk"
 90
        0
 91
        1
280
     0
281
     0
  0
CLASS
  1
ACMBOMSTANDARDISO
  2
AcmBOMStdISO
  3
"Amdt_StdImp|Product Description: AutoCAD Mechanical 2000|Company: Autodesk"
 90
        0
 91
        1
280
     0
281
     0
  0
CLASS
  1
ACMDETAILSTANDARDISO
  2
AmdtDetailSymStdISO
  3
"Amdt_StdImp|Product Description: AutoCAD Mechanical 2000|Company: Autodesk"
 90
        0
 91
        1
280
     0
281
     0
  0
CLASS
  1
ACMSECTIONSTANDARDISO
  2
AmdtSectionSymStdISO
  3
"Amdt_StdImp|Product Description: AutoCAD Mechanical 2000|Company: Autodesk"
 90
        0
 91
        1
280
     0
281
     0
  0
CLASS
  1
ACMCENTERLINESTANDARDISO
  2
AmdtCenterLineStdISO
  3
"Amdt_StdImp|Product Description: AutoCAD Mechanical 2000|Company: Autodesk"
 90
        0
 91
        1
280
     0
281
     0
  0
CLASS
  1
ACMNOTESTANDARDISO
  2
AmdtNoteStdISO
  3
"Amdt_StdImp|Product Description: AutoCAD Mechanical 2000|Company: Autodesk"
 90
        0
 91
        1
280
     0
281
     0
  0
CLASS
  1
ACAMGLAYSTD
  2
AcAmgLayStd
  3
"AcAmgLayStd|Product Description: AutoCAD Mechanical 2000|Company: Autodesk"
 90
        0
 91
        2
280
     0
281
     0
  0
CLASS
  1
ACAMGDIMSTD
  2
AcAmgDimStd
  3
"AcAmgDimStd|Product Description: AutoCAD Mechanical 2000|Company: Autodesk"
 90
        0
 91
        2
280
     0
281
     0
  0
CLASS
  1
ACAMGHOLECHARTSTDISO
  2
AcAmgHoleChartStdISO
  3
ACMSYMBB_MODULE_NAME
 90
        0
 91
        1
280
     0
281
     0
  0
CLASS
  1
ACAMGTITLESTD
  2
AcAmgTitleStd
  3
"TITLEAPP"
 90
        0
 91
        2
280
     0
281
     0
  0
CLASS
  1
ACAMGFILTERDAT
  2
AcAmgFilterDat
  3
"AcadM|Product Description: AutoCAD Mechanical 2000|Company: Autodesk"
 90
        0
 91
        6
280
     0
281
     0
  0
CLASS
  1
ACMSTANDARDANSI
  2
AcmStandardANSI
  3
"Amdt_StdImp|Product Description: AutoCAD Mechanical 2000|Company: Autodesk"
 90
        0
 91
        1
280
     0
281
     0
  0
CLASS
  1
ACMSURFSTANDARDANSI
  2
AcmSurfTextStdANSI
  3
"Amdt_StdImp|Product Description: AutoCAD Mechanical 2000|Company: Autodesk"
 90
        0
 91
        1
280
     0
281
     0
  0
CLASS
  1
ACMFCFSTANDARDANSI
  2
AcmFCFStdANSI
  3
"Amdt_StdImp|Product Description: AutoCAD Mechanical 2000|Company: Autodesk"
 90
        0
 91
        1
280
     0
281
     0
  0
CLASS
  1
ACMWELDSTANDARDANSI
  2
AcmWeldingStdANSI
  3
"Amdt_StdImp|Product Description: AutoCAD Mechanical 2000|Company: Autodesk"
 90
        0
 91
        1
280
     0
281
     0
  0
CLASS
  1
ACMIDSTANDARDANSI
  2
AcmIdStdANSI
  3
"Amdt_StdImp|Product Description: AutoCAD Mechanical 2000|Company: Autodesk"
 90
        0
 91
        1
280
     0
281
     0
  0
CLASS
  1
ACMDATUMSTANDARDANSI
  2
AcmDatumStdANSI
  3
"Amdt_StdImp|Product Description: AutoCAD Mechanical 2000|Company: Autodesk"
 90
        0
 91
        1
280
     0
281
     0
  0
CLASS
  1
ACMBOMSTANDARDANSI
  2
AcmBOMStdANSI
  3
"Amdt_StdImp|Product Description: AutoCAD Mechanical 2000|Company: Autodesk"
 90
        0
 91
        1
280
     0
281
     0
  0
CLASS
  1
ACMDETAILSTANDARDANSI
  2
AmdtDetailSymStdANSI
  3
"Amdt_StdImp|Product Description: AutoCAD Mechanical 2000|Company: Autodesk"
 90
        0
 91
        1
280
     0
281
     0
  0
CLASS
  1
ACMSECTIONSTANDARDANSI
  2
AmdtSectionSymStdANSI
  3
"Amdt_StdImp|Product Description: AutoCAD Mechanical 2000|Company: Autodesk"
 90
        0
 91
        1
280
     0
281
     0
  0
CLASS
  1
ACMCENTERLINESTANDARDANSI
  2
AmdtCenterLineStdANSI
  3
"Amdt_StdImp|Product Description: AutoCAD Mechanical 2000|Company: Autodesk"
 90
        0
 91
        1
280
     0
281
     0
  0
CLASS
  1
ACMNOTESTANDARDANSI
  2
AmdtNoteStdANSI
  3
"Amdt_StdImp|Product Description: AutoCAD Mechanical 2000|Company: Autodesk"
 90
        0
 91
        1
280
     0
281
     0
  0
CLASS
  1
ACAMGHOLECHARTSTDANSI
  2
AcAmgHoleChartStdANSI
  3
ACMSYMBB_MODULE_NAME
 90
        0
 91
        1
280
     0
281
     0
  0
CLASS
  1
AMDTFORMULAUPDATEDISPATCHER
  2
AmdtFormulaUpdateDispatcher
  3
AcMeServices
 90
        0
 91
        1
280
     0
281
     0
  0
CLASS
  1
LAYER_INDEX
  2
AcDbLayerIndex
  3
ObjectDBX Classes
 90
        0
 91
        1
280
     0
281
     0
  0
CLASS
  1
IDBUFFER
  2
AcDbIdBuffer
  3
ObjectDBX Classes
 90
        0
 91
        6
280
     0
281
     0
  0
CLASS
  1
DICTIONARYVAR
  2
AcDbDictionaryVar
  3
ObjectDBX Classes
 90
        0
 91
        5
280
     0
281
     0
  0
CLASS
  1
MATERIAL
  2
AcDbMaterial
  3
ObjectDBX Classes
 90
     1153
 91
        3
280
     0
281
     0
  0
CLASS
  1
VISUALSTYLE
  2
AcDbVisualStyle
  3
ObjectDBX Classes
 90
     4095
 91
       16
280
     0
281
     0
  0
CLASS
  1
TABLESTYLE
  2
AcDbTableStyle
  3
ObjectDBX Classes
 90
     4095
 91
        1
280
     0
281
     0
  0
CLASS
  1
SCALE
  2
AcDbScale
  3
ObjectDBX Classes
 90
     1153
 91
       33
280
     0
281
     0
  0
CLASS
  1
MLEADERSTYLE
  2
AcDbMLeaderStyle
  3
ACDB_MLEADERSTYLE_CLASS
 90
     4095
 91
        1
280
     0
281
     0
  0
CLASS
  1
CELLSTYLEMAP
  2
AcDbCellStyleMap
  3
ObjectDBX Classes
 90
     1152
 91
        1
280
     0
281
     0
  0
ENDSEC
  0
SECTION
  2
TABLES
  0
TABLE
  2
VPORT
  5
8
330
0
100
AcDbSymbolTable
 70
     1
  0
VPORT
  5
2943
330
8
100
AcDbSymbolTableRecord
100
AcDbViewportTableRecord
  2
*Active
 70
     0
 10
0.0
 20
0.0
 11
1.0
 21
1.0
 12
-762.6897303469263
 22
-102.051335150761
 13
0.0
 23
0.0
 14
10.0
 24
10.0
 15
10.0
 25
10.0
 16
0.0
 26
0.0
 36
1.0
 17
0.0
 27
0.0
 37
0.0
 40
1067.294894251898
 41
1.739910313901345
 42
50.0
 43
0.0
 44
0.0
 50
0.0
 51
0.0
 71
     0
 72
  1234
 73
     1
 74
     0
 75
     0
 76
     0
 77
     0
 78
     0
281
     0
 65
     1
110
0.0
120
0.0
130
0.0
111
1.0
121
0.0
131
0.0
112
0.0
122
1.0
132
0.0
 79
     0
146
0.0
  0
ENDTAB
  0
TABLE
  2
LTYPE
  5
5
330
0
100
AcDbSymbolTable
 70
    16
  0
LTYPE
  5
12
330
5
100
AcDbSymbolTableRecord
100
AcDbLinetypeTableRecord
  2
BYBLOCK
 70
     0
  3

 72
    65
 73
     0
 40
0.0
  0
LTYPE
  5
13
330
5
100
AcDbSymbolTableRecord
100
AcDbLinetypeTableRecord
  2
BYLAYER
 70
     0
  3

 72
    65
 73
     0
 40
0.0
  0
LTYPE
  5
14
330
5
100
AcDbSymbolTableRecord
100
AcDbLinetypeTableRecord
  2
CONTINUOUS
 70
     0
  3
Solid line
 72
    65
 73
     0
 40
0.0
  0
LTYPE
  5
97
330
5
100
AcDbSymbolTableRecord
100
AcDbLinetypeTableRecord
  2
CENTER
 70
     0
  3
____ _ ____ _ ____ _ ____ _ ____ _ ____ _ ____ 
 72
    65
 73
     4
 40
2.0
 49
1.25
 74
     0
 49
-0.25
 74
     0
 49
0.25
 74
     0
 49
-0.25
 74
     0
  0
LTYPE
  5
98
330
5
100
AcDbSymbolTableRecord
100
AcDbLinetypeTableRecord
  2
DASHED
 70
     0
  3
__ __ __ __ __ __ __ __ __ __ __ __ __ __ __ __
 72
    65
 73
     2
 40
0.75
 49
0.5
 74
     0
 49
-0.25
 74
     0
  0
LTYPE
  5
A4D
330
5
100
AcDbSymbolTableRecord
100
AcDbLinetypeTableRecord
  2
AM_ISO02W050
 70
     0
  3
__ __ __ __ __ __ __ __ __ __ __ __ __ __ __
 72
    65
 73
     2
 40
7.5
 49
6.0
 74
     0
 49
-1.5
 74
     0
  0
LTYPE
  5
A4E
330
5
100
AcDbSymbolTableRecord
100
AcDbLinetypeTableRecord
  2
AM_ISO08W050
 70
     0
  3
____ . ____ . ____ . ____ . ____ . ____ . ____
 72
    65
 73
     4
 40
18.0
 49
12.0
 74
     0
 49
-1.5
 74
     0
 49
3.0
 74
     0
 49
-1.5
 74
     0
  0
LTYPE
  5
A4F
330
5
100
AcDbSymbolTableRecord
100
AcDbLinetypeTableRecord
  2
AM_ISO09W050
 70
     0
  3
_____ . . _____ . . _____ . . ____ .. ____
 72
    65
 73
     6
 40
22.5
 49
12.0
 74
     0
 49
-1.5
 74
     0
 49
3.0
 74
     0
 49
-1.5
 74
     0
 49
3.0
 74
     0
 49
-1.5
 74
     0
  0
LTYPE
  5
A50
330
5
100
AcDbSymbolTableRecord
100
AcDbLinetypeTableRecord
  2
Amconstr
 70
     0
  3
_______________________
 72
    65
 73
     2
 40
9999.0
 49
9999.0
 74
     0
 49
0.0
 74
     0
  0
LTYPE
  5
A51
330
5
100
AcDbSymbolTableRecord
100
AcDbLinetypeTableRecord
  2
AM_ISO08W050x2
 70
     0
  3
__ . __ . __ . __ . __ . __
 72
    65
 73
     4
 40
9.0
 49
6.0
 74
     0
 49
-0.75
 74
     0
 49
1.5
 74
     0
 49
-0.75
 74
     0
  0
LTYPE
  5
A52
330
5
100
AcDbSymbolTableRecord
100
AcDbLinetypeTableRecord
  2
AM_ISO02W050x2
 70
     0
  3
 _ _ _ _ _ _ _ _ _ _ _ _
 72
    65
 73
     2
 40
3.75
 49
3.0
 74
     0
 49
-0.75
 74
     0
  0
LTYPE
  5
A55
330
5
100
AcDbSymbolTableRecord
100
AcDbLinetypeTableRecord
  2
Amzigzag
 70
     0
  3
/\/-/\/-/\/-/\/-/\/-/\/
 72
    65
 73
     2
 40
11.0001
 49
0.0001
 74
     4
 75
   135
340
A54
 46
0.04
 50
0.0
 44
0.0
 45
0.0
 49
-11.0
 74
     0
  0
LTYPE
  5
A63
330
5
100
AcDbSymbolTableRecord
100
AcDbLinetypeTableRecord
  2
ACISOWELD
 70
     0
  3
_ _ _ _ _
 72
    65
 73
     2
 40
2.0
 49
2.0
 74
     0
 49
-1.0
 74
     0
  0
LTYPE
  5
A64
330
5
100
AcDbSymbolTableRecord
100
AcDbLinetypeTableRecord
  2
ACISOTGB
 70
     0
  3
__ . . __ . .
 72
    65
 73
     6
 40
9.0
 49
4.0
 74
     0
 49
-1.0
 74
     0
 49
1.0
 74
     0
 49
-1.0
 74
     0
 49
1.0
 74
     0
 49
-1.0
 74
     0
  0
LTYPE
  5
A65
330
5
100
AcDbSymbolTableRecord
100
AcDbLinetypeTableRecord
  2
ACISOTGL
 70
     0
  3
_ _ _ _ _
 72
    65
 73
     2
 40
3.0
 49
2.0
 74
     0
 49
-1.0
 74
     0
  0
LTYPE
  5
BE5
330
5
100
AcDbSymbolTableRecord
100
AcDbLinetypeTableRecord
  2
PHANTOM2
 70
     0
  3
Phantom (.5x) ___ _ _ ___ _ _ ___ _ _ ___ _ _
 72
    65
 73
     6
 40
1.25
 49
0.625
 74
     0
 49
-0.125
 74
     0
 49
0.125
 74
     0
 49
-0.125
 74
     0
 49
0.125
 74
     0
 49
-0.125
 74
     0
  0
LTYPE
  5
BE9
330
5
100
AcDbSymbolTableRecord
100
AcDbLinetypeTableRecord
  2
ACANSTGB
 70
     0
  3
__ . . __ . .
 72
    65
 73
     6
 40
0.35433070866
 49
0.15748031496
 74
     0
 49
-0.03937007874
 74
     0
 49
0.03937007874
 74
     0
 49
-0.03937007874
 74
     0
 49
0.03937007874
 74
     0
 49
-0.03937007874
 74
     0
  0
LTYPE
  5
BEA
330
5
100
AcDbSymbolTableRecord
100
AcDbLinetypeTableRecord
  2
ACANSTGL
 70
     0
  3
_ _ _ _ _
 72
    65
 73
     2
 40
0.11811023622
 49
0.07874015748
 74
     0
 49
-0.03937007874
 74
     0
  0
ENDTAB
  0
TABLE
  2
LAYER
  5
2
330
0
100
AcDbSymbolTable
 70
     6
  0
LAYER
  5
E
330
2
100
AcDbSymbolTableRecord
100
AcDbLayerTableRecord
  2
0
 70
     0
 62
     7
  6
CONTINUOUS
370
    -3
390
A22
  0
LAYER
  5
9A
330
2
100
AcDbSymbolTableRecord
100
AcDbLayerTableRecord
  2
DISEGNO
 70
     0
 62
     7
  6
CONTINUOUS
370
    -3
390
A22
  0
LAYER
  5
9B
330
2
100
AcDbSymbolTableRecord
100
AcDbLayerTableRecord
  2
ASSI
 70
     0
 62
     2
  6
CENTER
370
    -3
390
A22
  0
LAYER
  5
9C
330
2
100
AcDbSymbolTableRecord
100
AcDbLayerTableRecord
  2
NORMALI
 70
     0
 62
     6
  6
CONTINUOUS
370
    -3
390
A22
  0
LAYER
  5
9E
330
2
100
AcDbSymbolTableRecord
100
AcDbLayerTableRecord
  2
TRATTEGGI
 70
     0
 62
     8
  6
DASHED
370
    -3
390
A22
  0
LAYER
  5
A84
330
2
100
AcDbSymbolTableRecord
100
AcDbLayerTableRecord
  2
Defpoints
 70
     0
 62
     7
  6
CONTINUOUS
290
     0
370
    -3
390
A22
  0
ENDTAB
  0
TABLE
  2
STYLE
  5
3
330
0
100
AcDbSymbolTable
 70
     6
  0
STYLE
  5
F
330
3
100
AcDbSymbolTableRecord
100
AcDbTextStyleTableRecord
  2
STANDARD
 70
     0
 40
0.0
 41
1.0
 50
0.0
 71
     0
 42
2.5
  3
txt
  4

  0
STYLE
  5
A54
330
3
100
AcDbSymbolTableRecord
100
AcDbTextStyleTableRecord
  2

 70
     1
 40
0.0
 41
1.0
 50
0.0
 71
     0
 42
2.5
  3
ltypeshp.shx
  4

  0
STYLE
  5
A56
330
3
100
AcDbSymbolTableRecord
100
AcDbTextStyleTableRecord
  2
ACISOTS
 70
     0
 40
1.0
 41
1.0
 50
0.0
 71
     0
 42
2.5
  3
isocp.shx
  4

  0
STYLE
  5
A62
330
3
100
AcDbSymbolTableRecord
100
AcDbTextStyleTableRecord
  2
ACISOGDT
 70
     0
 40
0.0
 41
1.0
 50
0.0
 71
     0
 42
2.5
  3
amgdt.shx
  4

  0
STYLE
  5
BF4
330
3
100
AcDbSymbolTableRecord
100
AcDbTextStyleTableRecord
  2
ACANSTS
 70
     0
 40
1.0
 41
1.0
 50
0.0
 71
     0
 42
2.5
  3
romans.shx
  4

  0
STYLE
  5
BF5
330
3
100
AcDbSymbolTableRecord
100
AcDbTextStyleTableRecord
  2
ACANSGDT
 70
     0
 40
0.0
 41
1.0
 50
0.0
 71
     0
 42
2.5
  3
amgdtans.shx
  4

  0
ENDTAB
  0
TABLE
  2
VIEW
  5
6
330
0
100
AcDbSymbolTable
 70
     0
  0
ENDTAB
  0
TABLE
  2
UCS
  5
7
330
0
100
AcDbSymbolTable
 70
     0
  0
ENDTAB
  0
TABLE
  2
APPID
  5
9
330
0
100
AcDbSymbolTable
 70
     7
  0
APPID
  5
10
330
9
100
AcDbSymbolTableRecord
100
AcDbRegAppTableRecord
  2
ACAD
 70
     0
  0
APPID
  5
A0
330
9
100
AcDbSymbolTableRecord
100
AcDbRegAppTableRecord
  2
COMAU_ACADLIB
 70
     0
  0
APPID
  5
75D
330
9
100
AcDbSymbolTableRecord
100
AcDbRegAppTableRecord
  2
ZIMM
 70
     0
  0
APPID
  5
A2F
330
9
100
AcDbSymbolTableRecord
100
AcDbRegAppTableRecord
  2
MCAD_NO_VIS
 70
     0
  0
APPID
  5
A30
330
9
100
AcDbSymbolTableRecord
100
AcDbRegAppTableRecord
  2
ACAD_TEMP_GRAPHIC
 70
     0
  0
APPID
  5
A41
330
9
100
AcDbSymbolTableRecord
100
AcDbRegAppTableRecord
  2
ACATTRIBSERVICES
 70
     0
  0
APPID
  5
2996
330
9
100
AcDbSymbolTableRecord
100
AcDbRegAppTableRecord
  2
ACAD_MLEADERVER
 70
     0
  0
ENDTAB
  0
TABLE
  2
DIMSTYLE
  5
A
330
0
100
AcDbSymbolTable
 70
    14
100
AcDbDimStyleTable
 71
     1
340
1D
  0
DIMSTYLE
105
1D
330
A
100
AcDbSymbolTableRecord
100
AcDbDimStyleTableRecord
  2
STANDARD
 70
     0
340
F
  0
DIMSTYLE
105
A69
330
A
100
AcDbSymbolTableRecord
100
AcDbDimStyleTableRecord
  2
AM_ISO
 70
     0
  4
"
 41
2.5
 42
1.0
 43
10.0
 44
1.0
 47
0.1
 48
0.1
 73
     0
 74
     0
 77
     1
 78
     8
 79
     2
140
3.5
141
0.0
143
0.0393701
146
0.71
147
1.5
172
     1
176
   256
177
   256
178
     2
271
     2
272
     3
274
     4
283
     0
284
     8
340
F
371
    -1
372
    -1
  0
DIMSTYLE
105
A6A
330
A
100
AcDbSymbolTableRecord
100
AcDbDimStyleTableRecord
  2
AM_ISO$3
 70
     0
  4
"
 41
2.5
 42
1.0
 43
10.0
 44
1.0
 47
0.1
 48
0.1
 73
     0
 77
     1
 78
     8
 79
     2
140
3.5
141
0.0
143
0.0393701
146
0.71
147
1.5
176
   256
177
   256
178
     2
271
     2
272
     3
274
     4
283
     0
284
     8
288
     1
289
     0
340
F
371
    -1
372
    -1
  0
DIMSTYLE
105
A6B
330
A
100
AcDbSymbolTableRecord
100
AcDbDimStyleTableRecord
  2
AM_ISO$4
 70
     0
  4
"
 41
2.5
 42
1.0
 43
10.0
 44
1.0
 47
0.1
 48
0.1
 73
     0
 77
     1
 78
     8
 79
     2
140
3.5
141
0.0
143
0.0393701
146
0.71
147
1.5
176
   256
177
   256
178
     2
271
     2
272
     3
274
     4
283
     0
284
     8
288
     1
289
     0
340
F
371
    -1
372
    -1
  0
DIMSTYLE
105
A6C
330
A
100
AcDbSymbolTableRecord
100
AcDbDimStyleTableRecord
  2
AM_ISO$6
 70
     0
  4
"
 41
2.5
 42
1.0
 43
10.0
 44
1.0
 47
0.1
 48
0.1
 73
     0
 74
     0
 78
     8
 79
     2
140
3.5
141
0.0
143
0.0393701
146
0.71
147
1.5
172
     1
176
   256
177
   256
178
     2
271
     2
272
     3
274
     4
283
     0
284
     8
340
F
371
    -1
372
    -1
  0
DIMSTYLE
105
A6D
330
A
100
AcDbSymbolTableRecord
100
AcDbDimStyleTableRecord
  2
AM_ISO$7
 70
     0
  4
"
 41
2.5
 42
1.0
 43
10.0
 44
1.0
 47
0.1
 48
0.1
 73
     0
 74
     0
 77
     1
 78
     8
 79
     2
140
5.0
141
0.0
143
0.0393701
146
0.71
147
1.5
172
     1
176
   256
177
   256
178
     2
271
     2
272
     3
274
     4
283
     0
284
     8
340
F
371
    -1
372
    -1
  0
DIMSTYLE
105
A6E
330
A
100
AcDbSymbolTableRecord
100
AcDbDimStyleTableRecord
  2
AM_ISO$SF
 70
     0
  4
"
 41
2.5
 42
1.0
 43
10.0
 44
1.0
 47
0.1
 48
0.1
 73
     0
 74
     0
 75
     1
 76
     1
 77
     1
 78
     8
 79
     2
140
3.5
141
0.0
143
0.0393701
146
0.71
147
1.5
172
     1
176
   256
177
   256
178
     2
271
     2
272
     3
274
     4
283
     0
284
     8
340
F
371
    -1
372
    -1
  0
DIMSTYLE
105
A73
330
A
100
AcDbSymbolTableRecord
100
AcDbDimStyleTableRecord
  2
AM_ISO$SH
 70
     0
  4
"
 41
2.5
 42
1.0
 43
10.0
 44
1.0
 47
0.1
 48
0.1
 73
     0
 74
     0
 75
     1
 76
     1
 77
     1
 78
     8
 79
     2
140
3.5
141
0.0
143
0.0393701
144
2.0
146
0.71
147
1.5
172
     1
173
     1
176
   256
177
   256
178
     2
271
     2
272
     3
274
     4
283
     0
284
     8
340
F
343
A6F
371
    -1
372
    -1
  0
DIMSTYLE
105
BF7
330
A
100
AcDbSymbolTableRecord
100
AcDbDimStyleTableRecord
  2
AM_ANSI
 70
     0
  4
mm
 41
0.1
 42
0.05
 43
0.5
 44
0.1
 47
0.1
 48
0.1
 78
     7
 79
     2
140
0.12
141
0.0
146
0.71
147
0.06
176
   256
177
   256
178
     2
274
     4
284
     7
340
F
371
    -1
372
    -1
  0
DIMSTYLE
105
BF8
330
A
100
AcDbSymbolTableRecord
100
AcDbDimStyleTableRecord
  2
AM_ANSI$3
 70
     0
  4
mm
 41
0.1
 42
0.05
 43
0.5
 44
0.1
 47
0.1
 48
0.1
 78
     7
 79
     2
140
0.12
141
0.0
146
0.71
147
0.06
176
   256
177
   256
178
     2
274
     4
284
     7
288
     1
289
     0
340
F
371
    -1
372
    -1
  0
DIMSTYLE
105
BF9
330
A
100
AcDbSymbolTableRecord
100
AcDbDimStyleTableRecord
  2
AM_ANSI$4
 70
     0
  4
mm
 41
0.1
 42
0.05
 43
0.5
 44
0.1
 47
0.1
 48
0.1
 78
     7
 79
     2
140
0.12
141
0.0
146
0.71
147
0.06
176
   256
177
   256
178
     2
274
     4
284
     7
288
     1
289
     0
340
F
371
    -1
372
    -1
  0
DIMSTYLE
105
BFA
330
A
100
AcDbSymbolTableRecord
100
AcDbDimStyleTableRecord
  2
AM_ANSI$7
 70
     0
  4
mm
 41
0.1
 42
0.05
 43
0.5
 44
0.1
 47
0.1
 48
0.1
 78
     7
 79
     2
140
0.24
141
0.0
146
0.71
147
0.06
176
   256
177
   256
178
     2
274
     4
284
     7
340
F
371
    -1
372
    -1
  0
DIMSTYLE
105
BFB
330
A
100
AcDbSymbolTableRecord
100
AcDbDimStyleTableRecord
  2
AM_ANSI$SF
 70
     0
  4
mm
 41
0.1
 42
0.05
 43
0.5
 44
0.1
 47
0.1
 48
0.1
 75
     1
 76
     1
 78
     7
 79
     2
140
0.12
141
0.0
146
0.71
147
0.06
176
   256
177
   256
178
     2
274
     4
284
     7
340
F
371
    -1
372
    -1
  0
DIMSTYLE
105
BFC
330
A
100
AcDbSymbolTableRecord
100
AcDbDimStyleTableRecord
  2
AM_ANSI$SH
 70
     0
  4
mm
 41
0.1
 42
0.05
 43
0.5
 44
0.1
 47
0.1
 48
0.1
 75
     1
 76
     1
 78
     7
 79
     2
140
0.12
141
0.0
146
0.71
147
0.06
173
     1
176
   256
177
   256
178
     2
274
     4
284
     7
340
F
343
A6F
371
    -1
372
    -1
  0
ENDTAB
  0
TABLE
  2
BLOCK_RECORD
  5
1
330
0
100
AcDbSymbolTable
 70
     2
  0
BLOCK_RECORD
  5
18
102
{ACAD_XDICTIONARY
360
209A
102
}
330
1
100
AcDbSymbolTableRecord
100
AcDbBlockTableRecord
  2
*MODEL_SPACE
340
A25
  0
BLOCK_RECORD
  5
15
330
1
100
AcDbSymbolTableRecord
100
AcDbBlockTableRecord
  2
*PAPER_SPACE
340
A26
  0
BLOCK_RECORD
  5
94D
330
1
100
AcDbSymbolTableRecord
100
AcDbBlockTableRecord
  2

340
0
  0
BLOCK_RECORD
  5
A6F
330
1
100
AcDbSymbolTableRecord
100
AcDbBlockTableRecord
  2
GENAXEH
340
0
  0
ENDTAB
  0
ENDSEC
  0
SECTION
  2
BLOCKS
  0
BLOCK
  5
19
330
18
100
AcDbEntity
  8
0
100
AcDbBlockBegin
  2
*MODEL_SPACE
 70
     0
 10
0.0
 20
0.0
 30
0.0
  3
*MODEL_SPACE
  1

  0
ENDBLK
  5
1A
330
18
100
AcDbEntity
  8
0
100
AcDbBlockEnd
  0
BLOCK
  5
16
330
15
100
AcDbEntity
 67
     1
  8
0
100
AcDbBlockBegin
  2
*PAPER_SPACE
 70
     0
 10
0.0
 20
0.0
 30
0.0
  3
*PAPER_SPACE
  1

  0
ENDBLK
  5
17
330
15
100
AcDbEntity
 67
     1
  8
0
100
AcDbBlockEnd
  0
BLOCK
  5
94E
330
94D
100
AcDbEntity
  8
0
100
AcDbBlockBegin
  2

 70
     0
 10
0.0
 20
0.0
 30
0.0
  3

  1

  0
ENDBLK
  5
94F
330
94D
100
AcDbEntity
  8
0
100
AcDbBlockEnd
  0
BLOCK
  5
A71
330
A6F
100
AcDbEntity
  8
0
100
AcDbBlockBegin
  2
GENAXEH
 70
     0
 10
0.0
 20
0.0
 30
0.0
  3
GENAXEH
  1

  0
LINE
  5
A70
330
A6F
100
AcDbEntity
  8
0
100
AcDbLine
 10
-1.0
 20
0.0
 30
0.0
 11
1.0
 21
0.0
 31
0.0
  0
ENDBLK
  5
A72
330
A6F
100
AcDbEntity
  8
0
100
AcDbBlockEnd
  0
ENDSEC
  0
SECTION
  2
ENTITIES
  0
LINE
  5
402
330
18
100
AcDbEntity
  8
ASSI
100
AcDbLine
 10
-703.287538425368
 20
156.4999999999993
 30
0.0
 11
-672.6045427962404
 21
156.4999999999993
 31
0.0
  0
LINE
  5
40B
330
18
100
AcDbEntity
  8
DISEGNO
100
AcDbLine
 10
-617.9460406108023
 20
53.99999999999931
 30
0.0
 11
-1177.946040610804
 21
53.99999999999931
 31
0.0
  0
LINE
  5
40C
330
18
100
AcDbEntity
  8
ASSI
100
AcDbLine
 10
-600.4366306636597
 20
-256.1034658691931
 30
0.0
 11
-1184.620771269957
 21
-256.1034658691931
 31
0.0
  0
LINE
  5
40D
330
18
100
AcDbEntity
  8
ASSI
100
AcDbLine
 10
-599.986014008778
 20
-417.1034658691931
 30
0.0
 11
-1183.695763996314
 21
-417.1034658691931
 31
0.0
  0
LINE
  5
40E
330
18
100
AcDbEntity
  8
DISEGNO
100
AcDbLine
 10
-617.9460406108055
 20
249.0000000000002
 30
0.0
 11
-967.9460406108042
 21
248.9999999999998
 31
0.0
  0
LINE
  5
40F
330
18
100
AcDbEntity
  8
DISEGNO
100
AcDbLine
 10
-617.9460406108042
 20
139.0000000000002
 30
0.0
 11
-727.4460406108042
 21
139.0000000000002
 31
0.0
  0
LINE
  5
412
330
18
100
AcDbEntity
  8
ASSI
100
AcDbLine
 10
-291.6900434697527
 20
-336.6034658691932
 30
0.0
 11
-1379.866752576728
 21
-336.6034658691932
 31
0.0
  0
LINE
  5
415
330
18
100
AcDbEntity
  8
DISEGNO
100
AcDbLine
 10
-617.9460406108042
 20
51.00000000000022
 30
0.0
 11
-1177.946040610804
 21
51.00000000000022
 31
0.0
  0
LINE
  5
416
330
18
100
AcDbEntity
  8
DISEGNO
100
AcDbLine
 10
-617.9460406108042
 20
114.9999999999993
 30
0.0
 11
-1177.946040610804
 21
114.9999999999993
 31
0.0
  0
LINE
  5
417
330
18
100
AcDbEntity
  8
DISEGNO
100
AcDbLine
 10
-617.9460406108042
 20
128.9999999999993
 30
0.0
 11
-1177.946040610804
 21
128.9999999999993
 31
0.0
  0
LINE
  5
41C
330
18
100
AcDbEntity
  8
DISEGNO
100
AcDbLine
 10
-619.9460406108041
 20
-466.6034658691931
 30
0.0
 11
-1175.946040610804
 21
-466.6034658691931
 31
0.0
  0
LINE
  5
41D
330
18
100
AcDbEntity
  8
DISEGNO
100
AcDbLine
 10
-619.9460406108041
 20
-206.6034658691931
 30
0.0
 11
-1175.946040610804
 21
-206.6034658691931
 31
0.0
  0
LINE
  5
422
330
18
100
AcDbEntity
  8
DISEGNO
100
AcDbLine
 10
-622.9460406108041
 20
-431.6034658691931
 30
0.0
 11
-722.4460406108049
 21
-431.6034658691932
 31
0.0
  0
LINE
  5
423
330
18
100
AcDbEntity
  8
DISEGNO
100
AcDbLine
 10
-622.9460406108041
 20
-241.6034658691931
 30
0.0
 11
-722.4460406108041
 21
-241.6034658691932
 31
0.0
  0
LINE
  5
430
330
18
100
AcDbEntity
  8
DISEGNO
100
AcDbLine
 10
-1343.046040610802
 20
-386.6034658691936
 30
0.0
 11
-1177.946040610804
 21
-386.6034658691932
 31
0.0
  0
LINE
  5
431
330
18
100
AcDbEntity
  8
DISEGNO
100
AcDbLine
 10
-1343.046040610802
 20
-286.6034658691936
 30
0.0
 11
-1177.946040610804
 21
-286.6034658691932
 31
0.0
  0
LINE
  5
435
330
18
100
AcDbEntity
  8
DISEGNO
100
AcDbLine
 10
-1343.046040610804
 20
-286.6034658691932
 30
0.0
 11
-1343.046040610804
 21
-386.6034658691932
 31
0.0
  0
LINE
  5
436
330
18
100
AcDbEntity
  8
DISEGNO
100
AcDbLine
 10
-1342.0460406108
 20
-386.6034658691932
 30
0.0
 11
-1343.0460406108
 21
-385.6034658691931
 31
0.0
  0
LINE
  5
437
330
18
100
AcDbEntity
  8
DISEGNO
100
AcDbLine
 10
-1343.0460406108
 20
-287.6034658691931
 30
0.0
 11
-1342.0460406108
 21
-286.6034658691932
 31
0.0
  0
LINE
  5
438
330
18
100
AcDbEntity
  8
DISEGNO
100
AcDbLine
 10
-1308.046040610804
 20
-286.6034658691922
 30
0.0
 11
-1308.046040610804
 21
-386.603465869194
 31
0.0
  0
CIRCLE
  5
43B
330
18
100
AcDbEntity
  8
NORMALI
100
AcDbCircle
 10
-1328.046040610802
 20
-377.1034658691931
 30
0.0
 40
5.0
1001
COMAU_ACADLIB
1000
00302053
1000
Vite T.C.E.I. UNI 5931 - M6x25 - 8.8
  0
LINE
  5
43C
330
18
100
AcDbEntity
  8
NORMALI
100
AcDbLine
 10
-1308.046040610804
 20
-347.1034658691927
 30
0.0
 11
-1289.046040610804
 21
-347.1034658691926
 31
0.0
  0
LINE
  5
43D
330
18
100
AcDbEntity
  8
NORMALI
100
AcDbLine
 10
-1308.046040610804
 20
-367.1034658691927
 30
0.0
 11
-1289.046040610804
 21
-367.1034658691927
 31
0.0
  0
LINE
  5
43E
330
18
100
AcDbEntity
  8
NORMALI
100
AcDbLine
 10
-1288.046040610804
 20
-366.1034658691927
 30
0.0
 11
-1288.046040610804
 21
-348.1034658691927
 31
0.0
  0
LINE
  5
43F
330
18
100
AcDbEntity
  8
NORMALI
100
AcDbLine
 10
-1289.046040610804
 20
-367.1034658691927
 30
0.0
 11
-1289.046040610804
 21
-347.1034658691927
 31
0.0
  0
LINE
  5
440
330
18
100
AcDbEntity
  8
NORMALI
100
AcDbLine
 10
-1289.046040610804
 20
-367.1034658691927
 30
0.0
 11
-1288.046040610804
 21
-366.1034658691927
 31
0.0
  0
LINE
  5
441
330
18
100
AcDbEntity
  8
NORMALI
100
AcDbLine
 10
-1289.046040610804
 20
-347.1034658691927
 30
0.0
 11
-1288.046040610804
 21
-348.1034658691927
 31
0.0
  0
LINE
  5
445
330
18
100
AcDbEntity
  8
NORMALI
100
AcDbLine
 10
-1308.046040610804
 20
-306.1034658691936
 30
0.0
 11
-1289.046040610804
 21
-306.1034658691936
 31
0.0
  0
LINE
  5
446
330
18
100
AcDbEntity
  8
NORMALI
100
AcDbLine
 10
-1308.046040610804
 20
-326.1034658691936
 30
0.0
 11
-1289.046040610804
 21
-326.1034658691936
 31
0.0
  0
LINE
  5
447
330
18
100
AcDbEntity
  8
NORMALI
100
AcDbLine
 10
-1288.046040610804
 20
-307.1034658691936
 30
0.0
 11
-1288.046040610804
 21
-325.1034658691936
 31
0.0
  0
LINE
  5
448
330
18
100
AcDbEntity
  8
NORMALI
100
AcDbLine
 10
-1289.046040610804
 20
-306.1034658691936
 30
0.0
 11
-1289.046040610804
 21
-326.1034658691936
 31
0.0
  0
LINE
  5
449
330
18
100
AcDbEntity
  8
NORMALI
100
AcDbLine
 10
-1289.046040610804
 20
-326.1034658691936
 30
0.0
 11
-1288.046040610804
 21
-325.1034658691936
 31
0.0
  0
LINE
  5
44A
330
18
100
AcDbEntity
  8
NORMALI
100
AcDbLine
 10
-1289.046040610804
 20
-306.1034658691936
 30
0.0
 11
-1288.046040610804
 21
-307.1034658691936
 31
0.0
  0
CIRCLE
  5
44B
330
18
100
AcDbEntity
  8
NORMALI
100
AcDbCircle
 10
-1328.046040610802
 20
-296.1034658691931
 30
0.0
 40
5.0
1001
COMAU_ACADLIB
1000
00302053
1000
Vite T.C.E.I. UNI 5931 - M6x25 - 8.8
  0
LINE
  5
450
330
18
100
AcDbEntity
  8
DISEGNO
100
AcDbLine
 10
-967.9460406108043
 20
-246.6034658691931
 30
0.0
 11
-967.9460406108043
 21
-426.6034658691931
 31
0.0
  0
LINE
  5
451
330
18
100
AcDbEntity
  8
DISEGNO
100
AcDbLine
 10
-1177.946040610804
 20
-208.6034658691931
 30
0.0
 11
-1177.946040610804
 21
-464.6034658691931
 31
0.0
  0
LINE
  5
45A
330
18
100
AcDbEntity
  8
ASSI
100
AcDbLine
 10
-1167.033214086135
 20
-434.603465869194
 30
0.0
 11
-1148.858867135473
 21
-434.603465869194
 31
0.0
  0
LINE
  5
45B
330
18
100
AcDbEntity
  8
ASSI
100
AcDbLine
 10
-1167.23363111257
 20
-459.603465869194
 30
0.0
 11
-1148.858867135473
 21
-459.603465869194
 31
0.0
  0
LINE
  5
45C
330
18
100
AcDbEntity
  8
ASSI
100
AcDbLine
 10
-1167.033214086135
 20
-447.103465869194
 30
0.0
 11
-1148.858867135473
 21
-447.103465869194
 31
0.0
  0
LINE
  5
45E
330
18
100
AcDbEntity
  8
ASSI
100
AcDbLine
 10
-1157.946040610804
 20
-468.690639344525
 30
0.0
 11
-1157.946040610804
 21
-425.5162923938631
 31
0.0
  0
LINE
  5
45F
330
18
100
AcDbEntity
  8
DISEGNO
100
AcDbLine
 10
-1177.946040610804
 20
-464.6034658691931
 30
0.0
 11
-1175.946040610804
 21
-466.6034658691931
 31
0.0
  0
LINE
  5
462
330
18
100
AcDbEntity
  8
ASSI
100
AcDbLine
 10
-1152.946040610802
 20
-428.6018087338486
 30
0.0
 11
-1152.946040610802
 21
-405.3307439072157
 31
0.0
  0
LINE
  5
469
330
18
100
AcDbEntity
  8
ASSI
100
AcDbLine
 10
-1082.946040610804
 20
-428.6018087338486
 30
0.0
 11
-1082.946040610804
 21
-405.3307439072157
 31
0.0
  0
LINE
  5
46B
330
18
100
AcDbEntity
  8
ASSI
100
AcDbLine
 10
-987.9460406108041
 20
-468.690639344525
 30
0.0
 11
-987.9460406108023
 21
-425.5162923938631
 31
0.0
  0
LINE
  5
46C
330
18
100
AcDbEntity
  8
ASSI
100
AcDbLine
 10
-997.0332140861351
 20
-459.603465869194
 30
0.0
 11
-978.8588671354732
 21
-459.603465869194
 31
0.0
  0
LINE
  5
46D
330
18
100
AcDbEntity
  8
ASSI
100
AcDbLine
 10
-997.0332140861351
 20
-447.103465869194
 30
0.0
 11
-978.8588671354732
 21
-447.103465869194
 31
0.0
  0
LINE
  5
470
330
18
100
AcDbEntity
  8
ASSI
100
AcDbLine
 10
-997.0332140861332
 20
-434.603465869194
 30
0.0
 11
-978.8588671354732
 21
-434.603465869194
 31
0.0
  0
LINE
  5
471
330
18
100
AcDbEntity
  8
ASSI
100
AcDbLine
 10
-1012.946040610804
 20
-428.6018087338491
 30
0.0
 11
-1012.946040610804
 21
-405.3307439072161
 31
0.0
  0
LINE
  5
472
330
18
100
AcDbEntity
  8
ASSI
100
AcDbLine
 10
-942.9460406108042
 20
-405.3944090858952
 30
0.0
 11
-942.9460406108024
 21
-428.8125185861098
 31
0.0
  0
LINE
  5
485
330
18
100
AcDbEntity
  8
ASSI
100
AcDbLine
 10
-872.946040610806
 20
-405.70254317573
 30
0.0
 11
-872.946040610806
 21
-428.5043885626462
 31
0.0
  0
LINE
  5
48F
330
18
100
AcDbEntity
  8
ASSI
100
AcDbLine
 10
-712.9460406108059
 20
-405.7025431757336
 30
0.0
 11
-712.9460406108059
 21
-428.5043885626499
 31
0.0
  0
LINE
  5
4B5
330
18
100
AcDbEntity
  8
ASSI
100
AcDbLine
 10
-1167.23363111257
 20
-213.6034658691932
 30
0.0
 11
-1148.858867135473
 21
-213.6034658691932
 31
0.0
  0
LINE
  5
4B6
330
18
100
AcDbEntity
  8
ASSI
100
AcDbLine
 10
-1167.033214086135
 20
-226.1034658691932
 30
0.0
 11
-1148.858867135473
 21
-226.1034658691932
 31
0.0
  0
LINE
  5
4BA
330
18
100
AcDbEntity
  8
ASSI
100
AcDbLine
 10
-1167.033214086135
 20
-238.6034658691932
 30
0.0
 11
-1148.858867135473
 21
-238.6034658691932
 31
0.0
  0
LINE
  5
4BC
330
18
100
AcDbEntity
  8
ASSI
100
AcDbLine
 10
-1157.946040610804
 20
-204.5162923938622
 30
0.0
 11
-1157.946040610804
 21
-247.6906393445241
 31
0.0
  0
LINE
  5
4BD
330
18
100
AcDbEntity
  8
ASSI
100
AcDbLine
 10
-1152.946040610802
 20
-244.6051230045376
 30
0.0
 11
-1152.946040610802
 21
-267.8761878311705
 31
0.0
  0
LINE
  5
4C3
330
18
100
AcDbEntity
  8
DISEGNO
100
AcDbLine
 10
-1175.946040610804
 20
-206.6034658691931
 30
0.0
 11
-1177.946040610804
 21
-208.6034658691931
 31
0.0
  0
LINE
  5
4CB
330
18
100
AcDbEntity
  8
ASSI
100
AcDbLine
 10
-1082.946040610804
 20
-244.6051230045376
 30
0.0
 11
-1082.946040610804
 21
-267.8761878311705
 31
0.0
  0
LINE
  5
4CD
330
18
100
AcDbEntity
  8
ASSI
100
AcDbLine
 10
-987.9460406108041
 20
-204.5162923938622
 30
0.0
 11
-987.9460406108023
 21
-247.6906393445241
 31
0.0
  0
LINE
  5
4CE
330
18
100
AcDbEntity
  8
ASSI
100
AcDbLine
 10
-997.0332140861332
 20
-238.6034658691932
 30
0.0
 11
-978.8588671354732
 21
-238.6034658691932
 31
0.0
  0
LINE
  5
4CF
330
18
100
AcDbEntity
  8
ASSI
100
AcDbLine
 10
-1012.946040610804
 20
-244.6051230045371
 30
0.0
 11
-1012.946040610804
 21
-267.87618783117
 31
0.0
  0
LINE
  5
4D0
330
18
100
AcDbEntity
  8
ASSI
100
AcDbLine
 10
-997.0332140861351
 20
-213.6034658691932
 30
0.0
 11
-978.8588671354732
 21
-213.6034658691932
 31
0.0
  0
LINE
  5
4D1
330
18
100
AcDbEntity
  8
ASSI
100
AcDbLine
 10
-997.0332140861351
 20
-226.1034658691932
 30
0.0
 11
-978.8588671354732
 21
-226.1034658691932
 31
0.0
  0
LINE
  5
4DD
330
18
100
AcDbEntity
  8
ASSI
100
AcDbLine
 10
-942.9460406108042
 20
-267.812522652491
 30
0.0
 11
-942.9460406108024
 21
-244.3944131522761
 31
0.0
  0
LINE
  5
4E6
330
18
100
AcDbEntity
  8
ASSI
100
AcDbLine
 10
-872.946040610806
 20
-267.5043885626563
 30
0.0
 11
-872.946040610806
 21
-244.70254317574
 31
0.0
  0
LINE
  5
4F1
330
18
100
AcDbEntity
  8
ASSI
100
AcDbLine
 10
-712.9460406108059
 20
-267.5043885626522
 30
0.0
 11
-712.9460406108059
 21
-244.7025431757359
 31
0.0
  0
LINE
  5
4FB
330
18
100
AcDbEntity
  8
DISEGNO
100
AcDbLine
 10
-1343.046040610805
 20
100.0000000000002
 30
0.0
 11
-1178.257806304517
 21
100.0000000000002
 31
0.0
  0
LINE
  5
504
330
18
100
AcDbEntity
  8
DISEGNO
100
AcDbLine
 10
-1287.686475093339
 20
79.00000000000613
 30
0.0
 11
-1343.046040610805
 21
79.00000000000114
 31
0.0
  0
LINE
  5
505
330
18
100
AcDbEntity
  8
DISEGNO
100
AcDbLine
 10
-1287.686475093339
 20
71.00000000000612
 30
0.0
 11
-1343.046040610805
 21
71.00000000000114
 31
0.0
  0
LINE
  5
512
330
18
100
AcDbEntity
  8
DISEGNO
100
AcDbLine
 10
-967.9460406108042
 20
128.9999999999993
 30
0.0
 11
-967.9460406108042
 21
248.9999999999998
 31
0.0
  0
LINE
  5
516
330
18
100
AcDbEntity
  8
DISEGNO
100
AcDbLine
 10
-1174.946040610804
 20
114.9999999999993
 30
0.0
 11
-1174.946040610802
 21
54.00000000000023
 31
0.0
  0
LINE
  5
517
330
18
100
AcDbEntity
  8
DISEGNO
100
AcDbLine
 10
-1177.946040610804
 20
128.9999999999993
 30
0.0
 11
-1177.946040610804
 21
51.00000000000022
 31
0.0
  0
LINE
  5
54E
330
18
100
AcDbEntity
  8
DISEGNO
100
AcDbLine
 10
-729.9460406108042
 20
141.0355860756451
 30
0.0
 11
-855.9460406108042
 21
141.0355860756447
 31
0.0
  0
LINE
  5
54F
330
18
100
AcDbEntity
  8
DISEGNO
100
AcDbLine
 10
-729.9460406108042
 20
141.0355860756456
 30
0.0
 11
-855.9460406108042
 21
141.0355860756447
 31
0.0
  0
LINE
  5
550
330
18
100
AcDbEntity
  8
DISEGNO
100
AcDbLine
 10
-857.9460406108042
 20
143.0355860756447
 30
0.0
 11
-857.9460406108042
 21
246.9999999999998
 31
0.0
  0
LINE
  5
554
330
18
100
AcDbEntity
  8
ASSI
100
AcDbLine
 10
-897.9460406108042
 20
146.7248574649687
 30
0.0
 11
-897.9460406108042
 21
172.9550779493564
 31
0.0
  0
LINE
  5
557
330
18
100
AcDbEntity
  8
ASSI
100
AcDbLine
 10
-913.2875384253679
 20
156.4999999999993
 30
0.0
 11
-882.6045427962403
 21
156.4999999999993
 31
0.0
  0
LINE
  5
564
330
18
100
AcDbEntity
  8
DISEGNO
100
AcDbLine
 10
-855.9460406108042
 20
141.0355860756447
 30
0.0
 11
-857.9460406108042
 21
143.0355860756447
 31
0.0
  0
LINE
  5
565
330
18
100
AcDbEntity
  8
DISEGNO
100
AcDbLine
 10
-855.9460406108042
 20
141.0355860756447
 30
0.0
 11
-857.9460406108042
 21
143.0355860756447
 31
0.0
  0
LINE
  5
56F
330
18
100
AcDbEntity
  8
DISEGNO
100
AcDbLine
 10
-857.9460406108042
 20
246.9999999999998
 30
0.0
 11
-855.9460406108042
 21
248.9999999999998
 31
0.0
  0
CIRCLE
  5
571
330
18
100
AcDbEntity
  8
NORMALI
100
AcDbCircle
 10
-792.9460406108042
 20
192.9999999999993
 30
0.0
 40
12.5
  0
LINE
  5
572
330
18
100
AcDbEntity
  8
DISEGNO
100
AcDbLine
 10
-727.9460406108041
 20
143.0355860756451
 30
0.0
 11
-727.9460406108041
 21
246.9999999999998
 31
0.0
  0
LINE
  5
578
330
18
100
AcDbEntity
  8
ASSI
100
AcDbLine
 10
-687.9460406108042
 20
146.9490473658051
 30
0.0
 11
-687.9460406108042
 21
173.2463512174525
 31
0.0
  0
LINE
  5
57A
330
18
100
AcDbEntity
  8
DISEGNO
100
AcDbLine
 10
-727.9460406108041
 20
143.0355860756451
 30
0.0
 11
-729.9460406108042
 21
141.0355860756451
 31
0.0
  0
LINE
  5
57B
330
18
100
AcDbEntity
  8
DISEGNO
100
AcDbLine
 10
-727.9460406108041
 20
143.0355860756456
 30
0.0
 11
-729.9460406108042
 21
141.0355860756456
 31
0.0
  0
LINE
  5
586
330
18
100
AcDbEntity
  8
DISEGNO
100
AcDbLine
 10
-727.9460406108041
 20
246.9999999999998
 30
0.0
 11
-729.9460406108042
 21
248.9999999999998
 31
0.0
  0
LINE
  5
589
330
18
100
AcDbEntity
  8
DISEGNO
100
AcDbLine
 10
-617.9460406108042
 20
-208.6034658691931
 30
0.0
 11
-617.9460406108042
 21
-464.603465869194
 31
0.0
  0
LINE
  5
58B
330
18
100
AcDbEntity
  8
DISEGNO
100
AcDbLine
 10
-619.9460406108041
 20
-466.603465869194
 30
0.0
 11
-617.9460406108042
 21
-464.603465869194
 31
0.0
  0
LINE
  5
596
330
18
100
AcDbEntity
  8
ASSI
100
AcDbLine
 10
-642.9460406108059
 20
-405.702543175735
 30
0.0
 11
-642.9460406108059
 21
-428.5043885626513
 31
0.0
  0
LINE
  5
599
330
18
100
AcDbEntity
  8
DISEGNO
100
AcDbLine
 10
-333.0460406108029
 20
-386.6034658691927
 30
0.0
 11
-602.0905263303879
 21
-386.6034658691932
 31
0.0
  0
LINE
  5
59A
330
18
100
AcDbEntity
  8
DISEGNO
100
AcDbLine
 10
-333.0460406108029
 20
-286.6034658691927
 30
0.0
 11
-602.0905263303898
 21
-286.6034658691932
 31
0.0
  0
LINE
  5
59B
330
18
100
AcDbEntity
  8
NORMALI
100
AcDbLine
 10
-443.046040610804
 20
-361.6034658691932
 30
0.0
 11
-602.0905263303898
 21
-361.6034658691932
 31
0.0
  0
LINE
  5
59C
330
18
100
AcDbEntity
  8
NORMALI
100
AcDbLine
 10
-443.046040610804
 20
-311.6034658691932
 30
0.0
 11
-602.0905263303898
 21
-311.6034658691932
 31
0.0
  0
LINE
  5
59D
330
18
100
AcDbEntity
  8
NORMALI
100
AcDbLine
 10
-432.9460406108055
 20
-271.1034658691928
 30
0.0
 11
-602.0905263303898
 21
-271.1034658691941
 31
0.0
  0
LINE
  5
59E
330
18
100
AcDbEntity
  8
NORMALI
100
AcDbLine
 10
-432.9460406108055
 20
-402.1034658691927
 30
0.0
 11
-592.0905263303898
 21
-402.1034658691931
 31
0.0
  0
LINE
  5
5A2
330
18
100
AcDbEntity
  8
NORMALI
100
AcDbLine
 10
-602.0905263303898
 20
-361.6034658691932
 30
0.0
 11
-617.9460406108042
 21
-361.6034658691932
 31
0.0
  0
LINE
  5
5A3
330
18
100
AcDbEntity
  8
DISEGNO
100
AcDbLine
 10
-602.0905263303879
 20
-386.6034658691932
 30
0.0
 11
-617.9460406108042
 21
-386.6034658691932
 31
0.0
  0
LINE
  5
5A4
330
18
100
AcDbEntity
  8
NORMALI
100
AcDbLine
 10
-592.0905263303898
 20
-402.1034658691931
 30
0.0
 11
-617.9460406108042
 21
-402.1034658691931
 31
0.0
  0
LINE
  5
5A9
330
18
100
AcDbEntity
  8
NORMALI
100
AcDbLine
 10
-602.0905263303898
 20
-271.1034658691941
 30
0.0
 11
-617.9460406108042
 21
-271.1034658691931
 31
0.0
  0
LINE
  5
5AA
330
18
100
AcDbEntity
  8
DISEGNO
100
AcDbLine
 10
-602.0905263303898
 20
-286.6034658691932
 30
0.0
 11
-618.5460406108063
 21
-286.6034658691932
 31
0.0
  0
LINE
  5
5AB
330
18
100
AcDbEntity
  8
NORMALI
100
AcDbLine
 10
-602.0905263303898
 20
-311.6034658691932
 30
0.0
 11
-617.9460406108042
 21
-311.6034658691932
 31
0.0
  0
LINE
  5
5B4
330
18
100
AcDbEntity
  8
ASSI
100
AcDbLine
 10
-642.9460406108059
 20
-267.5043885626513
 30
0.0
 11
-642.9460406108059
 21
-244.702543175735
 31
0.0
  0
LINE
  5
5BB
330
18
100
AcDbEntity
  8
DISEGNO
100
AcDbLine
 10
-619.9460406108041
 20
-206.6034658691931
 30
0.0
 11
-617.9460406108042
 21
-208.6034658691931
 31
0.0
  0
LINE
  5
5BC
330
18
100
AcDbEntity
  8
DISEGNO
100
AcDbLine
 10
-407.9460406108064
 20
-286.6034658691927
 30
0.0
 11
-407.9460406108064
 21
-386.6034658691927
 31
0.0
  0
LINE
  5
5BD
330
18
100
AcDbEntity
  8
DISEGNO
100
AcDbLine
 10
-346.0460893480031
 20
-286.6034658691936
 30
0.0
 11
-346.0460893480031
 21
-386.6034658691932
 31
0.0
  0
LINE
  5
5BE
330
18
100
AcDbEntity
  8
DISEGNO
100
AcDbLine
 10
-333.0460406108029
 20
-286.6034658691932
 30
0.0
 11
-333.0460406108029
 21
-386.6034658691932
 31
0.0
  0
LINE
  5
5BF
330
18
100
AcDbEntity
  8
DISEGNO
100
AcDbLine
 10
-343.046040610805
 20
-286.6034658691932
 30
0.0
 11
-343.046040610805
 21
-386.6034658691932
 31
0.0
  0
LINE
  5
5C0
330
18
100
AcDbEntity
  8
DISEGNO
100
AcDbLine
 10
-443.046040610804
 20
-287.6034658691931
 30
0.0
 11
-443.046040610804
 21
-385.6034658691931
 31
0.0
  0
LINE
  5
5C2
330
18
100
AcDbEntity
  8
NORMALI
100
AcDbLine
 10
-432.9460406108055
 20
-402.1034658691927
 30
0.0
 11
-432.9460406108055
 21
-386.6034658691928
 31
0.0
  0
LINE
  5
5C3
330
18
100
AcDbEntity
  8
DISEGNO
100
AcDbLine
 10
-443.046040610804
 20
-385.6034658691931
 30
0.0
 11
-442.046040610804
 21
-386.6034658691931
 31
0.0
  0
LINE
  5
5C6
330
18
100
AcDbEntity
  8
NORMALI
100
AcDbLine
 10
-407.9460406108045
 20
-347.1034658691922
 30
0.0
 11
-426.9460406108046
 21
-347.1034658691922
 31
0.0
  0
LINE
  5
5C7
330
18
100
AcDbEntity
  8
NORMALI
100
AcDbLine
 10
-407.9460406108045
 20
-367.1034658691922
 30
0.0
 11
-426.9460406108046
 21
-367.1034658691922
 31
0.0
  0
LINE
  5
5C8
330
18
100
AcDbEntity
  8
NORMALI
100
AcDbLine
 10
-427.9460406108046
 20
-366.1034658691922
 30
0.0
 11
-427.9460406108046
 21
-348.1034658691922
 31
0.0
  0
LINE
  5
5C9
330
18
100
AcDbEntity
  8
NORMALI
100
AcDbLine
 10
-426.9460406108046
 20
-367.1034658691922
 30
0.0
 11
-426.9460406108046
 21
-347.1034658691922
 31
0.0
  0
LINE
  5
5CA
330
18
100
AcDbEntity
  8
NORMALI
100
AcDbLine
 10
-426.9460406108055
 20
-367.1034658691922
 30
0.0
 11
-427.9460406108055
 21
-366.1034658691922
 31
0.0
  0
LINE
  5
5CB
330
18
100
AcDbEntity
  8
NORMALI
100
AcDbLine
 10
-426.9460406108046
 20
-347.1034658691922
 30
0.0
 11
-427.9460406108046
 21
-348.1034658691922
 31
0.0
  0
LINE
  5
5CF
330
18
100
AcDbEntity
  8
DISEGNO
100
AcDbLine
 10
-344.046040610805
 20
-386.6034658691932
 30
0.0
 11
-343.046040610805
 21
-385.6034658691931
 31
0.0
  0
LINE
  5
5D1
330
18
100
AcDbEntity
  8
NORMALI
100
AcDbLine
 10
-407.9460406108045
 20
-306.1034658691923
 30
0.0
 11
-426.9460406108046
 21
-306.1034658691923
 31
0.0
  0
LINE
  5
5D2
330
18
100
AcDbEntity
  8
NORMALI
100
AcDbLine
 10
-407.9460406108045
 20
-326.1034658691922
 30
0.0
 11
-426.9460406108046
 21
-326.1034658691922
 31
0.0
  0
LINE
  5
5D3
330
18
100
AcDbEntity
  8
NORMALI
100
AcDbLine
 10
-427.9460406108046
 20
-307.1034658691922
 30
0.0
 11
-427.9460406108046
 21
-325.1034658691922
 31
0.0
  0
LINE
  5
5D4
330
18
100
AcDbEntity
  8
NORMALI
100
AcDbLine
 10
-426.9460406108046
 20
-306.1034658691923
 30
0.0
 11
-426.9460406108046
 21
-326.1034658691922
 31
0.0
  0
LINE
  5
5D5
330
18
100
AcDbEntity
  8
NORMALI
100
AcDbLine
 10
-426.9460406108046
 20
-326.1034658691922
 30
0.0
 11
-427.9460406108046
 21
-325.1034658691922
 31
0.0
  0
LINE
  5
5D6
330
18
100
AcDbEntity
  8
NORMALI
100
AcDbLine
 10
-426.9460406108055
 20
-306.1034658691923
 30
0.0
 11
-427.9460406108055
 21
-307.1034658691922
 31
0.0
  0
LINE
  5
5D7
330
18
100
AcDbEntity
  8
DISEGNO
100
AcDbLine
 10
-442.046040610804
 20
-286.6034658691931
 30
0.0
 11
-443.046040610804
 21
-287.6034658691931
 31
0.0
  0
LINE
  5
5D8
330
18
100
AcDbEntity
  8
NORMALI
100
AcDbLine
 10
-432.9460406108055
 20
-271.1034658691928
 30
0.0
 11
-432.9460406108055
 21
-286.6034658691928
 31
0.0
  0
LINE
  5
5DE
330
18
100
AcDbEntity
  8
DISEGNO
100
AcDbLine
 10
-343.046040610805
 20
-287.6049259624877
 30
0.0
 11
-344.046040610805
 21
-286.6049259624877
 31
0.0
  0
LINE
  5
5DF
330
18
100
AcDbEntity
  8
DISEGNO
100
AcDbLine
 10
-1607.004425099605
 20
128.9999999999993
 30
0.0
 11
-1687.003425099606
 21
128.9999571293037
 31
0.0
  0
LINE
  5
5E0
330
18
100
AcDbEntity
  8
DISEGNO
  6
Continuous
100
AcDbLine
 10
-1607.003925099606
 20
114.9996065729713
 30
0.0
 11
-1687.003425099606
 21
114.9999571293033
 31
0.0
  0
LINE
  5
5E1
330
18
100
AcDbEntity
  8
DISEGNO
100
AcDbLine
 10
-407.9460406108064
 20
138.000000000002
 30
0.0
 11
-407.9460406108064
 21
113.0000000000002
 31
0.0
  0
LINE
  5
5E2
330
18
100
AcDbEntity
  8
DISEGNO
100
AcDbLine
 10
-343.046040610805
 20
135.000000000002
 30
0.0
 11
-343.0460406108041
 21
113.0000000000002
 31
0.0
  0
LINE
  5
5E4
330
18
100
AcDbEntity
  8
ASSI
100
AcDbLine
 10
-642.0515611877108
 20
125.797699169874
 30
0.0
 11
-642.0515611877108
 21
150.4663688631528
 31
0.0
  0
LINE
  5
5E5
330
18
100
AcDbEntity
  8
DISEGNO
100
AcDbLine
 10
-617.9460406108055
 20
249.0000000000002
 30
0.0
 11
-617.9460406108042
 21
51.00000000000022
 31
0.0
  0
LINE
  5
5E6
330
18
100
AcDbEntity
  8
NORMALI
100
AcDbLine
 10
-427.9460406108064
 20
136.000000000002
 30
0.0
 11
-427.9460406108064
 21
118.000000000002
 31
0.0
  0
LINE
  5
5E7
330
18
100
AcDbEntity
  8
NORMALI
100
AcDbLine
 10
-426.9460406108064
 20
137.000000000002
 30
0.0
 11
-426.9460406108064
 21
117.000000000002
 31
0.0
  0
LINE
  5
5EA
330
18
100
AcDbEntity
  8
DISEGNO
100
AcDbLine
 10
-343.0460406108041
 20
100.0000000000002
 30
0.0
 11
-590.428912224444
 21
100.0000000000002
 31
0.0
  0
LINE
  5
5EC
330
18
100
AcDbEntity
  8
NORMALI
100
AcDbLine
 10
-591.196046907296
 20
65.00000000000023
 30
0.0
 11
-432.9460406108055
 21
65.00000000000023
 31
0.0
  0
LINE
  5
5ED
330
18
100
AcDbEntity
  8
NORMALI
100
AcDbLine
 10
-601.196046907296
 20
85.00000000000023
 30
0.0
 11
-432.9460406108055
 21
85.00000000000023
 31
0.0
  0
LINE
  5
5EE
330
18
100
AcDbEntity
  8
NORMALI
100
AcDbLine
 10
-443.046040610804
 20
101.9999999999993
 30
0.0
 11
-597.330730807725
 21
101.9999999999993
 31
0.0
  0
LINE
  5
5EF
330
18
100
AcDbEntity
  8
NORMALI
100
AcDbLine
 10
-443.046040610804
 20
106.5000000000002
 30
0.0
 11
-591.196046907296
 21
106.5000000000002
 31
0.0
  0
LINE
  5
5F2
330
18
100
AcDbEntity
  8
DISEGNO
100
AcDbLine
 10
-620.9460406108023
 20
114.9999999999993
 30
0.0
 11
-620.9460406108023
 21
54.00000000000023
 31
0.0
  0
LINE
  5
5FB
330
18
100
AcDbEntity
  8
DISEGNO
100
AcDbLine
 10
-590.428912224444
 20
100.0000000000002
 30
0.0
 11
-617.9460406108042
 21
99.99999999999932
 31
0.0
  0
LINE
  5
5FC
330
18
100
AcDbEntity
  8
NORMALI
100
AcDbLine
 10
-591.196046907296
 20
106.5000000000002
 30
0.0
 11
-617.9460406108023
 21
106.5000000000002
 31
0.0
  0
LINE
  5
5FD
330
18
100
AcDbEntity
  8
NORMALI
100
AcDbLine
 10
-597.330730807725
 20
101.9999999999993
 30
0.0
 11
-617.9460406108023
 21
101.9999999999993
 31
0.0
  0
LINE
  5
5FE
330
18
100
AcDbEntity
  8
NORMALI
100
AcDbLine
 10
-617.9460406108042
 20
85.00000000000023
 30
0.0
 11
-601.196046907296
 21
85.00000000000023
 31
0.0
  0
LINE
  5
5FF
330
18
100
AcDbEntity
  8
NORMALI
100
AcDbLine
 10
-617.9460406108042
 20
65.00000000000023
 30
0.0
 11
-591.196046907296
 21
65.00000000000023
 31
0.0
  0
LINE
  5
608
330
18
100
AcDbEntity
  8
DISEGNO
100
AcDbLine
 10
-333.0460406108032
 20
114.9999999999993
 30
0.0
 11
-333.0460406108036
 21
49.99999999999728
 31
0.0
  0
LINE
  5
609
330
18
100
AcDbEntity
  8
DISEGNO
100
AcDbLine
 10
-343.0460406108041
 20
113.0000000000002
 30
0.0
 11
-343.0460406108039
 21
49.99999999999732
 31
0.0
  0
LINE
  5
60B
330
18
100
AcDbEntity
  8
DISEGNO
100
AcDbLine
 10
-343.0460406108041
 20
70.99999999999932
 30
0.0
 11
-433.0410406108057
 21
70.99999999999932
 31
0.0
  0
LINE
  5
60C
330
18
100
AcDbEntity
  8
DISEGNO
100
AcDbLine
 10
-343.0460406108041
 20
79.00000000000023
 30
0.0
 11
-433.0410406108057
 21
79.00000000000023
 31
0.0
  0
LINE
  5
60D
330
18
100
AcDbEntity
  8
DISEGNO
100
AcDbLine
 10
-343.0460406108041
 20
112.9999999999993
 30
0.0
 11
-443.046040610804
 21
112.9999999999993
 31
0.0
  0
LINE
  5
60E
330
18
100
AcDbEntity
  8
NORMALI
100
AcDbLine
 10
-432.9460406108055
 20
85.00000000000023
 30
0.0
 11
-432.9460406108046
 21
65.00000000000023
 31
0.0
  0
LINE
  5
60F
330
18
100
AcDbEntity
  8
NORMALI
100
AcDbLine
 10
-407.9460406108064
 20
117.000000000002
 30
0.0
 11
-426.8510406108061
 21
117.000000000002
 31
0.0
  0
LINE
  5
610
330
18
100
AcDbEntity
  8
DISEGNO
100
AcDbLine
 10
-443.046040610804
 20
100.0000000000002
 30
0.0
 11
-443.046040610804
 21
112.9999999999993
 31
0.0
  0
LINE
  5
611
330
18
100
AcDbEntity
  8
NORMALI
100
AcDbLine
 10
-426.8510406108061
 20
117.000000000002
 30
0.0
 11
-427.8510406108061
 21
118.000000000002
 31
0.0
  0
LINE
  5
612
330
18
100
AcDbEntity
  8
DISEGNO
100
AcDbLine
 10
-333.0460406108032
 20
114.9999999999993
 30
0.0
 11
-343.0460406108041
 21
114.9999999999993
 31
0.0
  0
LINE
  5
613
330
18
100
AcDbEntity
  8
DISEGNO
100
AcDbLine
 10
-1687.003425099606
 20
128.9999571293037
 30
0.0
 11
-1687.003425099606
 21
114.9999571293033
 31
0.0
  0
LINE
  5
623
330
18
100
AcDbEntity
  8
DISEGNO
100
AcDbLine
 10
-407.9460406108064
 20
138.000000000002
 30
0.0
 11
-346.0460406108041
 21
138.000000000002
 31
0.0
  0
LINE
  5
624
330
18
100
AcDbEntity
  8
NORMALI
100
AcDbLine
 10
-407.9460406108064
 20
137.000000000002
 30
0.0
 11
-426.9460406108064
 21
137.000000000002
 31
0.0
  0
LINE
  5
625
330
18
100
AcDbEntity
  8
NORMALI
100
AcDbLine
 10
-426.9460406108064
 20
137.000000000002
 30
0.0
 11
-427.9460406108064
 21
136.000000000002
 31
0.0
  0
LINE
  5
626
330
18
100
AcDbEntity
  8
DISEGNO
100
AcDbLine
 10
-346.046040610805
 20
138.000000000002
 30
0.0
 11
-343.046040610805
 21
135.000000000002
 31
0.0
  0
LINE
  5
627
330
18
100
AcDbEntity
  8
ASSI
100
AcDbLine
 10
-1637.503425099606
 20
150.1083808625337
 30
0.0
 11
-1637.503425099607
 21
112.7969586326942
 31
0.0
  0
LINE
  5
628
330
18
100
AcDbEntity
  8
ASSI
100
AcDbLine
 10
-1476.503425099606
 20
112.7969586326942
 30
0.0
 11
-1476.503425099606
 21
150.5117695366095
 31
0.0
  0
LINE
  5
629
330
18
100
AcDbEntity
  8
DISEGNO
100
AcDbLine
 10
-1507.003334981621
 20
137.0000000000011
 30
0.0
 11
-1507.003334981622
 21
114.9999999999988
 31
0.0
  0
LINE
  5
62A
330
18
100
AcDbEntity
  8
DISEGNO
100
AcDbLine
 10
-1607.004425099605
 20
137.0000000000011
 30
0.0
 11
-1607.004425099605
 21
114.9999999999991
 31
0.0
  0
LINE
  5
62B
330
18
100
AcDbEntity
  8
DISEGNO
100
AcDbLine
 10
-1461.696165099606
 20
136.9999999999997
 30
0.0
 11
-1461.696165099606
 21
128.9999999999998
 31
0.0
  0
LINE
  5
62C
330
18
100
AcDbEntity
  8
DISEGNO
100
AcDbLine
 10
-1652.096165099606
 20
136.9999999999997
 30
0.0
 11
-1652.096165099606
 21
128.9999999999998
 31
0.0
  0
LINE
  5
62D
330
18
100
AcDbEntity
  8
ASSI
100
AcDbLine
 10
-1557.003425099606
 20
19.91123862716608
 30
0.0
 11
-1557.003425099606
 21
264.5565932735458
 31
0.0
  0
LINE
  5
67A
330
18
100
AcDbEntity
  8
DISEGNO
100
AcDbLine
 10
-1641.696165099606
 20
129.4999999999993
 30
0.0
 11
-1607.004425099605
 21
129.4999999999993
 31
0.0
  0
ARC
  5
67B
330
18
100
AcDbEntity
  8
DISEGNO
100
AcDbCircle
 10
-1641.696165099604
 20
129.0999999999978
 30
0.0
 40
0.4000000000017394
100
AcDbArc
 50
90.00000000023614
 51
179.9999999997394
  0
LINE
  5
67D
330
18
100
AcDbEntity
  8
DISEGNO
100
AcDbLine
 10
-1469.002425099606
 20
50.99974022121694
 30
0.0
 11
-1469.002425099606
 21
114.9997402212168
 31
0.0
  0
LINE
  5
682
330
18
100
AcDbEntity
  8
DISEGNO
100
AcDbLine
 10
-1469.002425099606
 20
50.99974022121694
 30
0.0
 11
-1505.003125099606
 21
50.99974022121694
 31
0.0
  0
LINE
  5
684
330
18
100
AcDbEntity
  8
DISEGNO
100
AcDbLine
 10
-1505.003125099606
 20
114.994377450446
 30
0.0
 11
-1505.003125099606
 21
84.99974022121694
 31
0.0
  0
LINE
  5
686
330
18
100
AcDbEntity
  8
DISEGNO
100
AcDbLine
 10
-1487.903625099606
 20
50.99974022121694
 30
0.0
 11
-1469.002425099606
 21
50.99974022121694
 31
0.0
  0
LINE
  5
690
330
18
100
AcDbEntity
  8
DISEGNO
100
AcDbLine
 10
-1427.003425099606
 20
128.9999999999993
 30
0.0
 11
-1507.003425099606
 21
128.9999999999993
 31
0.0
  0
LINE
  5
691
330
18
100
AcDbEntity
  8
DISEGNO
  6
Continuous
100
AcDbLine
 10
-1427.003425099606
 20
114.9999999999993
 30
0.0
 11
-1507.003334981622
 21
114.9999999999988
 31
0.0
  0
LINE
  5
697
330
18
100
AcDbEntity
  8
NORMALI
100
AcDbLine
 10
-1491.380547303028
 20
64.99974022121694
 30
0.0
 11
-1505.823125099606
 21
64.99974022121694
 31
0.0
  0
LINE
  5
698
330
18
100
AcDbEntity
  8
NORMALI
100
AcDbLine
 10
-1507.003125099606
 20
66.17974022121723
 30
0.0
 11
-1505.823125099606
 21
64.99974022121694
 31
0.0
  0
LINE
  5
69C
330
18
100
AcDbEntity
  8
NORMALI
100
AcDbLine
 10
-1491.503125099606
 20
84.99974022121694
 30
0.0
 11
-1505.823125099606
 21
84.99974022121694
 31
0.0
  0
LINE
  5
69D
330
18
100
AcDbEntity
  8
NORMALI
100
AcDbLine
 10
-1507.003125099606
 20
83.81974022121756
 30
0.0
 11
-1505.823125099606
 21
84.99974022121694
 31
0.0
  0
LINE
  5
6A0
330
18
100
AcDbEntity
  8
NORMALI
100
AcDbLine
 10
-1491.503125099606
 20
84.99974022121694
 30
0.0
 11
-1491.503125099606
 21
64.99974022121694
 31
0.0
  0
LINE
  5
6C9
330
18
100
AcDbEntity
  8
DISEGNO
100
AcDbLine
 10
-1472.096165099606
 20
129.4999999999993
 30
0.0
 11
-1507.003425099606
 21
129.4999999999993
 31
0.0
  0
ARC
  5
6CA
330
18
100
AcDbEntity
  8
DISEGNO
100
AcDbCircle
 10
-1472.096165099608
 20
129.0999999999978
 30
0.0
 40
0.4000000000017394
100
AcDbArc
 50
0.0000000002605581
 51
89.99999999976386
  0
LINE
  5
6CB
330
18
100
AcDbEntity
  8
DISEGNO
100
AcDbLine
 10
-1427.003425099606
 20
128.9999999999993
 30
0.0
 11
-1427.003425099606
 21
114.9999999999993
 31
0.0
  0
LINE
  5
6CC
330
18
100
AcDbEntity
  8
ASSI
100
AcDbLine
 10
-1498.79061160018
 20
192.9999999999993
 30
0.0
 11
-1615.216238599032
 21
192.9999999999993
 31
0.0
  0
LINE
  5
6CD
330
18
100
AcDbEntity
  8
DISEGNO
100
AcDbLine
 10
-1502.896165099607
 20
248.9999999999993
 30
0.0
 11
-1610.896165099604
 21
248.9999999999998
 31
0.0
  0
LINE
  5
6D4
330
18
100
AcDbEntity
  8
DISEGNO
100
AcDbLine
 10
-1507.003334981621
 20
137.0000000000011
 30
0.0
 11
-1607.004425099605
 21
137.0000000000011
 31
0.0
  0
LINE
  5
6DA
330
18
100
AcDbEntity
  8
DISEGNO
100
AcDbLine
 10
-1610.896165099604
 20
140.9999999999993
 30
0.0
 11
-1610.896165099604
 21
248.9999999999993
 31
0.0
  0
LINE
  5
6DB
330
18
100
AcDbEntity
  8
DISEGNO
100
AcDbLine
 10
-1602.096165099606
 20
248.9999999999998
 30
0.0
 11
-1602.096165099606
 21
153.9999999999966
 31
0.0
  0
LINE
  5
6DC
330
18
100
AcDbEntity
  8
DISEGNO
100
AcDbLine
 10
-1592.096165099606
 20
137.0001110725627
 30
0.0
 11
-1592.096165099604
 21
248.9999999999995
 31
0.0
  0
LINE
  5
6DD
330
18
100
AcDbEntity
  8
DISEGNO
  6
DASHED
 62
     8
100
AcDbLine
 10
-1604.896165099604
 20
227.9999999999993
 30
0.0
 11
-1604.896165099604
 21
157.9999999999993
 31
0.0
  0
ARC
  5
6E0
330
18
100
AcDbEntity
  8
DISEGNO
100
AcDbCircle
 10
-1617.096165099609
 20
153.9999999999998
 30
0.0
 40
15.00000000000006
100
AcDbArc
 50
270.0000000000108
 51
359.9999999999883
  0
LINE
  5
6F0
330
18
100
AcDbEntity
  8
DISEGNO
100
AcDbLine
 10
-1633.295165099606
 20
138.9999999999997
 30
0.0
 11
-1650.096165099606
 21
138.9999999999997
 31
0.0
  0
ARC
  5
6F1
330
18
100
AcDbEntity
  8
DISEGNO
100
AcDbCircle
 10
-1650.096165099606
 20
136.9999999999997
 30
0.0
 40
2.0
100
AcDbArc
 50
90.0
 51
180.0
  0
LINE
  5
6F3
330
18
100
AcDbEntity
  8
DISEGNO
100
AcDbLine
 10
-1617.096165099606
 20
138.9999999999997
 30
0.0
 11
-1633.295165099606
 21
138.9999999999997
 31
0.0
  0
LINE
  5
6F8
330
18
100
AcDbEntity
  8
DISEGNO
100
AcDbLine
 10
-1610.896165099604
 20
140.9999999999993
 30
0.0
 11
-1609.612850326062
 21
140.9999999999991
 31
0.0
  0
LINE
  5
6F9
330
18
100
AcDbEntity
  8
DISEGNO
  6
DASHED
 62
     8
100
AcDbLine
 10
-1604.896165099604
 20
157.9999999999993
 30
0.0
 11
-1610.896165099604
 21
157.9999999999993
 31
0.0
  0
ARC
  5
70E
330
18
100
AcDbEntity
  8
DISEGNO
100
AcDbCircle
 10
-1600.096165099606
 20
246.9999999999998
 30
0.0
 40
2.0
100
AcDbArc
 50
90.0
 51
180.0
  0
LINE
  5
70F
330
18
100
AcDbEntity
  8
DISEGNO
  6
DASHED
 62
     8
100
AcDbLine
 10
-1604.896165099604
 20
227.9999999999993
 30
0.0
 11
-1610.896165099604
 21
227.9999999999993
 31
0.0
  0
LINE
  5
723
330
18
100
AcDbEntity
  8
DISEGNO
100
AcDbLine
 10
-1502.896165099608
 20
140.9999999999993
 30
0.0
 11
-1502.896165099608
 21
248.9999999999993
 31
0.0
  0
LINE
  5
724
330
18
100
AcDbEntity
  8
DISEGNO
100
AcDbLine
 10
-1511.696165099609
 20
248.9999999999998
 30
0.0
 11
-1511.696165099574
 21
153.9999999999943
 31
0.0
  0
LINE
  5
725
330
18
100
AcDbEntity
  8
DISEGNO
100
AcDbLine
 10
-1521.696165099606
 20
137.0000000000006
 30
0.0
 11
-1521.696165099609
 21
248.9999999999993
 31
0.0
  0
LINE
  5
726
330
18
100
AcDbEntity
  8
DISEGNO
  6
DASHED
 62
     8
100
AcDbLine
 10
-1508.896165099608
 20
227.9999999999993
 30
0.0
 11
-1508.896165099603
 21
157.9999999999993
 31
0.0
  0
LINE
  5
729
330
18
100
AcDbEntity
  8
DISEGNO
100
AcDbLine
 10
-1480.497165099606
 20
138.9999999999997
 30
0.0
 11
-1463.696165099606
 21
138.9999999999997
 31
0.0
  0
ARC
  5
72A
330
18
100
AcDbEntity
  8
DISEGNO
100
AcDbCircle
 10
-1496.696165099606
 20
153.9999999999998
 30
0.0
 40
15.00000000000001
100
AcDbArc
 50
180.0000000000209
 51
270.0000000000005
  0
LINE
  5
72F
330
18
100
AcDbEntity
  8
DISEGNO
100
AcDbLine
 10
-1502.896165099608
 20
140.9999999999993
 30
0.0
 11
-1504.179479873153
 21
140.9999999999991
 31
0.0
  0
LINE
  5
734
330
18
100
AcDbEntity
  8
DISEGNO
  6
DASHED
 62
     8
100
AcDbLine
 10
-1508.896165099608
 20
157.9999999999993
 30
0.0
 11
-1502.896165099608
 21
157.9999999999993
 31
0.0
  0
LINE
  5
736
330
18
100
AcDbEntity
  8
DISEGNO
100
AcDbLine
 10
-1496.696165099606
 20
138.9999999999997
 30
0.0
 11
-1480.497165099606
 21
138.9999999999997
 31
0.0
  0
ARC
  5
74B
330
18
100
AcDbEntity
  8
DISEGNO
100
AcDbCircle
 10
-1463.696165099606
 20
136.9999999999997
 30
0.0
 40
2.0
100
AcDbArc
 50
0.000000000000007
 51
90.0
  0
LINE
  5
752
330
18
100
AcDbEntity
  8
DISEGNO
  6
DASHED
 62
     8
100
AcDbLine
 10
-1508.896165099608
 20
227.9999999999993
 30
0.0
 11
-1502.896165099608
 21
227.9999999999993
 31
0.0
  0
ARC
  5
754
330
18
100
AcDbEntity
  8
DISEGNO
100
AcDbCircle
 10
-1513.696165099606
 20
246.9999999999998
 30
0.0
 40
2.0
100
AcDbArc
 50
0.000000000000007
 51
90.0
  0
LINE
  5
758
330
18
100
AcDbEntity
  8
DISEGNO
100
AcDbLine
 10
-1521.896165099606
 20
248.9999999999998
 30
0.0
 11
-1513.696165099606
 21
248.9999999999998
 31
0.0
  0
LINE
  5
763
330
18
100
AcDbEntity
  8
DISEGNO
100
AcDbLine
 10
-1505.003125099606
 20
64.99974022121694
 30
0.0
 11
-1505.003125099606
 21
50.99974022121694
 31
0.0
  0
LINE
  5
768
330
18
100
AcDbEntity
  8
DISEGNO
100
AcDbLine
 10
-1645.004425099606
 20
50.99974022121694
 30
0.0
 11
-1609.003725099605
 21
50.99974022121694
 31
0.0
  0
LINE
  5
769
330
18
100
AcDbEntity
  8
DISEGNO
100
AcDbLine
 10
-1609.003725099605
 20
64.99974022121694
 30
0.0
 11
-1609.003725099605
 21
50.99974022121694
 31
0.0
  0
LINE
  5
772
330
18
100
AcDbEntity
  8
NORMALI
100
AcDbLine
 10
-1607.003725099605
 20
66.17974022121723
 30
0.0
 11
-1608.183725099606
 21
64.99974022121694
 31
0.0
  0
LINE
  5
773
330
18
100
AcDbEntity
  8
NORMALI
100
AcDbLine
 10
-1622.503725099605
 20
64.99974022121694
 30
0.0
 11
-1608.183725099606
 21
64.99974022121694
 31
0.0
  0
LINE
  5
77A
330
18
100
AcDbEntity
  8
NORMALI
100
AcDbLine
 10
-1607.003725099605
 20
83.81974022121756
 30
0.0
 11
-1608.183725099606
 21
84.99974022121694
 31
0.0
  0
LINE
  5
77B
330
18
100
AcDbEntity
  8
NORMALI
100
AcDbLine
 10
-1622.503725099605
 20
84.99974022121694
 30
0.0
 11
-1608.183725099606
 21
84.99974022121694
 31
0.0
  0
LINE
  5
77F
330
18
100
AcDbEntity
  8
DISEGNO
100
AcDbLine
 10
-1626.103225099606
 20
50.99974022121694
 30
0.0
 11
-1645.004425099606
 21
50.99974022121694
 31
0.0
  0
LINE
  5
781
330
18
100
AcDbEntity
  8
NORMALI
100
AcDbLine
 10
-1622.503725099605
 20
84.99974022121694
 30
0.0
 11
-1622.503725099605
 21
64.99974022121694
 31
0.0
  0
LINE
  5
792
330
18
100
AcDbEntity
  8
DISEGNO
100
AcDbLine
 10
-1645.004425099606
 20
50.99974022121694
 30
0.0
 11
-1645.004425099606
 21
114.9997402212168
 31
0.0
  0
LINE
  5
793
330
18
100
AcDbEntity
  8
DISEGNO
100
AcDbLine
 10
-1609.003725099605
 20
114.994377450446
 30
0.0
 11
-1609.003725099605
 21
84.99974022121694
 31
0.0
  0
LINE
  5
861
330
18
100
AcDbEntity
  8
DISEGNO
100
AcDbLine
 10
-1487.902925099605
 20
50.99974022121694
 30
0.0
 11
-1469.002425099606
 21
50.99974022121694
 31
0.0
  0
LINE
  5
88B
330
18
100
AcDbEntity
  8
0
100
AcDbLine
 10
-1243.046040610804
 20
111.9999999999993
 30
0.0
 11
-1343.046040610805
 21
111.9999999999993
 31
0.0
  0
LINE
  5
8CE
330
18
100
AcDbEntity
  8
NORMALI
100
AcDbLine
 10
-1308.046040610804
 20
113.0000000000018
 30
0.0
 11
-1289.046040610804
 21
113.0000000000018
 31
0.0
  0
LINE
  5
8CF
330
18
100
AcDbEntity
  8
NORMALI
100
AcDbLine
 10
-1288.046040610804
 20
132.0000000000018
 30
0.0
 11
-1288.046040610804
 21
114.0000000000018
 31
0.0
  0
LINE
  5
8D0
330
18
100
AcDbEntity
  8
NORMALI
100
AcDbLine
 10
-1289.046040610804
 20
133.0000000000018
 30
0.0
 11
-1289.046040610804
 21
113.0000000000018
 31
0.0
  0
LINE
  5
8D1
330
18
100
AcDbEntity
  8
NORMALI
100
AcDbLine
 10
-1289.046040610804
 20
113.0000000000018
 30
0.0
 11
-1288.046040610804
 21
114.0000000000018
 31
0.0
  0
LINE
  5
8D2
330
18
100
AcDbEntity
  8
NORMALI
100
AcDbLine
 10
-1289.046040610804
 20
133.0000000000018
 30
0.0
 11
-1288.046040610804
 21
132.0000000000018
 31
0.0
  0
LINE
  5
8D3
330
18
100
AcDbEntity
  8
NORMALI
100
AcDbLine
 10
-1308.046040610804
 20
133.0000000000018
 30
0.0
 11
-1289.046040610804
 21
133.0000000000018
 31
0.0
  0
LINE
  5
8D5
330
18
100
AcDbEntity
  8
DISEGNO
100
AcDbLine
 10
-1308.046040610805
 20
134.000000000002
 30
0.0
 11
-1340.046040610805
 21
134.000000000002
 31
0.0
  0
LINE
  5
8D6
330
18
100
AcDbEntity
  8
DISEGNO
100
AcDbLine
 10
-1308.046040610804
 20
134.000000000002
 30
0.0
 11
-1308.046040610804
 21
112.0
 31
0.0
  0
LINE
  5
8D7
330
18
100
AcDbEntity
  8
DISEGNO
100
AcDbLine
 10
-1340.046040610805
 20
134.000000000002
 30
0.0
 11
-1343.046040610805
 21
131.000000000002
 31
0.0
  0
LINE
  5
8D8
330
18
100
AcDbEntity
  8
DISEGNO
100
AcDbLine
 10
-1343.046040610804
 20
131.0000000000027
 30
0.0
 11
-1343.046040610804
 21
50.00000000000138
 31
0.0
  0
LINE
  5
994
330
18
100
AcDbEntity
  8
DISEGNO
100
AcDbLine
 10
-617.9460406108037
 20
-371.6034658691932
 30
0.0
 11
-967.9460406108042
 21
-371.6034658691932
 31
0.0
  0
LINE
  5
995
330
18
100
AcDbEntity
  8
DISEGNO
100
AcDbLine
 10
-617.9460406108037
 20
-381.6034658691934
 30
0.0
 11
-967.9460406108042
 21
-381.6034658691934
 31
0.0
  0
LINE
  5
996
330
18
100
AcDbEntity
  8
TRATTEGGI
 62
     8
100
AcDbLine
 10
-758.8405200338971
 20
-384.6034658691892
 30
0.0
 11
-828.8405200338971
 21
-384.6034658691892
 31
0.0
  0
LINE
  5
997
330
18
100
AcDbEntity
  8
DISEGNO
100
AcDbLine
 10
-727.9460406108041
 20
-390.6034658691934
 30
0.0
 11
-857.9460406108042
 21
-390.6034658691934
 31
0.0
  0
LINE
  5
998
330
18
100
AcDbEntity
  8
DISEGNO
100
AcDbLine
 10
-727.9460406108041
 20
-390.6034658691934
 30
0.0
 11
-727.9460406108041
 21
-381.6034658691934
 31
0.0
  0
LINE
  5
999
330
18
100
AcDbEntity
  8
TRATTEGGI
 62
     8
100
AcDbLine
 10
-758.8405200338971
 20
-384.6034658691892
 30
0.0
 11
-758.8405200338971
 21
-390.2034658691892
 31
0.0
  0
LINE
  5
99A
330
18
100
AcDbEntity
  8
TRATTEGGI
 62
     8
100
AcDbLine
 10
-806.3405200338975
 20
-384.6034658691892
 30
0.0
 11
-806.3405200338973
 21
-336.6034658691932
 31
0.0
  0
LINE
  5
99B
330
18
100
AcDbEntity
  8
TRATTEGGI
 62
     8
100
AcDbLine
 10
-781.340520033897
 20
-384.6034658691892
 30
0.0
 11
-781.3405200338969
 21
-336.6034658691932
 31
0.0
  0
LINE
  5
99C
330
18
100
AcDbEntity
  8
ASSI
100
AcDbLine
 10
-793.840520033897
 20
-273.752277344197
 30
0.0
 11
-793.840520033897
 21
-394.816279368619
 31
0.0
  0
LINE
  5
99D
330
18
100
AcDbEntity
  8
TRATTEGGI
 62
     8
100
AcDbLine
 10
-828.8405200338971
 20
-384.6034658691892
 30
0.0
 11
-828.8405200338974
 21
-390.6034658691934
 31
0.0
  0
LINE
  5
99E
330
18
100
AcDbEntity
  8
DISEGNO
100
AcDbLine
 10
-857.9460406108042
 20
-390.6034658691934
 30
0.0
 11
-857.9460406108042
 21
-381.6034658691934
 31
0.0
  0
LINE
  5
99F
330
18
100
AcDbEntity
  8
DISEGNO
100
AcDbLine
 10
-617.9460406108037
 20
-301.6034658691931
 30
0.0
 11
-967.9460406108042
 21
-301.6034658691931
 31
0.0
  0
LINE
  5
9A0
330
18
100
AcDbEntity
  8
DISEGNO
100
AcDbLine
 10
-617.9460406108037
 20
-291.6034658691929
 30
0.0
 11
-967.9460406108042
 21
-291.6034658691929
 31
0.0
  0
LINE
  5
9A1
330
18
100
AcDbEntity
  8
TRATTEGGI
 62
     8
100
AcDbLine
 10
-758.8405200338971
 20
-288.6034658691928
 30
0.0
 11
-828.8405200338971
 21
-288.6034658691883
 31
0.0
  0
LINE
  5
9A2
330
18
100
AcDbEntity
  8
DISEGNO
100
AcDbLine
 10
-727.9460406108041
 20
-282.6034658691929
 30
0.0
 11
-857.9460406108042
 21
-282.6034658691929
 31
0.0
  0
LINE
  5
9A3
330
18
100
AcDbEntity
  8
DISEGNO
100
AcDbLine
 10
-727.9460406108041
 20
-282.6034658691929
 30
0.0
 11
-727.9460406108041
 21
-291.6034658691929
 31
0.0
  0
LINE
  5
9A4
330
18
100
AcDbEntity
  8
TRATTEGGI
 62
     8
100
AcDbLine
 10
-758.8405200338971
 20
-288.6034658691928
 30
0.0
 11
-758.8405200338971
 21
-282.6034658691929
 31
0.0
  0
LINE
  5
9A5
330
18
100
AcDbEntity
  8
TRATTEGGI
 62
     8
100
AcDbLine
 10
-828.8405200338971
 20
-288.6034658691928
 30
0.0
 11
-828.8405200338971
 21
-282.6034658691929
 31
0.0
  0
LINE
  5
9A6
330
18
100
AcDbEntity
  8
DISEGNO
100
AcDbLine
 10
-857.9460406108042
 20
-282.6034658691929
 30
0.0
 11
-857.9460406108042
 21
-291.6034658691929
 31
0.0
  0
LINE
  5
9A7
330
18
100
AcDbEntity
  8
DISEGNO
  6
DASHED
 62
     8
100
AcDbLine
 10
-1605.110685099607
 20
180.4999999999991
 30
0.0
 11
-1557.003425099606
 21
180.4999999999991
 31
0.0
  0
LINE
  5
9A8
330
18
100
AcDbEntity
  8
DISEGNO
  6
DASHED
 62
     8
100
AcDbLine
 10
-1605.110685099607
 20
205.4999999999995
 30
0.0
 11
-1557.003425099606
 21
205.4999999999995
 31
0.0
  0
LINE
  5
9B1
330
18
100
AcDbEntity
  8
DISEGNO
100
AcDbLine
 10
-1607.003925099606
 20
51.5
 30
0.0
 11
-1607.003925099606
 21
123.5
 31
0.0
  0
LINE
  5
9B2
330
18
100
AcDbEntity
  8
DISEGNO
100
AcDbLine
 10
-1507.002925099605
 20
51.5
 30
0.0
 11
-1507.002925099606
 21
123.4945532865747
 31
0.0
  0
LINE
  5
9BC
330
18
100
AcDbEntity
  8
DISEGNO
100
AcDbLine
 10
-1605.503925099606
 20
50.0
 30
0.0
 11
-1508.502925099605
 21
50.0
 31
0.0
  0
ARC
  5
9C0
330
18
100
AcDbEntity
  8
DISEGNO
100
AcDbCircle
 10
-1605.503925099606
 20
51.5
 30
0.0
 40
1.5
100
AcDbArc
 50
180.0
 51
270.0
  0
ARC
  5
9CF
330
18
100
AcDbEntity
  8
DISEGNO
100
AcDbCircle
 10
-1508.502925099605
 20
51.5
 30
0.0
 40
1.5
100
AcDbArc
 50
270.0
 51
0.0
  0
LINE
  5
9D0
330
18
100
AcDbEntity
  8
DISEGNO
100
AcDbLine
 10
-1605.503925099606
 20
125.0
 30
0.0
 11
-1508.502925380375
 21
124.9945532865747
 31
0.0
  0
ARC
  5
9DD
330
18
100
AcDbEntity
  8
DISEGNO
100
AcDbCircle
 10
-1605.503925099606
 20
123.5
 30
0.0
 40
1.5
100
AcDbArc
 50
90.0
 51
180.0
  0
LINE
  5
9DE
330
18
100
AcDbEntity
  8
DISEGNO
100
AcDbLine
 10
-1607.003925099606
 20
120.505446713425
 30
0.0
 11
-1607.003925099606
 21
121.9999999999997
 31
0.0
  0
LINE
  5
9DF
330
18
100
AcDbEntity
  8
ASSI
100
AcDbLine
 10
-1585.253425099606
 20
96.82456054975979
 30
0.0
 11
-1585.253425099606
 21
113.1750143911651
 31
0.0
  0
LINE
  5
9E0
330
18
100
AcDbEntity
  8
ASSI
100
AcDbLine
 10
-1528.753425099606
 20
112.7597518853124
 30
0.0
 11
-1528.753425099606
 21
97.23982305553159
 31
0.0
  0
CIRCLE
  5
9E1
330
18
100
AcDbEntity
  8
NORMALI
100
AcDbCircle
 10
-1585.253425099606
 20
104.9997874704625
 30
0.0
 40
5.0
1001
COMAU_ACADLIB
1000
00302052
1000
Vite T.C.E.I. UNI 5931 - M6x20 - 8.8
  0
CIRCLE
  5
9ED
330
18
100
AcDbEntity
  8
NORMALI
100
AcDbCircle
 10
-1528.805013035645
 20
104.999787470422
 30
0.0
 40
5.0
1001
COMAU_ACADLIB
1000
00302052
1000
Vite T.C.E.I. UNI 5931 - M6x20 - 8.8
  0
LINE
  5
A05
330
18
100
AcDbEntity
  8
ASSI
100
AcDbLine
 10
-1520.993460684716
 20
104.999787470422
 30
0.0
 11
-1536.513389514497
 21
104.999787470422
 31
0.0
  0
LINE
  5
A06
330
18
100
AcDbEntity
  8
ASSI
100
AcDbLine
 10
-1593.428652020308
 20
104.9997874704625
 30
0.0
 11
-1577.078198178903
 21
104.9997874704625
 31
0.0
  0
ARC
  5
A07
330
18
100
AcDbEntity
  8
DISEGNO
100
AcDbCircle
 10
-1508.502925099605
 20
123.4945532865747
 30
0.0
 40
1.5
100
AcDbArc
 50
0.0
 51
90.00001072460001
  0
LINE
  5
A7E
330
18
100
AcDbEntity
  8
TRATTEGGI
100
AcDbLine
 10
-1557.003425099606
 20
208.9999999999993
 30
0.0
 11
-1509.110685099607
 21
208.9999999999993
 31
0.0
  0
LINE
  5
A7F
330
18
100
AcDbEntity
  8
TRATTEGGI
100
AcDbLine
 10
-1557.003425099606
 20
176.9999999999993
 30
0.0
 11
-1509.110685099607
 21
176.9999999999993
 31
0.0
  0
LINE
  5
A80
330
18
100
AcDbEntity
  8
TRATTEGGI
 62
     8
100
AcDbLine
 10
-777.840520033897
 20
-288.6034658691916
 30
0.0
 11
-777.840520033897
 21
-336.6034658691931
 31
0.0
  0
LINE
  5
A81
330
18
100
AcDbEntity
  8
TRATTEGGI
 62
     8
100
AcDbLine
 10
-809.8405200338971
 20
-288.6034658691895
 30
0.0
 11
-809.8405200338969
 21
-336.6034658691931
 31
0.0
  0
LINE
  5
AA9
330
18
100
AcDbEntity
  8
DISEGNO
100
AcDbLine
 10
-1243.046040610804
 20
111.9999999999993
 30
0.0
 11
-1243.046040610804
 21
100.0000000000002
 31
0.0
  0
LINE
  5
AAA
330
18
100
AcDbEntity
  8
NORMALI
100
AcDbLine
 10
-1288.024784592546
 20
-271.1034658691928
 30
0.0
 11
-1177.946040610804
 21
-271.1034658691941
 31
0.0
  0
LINE
  5
AAB
330
18
100
AcDbEntity
  8
NORMALI
100
AcDbLine
 10
-1288.024784592546
 20
-271.1034658691928
 30
0.0
 11
-1288.024784592546
 21
-286.6034658691928
 31
0.0
  0
LINE
  5
AAC
330
18
100
AcDbEntity
  8
NORMALI
100
AcDbLine
 10
-1288.024784592546
 20
-402.1034658691927
 30
0.0
 11
-1177.946040610804
 21
-402.1034658691931
 31
0.0
  0
LINE
  5
AAD
330
18
100
AcDbEntity
  8
NORMALI
100
AcDbLine
 10
-1288.024784592546
 20
-402.1034658691927
 30
0.0
 11
-1288.024784592546
 21
-386.6034658691928
 31
0.0
  0
LINE
  5
AAE
330
18
100
AcDbEntity
  8
NORMALI
100
AcDbLine
 10
-1194.69603431431
 20
85.00000000000023
 30
0.0
 11
-1287.686475093338
 21
85.00000000000023
 31
0.0
  0
LINE
  5
AAF
330
18
100
AcDbEntity
  8
NORMALI
100
AcDbLine
 10
-1204.69603431431
 20
65.00000000000023
 30
0.0
 11
-1287.686475093338
 21
65.00000000000023
 31
0.0
  0
LINE
  5
AB0
330
18
100
AcDbEntity
  8
NORMALI
100
AcDbLine
 10
-1177.946040610802
 20
85.00000000000023
 30
0.0
 11
-1194.69603431431
 21
85.00000000000023
 31
0.0
  0
LINE
  5
AB1
330
18
100
AcDbEntity
  8
NORMALI
100
AcDbLine
 10
-1177.946040610802
 20
65.00000000000023
 30
0.0
 11
-1204.69603431431
 21
65.00000000000023
 31
0.0
  0
LINE
  5
AB2
330
18
100
AcDbEntity
  8
NORMALI
100
AcDbLine
 10
-1287.686475093338
 20
85.00000000000023
 30
0.0
 11
-1287.686475093339
 21
65.00000000000023
 31
0.0
  0
LINE
  5
1CE1
330
18
100
AcDbEntity
  8
DISEGNO
100
AcDbLine
 10
-85.29738796456285
 20
140.9999999999993
 30
0.0
 11
-85.29738796456285
 21
248.9999999999993
 31
0.0
  0
LINE
  5
1CE2
330
18
100
AcDbEntity
  8
DISEGNO
100
AcDbLine
 10
-104.0973879645612
 20
137.0001110725627
 30
0.0
 11
-104.0973879645635
 21
248.9999999999995
 31
0.0
  0
ARC
  5
1CE3
330
18
100
AcDbEntity
  8
DISEGNO
100
AcDbCircle
 10
-79.09738796455804
 20
153.9999999999998
 30
0.0
 40
15.00000000000006
100
AcDbArc
 50
180.0000000000117
 51
269.9999999999891
  0
LINE
  5
1CE4
330
18
100
AcDbEntity
  8
DISEGNO
100
AcDbLine
 10
-193.2973879645592
 20
140.9999999999993
 30
0.0
 11
-193.2973879645592
 21
248.9999999999993
 31
0.0
  0
LINE
  5
1CE5
330
18
100
AcDbEntity
  8
DISEGNO
100
AcDbLine
 10
-174.4973879645613
 20
137.0000000000006
 30
0.0
 11
-174.4973879645586
 21
248.9999999999993
 31
0.0
  0
ARC
  5
1CE6
330
18
100
AcDbEntity
  8
DISEGNO
100
AcDbCircle
 10
-199.4973879645613
 20
153.9999999999998
 30
0.0
 40
15.00000000000001
100
AcDbArc
 50
269.9999999999995
 51
359.9999999999791
  0
LINE
  5
1CF6
330
18
100
AcDbEntity
  8
DISEGNO
100
AcDbLine
 10
-62.89838796456115
 20
138.9999999999997
 30
0.0
 11
-46.09738796456077
 21
138.9999999999997
 31
0.0
  0
LINE
  5
1CF7
330
18
100
AcDbEntity
  8
DISEGNO
100
AcDbLine
 10
-89.18912796456153
 20
128.9999999999993
 30
0.0
 11
-9.19012796456127
 21
128.9999571293037
 31
0.0
  0
LINE
  5
1CF8
330
18
100
AcDbEntity
  8
DISEGNO
  6
Continuous
100
AcDbLine
 10
-89.18962796456117
 20
114.9996065729713
 30
0.0
 11
-9.19012796456127
 21
114.9999571293033
 31
0.0
  0
LINE
  5
1CF9
330
18
100
AcDbEntity
  8
DISEGNO
100
AcDbLine
 10
-54.49738796456131
 20
129.4999999999993
 30
0.0
 11
-89.18912796456197
 21
129.4999999999993
 31
0.0
  0
LINE
  5
1CFA
330
18
100
AcDbEntity
  8
DISEGNO
100
AcDbLine
 10
-51.18912796456107
 20
50.99974022121694
 30
0.0
 11
-87.18982796456158
 21
50.99974022121694
 31
0.0
  0
LINE
  5
1CFB
330
18
100
AcDbEntity
  8
DISEGNO
100
AcDbLine
 10
-70.09032796456131
 20
50.99974022121694
 30
0.0
 11
-51.18912796456107
 21
50.99974022121694
 31
0.0
  0
LINE
  5
1CFC
330
18
100
AcDbEntity
  8
DISEGNO
100
AcDbLine
 10
-51.18912796456107
 20
50.99974022121694
 30
0.0
 11
-51.18912796456107
 21
114.9997402212168
 31
0.0
  0
LINE
  5
1CFD
330
18
100
AcDbEntity
  8
DISEGNO
100
AcDbLine
 10
-9.19012796456127
 20
128.9999571293037
 30
0.0
 11
-9.19012796456127
 21
114.9999571293033
 31
0.0
  0
ARC
  5
1CFE
330
18
100
AcDbEntity
  8
DISEGNO
100
AcDbCircle
 10
-46.09738796456077
 20
136.9999999999997
 30
0.0
 40
2.0
100
AcDbArc
 50
0.000000000000007
 51
90.0
  0
LINE
  5
1CFF
330
18
100
AcDbEntity
  8
DISEGNO
100
AcDbLine
 10
-44.09738796456077
 20
136.9999999999997
 30
0.0
 11
-44.09738796456077
 21
128.9999999999998
 31
0.0
  0
ARC
  5
1D00
330
18
100
AcDbEntity
  8
DISEGNO
100
AcDbCircle
 10
-54.49738796456268
 20
129.0999999999978
 30
0.0
 40
0.4000000000017394
100
AcDbArc
 50
0.0000000002605581
 51
89.99999999976386
  0
LINE
  5
1D07
330
18
100
AcDbEntity
  8
DISEGNO
100
AcDbLine
 10
-189.1902180825459
 20
137.0000000000011
 30
0.0
 11
-89.18912796456197
 21
137.0000000000011
 31
0.0
  0
LINE
  5
1D08
330
18
100
AcDbEntity
  8
DISEGNO
100
AcDbLine
 10
-90.68962796456117
 20
125.0
 30
0.0
 11
-187.6906276837921
 21
124.9945532865747
 31
0.0
  0
LINE
  5
1D0B
330
18
100
AcDbEntity
  8
NORMALI
100
AcDbLine
 10
-73.68982796456157
 20
84.99974022121694
 30
0.0
 11
-73.68982796456157
 21
64.99974022121694
 31
0.0
  0
LINE
  5
1D0C
330
18
100
AcDbEntity
  8
NORMALI
100
AcDbLine
 10
-73.68982796456157
 20
64.99974022121694
 30
0.0
 11
-88.00982796456128
 21
64.99974022121694
 31
0.0
  0
LINE
  5
1D0D
330
18
100
AcDbEntity
  8
NORMALI
100
AcDbLine
 10
-89.18982796456157
 20
66.17974022121723
 30
0.0
 11
-88.00982796456128
 21
64.99974022121694
 31
0.0
  0
LINE
  5
1D0E
330
18
100
AcDbEntity
  8
NORMALI
100
AcDbLine
 10
-73.68982796456157
 20
84.99974022121694
 30
0.0
 11
-88.00982796456128
 21
84.99974022121694
 31
0.0
  0
LINE
  5
1D0F
330
18
100
AcDbEntity
  8
NORMALI
100
AcDbLine
 10
-89.18982796456157
 20
83.81974022121756
 30
0.0
 11
-88.00982796456128
 21
84.99974022121694
 31
0.0
  0
LINE
  5
1D10
330
18
100
AcDbEntity
  8
DISEGNO
100
AcDbLine
 10
-89.18912796456197
 20
137.0000000000011
 30
0.0
 11
-89.18912796456153
 21
114.9999999999991
 31
0.0
  0
ARC
  5
1D11
330
18
100
AcDbEntity
  8
DISEGNO
100
AcDbCircle
 10
-90.68962796456117
 20
123.5
 30
0.0
 40
1.5
100
AcDbArc
 50
0.000000000000007
 51
90.0
  0
LINE
  5
1D12
330
18
100
AcDbEntity
  8
ASSI
100
AcDbLine
 10
-58.69012796456127
 20
150.1083808625337
 30
0.0
 11
-58.69012796456036
 21
112.7969586326942
 31
0.0
  0
LINE
  5
1D13
330
18
100
AcDbEntity
  8
DISEGNO
100
AcDbLine
 10
-89.18962796456117
 20
120.505446713425
 30
0.0
 11
-89.18962796456117
 21
121.9999999999997
 31
0.0
  0
LINE
  5
1D21
330
18
100
AcDbEntity
  8
DISEGNO
100
AcDbLine
 10
-79.09738796456077
 20
138.9999999999997
 30
0.0
 11
-65.29638796456129
 21
138.9999999999997
 31
0.0
  0
LINE
  5
1D23
330
18
100
AcDbEntity
  8
DISEGNO
100
AcDbLine
 10
-62.88386796456143
 20
138.7999999999995
 30
0.0
 11
-62.68386796456161
 21
138.9999999999997
 31
0.0
  0
LINE
  5
1D24
330
18
100
AcDbEntity
  8
DISEGNO
100
AcDbLine
 10
-64.88186796456147
 20
138.7999999999995
 30
0.0
 11
-62.88386796456143
 21
138.7999999999995
 31
0.0
  0
LINE
  5
1D25
330
18
100
AcDbEntity
  8
DISEGNO
100
AcDbLine
 10
-65.08186796456175
 20
138.9999999999997
 30
0.0
 11
-64.88186796456147
 21
138.7999999999995
 31
0.0
  0
LINE
  5
1D26
330
18
100
AcDbEntity
  8
DISEGNO
100
AcDbLine
 10
-85.29738796456285
 20
140.9999999999993
 30
0.0
 11
-86.58070273810471
 21
140.9999999999991
 31
0.0
  0
LINE
  5
1D34
330
18
100
AcDbEntity
  8
DISEGNO
100
AcDbLine
 10
-227.1911279645615
 20
50.99974022121694
 30
0.0
 11
-227.1911279645615
 21
114.9997402212168
 31
0.0
  0
LINE
  5
1D37
330
18
100
AcDbEntity
  8
DISEGNO
100
AcDbLine
 10
-208.2899279645612
 20
50.99974022121694
 30
0.0
 11
-227.1911279645615
 21
50.99974022121694
 31
0.0
  0
LINE
  5
1D38
330
18
100
AcDbEntity
  8
DISEGNO
100
AcDbLine
 10
-208.2906279645617
 20
50.99974022121694
 30
0.0
 11
-227.1911279645615
 21
50.99974022121694
 31
0.0
  0
LINE
  5
1D39
330
18
100
AcDbEntity
  8
DISEGNO
100
AcDbLine
 10
-227.1911279645615
 20
50.99974022121694
 30
0.0
 11
-191.1904279645609
 21
50.99974022121694
 31
0.0
  0
LINE
  5
1D3A
330
18
100
AcDbEntity
  8
NORMALI
100
AcDbLine
 10
-204.690427964561
 20
84.99974022121694
 30
0.0
 11
-204.690427964561
 21
64.99974022121694
 31
0.0
  0
LINE
  5
1D3B
330
18
100
AcDbEntity
  8
NORMALI
100
AcDbLine
 10
-204.8130057611392
 20
64.99974022121694
 30
0.0
 11
-190.3704279645612
 21
64.99974022121694
 31
0.0
  0
LINE
  5
1D3C
330
18
100
AcDbEntity
  8
NORMALI
100
AcDbLine
 10
-189.190427964561
 20
66.17974022121723
 30
0.0
 11
-190.3704279645612
 21
64.99974022121694
 31
0.0
  0
LINE
  5
1D3D
330
18
100
AcDbEntity
  8
NORMALI
100
AcDbLine
 10
-204.690427964561
 20
84.99974022121694
 30
0.0
 11
-190.3704279645612
 21
84.99974022121694
 31
0.0
  0
LINE
  5
1D3E
330
18
100
AcDbEntity
  8
NORMALI
100
AcDbLine
 10
-189.190427964561
 20
83.81974022121756
 30
0.0
 11
-190.3704279645612
 21
84.99974022121694
 31
0.0
  0
LINE
  5
1D3F
330
18
100
AcDbEntity
  8
DISEGNO
100
AcDbLine
 10
-269.1901279645612
 20
128.9999999999993
 30
0.0
 11
-189.1901279645612
 21
128.9999999999993
 31
0.0
  0
LINE
  5
1D40
330
18
100
AcDbEntity
  8
DISEGNO
  6
Continuous
100
AcDbLine
 10
-269.1901279645612
 20
114.9999999999993
 30
0.0
 11
-189.1902180825455
 21
114.9999999999988
 31
0.0
  0
LINE
  5
1D41
330
18
100
AcDbEntity
  8
ASSI
100
AcDbLine
 10
-219.6901279645613
 20
112.7969586326942
 30
0.0
 11
-219.6901279645613
 21
150.5117695366095
 31
0.0
  0
LINE
  5
1D42
330
18
100
AcDbEntity
  8
DISEGNO
100
AcDbLine
 10
-189.1902180825459
 20
137.0000000000011
 30
0.0
 11
-189.1902180825455
 21
114.9999999999988
 31
0.0
  0
ARC
  5
1D43
330
18
100
AcDbEntity
  8
DISEGNO
100
AcDbCircle
 10
-187.6906279645614
 20
123.4945532865747
 30
0.0
 40
1.5
100
AcDbArc
 50
89.9999892754
 51
180.0
  0
LINE
  5
1D44
330
18
100
AcDbEntity
  8
DISEGNO
100
AcDbLine
 10
-213.4983879645611
 20
138.7999999999995
 30
0.0
 11
-215.4963879645611
 21
138.7999999999995
 31
0.0
  0
LINE
  5
1D54
330
18
100
AcDbEntity
  8
DISEGNO
100
AcDbLine
 10
-224.0973879645608
 20
129.4999999999993
 30
0.0
 11
-189.1901279645612
 21
129.4999999999993
 31
0.0
  0
LINE
  5
1D55
330
18
100
AcDbEntity
  8
DISEGNO
100
AcDbLine
 10
-199.4973879645613
 20
138.9999999999997
 30
0.0
 11
-213.2983879645608
 21
138.9999999999997
 31
0.0
  0
LINE
  5
1D56
330
18
100
AcDbEntity
  8
DISEGNO
100
AcDbLine
 10
-193.2973879645592
 20
140.9999999999993
 30
0.0
 11
-192.0140731910142
 21
140.9999999999991
 31
0.0
  0
LINE
  5
1D57
330
18
100
AcDbEntity
  8
DISEGNO
100
AcDbLine
 10
-213.2983879645608
 20
138.9999999999997
 30
0.0
 11
-213.4983879645611
 21
138.7999999999995
 31
0.0
  0
ARC
  5
1D58
330
18
100
AcDbEntity
  8
DISEGNO
100
AcDbCircle
 10
-232.4973879645613
 20
136.9999999999997
 30
0.0
 40
2.0
100
AcDbArc
 50
90.0
 51
180.0
  0
ARC
  5
1D59
330
18
100
AcDbEntity
  8
DISEGNO
100
AcDbCircle
 10
-224.0973879645594
 20
129.0999999999978
 30
0.0
 40
0.4000000000017394
100
AcDbArc
 50
90.00000000023614
 51
179.9999999997394
  0
LINE
  5
1D5A
330
18
100
AcDbEntity
  8
DISEGNO
100
AcDbLine
 10
-234.4973879645613
 20
136.9999999999997
 30
0.0
 11
-234.4973879645613
 21
128.9999999999998
 31
0.0
  0
LINE
  5
1D5B
330
18
100
AcDbEntity
  8
DISEGNO
100
AcDbLine
 10
-215.6963879645609
 20
138.9999999999997
 30
0.0
 11
-232.4973879645613
 21
138.9999999999997
 31
0.0
  0
LINE
  5
1D5E
330
18
100
AcDbEntity
  8
DISEGNO
100
AcDbLine
 10
-215.4963879645611
 20
138.7999999999995
 30
0.0
 11
-215.6963879645609
 21
138.9999999999997
 31
0.0
  0
LINE
  5
1D5F
330
18
100
AcDbEntity
  8
DISEGNO
100
AcDbLine
 10
-269.1901279645612
 20
128.9999999999993
 30
0.0
 11
-269.1901279645612
 21
114.9999999999993
 31
0.0
  0
ARC
  5
1D60
330
18
100
AcDbEntity
  8
DISEGNO
100
AcDbCircle
 10
-182.4973879645613
 20
246.9999999999998
 30
0.0
 40
2.0
100
AcDbArc
 50
90.0
 51
180.0
  0
LINE
  5
1D61
330
18
100
AcDbEntity
  8
DISEGNO
  6
DASHED
 62
     8
100
AcDbLine
 10
-91.08286796456013
 20
205.4999999999995
 30
0.0
 11
-139.1901279645612
 21
205.4999999999995
 31
0.0
  0
LINE
  5
1D62
330
18
100
AcDbEntity
  8
DISEGNO
  6
DASHED
 62
     8
100
AcDbLine
 10
-91.08286796456013
 20
180.4999999999991
 30
0.0
 11
-139.1901279645612
 21
180.4999999999991
 31
0.0
  0
LINE
  5
1D63
330
18
100
AcDbEntity
  8
ASSI
100
AcDbLine
 10
-197.4029414639867
 20
192.9999999999993
 30
0.0
 11
-80.97731446513535
 21
192.9999999999993
 31
0.0
  0
LINE
  5
1D64
330
18
100
AcDbEntity
  8
DISEGNO
100
AcDbLine
 10
-193.2973879645597
 20
248.9999999999993
 30
0.0
 11
-85.29738796456285
 21
248.9999999999998
 31
0.0
  0
LINE
  5
1D65
330
18
100
AcDbEntity
  8
DISEGNO
100
AcDbLine
 10
-94.09738796456077
 20
248.9999999999998
 30
0.0
 11
-94.09738796456077
 21
153.9999999999966
 31
0.0
  0
LINE
  5
1D66
330
18
100
AcDbEntity
  8
DISEGNO
  6
DASHED
 62
     8
100
AcDbLine
 10
-91.29738796456285
 20
227.9999999999993
 30
0.0
 11
-91.29738796456285
 21
157.9999999999993
 31
0.0
  0
LINE
  5
1D67
330
18
100
AcDbEntity
  8
TRATTEGGI
100
AcDbLine
 10
-139.1901279645612
 20
208.9999999999993
 30
0.0
 11
-187.0828679645597
 21
208.9999999999993
 31
0.0
  0
LINE
  5
1D68
330
18
100
AcDbEntity
  8
TRATTEGGI
100
AcDbLine
 10
-139.1901279645612
 20
176.9999999999993
 30
0.0
 11
-187.0828679645597
 21
176.9999999999993
 31
0.0
  0
LINE
  5
1D69
330
18
100
AcDbEntity
  8
DISEGNO
  6
DASHED
 62
     8
100
AcDbLine
 10
-91.29738796456285
 20
157.9999999999993
 30
0.0
 11
-85.29738796456285
 21
157.9999999999993
 31
0.0
  0
LINE
  5
1D6A
330
18
100
AcDbEntity
  8
DISEGNO
  6
DASHED
 62
     8
100
AcDbLine
 10
-91.29738796456285
 20
227.9999999999993
 30
0.0
 11
-85.29738796456285
 21
227.9999999999993
 31
0.0
  0
ARC
  5
1D6B
330
18
100
AcDbEntity
  8
DISEGNO
100
AcDbCircle
 10
-96.09738796456078
 20
246.9999999999998
 30
0.0
 40
2.0
100
AcDbArc
 50
0.000000000000007
 51
90.0
  0
LINE
  5
1D6C
330
18
100
AcDbEntity
  8
DISEGNO
100
AcDbLine
 10
-174.297387964561
 20
248.9999999999998
 30
0.0
 11
-182.4973879645613
 21
248.9999999999998
 31
0.0
  0
LINE
  5
1D6D
330
18
100
AcDbEntity
  8
DISEGNO
100
AcDbLine
 10
-184.4973879645586
 20
248.9999999999998
 30
0.0
 11
-184.4973879645931
 21
153.9999999999943
 31
0.0
  0
LINE
  5
1D6E
330
18
100
AcDbEntity
  8
DISEGNO
  6
DASHED
 62
     8
100
AcDbLine
 10
-187.2973879645592
 20
227.9999999999993
 30
0.0
 11
-187.2973879645637
 21
157.9999999999993
 31
0.0
  0
LINE
  5
1D6F
330
18
100
AcDbEntity
  8
DISEGNO
  6
DASHED
 62
     8
100
AcDbLine
 10
-187.2973879645592
 20
157.9999999999993
 30
0.0
 11
-193.2973879645592
 21
157.9999999999993
 31
0.0
  0
LINE
  5
1D70
330
18
100
AcDbEntity
  8
DISEGNO
  6
DASHED
 62
     8
100
AcDbLine
 10
-187.2973879645592
 20
227.9999999999993
 30
0.0
 11
-193.2973879645592
 21
227.9999999999993
 31
0.0
  0
LINE
  5
1D71
330
18
100
AcDbEntity
  8
DISEGNO
100
AcDbLine
 10
-227.1911279645614
 20
50.99974022121705
 30
0.0
 11
-227.1911279645615
 21
114.9997402212168
 31
0.0
  0
LINE
  5
1D72
330
18
100
AcDbEntity
  8
DISEGNO
100
AcDbLine
 10
-217.1911279645615
 20
53.99974022121682
 30
0.0
 11
-217.1911279645624
 21
95.9997402212166
 31
0.0
  0
LINE
  5
1D73
330
18
100
AcDbEntity
  8
DISEGNO
100
AcDbLine
 10
-217.1911279645615
 20
80.29874022121679
 30
0.0
 11
-217.1911279645615
 21
94.49974022121683
 31
0.0
  0
LINE
  5
1D74
330
18
100
AcDbEntity
  8
DISEGNO
100
AcDbLine
 10
-217.1911279645615
 20
69.6997402212171
 30
0.0
 11
-217.1911279645615
 21
55.49974022121682
 31
0.0
  0
LINE
  5
1D75
330
18
100
AcDbEntity
  8
DISEGNO
100
AcDbLine
 10
-227.1911279645615
 20
53.99974022121682
 30
0.0
 11
-208.9911279645617
 21
53.99974022121682
 31
0.0
  0
LINE
  5
1D76
330
18
100
AcDbEntity
  8
DISEGNO
100
AcDbLine
 10
-217.1911279645615
 20
55.49974022121682
 30
0.0
 11
-215.6911279645615
 21
53.99974022121682
 31
0.0
  0
LINE
  5
1D77
330
18
100
AcDbEntity
  8
DISEGNO
100
AcDbLine
 10
-212.1911279645615
 20
95.99974022121704
 30
0.0
 11
-212.1911279645615
 21
114.9997402212168
 31
0.0
  0
LINE
  5
1D78
330
18
100
AcDbEntity
  8
DISEGNO
100
AcDbLine
 10
-217.1911279645615
 20
94.49974022121683
 30
0.0
 11
-215.6911279645615
 21
95.99974022121683
 31
0.0
  0
LINE
  5
1D79
330
18
100
AcDbEntity
  8
DISEGNO
100
AcDbLine
 10
-217.1911279645605
 20
95.99974022121683
 30
0.0
 11
-209.1901279645613
 21
95.99974022121683
 31
0.0
  0
LINE
  5
1D7A
330
18
100
AcDbEntity
  8
DISEGNO
100
AcDbLine
 10
-215.6911279645615
 20
95.99974022121683
 30
0.0
 11
-208.9911279645617
 21
95.99974022121683
 31
0.0
  0
LINE
  5
1EBD
330
18
100
AcDbEntity
  8
DISEGNO
100
AcDbLine
 10
-189.1911279645615
 20
112.9997402212168
 30
0.0
 11
-89.19012796456128
 21
112.9997402212168
 31
0.0
  0
LINE
  5
1EBF
330
18
100
AcDbEntity
  8
DISEGNO
100
AcDbLine
 10
-172.9401279645612
 20
110.1997402212169
 30
0.0
 11
-105.4401279645613
 21
110.1997402212164
 31
0.0
  0
LINE
  5
1EC3
330
18
100
AcDbEntity
  8
DISEGNO
100
AcDbLine
 10
-195.1911279645615
 20
93.99974022121682
 30
0.0
 11
-195.1911279645615
 21
85.1407402212169
 31
0.0
  0
LINE
  5
1EC7
330
18
100
AcDbEntity
  8
DISEGNO
100
AcDbLine
 10
-195.1911279645615
 20
55.99974022121682
 30
0.0
 11
-195.1911279645615
 21
64.857740221217
 31
0.0
  0
LINE
  5
1EC9
330
18
100
AcDbEntity
  8
DISEGNO
100
AcDbLine
 10
-227.1911279645615
 20
50.99974022121705
 30
0.0
 11
-191.1911279645615
 21
50.99974022121682
 31
0.0
  0
LINE
  5
1ECA
330
18
100
AcDbEntity
  8
DISEGNO
100
AcDbLine
 10
-208.9911279645617
 20
53.99974022121682
 30
0.0
 11
-191.1911279645615
 21
53.99974022121682
 31
0.0
  0
LINE
  5
1EDD
330
18
100
AcDbEntity
  8
DISEGNO
100
AcDbLine
 10
-191.1911279645615
 20
53.99974022121682
 30
0.0
 11
-191.1911279645615
 21
50.99974022121682
 31
0.0
  0
ARC
  5
1EDE
330
18
100
AcDbEntity
  8
DISEGNO
100
AcDbCircle
 10
-197.1911279645615
 20
55.99974022121682
 30
0.0
 40
2.0
100
AcDbArc
 50
270.0
 51
0.0
  0
LINE
  5
1EEB
330
18
100
AcDbEntity
  8
DISEGNO
100
AcDbLine
 10
-204.6911279645615
 20
84.99974022121682
 30
0.0
 11
-190.3711279645617
 21
84.99974022121682
 31
0.0
  0
LINE
  5
1EEC
330
18
100
AcDbEntity
  8
DISEGNO
100
AcDbLine
 10
-204.6911279645615
 20
64.99974022121683
 30
0.0
 11
-190.3711279645617
 21
64.99974022121683
 31
0.0
  0
LINE
  5
1EED
330
18
100
AcDbEntity
  8
DISEGNO
100
AcDbLine
 10
-204.6911279645615
 20
84.99974022121682
 30
0.0
 11
-204.6911279645615
 21
64.99974022121683
 31
0.0
  0
LINE
  5
1EF2
330
18
100
AcDbEntity
  8
NORMALI
100
AcDbLine
 10
-185.1001279645611
 20
71.98953424704928
 30
0.0
 11
-189.1911279645615
 21
71.98953424704933
 31
0.0
  0
LINE
  5
1EF3
330
18
100
AcDbEntity
  8
NORMALI
100
AcDbLine
 10
-185.1001279645611
 20
72.48953424704928
 30
0.0
 11
-189.1911279645615
 21
72.48953424704933
 31
0.0
  0
LINE
  5
1EF4
330
18
100
AcDbEntity
  8
NORMALI
100
AcDbLine
 10
-185.1001279645611
 20
78.00994619538442
 30
0.0
 11
-189.1911279645615
 21
78.00994619538432
 31
0.0
  0
LINE
  5
1EF5
330
18
100
AcDbEntity
  8
NORMALI
100
AcDbLine
 10
-185.1001279645611
 20
77.50994619538437
 30
0.0
 11
-189.1911279645615
 21
77.50994619538443
 31
0.0
  0
LINE
  5
1EF6
330
18
100
AcDbEntity
  8
DISEGNO
100
AcDbLine
 10
-185.1906279645614
 20
70.99974022121682
 30
0.0
 11
-187.1001279645611
 21
70.99974022121705
 31
0.0
  0
LINE
  5
1EF8
330
18
100
AcDbEntity
  8
DISEGNO
100
AcDbLine
 10
-189.1911279645615
 20
66.17974022121711
 30
0.0
 11
-189.1911279645615
 21
71.89974022121692
 31
0.0
  0
LINE
  5
1EF9
330
18
100
AcDbEntity
  8
DISEGNO
100
AcDbLine
 10
-189.1911279645615
 20
66.17974022121711
 30
0.0
 11
-190.3711279645617
 21
64.99974022121683
 31
0.0
  0
LINE
  5
1EFA
330
18
100
AcDbEntity
  8
DISEGNO
100
AcDbLine
 10
-187.1001279645611
 20
69.90874022121693
 30
0.0
 11
-187.1001279645611
 21
70.99974022121682
 31
0.0
  0
LINE
  5
1EFB
330
18
100
AcDbEntity
  8
DISEGNO
100
AcDbLine
 10
-188.1001279645611
 20
69.90874022121693
 30
0.0
 11
-188.1001279645611
 21
70.99974022121682
 31
0.0
  0
LINE
  5
1EFC
330
18
100
AcDbEntity
  8
DISEGNO
100
AcDbLine
 10
-187.1001279645611
 20
69.90874022121693
 30
0.0
 11
-188.1001279645611
 21
69.90874022121693
 31
0.0
  0
LINE
  5
1EFD
330
18
100
AcDbEntity
  8
DISEGNO
100
AcDbLine
 10
-188.1001279645611
 20
70.99974022121705
 30
0.0
 11
-189.1911279645615
 21
70.99974022121682
 31
0.0
  0
LINE
  5
1F17
330
18
100
AcDbEntity
  8
DISEGNO
100
AcDbLine
 10
-185.1906279645614
 20
78.99974022121682
 30
0.0
 11
-187.1001279645611
 21
78.99974022121682
 31
0.0
  0
LINE
  5
1F18
330
18
100
AcDbEntity
  8
DISEGNO
100
AcDbLine
 10
-187.1001279645611
 20
80.09074022121717
 30
0.0
 11
-187.1001279645611
 21
78.99974022121682
 31
0.0
  0
LINE
  5
1F19
330
18
100
AcDbEntity
  8
DISEGNO
100
AcDbLine
 10
-189.1911279645615
 20
83.81974022121699
 30
0.0
 11
-190.3711279645617
 21
84.99974022121682
 31
0.0
  0
LINE
  5
1F1A
330
18
100
AcDbEntity
  8
DISEGNO
100
AcDbLine
 10
-188.1001279645611
 20
80.09074022121717
 30
0.0
 11
-188.1001279645611
 21
78.99974022121682
 31
0.0
  0
LINE
  5
1F1B
330
18
100
AcDbEntity
  8
DISEGNO
100
AcDbLine
 10
-189.1911279645615
 20
83.81974022121699
 30
0.0
 11
-189.1911279645615
 21
70.99974022121682
 31
0.0
  0
LINE
  5
1F1C
330
18
100
AcDbEntity
  8
DISEGNO
100
AcDbLine
 10
-187.1001279645611
 20
80.09074022121717
 30
0.0
 11
-188.1001279645611
 21
80.09074022121717
 31
0.0
  0
LINE
  5
1F1D
330
18
100
AcDbEntity
  8
DISEGNO
100
AcDbLine
 10
-188.1001279645611
 20
78.99974022121682
 30
0.0
 11
-189.1911279645615
 21
78.99974022121682
 31
0.0
  0
LINE
  5
1F31
330
18
100
AcDbEntity
  8
DISEGNO
100
AcDbLine
 10
-208.9911279645617
 20
95.99974022121683
 30
0.0
 11
-197.1911279645615
 21
95.99974022121683
 31
0.0
  0
LINE
  5
1F32
330
18
100
AcDbEntity
  8
DISEGNO
100
AcDbLine
 10
-189.1911279645615
 20
99.99974022121683
 30
0.0
 11
-189.1911279645615
 21
112.999740221217
 31
0.0
  0
LINE
  5
1F33
330
18
100
AcDbEntity
  8
DISEGNO
100
AcDbLine
 10
-172.9401279645612
 20
110.1997402212166
 30
0.0
 11
-172.9401279645612
 21
104.4997402212161
 31
0.0
  0
LINE
  5
1F34
330
18
100
AcDbEntity
  8
DISEGNO
100
AcDbLine
 10
-189.1911279645615
 20
99.99974022121683
 30
0.0
 11
-89.19012796456128
 21
99.99974022121683
 31
0.0
  0
ARC
  5
1F37
330
18
100
AcDbEntity
  8
DISEGNO
100
AcDbCircle
 10
-197.1911279645615
 20
93.99974022121682
 30
0.0
 40
2.0
100
AcDbArc
 50
0.0
 51
90.0
  0
LINE
  5
1F38
330
18
100
AcDbEntity
  8
DISEGNO
100
AcDbLine
 10
-175.1901279645613
 20
104.4997402212161
 30
0.0
 11
-175.1901279645613
 21
99.99974022121683
 31
0.0
  0
ARC
  5
1F3E
330
18
100
AcDbEntity
  8
DISEGNO
100
AcDbCircle
 10
-183.9401279645612
 20
103.9997402212163
 30
0.0
 40
0.5
100
AcDbArc
 50
90.0
 51
180.0
  0
LINE
  5
1F3F
330
18
100
AcDbEntity
  8
DISEGNO
100
AcDbLine
 10
-184.4401279645613
 20
103.9997402212163
 30
0.0
 11
-184.4401279645613
 21
99.99974022121683
 31
0.0
  0
LINE
  5
1F40
330
18
100
AcDbEntity
  8
DISEGNO
100
AcDbLine
 10
-172.9401279645612
 20
104.4997402212159
 30
0.0
 11
-183.9401279645612
 21
104.4997402212163
 31
0.0
  0
LINE
  5
1F41
330
18
100
AcDbEntity
  8
DISEGNO
100
AcDbLine
 10
-61.18912796456107
 20
53.99974022121682
 30
0.0
 11
-61.18912796456197
 21
95.99974022121683
 31
0.0
  0
LINE
  5
1F42
330
18
100
AcDbEntity
  8
DISEGNO
100
AcDbLine
 10
-61.19012796456127
 20
80.29874022121679
 30
0.0
 11
-61.19012796456127
 21
94.49974022121683
 31
0.0
  0
LINE
  5
1F4A
330
18
100
AcDbEntity
  8
DISEGNO
100
AcDbLine
 10
-83.19012796456126
 20
93.99974022121682
 30
0.0
 11
-83.19012796456126
 21
85.1407402212169
 31
0.0
  0
LINE
  5
1F4F
330
18
100
AcDbEntity
  8
ASSI
100
AcDbLine
 10
-89.19012796456128
 20
74.99974022121683
 30
0.0
 11
-106.9441279645612
 21
74.99974022121683
 31
0.0
  0
LINE
  5
1FEC
330
18
100
AcDbEntity
  8
DISEGNO
100
AcDbLine
 10
-61.19012796456127
 20
69.6997402212171
 30
0.0
 11
-61.19012796456127
 21
55.49974022121682
 31
0.0
  0
LINE
  5
1FEE
330
18
100
AcDbEntity
  8
DISEGNO
100
AcDbLine
 10
-83.19012796456126
 20
55.99974022121682
 30
0.0
 11
-83.19012796456126
 21
64.857740221217
 31
0.0
  0
LINE
  5
1FEF
330
18
100
AcDbEntity
  8
DISEGNO
100
AcDbLine
 10
-51.18912796456107
 20
50.99974022121682
 30
0.0
 11
-87.19012796456127
 21
50.99974022121682
 31
0.0
  0
LINE
  5
1FF0
330
18
100
AcDbEntity
  8
DISEGNO
100
AcDbLine
 10
-69.39012796456109
 20
53.99974022121682
 30
0.0
 11
-87.19012796456127
 21
53.99974022121682
 31
0.0
  0
ARC
  5
200D
330
18
100
AcDbEntity
  8
DISEGNO
100
AcDbCircle
 10
-81.19012796456127
 20
55.99974022121682
 30
0.0
 40
2.0
100
AcDbArc
 50
180.0
 51
270.0
  0
LINE
  5
200E
330
18
100
AcDbEntity
  8
DISEGNO
100
AcDbLine
 10
-87.19012796456127
 20
53.99974022121682
 30
0.0
 11
-87.19012796456127
 21
50.99974022121682
 31
0.0
  0
LINE
  5
200F
330
18
100
AcDbEntity
  8
DISEGNO
100
AcDbLine
 10
-51.18912796456107
 20
53.99974022121682
 30
0.0
 11
-69.39012796456109
 21
53.99974022121682
 31
0.0
  0
LINE
  5
2010
330
18
100
AcDbEntity
  8
DISEGNO
100
AcDbLine
 10
-61.19012796456127
 20
55.49974022121682
 30
0.0
 11
-62.69012796456127
 21
53.99974022121682
 31
0.0
  0
LINE
  5
2011
330
18
100
AcDbEntity
  8
DISEGNO
100
AcDbLine
 10
-73.69012796456127
 20
64.99974022121683
 30
0.0
 11
-88.01012796456097
 21
64.99974022121683
 31
0.0
  0
LINE
  5
2012
330
18
100
AcDbEntity
  8
DISEGNO
100
AcDbLine
 10
-73.69012796456127
 20
84.99974022121682
 30
0.0
 11
-88.01012796456097
 21
84.99974022121682
 31
0.0
  0
LINE
  5
2016
330
18
100
AcDbEntity
  8
NORMALI
100
AcDbLine
 10
-93.28112796456162
 20
72.48953641674393
 30
0.0
 11
-89.19012796456128
 21
72.48953641674399
 31
0.0
  0
LINE
  5
2017
330
18
100
AcDbEntity
  8
NORMALI
100
AcDbLine
 10
-93.28112796456162
 20
71.98953641674393
 30
0.0
 11
-89.19012796456128
 21
71.98953641674399
 31
0.0
  0
LINE
  5
2018
330
18
100
AcDbEntity
  8
NORMALI
100
AcDbLine
 10
-93.28112796456162
 20
77.94616800770637
 30
0.0
 11
-89.19012796456128
 21
77.94616800770637
 31
0.0
  0
LINE
  5
2019
330
18
100
AcDbEntity
  8
NORMALI
100
AcDbLine
 10
-93.28112796456162
 20
77.44616800770632
 30
0.0
 11
-89.19012796456128
 21
77.44616800770637
 31
0.0
  0
LINE
  5
202E
330
18
100
AcDbEntity
  8
DISEGNO
100
AcDbLine
 10
-89.19012796456128
 20
66.17974022121711
 30
0.0
 11
-89.19012796456128
 21
71.89974022121692
 31
0.0
  0
LINE
  5
202F
330
18
100
AcDbEntity
  8
DISEGNO
100
AcDbLine
 10
-89.19012796456128
 20
66.17974022121711
 30
0.0
 11
-88.01012796456097
 21
64.99974022121683
 31
0.0
  0
LINE
  5
2041
330
18
100
AcDbEntity
  8
DISEGNO
100
AcDbLine
 10
-91.28112796456163
 20
80.19974022121663
 30
0.0
 11
-91.28112796456163
 21
78.99974022121682
 31
0.0
  0
LINE
  5
2043
330
18
100
AcDbEntity
  8
DISEGNO
100
AcDbLine
 10
-89.19012796456128
 20
83.81974022121699
 30
0.0
 11
-88.01012796456097
 21
84.99974022121682
 31
0.0
  0
LINE
  5
2045
330
18
100
AcDbEntity
  8
DISEGNO
100
AcDbLine
 10
-89.19012796456128
 20
83.81974022121699
 30
0.0
 11
-89.19012796456128
 21
70.99974022121682
 31
0.0
  0
LINE
  5
2047
330
18
100
AcDbEntity
  8
DISEGNO
100
AcDbLine
 10
-73.69012796456127
 20
84.99974022121682
 30
0.0
 11
-73.69012796456127
 21
64.99974022121683
 31
0.0
  0
LINE
  5
2085
330
18
100
AcDbEntity
  8
DISEGNO
100
AcDbLine
 10
-71.31212796456157
 20
95.99974022121683
 30
0.0
 11
-81.19012796456127
 21
95.99974022121683
 31
0.0
  0
LINE
  5
2086
330
18
100
AcDbEntity
  8
DISEGNO
100
AcDbLine
 10
-89.19012796456128
 20
99.99974022121683
 30
0.0
 11
-89.19012796456128
 21
112.999740221217
 31
0.0
  0
LINE
  5
2087
330
18
100
AcDbEntity
  8
DISEGNO
100
AcDbLine
 10
-105.4401279645613
 20
110.1997402212166
 30
0.0
 11
-105.4401279645613
 21
104.4997402212168
 31
0.0
  0
LINE
  5
2089
330
18
100
AcDbEntity
  8
DISEGNO
100
AcDbLine
 10
-103.1901279645621
 20
104.499740221217
 30
0.0
 11
-103.1901279645612
 21
99.99974022121683
 31
0.0
  0
LINE
  5
2090
330
18
100
AcDbEntity
  8
DISEGNO
100
AcDbLine
 10
-94.44012796456126
 20
104.4997402212163
 30
0.0
 11
-105.4401279645613
 21
104.4997402212163
 31
0.0
  0
LINE
  5
2091
330
18
100
AcDbEntity
  8
DISEGNO
100
AcDbLine
 10
-93.94012796456127
 20
103.9997402212168
 30
0.0
 11
-93.94012796456127
 21
99.99974022121683
 31
0.0
  0
ARC
  5
2092
330
18
100
AcDbEntity
  8
DISEGNO
100
AcDbCircle
 10
-94.44012796456126
 20
103.9997402212168
 30
0.0
 40
0.5
100
AcDbArc
 50
0.0
 51
90.0
  0
ARC
  5
2093
330
18
100
AcDbEntity
  8
DISEGNO
100
AcDbCircle
 10
-81.19012796456127
 20
93.99974022121682
 30
0.0
 40
2.0
100
AcDbArc
 50
90.00003072459547
 51
180.0
  0
LINE
  5
2095
330
18
100
AcDbEntity
  8
DISEGNO
100
AcDbLine
 10
-61.18912796456197
 20
95.99974022121683
 30
0.0
 11
-71.31212796456157
 21
95.99974022121683
 31
0.0
  0
LINE
  5
2096
330
18
100
AcDbEntity
  8
DISEGNO
100
AcDbLine
 10
-62.69012796456127
 20
95.99974022121683
 30
0.0
 11
-69.39012796456109
 21
95.99974022121683
 31
0.0
  0
LINE
  5
2097
330
18
100
AcDbEntity
  8
DISEGNO
100
AcDbLine
 10
-51.18912796456107
 20
50.99974022121682
 30
0.0
 11
-51.18912796456107
 21
114.9997402212168
 31
0.0
  0
LINE
  5
2098
330
18
100
AcDbEntity
  8
DISEGNO
100
AcDbLine
 10
-66.18912796456107
 20
95.99974022121704
 30
0.0
 11
-66.18912796456107
 21
114.9997402212168
 31
0.0
  0
LINE
  5
20C3
330
18
100
AcDbEntity
  8
ASSI
100
AcDbLine
 10
-907.4460805368797
 20
-267.5044008663879
 30
0.0
 11
-907.4460805368797
 21
-244.7025554794716
 31
0.0
  0
LINE
  5
2102
330
18
100
AcDbEntity
  8
ASSI
100
AcDbLine
 10
-677.4460805368824
 20
-267.5044008663879
 30
0.0
 11
-677.4460805368824
 21
-244.7025554794716
 31
0.0
  0
LINE
  5
2104
330
18
100
AcDbEntity
  8
ASSI
100
AcDbLine
 10
-907.4460805368797
 20
-405.7025308719984
 30
0.0
 11
-907.4460805368797
 21
-428.5043762589147
 31
0.0
  0
LINE
  5
2106
330
18
100
AcDbEntity
  8
ASSI
100
AcDbLine
 10
-677.4460805368824
 20
-405.7025308719984
 30
0.0
 11
-677.4460805368824
 21
-428.5043762589147
 31
0.0
  0
LINE
  5
215E
330
18
100
AcDbEntity
  8
ASSI
100
AcDbLine
 10
-1117.446080536878
 20
-267.6415904150488
 30
0.0
 11
-1117.446080536878
 21
-244.8397450281325
 31
0.0
  0
LINE
  5
2162
330
18
100
AcDbEntity
  8
DISEGNO
100
AcDbLine
 10
-333.0460406108036
 20
49.99999999999728
 30
0.0
 11
-1343.046040610804
 21
50.00000000000138
 31
0.0
  0
LINE
  5
24F0
330
18
100
AcDbEntity
  8
ASSI
100
AcDbLine
 10
-114.1906279645613
 20
48.80668425287081
 30
0.0
 11
-114.1906279645613
 21
101.8929291745103
 31
0.0
  0
ARC
  5
24F1
330
18
100
AcDbEntity
  8
DISEGNO
100
AcDbCircle
 10
-90.69062796456137
 20
51.4997402212166
 30
0.0
 40
1.5
100
AcDbArc
 50
270.0
 51
0.0
  0
LINE
  5
24F2
330
18
100
AcDbEntity
  8
DISEGNO
100
AcDbLine
 10
-110.1906279645614
 20
50.99974022121682
 30
0.0
 11
-110.1906279645614
 21
49.99974022121683
 31
0.0
  0
LINE
  5
24F3
330
18
100
AcDbEntity
  8
DISEGNO
100
AcDbLine
 10
-118.1906279645613
 20
49.99974022121683
 30
0.0
 11
-118.1906279645613
 21
50.99974022121682
 31
0.0
  0
LINE
  5
24F4
330
18
100
AcDbEntity
  8
DISEGNO
100
AcDbLine
 10
-135.1906279645614
 20
50.99974022121682
 30
0.0
 11
-135.1906279645614
 21
49.99974022121683
 31
0.0
  0
LINE
  5
24F5
330
18
100
AcDbEntity
  8
DISEGNO
100
AcDbLine
 10
-143.1906279645613
 20
49.99974022121683
 30
0.0
 11
-143.1906279645613
 21
50.99974022121682
 31
0.0
  0
LINE
  5
24F6
330
18
100
AcDbEntity
  8
DISEGNO
100
AcDbLine
 10
-160.1906279645614
 20
50.99974022121682
 30
0.0
 11
-160.1906279645614
 21
49.99974022121683
 31
0.0
  0
LINE
  5
24F7
330
18
100
AcDbEntity
  8
DISEGNO
100
AcDbLine
 10
-168.1906279645613
 20
49.99974022121683
 30
0.0
 11
-168.1906279645613
 21
50.99974022121682
 31
0.0
  0
ARC
  5
24F8
330
18
100
AcDbEntity
  8
DISEGNO
100
AcDbCircle
 10
-187.6906279645614
 20
51.4997402212166
 30
0.0
 40
1.5
100
AcDbArc
 50
180.0
 51
270.0
  0
LINE
  5
24FB
330
18
100
AcDbEntity
  8
DISEGNO
100
AcDbLine
 10
-160.1906279645614
 20
49.99974022121683
 30
0.0
 11
-152.9320493207988
 21
49.99974022121683
 31
0.0
  0
ARC
  5
24FD
330
18
100
AcDbEntity
  8
DISEGNO
100
AcDbCircle
 10
-177.4492066083239
 20
50.09974022121673
 30
0.0
 40
0.1000000000001455
100
AcDbArc
 50
224.9999999999908
 51
270.0
  0
LINE
  5
24FE
330
18
100
AcDbEntity
  8
DISEGNO
100
AcDbLine
 10
-177.6906279645613
 20
50.19974022121664
 30
0.0
 11
-177.5199172864427
 21
50.02902954309798
 31
0.0
  0
LINE
  5
24FF
330
18
100
AcDbEntity
  8
DISEGNO
100
AcDbLine
 10
-179.6906279645613
 20
50.19974022121664
 30
0.0
 11
-177.6906279645613
 21
50.19974022121664
 31
0.0
  0
LINE
  5
2500
330
18
100
AcDbEntity
  8
DISEGNO
100
AcDbLine
 10
-179.86133864268
 20
50.02902954309798
 30
0.0
 11
-179.6906279645613
 21
50.19974022121664
 31
0.0
  0
ARC
  5
2501
330
18
100
AcDbEntity
  8
DISEGNO
100
AcDbCircle
 10
-179.9320493207983
 20
50.09974022121628
 30
0.0
 40
0.0999999999994543
100
AcDbArc
 50
270.0
 51
315.0000000000092
  0
LINE
  5
2502
330
18
100
AcDbEntity
  8
DISEGNO
100
AcDbLine
 10
-187.6906279645614
 20
49.99974022121659
 30
0.0
 11
-179.9320493207983
 21
49.99974022121683
 31
0.0
  0
LINE
  5
2503
330
18
100
AcDbEntity
  8
DISEGNO
100
AcDbLine
 10
-177.4492066083239
 20
49.99974022121683
 30
0.0
 11
-168.1906279645613
 21
49.99974022121683
 31
0.0
  0
LINE
  5
2505
330
18
100
AcDbEntity
  8
DISEGNO
100
AcDbLine
 10
-125.4492066083239
 20
49.99974022121683
 30
0.0
 11
-118.1906279645613
 21
49.99974022121683
 31
0.0
  0
ARC
  5
2506
330
18
100
AcDbEntity
  8
DISEGNO
100
AcDbCircle
 10
-125.4492066083239
 20
50.09974022121696
 30
0.0
 40
0.1000000000003063
100
AcDbArc
 50
225.0000000000921
 51
270.0
  0
LINE
  5
2507
330
18
100
AcDbEntity
  8
DISEGNO
100
AcDbLine
 10
-125.6906279645614
 20
50.19974022121687
 30
0.0
 11
-125.5199172864427
 21
50.02902954309798
 31
0.0
  0
LINE
  5
2508
330
18
100
AcDbEntity
  8
DISEGNO
100
AcDbLine
 10
-127.6906279645613
 20
50.19974022121687
 30
0.0
 11
-125.6906279645614
 21
50.19974022121687
 31
0.0
  0
LINE
  5
2509
330
18
100
AcDbEntity
  8
DISEGNO
100
AcDbLine
 10
-127.86133864268
 20
50.02902954309821
 30
0.0
 11
-127.6906279645613
 21
50.19974022121687
 31
0.0
  0
ARC
  5
250A
330
18
100
AcDbEntity
  8
DISEGNO
100
AcDbCircle
 10
-127.9320493207988
 20
50.09974022121696
 30
0.0
 40
0.1000000000001364
100
AcDbArc
 50
270.0
 51
315.0000000000092
  0
LINE
  5
250B
330
18
100
AcDbEntity
  8
DISEGNO
100
AcDbLine
 10
-135.1906279645614
 20
49.99974022121683
 30
0.0
 11
-127.9320493207988
 21
49.99974022121683
 31
0.0
  0
LINE
  5
250C
330
18
100
AcDbEntity
  8
DISEGNO
100
AcDbLine
 10
-150.4492066083239
 20
49.99974022121683
 30
0.0
 11
-143.1906279645613
 21
49.99974022121683
 31
0.0
  0
ARC
  5
250D
330
18
100
AcDbEntity
  8
DISEGNO
100
AcDbCircle
 10
-150.4492066083239
 20
50.09974022121696
 30
0.0
 40
0.1000000000003063
100
AcDbArc
 50
225.0000000000921
 51
270.0
  0
LINE
  5
250E
330
18
100
AcDbEntity
  8
DISEGNO
100
AcDbLine
 10
-150.6906279645614
 20
50.19974022121687
 30
0.0
 11
-150.5199172864427
 21
50.02902954309798
 31
0.0
  0
LINE
  5
250F
330
18
100
AcDbEntity
  8
DISEGNO
100
AcDbLine
 10
-152.6906279645613
 20
50.19974022121687
 30
0.0
 11
-150.6906279645614
 21
50.19974022121687
 31
0.0
  0
LINE
  5
2510
330
18
100
AcDbEntity
  8
DISEGNO
100
AcDbLine
 10
-152.86133864268
 20
50.02902954309821
 30
0.0
 11
-152.6906279645613
 21
50.19974022121687
 31
0.0
  0
ARC
  5
2511
330
18
100
AcDbEntity
  8
DISEGNO
100
AcDbCircle
 10
-152.9320493207988
 20
50.09974022121696
 30
0.0
 40
0.1000000000001364
100
AcDbArc
 50
270.0
 51
315.0000000000092
  0
LINE
  5
2512
330
18
100
AcDbEntity
  8
DISEGNO
100
AcDbLine
 10
-98.44920660832395
 20
49.99974022121659
 30
0.0
 11
-90.69062796456137
 21
49.99974022121659
 31
0.0
  0
ARC
  5
2513
330
18
100
AcDbEntity
  8
DISEGNO
100
AcDbCircle
 10
-98.44920660832395
 20
50.09974022121673
 30
0.0
 40
0.1000000000001455
100
AcDbArc
 50
224.9999999999908
 51
270.0
  0
LINE
  5
2514
330
18
100
AcDbEntity
  8
DISEGNO
100
AcDbLine
 10
-98.69062796456137
 20
50.19974022121664
 30
0.0
 11
-98.51991728644271
 21
50.02902954309798
 31
0.0
  0
LINE
  5
2515
330
18
100
AcDbEntity
  8
DISEGNO
100
AcDbLine
 10
-100.6906279645613
 20
50.19974022121664
 30
0.0
 11
-98.69062796456137
 21
50.19974022121664
 31
0.0
  0
LINE
  5
2516
330
18
100
AcDbEntity
  8
DISEGNO
100
AcDbLine
 10
-100.86133864268
 20
50.02902954309798
 30
0.0
 11
-100.6906279645613
 21
50.19974022121664
 31
0.0
  0
ARC
  5
2517
330
18
100
AcDbEntity
  8
DISEGNO
100
AcDbCircle
 10
-100.9320493207988
 20
50.09974022121673
 30
0.0
 40
0.0999999999999091
100
AcDbArc
 50
270.0
 51
315.0000000000092
  0
LINE
  5
2518
330
18
100
AcDbEntity
  8
DISEGNO
100
AcDbLine
 10
-110.1906279645614
 20
49.99974022121683
 30
0.0
 11
-100.9320493207988
 21
49.99974022121683
 31
0.0
  0
ARC
  5
251B
330
18
100
AcDbEntity
  8
DISEGNO
100
AcDbCircle
 10
-164.1906279645618
 20
74.99974022121591
 30
0.0
 40
8.000000000000905
100
AcDbArc
 50
45.6944040526677
 51
57.1627388044796
  0
ARC
  5
251C
330
18
100
AcDbEntity
  8
DISEGNO
100
AcDbCircle
 10
-164.1906279645618
 20
74.99974022121796
 30
0.0
 40
8.000000000001252
100
AcDbArc
 50
302.8372611955204
 51
314.3055959473323
  0
LINE
  5
251D
330
18
100
AcDbEntity
  8
DISEGNO
100
AcDbLine
 10
-154.6906279645613
 20
90.86370125189592
 30
0.0
 11
-159.82277404463
 21
85.73155517182682
 31
0.0
  0
LINE
  5
251E
330
18
100
AcDbEntity
  8
DISEGNO
100
AcDbLine
 10
-160.1906279645614
 20
95.99974022121683
 30
0.0
 11
-153.2906279645612
 21
95.99974022121683
 31
0.0
  0
LINE
  5
251F
330
18
100
AcDbEntity
  8
DISEGNO
100
AcDbLine
 10
-158.9906279645611
 20
97.99974022121682
 30
0.0
 11
-160.1906279645614
 21
97.99974022121682
 31
0.0
  0
LINE
  5
2520
330
18
100
AcDbEntity
  8
DISEGNO
100
AcDbLine
 10
-160.1906279645614
 20
98.99974022121682
 30
0.0
 11
-158.9906279645611
 21
98.99974022121682
 31
0.0
  0
LINE
  5
2521
330
18
100
AcDbEntity
  8
DISEGNO
100
AcDbLine
 10
-152.9320493207988
 20
99.99974022121683
 30
0.0
 11
-160.1906279645614
 21
99.99974022121683
 31
0.0
  0
LINE
  5
2522
330
18
100
AcDbEntity
  8
DISEGNO
100
AcDbLine
 10
-158.9906279645611
 20
50.99974022121682
 30
0.0
 11
-160.1906279645614
 21
50.99974022121682
 31
0.0
  0
LINE
  5
2523
330
18
100
AcDbEntity
  8
DISEGNO
100
AcDbLine
 10
-160.1906279645614
 20
51.99974022121683
 30
0.0
 11
-158.9906279645611
 21
51.99974022121683
 31
0.0
  0
LINE
  5
2524
330
18
100
AcDbEntity
  8
DISEGNO
100
AcDbLine
 10
-153.1906279645613
 20
53.99974022121682
 30
0.0
 11
-160.1906279645614
 21
53.99974022121682
 31
0.0
  0
LINE
  5
2525
330
18
100
AcDbEntity
  8
DISEGNO
100
AcDbLine
 10
-159.82277404463
 20
64.26792527060661
 30
0.0
 11
-154.6906279645613
 21
59.13577919053773
 31
0.0
  0
LINE
  5
2526
330
18
100
AcDbEntity
  8
ASSI
100
AcDbLine
 10
-42.5825148384365
 20
74.99974022121683
 30
0.0
 11
-232.2516314990735
 21
74.99974022121683
 31
0.0
  0
ARC
  5
2533
330
18
100
AcDbEntity
  8
DISEGNO
100
AcDbCircle
 10
-164.1906279645618
 20
74.99974022121591
 30
0.0
 40
6.849999999999455
100
AcDbArc
 50
187.283877930948
 51
198.4304077833319
  0
ARC
  5
2534
330
18
100
AcDbEntity
  8
DISEGNO
100
AcDbCircle
 10
-171.08454255687
 20
74.11858098818789
 30
0.0
 40
0.0999999999999819
100
AcDbArc
 50
7.283877930909402
 51
96.45944977736514
  0
LINE
  5
2535
330
18
100
AcDbEntity
  8
DISEGNO
100
AcDbLine
 10
-172.0398476710033
 20
74.11106142660083
 30
0.0
 11
-171.09579255687
 21
74.2179461606579
 31
0.0
  0
ARC
  5
2536
330
18
100
AcDbEntity
  8
DISEGNO
100
AcDbCircle
 10
-172.0510976710034
 20
74.21042659907084
 30
0.0
 40
0.1000000000000527
100
AcDbArc
 50
185.7341673759595
 51
276.4594497773651
  0
ARC
  5
2537
330
18
100
AcDbEntity
  8
DISEGNO
100
AcDbCircle
 10
-164.1906279645609
 20
74.99974022121683
 30
0.0
 40
8.000000000000348
100
AcDbArc
 50
174.2658326240924
 51
185.7341673759075
  0
ARC
  5
2538
330
18
100
AcDbEntity
  8
DISEGNO
100
AcDbCircle
 10
-172.0510976710034
 20
75.78905384336258
 30
0.0
 40
0.0999999999999819
100
AcDbArc
 50
83.54055022263485
 51
174.2658326240405
  0
LINE
  5
2539
330
18
100
AcDbEntity
  8
DISEGNO
100
AcDbLine
 10
-171.0957925568705
 20
75.78153428177552
 30
0.0
 11
-172.0398476710033
 21
75.88841901583259
 31
0.0
  0
ARC
  5
253A
330
18
100
AcDbEntity
  8
DISEGNO
100
AcDbCircle
 10
-171.0845425568704
 20
75.88089945424576
 30
0.0
 40
0.1000000000003324
100
AcDbArc
 50
263.5405502226606
 51
352.7161220690003
  0
ARC
  5
253B
330
18
100
AcDbEntity
  8
DISEGNO
100
AcDbCircle
 10
-164.1906279645618
 20
74.99974022121773
 30
0.0
 40
6.849999999999412
100
AcDbArc
 50
161.569592216668
 51
172.716122069052
  0
ARC
  5
253C
330
18
100
AcDbEntity
  8
DISEGNO
100
AcDbCircle
 10
-170.7841510529942
 20
77.19700062506103
 30
0.0
 40
0.0999999999999887
100
AcDbArc
 50
341.5695922166557
 51
70.74516406315094
  0
LINE
  5
253D
330
18
100
AcDbEntity
  8
DISEGNO
100
AcDbLine
 10
-171.6481138356744
 20
77.60471708908903
 30
0.0
 11
-170.7511740201889
 21
77.2914067440754
 31
0.0
  0
ARC
  5
253E
330
18
100
AcDbEntity
  8
DISEGNO
100
AcDbCircle
 10
-171.6151368028686
 20
77.6991232081034
 30
0.0
 40
0.1000000000001751
100
AcDbArc
 50
160.019881661671
 51
250.7451640629039
  0
ARC
  5
253F
330
18
100
AcDbEntity
  8
DISEGNO
100
AcDbCircle
 10
-164.1906279645609
 20
74.99974022121728
 30
0.0
 40
8.000000000000145
100
AcDbArc
 50
148.5515469098054
 51
160.0198816616341
  0
ARC
  5
2540
330
18
100
AcDbEntity
  8
DISEGNO
100
AcDbCircle
 10
-170.9301961114424
 20
79.12141720923296
 30
0.0
 40
0.0999999999997598
100
AcDbArc
 50
57.82626450852534
 51
148.5515469099574
  0
LINE
  5
2541
330
18
100
AcDbEntity
  8
DISEGNO
100
AcDbLine
 10
-170.0727585597587
 20
78.70015096342445
 30
0.0
 11
-170.8769472791096
 21
79.20606094411709
 31
0.0
  0
ARC
  5
2542
330
18
100
AcDbEntity
  8
DISEGNO
100
AcDbCircle
 10
-170.0195097274254
 20
78.78479469830882
 30
0.0
 40
0.1000000000003394
100
AcDbArc
 50
237.8262645083736
 51
327.0018363547734
  0
ARC
  5
2543
330
18
100
AcDbEntity
  8
DISEGNO
100
AcDbCircle
 10
-164.1906279645618
 20
74.99974022121865
 30
0.0
 40
6.849999999998551
100
AcDbArc
 50
135.8553065023843
 51
147.0018363547735
  0
ARC
  5
2544
330
18
100
AcDbEntity
  8
DISEGNO
100
AcDbCircle
 10
-169.1778314372004
 20
79.84022589132246
 30
0.0
 40
0.0999999999999751
100
AcDbArc
 50
315.8553065023475
 51
45.03087834878843
  0
LINE
  5
2545
330
18
100
AcDbEntity
  8
DISEGNO
100
AcDbLine
 10
-169.7793334635089
 20
80.58242513495065
 30
0.0
 11
-169.1071588773734
 21
79.9109746671952
 31
0.0
  0
ARC
  5
2546
330
18
100
AcDbEntity
  8
DISEGNO
100
AcDbCircle
 10
-169.7086609036823
 20
80.6531739108234
 30
0.0
 40
0.0999999999997624
100
AcDbArc
 50
134.3055959473323
 51
225.0308783489727
  0
ARC
  5
2547
330
18
100
AcDbEntity
  8
DISEGNO
100
AcDbCircle
 10
-164.1906279645609
 20
74.99974022121591
 30
0.0
 40
8.00000000000087
100
AcDbArc
 50
122.8372611955204
 51
134.3055959473323
  0
ARC
  5
2548
330
18
100
AcDbEntity
  8
DISEGNO
100
AcDbCircle
 10
-168.4744404250132
 20
81.63743189857564
 30
0.0
 40
0.1000000000002051
100
AcDbArc
 50
32.11197879400671
 51
122.8372611953975
  0
LINE
  5
2549
330
18
100
AcDbEntity
  8
DISEGNO
100
AcDbLine
 10
-167.8846964586705
 20
80.88585591501965
 30
0.0
 11
-168.3897393446441
 21
81.69058946609288
 31
0.0
  0
ARC
  5
254A
330
18
100
AcDbEntity
  8
DISEGNO
100
AcDbCircle
 10
-167.7999953783014
 20
80.93901348253689
 30
0.0
 40
0.1000000000000715
100
AcDbArc
 50
212.1119787940068
 51
301.2875506403858
  0
ARC
  5
254B
330
18
100
AcDbEntity
  8
DISEGNO
100
AcDbCircle
 10
-164.1906279645609
 20
74.99974022121842
 30
0.0
 40
6.849999999998785
100
AcDbArc
 50
110.1410207880936
 51
121.2875506404797
  0
ARC
  5
254C
330
18
100
AcDbEntity
  8
DISEGNO
100
AcDbCircle
 10
-166.5837350096135
 20
81.52473360595854
 30
0.0
 40
0.0999999999999497
100
AcDbArc
 50
290.1410207880111
 51
19.31659263444521
  0
LINE
  5
254D
330
18
100
AcDbEntity
  8
DISEGNO
100
AcDbLine
 10
-166.8036414263024
 20
82.45441396650972
 30
0.0
 11
-166.4893644899807
 21
81.55781237595125
 31
0.0
  0
ARC
  5
254E
330
18
100
AcDbEntity
  8
DISEGNO
100
AcDbCircle
 10
-166.7092709066696
 20
82.48749273650242
 30
0.0
 40
0.1000000000000013
100
AcDbArc
 50
108.5913102329865
 51
199.3165926344452
  0
ARC
  5
254F
330
18
100
AcDbEntity
  8
DISEGNO
100
AcDbCircle
 10
-164.1906279645609
 20
74.99974022121637
 30
0.0
 40
8.000000000000358
100
AcDbArc
 50
97.12297548123551
 51
108.5913102330444
  0
ARC
  5
2550
330
18
100
AcDbEntity
  8
DISEGNO
100
AcDbCircle
 10
-165.1702231432787
 20
82.83877034527108
 30
0.0
 40
0.1000000000000469
100
AcDbArc
 50
6.397693079836888
 51
97.12297548126304
  0
LINE
  5
2551
330
18
100
AcDbEntity
  8
DISEGNO
100
AcDbLine
 10
-164.9649787875473
 20
81.90574346498534
 30
0.0
 11
-165.0708459026318
 21
82.84991323723989
 31
0.0
  0
ARC
  5
2552
330
18
100
AcDbEntity
  8
DISEGNO
100
AcDbCircle
 10
-164.8656015469005
 20
81.91688635695413
 30
0.0
 40
0.1000000000001195
100
AcDbArc
 50
186.3976930798368
 51
275.573264926283
  0
ARC
  5
2553
330
18
100
AcDbEntity
  8
DISEGNO
100
AcDbCircle
 10
-164.1906279645614
 20
74.99974022121796
 30
0.0
 40
6.849999999998846
100
AcDbArc
 50
84.42673507382052
 51
95.57326492617949
  0
ARC
  5
2554
330
18
100
AcDbEntity
  8
DISEGNO
100
AcDbCircle
 10
-163.5156543822222
 20
81.91688635695413
 30
0.0
 40
0.1000000000000469
100
AcDbArc
 50
264.426735073717
 51
353.6023069201631
  0
LINE
  5
2555
330
18
100
AcDbEntity
  8
DISEGNO
100
AcDbLine
 10
-163.3104100264904
 20
82.84991323723989
 30
0.0
 11
-163.4162771415754
 21
81.90574346498534
 31
0.0
  0
ARC
  5
2556
330
18
100
AcDbEntity
  8
DISEGNO
100
AcDbCircle
 10
-163.2110327858436
 20
82.83877034527131
 30
0.0
 40
0.0999999999997987
100
AcDbArc
 50
82.87702451897455
 51
173.6023069202954
  0
ARC
  5
2557
330
18
100
AcDbEntity
  8
DISEGNO
100
AcDbCircle
 10
-164.1906279645614
 20
74.99974022121683
 30
0.0
 40
7.999999999999844
100
AcDbArc
 50
71.40868976695556
 51
82.8770245187645
  0
ARC
  5
2558
330
18
100
AcDbEntity
  8
DISEGNO
100
AcDbCircle
 10
-161.6719850224531
 20
82.48749273650242
 30
0.0
 40
0.0999999999999497
100
AcDbArc
 50
340.6834073655548
 51
71.4086897670135
  0
LINE
  5
2559
330
18
100
AcDbEntity
  8
DISEGNO
100
AcDbLine
 10
-161.891891439142
 20
81.55781237595125
 30
0.0
 11
-161.5776145028203
 21
82.45441396650972
 31
0.0
  0
ARC
  5
255A
330
18
100
AcDbEntity
  8
DISEGNO
100
AcDbCircle
 10
-161.7975209195092
 20
81.52473360595854
 30
0.0
 40
0.0999999999999787
100
AcDbArc
 50
160.6834073655548
 51
249.8589792119888
  0
ARC
  5
255B
330
18
100
AcDbEntity
  8
DISEGNO
100
AcDbCircle
 10
-164.1906279645614
 20
74.99974022121614
 30
0.0
 40
6.850000000000763
100
AcDbArc
 50
58.71244935952719
 51
69.85897921190643
  0
ARC
  5
255C
330
18
100
AcDbEntity
  8
DISEGNO
100
AcDbCircle
 10
-160.5812605508208
 20
80.93901348253666
 30
0.0
 40
0.0999999999996991
100
AcDbArc
 50
238.7124493595559
 51
327.8880212059712
  0
LINE
  5
255D
330
18
100
AcDbEntity
  8
DISEGNO
100
AcDbLine
 10
-159.9915165844786
 20
81.69058946609288
 30
0.0
 11
-160.4965594704522
 21
80.88585591501965
 31
0.0
  0
ARC
  5
255E
330
18
100
AcDbEntity
  8
DISEGNO
100
AcDbCircle
 10
-159.9068155041095
 20
81.63743189857564
 30
0.0
 40
0.0999999999998073
100
AcDbArc
 50
57.16273880460247
 51
147.8880212059933
  0
ARC
  5
255F
330
18
100
AcDbEntity
  8
DISEGNO
100
AcDbCircle
 10
-159.9068155041095
 20
68.36204854385778
 30
0.0
 40
0.1000000000002051
100
AcDbArc
 50
212.1119787940068
 51
302.8372611953975
  0
LINE
  5
2560
330
18
100
AcDbEntity
  8
DISEGNO
100
AcDbLine
 10
-160.4965594704522
 20
69.11362452741378
 30
0.0
 11
-159.9915165844786
 21
68.30889097634053
 31
0.0
  0
ARC
  5
2561
330
18
100
AcDbEntity
  8
DISEGNO
100
AcDbCircle
 10
-160.5812605508208
 20
69.06046695989676
 30
0.0
 40
0.0999999999998772
100
AcDbArc
 50
32.11197879402885
 51
121.2875506404437
  0
ARC
  5
2562
330
18
100
AcDbEntity
  8
DISEGNO
100
AcDbCircle
 10
-164.1906279645614
 20
74.99974022121705
 30
0.0
 40
6.85000000000055
100
AcDbArc
 50
290.1410207880935
 51
301.2875506404728
  0
ARC
  5
2563
330
18
100
AcDbEntity
  8
DISEGNO
100
AcDbCircle
 10
-161.7975209195092
 20
68.47474683647488
 30
0.0
 40
0.0999999999999497
100
AcDbArc
 50
110.1410207880111
 51
199.3165926344452
  0
LINE
  5
2564
330
18
100
AcDbEntity
  8
DISEGNO
100
AcDbLine
 10
-161.5776145028203
 20
67.5450664759237
 30
0.0
 11
-161.891891439142
 21
68.44166806648217
 31
0.0
  0
ARC
  5
2565
330
18
100
AcDbEntity
  8
DISEGNO
100
AcDbCircle
 10
-161.6719850224535
 20
67.51198770593077
 30
0.0
 40
0.1000000000001463
100
AcDbArc
 50
288.5913102332338
 51
19.31659263446981
  0
ARC
  5
2566
330
18
100
AcDbEntity
  8
DISEGNO
100
AcDbCircle
 10
-164.1906279645604
 20
74.99974022121705
 30
0.0
 40
8.00000000000019
100
AcDbArc
 50
277.1229754812355
 51
288.5913102330401
  0
ARC
  5
2567
330
18
100
AcDbEntity
  8
DISEGNO
100
AcDbCircle
 10
-163.211032785844
 20
67.16071009716234
 30
0.0
 40
0.1000000000000469
100
AcDbArc
 50
186.3976930798368
 51
277.1229754812631
  0
LINE
  5
2568
330
18
100
AcDbEntity
  8
DISEGNO
100
AcDbLine
 10
-163.4162771415754
 20
68.09373697744809
 30
0.0
 11
-163.3104100264909
 21
67.14956720519353
 31
0.0
  0
ARC
  5
2569
330
18
100
AcDbEntity
  8
DISEGNO
100
AcDbCircle
 10
-163.5156543822222
 20
68.08259408547929
 30
0.0
 40
0.1000000000001195
100
AcDbArc
 50
6.397693079836888
 51
95.57326492628298
  0
ARC
  5
256A
330
18
100
AcDbEntity
  8
DISEGNO
100
AcDbCircle
 10
-164.1906279645614
 20
74.99974022121569
 30
0.0
 40
6.849999999999072
100
AcDbArc
 50
264.4267350738205
 51
275.5732649261791
  0
ARC
  5
256B
330
18
100
AcDbEntity
  8
DISEGNO
100
AcDbCircle
 10
-164.8656015469005
 20
68.08259408547929
 30
0.0
 40
0.1000000000000469
100
AcDbArc
 50
84.42673507371701
 51
173.6023069201631
  0
LINE
  5
256C
330
18
100
AcDbEntity
  8
DISEGNO
100
AcDbLine
 10
-165.0708459026318
 20
67.14956720519353
 30
0.0
 11
-164.9649787875473
 21
68.09373697744809
 31
0.0
  0
ARC
  5
256D
330
18
100
AcDbEntity
  8
DISEGNO
100
AcDbCircle
 10
-165.1702231432787
 20
67.16071009716234
 30
0.0
 40
0.1000000000000806
100
AcDbArc
 50
262.877024518737
 51
353.6023069201631
  0
ARC
  5
256E
330
18
100
AcDbEntity
  8
DISEGNO
100
AcDbCircle
 10
-164.1906279645614
 20
74.99974022121683
 30
0.0
 40
8.00000000000006
100
AcDbArc
 50
251.4086897669556
 51
262.8770245187645
  0
ARC
  5
256F
330
18
100
AcDbEntity
  8
DISEGNO
100
AcDbCircle
 10
-166.7092709066696
 20
67.511987705931
 30
0.0
 40
0.0999999999999497
100
AcDbArc
 50
160.6834073655548
 51
251.4086897670135
  0
LINE
  5
2570
330
18
100
AcDbEntity
  8
DISEGNO
100
AcDbLine
 10
-166.4893644899807
 20
68.44166806648217
 30
0.0
 11
-166.8036414263024
 21
67.5450664759237
 31
0.0
  0
ARC
  5
2571
330
18
100
AcDbEntity
  8
DISEGNO
100
AcDbCircle
 10
-166.5837350096135
 20
68.47474683647488
 30
0.0
 40
0.0999999999999787
100
AcDbArc
 50
340.6834073655548
 51
69.85897921198885
  0
ARC
  5
2572
330
18
100
AcDbEntity
  8
DISEGNO
100
AcDbCircle
 10
-164.1906279645609
 20
74.999740221215
 30
0.0
 40
6.84999999999882
100
AcDbArc
 50
238.7124493595203
 51
249.8589792119064
  0
ARC
  5
2573
330
18
100
AcDbEntity
  8
DISEGNO
100
AcDbCircle
 10
-167.7999953783019
 20
69.06046695989653
 30
0.0
 40
0.0999999999999408
100
AcDbArc
 50
58.71244935939732
 51
147.8880212057476
  0
LINE
  5
2574
330
18
100
AcDbEntity
  8
DISEGNO
100
AcDbLine
 10
-168.3897393446441
 20
68.30889097634053
 30
0.0
 11
-167.8846964586705
 21
69.113624527414
 31
0.0
  0
ARC
  5
2575
330
18
100
AcDbEntity
  8
DISEGNO
100
AcDbCircle
 10
-168.4744404250132
 20
68.36204854385778
 30
0.0
 40
0.0999999999998073
100
AcDbArc
 50
237.1627388046025
 51
327.8880212059933
  0
ARC
  5
2576
330
18
100
AcDbEntity
  8
DISEGNO
100
AcDbCircle
 10
-164.1906279645609
 20
74.99974022121773
 30
0.0
 40
8.000000000001067
100
AcDbArc
 50
225.6944040526676
 51
237.1627388044796
  0
ARC
  5
2577
330
18
100
AcDbEntity
  8
DISEGNO
100
AcDbCircle
 10
-169.7086609036823
 20
69.34630653160979
 30
0.0
 40
0.0999999999998146
100
AcDbArc
 50
134.9691216509444
 51
225.694404052594
  0
LINE
  5
2578
330
18
100
AcDbEntity
  8
DISEGNO
100
AcDbLine
 10
-169.1071588773734
 20
70.08850577523822
 30
0.0
 11
-169.7793334635089
 21
69.41705530748277
 31
0.0
  0
ARC
  5
2579
330
18
100
AcDbEntity
  8
DISEGNO
100
AcDbCircle
 10
-169.1778314372004
 20
70.15925455111096
 30
0.0
 40
0.0999999999999391
100
AcDbArc
 50
314.9691216512116
 51
44.1446934976525
  0
ARC
  5
257A
330
18
100
AcDbEntity
  8
DISEGNO
100
AcDbCircle
 10
-164.1906279645614
 20
74.999740221215
 30
0.0
 40
6.849999999999032
100
AcDbArc
 50
212.9981636452265
 51
224.1446934976061
  0
ARC
  5
257B
330
18
100
AcDbEntity
  8
DISEGNO
100
AcDbCircle
 10
-170.0195097274254
 20
71.2146857441246
 30
0.0
 40
0.1000000000001944
100
AcDbArc
 50
32.99816364522653
 51
122.1737354916264
  0
LINE
  5
257C
330
18
100
AcDbEntity
  8
DISEGNO
100
AcDbLine
 10
-170.8769472791096
 20
70.79341949831633
 30
0.0
 11
-170.0727585597587
 21
71.29932947900897
 31
0.0
  0
ARC
  5
257D
330
18
100
AcDbEntity
  8
DISEGNO
100
AcDbCircle
 10
-170.9301961114429
 20
70.87806323320069
 30
0.0
 40
0.0999999999999872
100
AcDbArc
 50
211.4484530902883
 51
302.1737354916265
  0
ARC
  5
257E
330
18
100
AcDbEntity
  8
DISEGNO
100
AcDbCircle
 10
-164.1906279645614
 20
74.99974022121591
 30
0.0
 40
7.999999999999633
100
AcDbArc
 50
199.9801183383656
 51
211.4484530901946
  0
ARC
  5
257F
330
18
100
AcDbEntity
  8
DISEGNO
100
AcDbCircle
 10
-171.6151368028686
 20
72.30035723433025
 30
0.0
 40
0.099999999999924
100
AcDbArc
 50
109.2548359371495
 51
199.9801183384481
  0
LINE
  5
2580
330
18
100
AcDbEntity
  8
DISEGNO
100
AcDbLine
 10
-170.7511740201889
 20
72.70807369835802
 30
0.0
 11
-171.6481138356744
 21
72.39476335334439
 31
0.0
  0
ARC
  5
2581
330
18
100
AcDbEntity
  8
DISEGNO
100
AcDbCircle
 10
-170.7841510529942
 20
72.80247981737239
 30
0.0
 40
0.0999999999998246
100
AcDbArc
 50
289.2548359368491
 51
18.43040778334434
  0
LINE
  5
2582
330
18
100
AcDbEntity
  8
DISEGNO
100
AcDbLine
 10
-168.1906279645613
 20
98.99974022121682
 30
0.0
 11
-168.1906279645613
 21
99.99974022121683
 31
0.0
  0
LINE
  5
2583
330
18
100
AcDbEntity
  8
DISEGNO
100
AcDbLine
 10
-169.3906279645612
 20
98.99974022121682
 30
0.0
 11
-168.1906279645613
 21
98.99974022121682
 31
0.0
  0
LINE
  5
2584
330
18
100
AcDbEntity
  8
DISEGNO
100
AcDbLine
 10
-169.3906279645612
 20
97.99974022121682
 30
0.0
 11
-169.3906279645612
 21
98.99974022121682
 31
0.0
  0
LINE
  5
2585
330
18
100
AcDbEntity
  8
DISEGNO
100
AcDbLine
 10
-168.1906279645613
 20
97.99974022121682
 30
0.0
 11
-169.3906279645612
 21
97.99974022121682
 31
0.0
  0
LINE
  5
2586
330
18
100
AcDbEntity
  8
DISEGNO
100
AcDbLine
 10
-168.1906279645613
 20
95.99974022121683
 30
0.0
 11
-168.1906279645613
 21
97.99974022121682
 31
0.0
  0
ARC
  5
2587
330
18
100
AcDbEntity
  8
DISEGNO
100
AcDbCircle
 10
-167.1442683221194
 20
87.14576873420014
 30
0.0
 40
2.000000000000123
100
AcDbArc
 50
224.9999999999908
 51
283.6677485023899
  0
ARC
  5
2588
330
18
100
AcDbEntity
  8
DISEGNO
100
AcDbCircle
 10
-164.1906279645618
 20
74.99974022121728
 30
0.0
 40
10.49999999999932
100
AcDbArc
 50
90.0
 51
103.667748502415
  0
ARC
  5
2589
330
18
100
AcDbEntity
  8
DISEGNO
100
AcDbCircle
 10
-164.1906279645609
 20
74.99974022121637
 30
0.0
 40
10.50000000000018
100
AcDbArc
 50
76.33225149761013
 51
90.0
  0
ARC
  5
258A
330
18
100
AcDbEntity
  8
DISEGNO
100
AcDbCircle
 10
-161.2369876070033
 20
87.14576873420014
 30
0.0
 40
2.000000000000337
100
AcDbArc
 50
256.3322514976101
 51
315.0000000000092
  0
LINE
  5
258B
330
18
100
AcDbEntity
  8
DISEGNO
100
AcDbLine
 10
-160.1906279645614
 20
97.99974022121682
 30
0.0
 11
-160.1906279645614
 21
95.99974022121683
 31
0.0
  0
LINE
  5
258C
330
18
100
AcDbEntity
  8
DISEGNO
100
AcDbLine
 10
-160.1906279645614
 20
99.99974022121683
 30
0.0
 11
-160.1906279645614
 21
98.99974022121682
 31
0.0
  0
LINE
  5
258D
330
18
100
AcDbEntity
  8
DISEGNO
100
AcDbLine
 10
-160.1906279645614
 20
53.99974022121682
 30
0.0
 11
-160.1906279645614
 21
51.99974022121683
 31
0.0
  0
ARC
  5
258E
330
18
100
AcDbEntity
  8
DISEGNO
100
AcDbCircle
 10
-161.2369876070033
 20
62.85371170823328
 30
0.0
 40
2.000000000000123
100
AcDbArc
 50
44.99999999999078
 51
103.6677485023898
  0
ARC
  5
258F
330
18
100
AcDbEntity
  8
DISEGNO
100
AcDbCircle
 10
-164.1906279645609
 20
74.99974022121614
 30
0.0
 40
10.49999999999932
100
AcDbArc
 50
270.0
 51
283.667748502415
  0
ARC
  5
2590
330
18
100
AcDbEntity
  8
DISEGNO
100
AcDbCircle
 10
-164.1906279645618
 20
74.99974022121637
 30
0.0
 40
10.49999999999952
100
AcDbArc
 50
256.3322514975849
 51
270.0
  0
ARC
  5
2591
330
18
100
AcDbEntity
  8
DISEGNO
100
AcDbCircle
 10
-167.1442683221194
 20
62.8537117082335
 30
0.0
 40
1.999999999999855
100
AcDbArc
 50
76.33225149758494
 51
135.0
  0
LINE
  5
2592
330
18
100
AcDbEntity
  8
DISEGNO
100
AcDbLine
 10
-168.1906279645613
 20
51.99974022121683
 30
0.0
 11
-168.1906279645613
 21
53.99974022121682
 31
0.0
  0
LINE
  5
2593
330
18
100
AcDbEntity
  8
DISEGNO
100
AcDbLine
 10
-169.3906279645612
 20
51.99974022121683
 30
0.0
 11
-168.1906279645613
 21
51.99974022121683
 31
0.0
  0
LINE
  5
2594
330
18
100
AcDbEntity
  8
DISEGNO
100
AcDbLine
 10
-169.3906279645612
 20
50.99974022121682
 30
0.0
 11
-169.3906279645612
 21
51.99974022121683
 31
0.0
  0
LINE
  5
2595
330
18
100
AcDbEntity
  8
DISEGNO
100
AcDbLine
 10
-168.1906279645613
 20
50.99974022121682
 30
0.0
 11
-169.3906279645612
 21
50.99974022121682
 31
0.0
  0
ARC
  5
2596
330
18
100
AcDbEntity
  8
DISEGNO
100
AcDbCircle
 10
-170.835485296493
 20
66.23356254572559
 30
0.0
 40
0.5000000000000844
100
AcDbArc
 50
315.0000000000092
 51
52.83747976305574
  0
ARC
  5
2597
330
18
100
AcDbEntity
  8
DISEGNO
100
AcDbCircle
 10
-170.8354852964926
 20
83.76591789670806
 30
0.0
 40
0.4999999999999765
100
AcDbArc
 50
307.162520236887
 51
44.99999999998157
  0
LINE
  5
2598
330
18
100
AcDbEntity
  8
ASSI
100
AcDbLine
 10
-179.7906279645613
 20
92.49974022121682
 30
0.0
 11
-183.6906279645613
 21
92.49974022121682
 31
0.0
  0
LINE
  5
2599
330
18
100
AcDbEntity
  8
ASSI
100
AcDbLine
 10
-181.6906279645613
 20
94.49974022121706
 30
0.0
 11
-181.6906279645613
 21
90.49974022121682
 31
0.0
  0
LINE
  5
259A
330
18
100
AcDbEntity
  8
ASSI
100
AcDbLine
 10
-181.6906279645613
 20
59.49974022121683
 30
0.0
 11
-181.6906279645613
 21
55.49974022121682
 31
0.0
  0
LINE
  5
259B
330
18
100
AcDbEntity
  8
ASSI
100
AcDbLine
 10
-179.7906279645613
 20
57.49974022121683
 30
0.0
 11
-183.6906279645613
 21
57.49974022121683
 31
0.0
  0
LINE
  5
259C
330
18
100
AcDbEntity
  8
DISEGNO
100
AcDbLine
 10
-189.1906279645614
 20
88.25831886497917
 30
0.0
 11
-189.1906279645614
 21
78.99974022121682
 31
0.0
  0
ARC
  5
259D
330
18
100
AcDbEntity
  8
DISEGNO
100
AcDbCircle
 10
-189.0906279645614
 20
88.25831886497894
 30
0.0
 40
0.0999999999999847
100
AcDbArc
 50
134.9999999997236
 51
179.9999999998697
  0
LINE
  5
259E
330
18
100
AcDbEntity
  8
DISEGNO
100
AcDbLine
 10
-188.9906279645611
 20
88.4997402212166
 30
0.0
 11
-189.1613386426797
 21
88.32902954309792
 31
0.0
  0
LINE
  5
259F
330
18
100
AcDbEntity
  8
DISEGNO
100
AcDbLine
 10
-188.9906279645611
 20
90.49974022121659
 30
0.0
 11
-188.9906279645611
 21
88.4997402212166
 31
0.0
  0
LINE
  5
25A0
330
18
100
AcDbEntity
  8
DISEGNO
100
AcDbLine
 10
-189.1613386426802
 20
90.67045089933527
 30
0.0
 11
-188.9906279645611
 21
90.49974022121659
 31
0.0
  0
ARC
  5
25A1
330
18
100
AcDbEntity
  8
DISEGNO
100
AcDbCircle
 10
-189.0906279645614
 20
90.74116157745379
 30
0.0
 40
0.0999999999999091
100
AcDbArc
 50
179.9999999998697
 51
224.9999999999078
  0
LINE
  5
25A2
330
18
100
AcDbEntity
  8
DISEGNO
100
AcDbLine
 10
-189.1906279645614
 20
98.49974022121683
 30
0.0
 11
-189.1906279645614
 21
90.74116157745402
 31
0.0
  0
ARC
  5
25A3
330
18
100
AcDbEntity
  8
DISEGNO
100
AcDbCircle
 10
-187.6906279645614
 20
98.49974022121683
 30
0.0
 40
1.5
100
AcDbArc
 50
90.0
 51
180.0
  0
LINE
  5
25A4
330
18
100
AcDbEntity
  8
DISEGNO
100
AcDbLine
 10
-179.9320493207983
 20
99.99974022121683
 30
0.0
 11
-187.6906279645614
 21
99.99974022121683
 31
0.0
  0
ARC
  5
25A5
330
18
100
AcDbEntity
  8
DISEGNO
100
AcDbCircle
 10
-179.9320493207988
 20
99.89974022121737
 30
0.0
 40
0.0999999999996632
100
AcDbArc
 50
44.99999999972365
 51
89.99999999973944
  0
LINE
  5
25A6
330
18
100
AcDbEntity
  8
DISEGNO
100
AcDbLine
 10
-179.6906279645613
 20
99.79974022121679
 30
0.0
 11
-179.86133864268
 21
99.97045089933545
 31
0.0
  0
LINE
  5
25A7
330
18
100
AcDbEntity
  8
DISEGNO
100
AcDbLine
 10
-177.6906279645613
 20
99.79974022121679
 30
0.0
 11
-179.6906279645613
 21
99.79974022121679
 31
0.0
  0
LINE
  5
25A8
330
18
100
AcDbEntity
  8
DISEGNO
100
AcDbLine
 10
-177.5199172864427
 20
99.97045089933545
 30
0.0
 11
-177.6906279645613
 21
99.79974022121679
 31
0.0
  0
ARC
  5
25A9
330
18
100
AcDbEntity
  8
DISEGNO
100
AcDbCircle
 10
-177.4492066083239
 20
99.89974022121669
 30
0.0
 40
0.1000000000001364
100
AcDbArc
 50
90.0
 51
135.0000000000092
  0
LINE
  5
25AA
330
18
100
AcDbEntity
  8
DISEGNO
100
AcDbLine
 10
-175.1906279645614
 20
91.49974022121682
 30
0.0
 11
-175.1906279645614
 21
95.99974022121683
 31
0.0
  0
LINE
  5
25AB
330
18
100
AcDbEntity
  8
DISEGNO
100
AcDbLine
 10
-174.409509646357
 20
91.49974022121682
 30
0.0
 11
-175.1906279645614
 21
91.49974022121682
 31
0.0
  0
LINE
  5
25AC
330
18
100
AcDbEntity
  8
DISEGNO
100
AcDbLine
 10
-173.6906279645614
 20
91.49974022121682
 30
0.0
 11
-174.409509646357
 21
91.49974022121682
 31
0.0
  0
LINE
  5
25AD
330
18
100
AcDbEntity
  8
DISEGNO
100
AcDbLine
 10
-173.6906279645614
 20
90.86370125189569
 30
0.0
 11
-173.6906279645614
 21
91.49974022121682
 31
0.0
  0
LINE
  5
25AE
330
18
100
AcDbEntity
  8
DISEGNO
100
AcDbLine
 10
-173.6906279645614
 20
59.0529364780632
 30
0.0
 11
-173.6906279645614
 21
59.1357791905375
 31
0.0
  0
LINE
  5
25AF
330
18
100
AcDbEntity
  8
DISEGNO
100
AcDbLine
 10
-173.6906279645614
 20
58.49974022121682
 30
0.0
 11
-173.6906279645614
 21
59.0529364780632
 31
0.0
  0
LINE
  5
25B0
330
18
100
AcDbEntity
  8
DISEGNO
100
AcDbLine
 10
-174.409509646357
 20
58.49974022121682
 30
0.0
 11
-173.6906279645614
 21
58.49974022121682
 31
0.0
  0
LINE
  5
25B1
330
18
100
AcDbEntity
  8
DISEGNO
100
AcDbLine
 10
-175.1906279645614
 20
58.49974022121682
 30
0.0
 11
-174.409509646357
 21
58.49974022121682
 31
0.0
  0
LINE
  5
25B2
330
18
100
AcDbEntity
  8
DISEGNO
100
AcDbLine
 10
-175.1906279645614
 20
53.99974022121682
 30
0.0
 11
-175.1906279645614
 21
58.49974022121682
 31
0.0
  0
LINE
  5
25B3
330
18
100
AcDbEntity
  8
DISEGNO
100
AcDbLine
 10
-189.1906279645614
 20
59.2583188649794
 30
0.0
 11
-189.1906279645614
 21
51.4997402212166
 31
0.0
  0
ARC
  5
25B4
330
18
100
AcDbEntity
  8
DISEGNO
100
AcDbCircle
 10
-189.0906279645614
 20
59.25831886497917
 30
0.0
 40
0.0999999999999847
100
AcDbArc
 50
134.9999999997236
 51
179.9999999998697
  0
LINE
  5
25B5
330
18
100
AcDbEntity
  8
DISEGNO
100
AcDbLine
 10
-188.9906279645611
 20
59.49974022121683
 30
0.0
 11
-189.1613386426797
 21
59.32902954309816
 31
0.0
  0
LINE
  5
25B6
330
18
100
AcDbEntity
  8
DISEGNO
100
AcDbLine
 10
-188.9906279645611
 20
61.4997402212166
 30
0.0
 11
-188.9906279645611
 21
59.49974022121683
 31
0.0
  0
LINE
  5
25B7
330
18
100
AcDbEntity
  8
DISEGNO
100
AcDbLine
 10
-189.1613386426802
 20
61.67045089933549
 30
0.0
 11
-188.9906279645611
 21
61.4997402212166
 31
0.0
  0
ARC
  5
25B8
330
18
100
AcDbEntity
  8
DISEGNO
100
AcDbCircle
 10
-189.0906279645614
 20
61.7411615774538
 30
0.0
 40
0.0999999999999091
100
AcDbArc
 50
179.9999999998697
 51
224.9999999998065
  0
LINE
  5
25B9
330
18
100
AcDbEntity
  8
DISEGNO
100
AcDbLine
 10
-189.1906279645614
 20
70.99974022121682
 30
0.0
 11
-189.1906279645614
 21
61.74116157745402
 31
0.0
  0
LINE
  5
25BA
330
18
100
AcDbEntity
  8
DISEGNO
100
AcDbLine
 10
-188.1906279645614
 20
70.99974022121682
 30
0.0
 11
-189.1906279645614
 21
70.99974022121682
 31
0.0
  0
LINE
  5
25BE
330
18
100
AcDbEntity
  8
DISEGNO
100
AcDbLine
 10
-185.1906279645614
 20
70.99974022121682
 30
0.0
 11
-187.1001279645611
 21
70.99974022121705
 31
0.0
  0
LINE
  5
25BF
330
18
100
AcDbEntity
  8
DISEGNO
100
AcDbLine
 10
-185.1906279645614
 20
63.99974022121682
 30
0.0
 11
-185.1906279645614
 21
70.99974022121682
 31
0.0
  0
LINE
  5
25C0
330
18
100
AcDbEntity
  8
DISEGNO
100
AcDbLine
 10
-180.6906279645613
 20
63.99974022121682
 30
0.0
 11
-185.1906279645614
 21
63.99974022121682
 31
0.0
  0
LINE
  5
25C1
330
18
100
AcDbEntity
  8
DISEGNO
100
AcDbLine
 10
-180.6906279645613
 20
64.78085853942116
 30
0.0
 11
-180.6906279645613
 21
63.99974022121682
 31
0.0
  0
LINE
  5
25C2
330
18
100
AcDbEntity
  8
DISEGNO
100
AcDbLine
 10
-180.6906279645613
 20
65.49974022121682
 30
0.0
 11
-180.6906279645613
 21
64.78085853942116
 31
0.0
  0
LINE
  5
25C3
330
18
100
AcDbEntity
  8
DISEGNO
100
AcDbLine
 10
-180.0545889952404
 20
65.49974022121682
 30
0.0
 11
-180.6906279645613
 21
65.49974022121682
 31
0.0
  0
LINE
  5
25C4
330
18
100
AcDbEntity
  8
DISEGNO
100
AcDbLine
 10
-174.9224429151713
 20
70.63188630128547
 30
0.0
 11
-180.0545889952404
 21
65.49974022121682
 31
0.0
  0
ARC
  5
25C5
330
18
100
AcDbEntity
  8
DISEGNO
100
AcDbCircle
 10
-176.3366564775442
 20
72.04609986365835
 30
0.0
 40
1.999999999999735
100
AcDbArc
 50
315.0000000000092
 51
13.66774850241505
  0
ARC
  5
25C6
330
18
100
AcDbEntity
  8
DISEGNO
100
AcDbCircle
 10
-164.1906279645609
 20
74.99974022121728
 30
0.0
 40
10.50000000000045
100
AcDbArc
 50
180.0
 51
193.6677485024024
  0
ARC
  5
25C7
330
18
100
AcDbEntity
  8
DISEGNO
100
AcDbCircle
 10
-164.1906279645614
 20
74.99974022121614
 30
0.0
 40
10.5
100
AcDbArc
 50
166.3322514975976
 51
180.0
  0
ARC
  5
25C8
330
18
100
AcDbEntity
  8
DISEGNO
100
AcDbCircle
 10
-176.3366564775442
 20
77.95338057877484
 30
0.0
 40
1.999999999999855
100
AcDbArc
 50
346.3322514975975
 51
45.0
  0
LINE
  5
25C9
330
18
100
AcDbEntity
  8
DISEGNO
100
AcDbLine
 10
-180.05458899524
 20
84.49974022121683
 30
0.0
 11
-174.9224429151713
 21
79.36759414114795
 31
0.0
  0
LINE
  5
25CA
330
18
100
AcDbEntity
  8
DISEGNO
100
AcDbLine
 10
-180.1374317077147
 20
84.49974022121683
 30
0.0
 11
-180.05458899524
 21
84.49974022121683
 31
0.0
  0
LINE
  5
25CB
330
18
100
AcDbEntity
  8
DISEGNO
100
AcDbLine
 10
-180.6906279645613
 20
84.49974022121683
 30
0.0
 11
-180.1374317077147
 21
84.49974022121683
 31
0.0
  0
LINE
  5
25CC
330
18
100
AcDbEntity
  8
DISEGNO
100
AcDbLine
 10
-180.6906279645613
 20
85.21862190301249
 30
0.0
 11
-180.6906279645613
 21
84.49974022121683
 31
0.0
  0
LINE
  5
25CD
330
18
100
AcDbEntity
  8
DISEGNO
100
AcDbLine
 10
-180.6906279645613
 20
85.99974022121683
 30
0.0
 11
-180.6906279645613
 21
85.21862190301249
 31
0.0
  0
LINE
  5
25CE
330
18
100
AcDbEntity
  8
DISEGNO
100
AcDbLine
 10
-185.1906279645614
 20
85.99974022121683
 30
0.0
 11
-180.6906279645613
 21
85.99974022121683
 31
0.0
  0
LINE
  5
25CF
330
18
100
AcDbEntity
  8
DISEGNO
100
AcDbLine
 10
-185.1906279645614
 20
70.99974022121682
 30
0.0
 11
-185.1906279645614
 21
85.99974022121683
 31
0.0
  0
LINE
  5
25D0
330
18
100
AcDbEntity
  8
DISEGNO
100
AcDbLine
 10
-187.1001279645611
 20
78.99974022121682
 30
0.0
 11
-185.1906279645614
 21
78.99974022121682
 31
0.0
  0
LINE
  5
25D4
330
18
100
AcDbEntity
  8
DISEGNO
100
AcDbLine
 10
-189.1906279645614
 20
78.99974022121682
 30
0.0
 11
-188.1906279645614
 21
78.99974022121682
 31
0.0
  0
ARC
  5
25D5
330
18
100
AcDbEntity
  8
DISEGNO
100
AcDbCircle
 10
-181.6906279645613
 20
57.49974022121683
 30
0.0
 40
3.400000000000447
100
AcDbArc
 50
255.8518859860608
 51
14.14811401393624
  0
ARC
  5
25D6
330
18
100
AcDbEntity
  8
DISEGNO
100
AcDbCircle
 10
-182.643902522539
 20
53.71803853849314
 30
0.0
 40
0.4999999999996021
100
AcDbArc
 50
75.85188598603522
 51
134.9999999999816
  0
LINE
  5
25D7
330
18
100
AcDbEntity
  8
DISEGNO
100
AcDbLine
 10
-183.368580580307
 20
53.70046726191117
 30
0.0
 11
-182.9974559131319
 21
54.07159192908626
 31
0.0
  0
ARC
  5
25D8
330
18
100
AcDbEntity
  8
DISEGNO
100
AcDbCircle
 10
-183.7221339709003
 20
54.05402065250473
 30
0.0
 40
0.5000000000002084
100
AcDbArc
 50
239.4775121859131
 51
314.9999999999816
  0
ARC
  5
25D9
330
18
100
AcDbEntity
  8
DISEGNO
100
AcDbCircle
 10
-181.6906279645618
 20
57.49974022121591
 30
0.0
 40
4.499999999998762
100
AcDbArc
 50
210.5224878140646
 51
239.4775121859419
  0
ARC
  5
25DA
330
18
100
AcDbEntity
  8
DISEGNO
100
AcDbCircle
 10
-185.1363475332737
 20
55.46823421487761
 30
0.0
 40
0.4999999999997629
100
AcDbArc
 50
134.9999999999724
 51
210.5224878140755
  0
LINE
  5
25DB
330
18
100
AcDbEntity
  8
DISEGNO
100
AcDbLine
 10
-185.1187762566919
 20
56.1929122726458
 30
0.0
 11
-185.4899009238665
 21
55.82178760547094
 31
0.0
  0
ARC
  5
25DC
330
18
100
AcDbEntity
  8
DISEGNO
100
AcDbCircle
 10
-185.4723296472848
 20
56.54646566323913
 30
0.0
 40
0.4999999999998389
100
AcDbArc
 50
314.9999999999724
 51
14.14811401393624
  0
ARC
  5
25DD
330
18
100
AcDbEntity
  8
DISEGNO
100
AcDbCircle
 10
-181.6906279645613
 20
57.49974022121683
 30
0.0
 40
3.400000000000227
100
AcDbArc
 50
75.85188598606041
 51
194.1481140139362
  0
ARC
  5
25DE
330
18
100
AcDbEntity
  8
DISEGNO
100
AcDbCircle
 10
-180.7373534065837
 20
61.28144190394073
 30
0.0
 40
0.5000000000002453
100
AcDbArc
 50
255.8518859860352
 51
314.9999999999816
  0
LINE
  5
25DF
330
18
100
AcDbEntity
  8
DISEGNO
100
AcDbLine
 10
-178.337074573968
 20
62.9746139553697
 30
0.0
 11
-180.3838000159903
 21
60.92788851334717
 31
0.0
  0
ARC
  5
25E0
330
18
100
AcDbEntity
  8
DISEGNO
100
AcDbCircle
 10
-178.6906279645609
 20
63.32816734596281
 30
0.0
 40
0.4999999999995453
100
AcDbArc
 50
314.9999999999816
 51
0.0
  0
LINE
  5
25E1
330
18
100
AcDbEntity
  8
DISEGNO
100
AcDbLine
 10
-178.1906279645613
 20
63.62106056477637
 30
0.0
 11
-178.1906279645613
 21
63.32816734596281
 31
0.0
  0
ARC
  5
25E2
330
18
100
AcDbEntity
  8
DISEGNO
100
AcDbCircle
 10
-177.6906279645613
 20
63.62106056477637
 30
0.0
 40
0.5000000000000844
100
AcDbArc
 50
135.0000000000092
 51
180.0
  0
LINE
  5
25E3
330
18
100
AcDbEntity
  8
DISEGNO
100
AcDbLine
 10
-173.3103590306459
 20
68.70843627987847
 30
0.0
 11
-178.0441813551547
 21
63.97461395536971
 31
0.0
  0
ARC
  5
25E4
330
18
100
AcDbEntity
  8
DISEGNO
100
AcDbCircle
 10
-172.9568056400526
 20
68.35488288928513
 30
0.0
 40
0.5000000000001138
100
AcDbArc
 50
37.1625202368972
 51
135.0000000000092
  0
ARC
  5
25E5
330
18
100
AcDbEntity
  8
DISEGNO
100
AcDbCircle
 10
-175.5693076210018
 20
61.49974022121682
 30
0.0
 40
0.5
100
AcDbArc
 50
270.0
 51
315.0000000000092
  0
LINE
  5
25E6
330
18
100
AcDbEntity
  8
DISEGNO
100
AcDbLine
 10
-175.8622008398151
 20
60.99974022121682
 30
0.0
 11
-175.5693076210018
 21
60.99974022121682
 31
0.0
  0
ARC
  5
25E7
330
18
100
AcDbEntity
  8
DISEGNO
100
AcDbCircle
 10
-175.8622008398151
 20
60.49974022121682
 30
0.0
 40
0.4999999999999237
100
AcDbArc
 50
90.0
 51
135.0000000000184
  0
LINE
  5
25E8
330
18
100
AcDbEntity
  8
DISEGNO
100
AcDbLine
 10
-178.2624796724308
 20
58.80656816978739
 30
0.0
 11
-176.2157542304085
 21
60.85329361180993
 31
0.0
  0
ARC
  5
25E9
330
18
100
AcDbEntity
  8
DISEGNO
100
AcDbCircle
 10
-177.9089262818379
 20
58.45301477919406
 30
0.0
 40
0.4999999999997832
100
AcDbArc
 50
134.9999999999724
 51
194.148114013911
  0
ARC
  5
25EA
330
18
100
AcDbEntity
  8
DISEGNO
100
AcDbCircle
 10
-181.6906279645613
 20
92.49974022121682
 30
0.0
 40
3.400000000000227
100
AcDbArc
 50
165.8518859860637
 51
284.1481140139391
  0
ARC
  5
25EB
330
18
100
AcDbEntity
  8
DISEGNO
100
AcDbCircle
 10
-185.4723296472853
 20
93.45301477919406
 30
0.0
 40
0.5000000000002453
100
AcDbArc
 50
345.851885986089
 51
45.00000000001842
  0
LINE
  5
25EC
330
18
100
AcDbEntity
  8
DISEGNO
100
AcDbLine
 10
-185.4899009238665
 20
94.17769283696248
 30
0.0
 11
-185.1187762566919
 21
93.80656816978762
 31
0.0
  0
ARC
  5
25ED
330
18
100
AcDbEntity
  8
DISEGNO
100
AcDbCircle
 10
-185.1363475332737
 20
94.53124622755581
 30
0.0
 40
0.4999999999997013
100
AcDbArc
 50
149.4775121859244
 51
225.0000000000276
  0
ARC
  5
25EE
330
18
100
AcDbEntity
  8
DISEGNO
100
AcDbCircle
 10
-181.6906279645613
 20
92.49974022121728
 30
0.0
 40
4.499999999999224
100
AcDbArc
 50
120.5224878140869
 51
149.4775121859354
  0
ARC
  5
25EF
330
18
100
AcDbEntity
  8
DISEGNO
100
AcDbCircle
 10
-183.7221339709003
 20
95.94545978992869
 30
0.0
 40
0.5000000000000844
100
AcDbArc
 50
44.99999999999078
 51
120.5224878140869
  0
LINE
  5
25F0
330
18
100
AcDbEntity
  8
DISEGNO
100
AcDbLine
 10
-182.9974559131319
 20
95.92788851334717
 30
0.0
 11
-183.368580580307
 21
96.29901318052203
 31
0.0
  0
ARC
  5
25F1
330
18
100
AcDbEntity
  8
DISEGNO
100
AcDbCircle
 10
-182.643902522539
 20
96.28144190394028
 30
0.0
 40
0.4999999999998944
100
AcDbArc
 50
225.0000000000184
 51
284.1481140139648
  0
ARC
  5
25F2
330
18
100
AcDbEntity
  8
DISEGNO
100
AcDbCircle
 10
-181.6906279645613
 20
92.49974022121682
 30
0.0
 40
3.400000000000282
100
AcDbArc
 50
345.8518859860638
 51
104.1481140139392
  0
ARC
  5
25F3
330
18
100
AcDbEntity
  8
DISEGNO
100
AcDbCircle
 10
-177.9089262818379
 20
91.54646566323959
 30
0.0
 40
0.4999999999999237
100
AcDbArc
 50
165.8518859861015
 51
225.0000000000552
  0
LINE
  5
25F4
330
18
100
AcDbEntity
  8
DISEGNO
100
AcDbLine
 10
-176.2157542304085
 20
89.14618683062348
 30
0.0
 11
-178.2624796724308
 21
91.19291227264602
 31
0.0
  0
ARC
  5
25F5
330
18
100
AcDbEntity
  8
DISEGNO
100
AcDbCircle
 10
-175.8622008398151
 20
89.49974022121683
 30
0.0
 40
0.5
100
AcDbArc
 50
224.9999999999908
 51
270.0
  0
LINE
  5
25F6
330
18
100
AcDbEntity
  8
DISEGNO
100
AcDbLine
 10
-175.5693076210018
 20
88.99974022121682
 30
0.0
 11
-175.8622008398151
 21
88.99974022121682
 31
0.0
  0
ARC
  5
25F7
330
18
100
AcDbEntity
  8
DISEGNO
100
AcDbCircle
 10
-175.5693076210018
 20
88.49974022121683
 30
0.0
 40
0.4999999999999237
100
AcDbArc
 50
44.99999999998157
 51
90.0
  0
ARC
  5
25F8
330
18
100
AcDbEntity
  8
DISEGNO
100
AcDbCircle
 10
-172.9568056400526
 20
81.64459755314807
 30
0.0
 40
0.4999999999999237
100
AcDbArc
 50
224.9999999999816
 51
322.837479763113
  0
LINE
  5
25F9
330
18
100
AcDbEntity
  8
DISEGNO
100
AcDbLine
 10
-178.0441813551547
 20
86.02486648706372
 30
0.0
 11
-173.3103590306459
 21
81.29104416255495
 31
0.0
  0
ARC
  5
25FA
330
18
100
AcDbEntity
  8
DISEGNO
100
AcDbCircle
 10
-177.6906279645613
 20
86.37841987765682
 30
0.0
 40
0.5
100
AcDbArc
 50
179.9999999999739
 51
224.9999999999816
  0
LINE
  5
25FB
330
18
100
AcDbEntity
  8
DISEGNO
100
AcDbLine
 10
-178.1906279645613
 20
86.67131309647038
 30
0.0
 11
-178.1906279645613
 21
86.37841987765705
 31
0.0
  0
ARC
  5
25FC
330
18
100
AcDbEntity
  8
DISEGNO
100
AcDbCircle
 10
-178.6906279645613
 20
86.67131309647061
 30
0.0
 40
0.4999999999999237
100
AcDbArc
 50
359.999999999974
 51
44.99999999998157
  0
LINE
  5
25FD
330
18
100
AcDbEntity
  8
DISEGNO
100
AcDbLine
 10
-180.3838000159903
 20
89.07159192908626
 30
0.0
 11
-178.337074573968
 21
87.02486648706372
 31
0.0
  0
ARC
  5
25FE
330
18
100
AcDbEntity
  8
DISEGNO
100
AcDbCircle
 10
-180.7373534065837
 20
88.71803853849247
 30
0.0
 40
0.5000000000005559
100
AcDbArc
 50
45.00000000002763
 51
104.1481140139392
  0
LINE
  5
25FF
330
18
100
AcDbEntity
  8
DISEGNO
100
AcDbLine
 10
-168.1906279645613
 20
99.99974022121683
 30
0.0
 11
-177.4492066083239
 21
99.99974022121683
 31
0.0
  0
LINE
  5
2600
330
18
100
AcDbEntity
  8
DISEGNO
100
AcDbLine
 10
-175.1906279645614
 20
95.99974022121683
 30
0.0
 11
-168.1906279645613
 21
95.99974022121683
 31
0.0
  0
LINE
  5
2601
330
18
100
AcDbEntity
  8
DISEGNO
100
AcDbLine
 10
-168.5584818844927
 20
85.73155517182703
 30
0.0
 11
-173.6906279645614
 21
90.86370125189569
 31
0.0
  0
LINE
  5
2602
330
18
100
AcDbEntity
  8
DISEGNO
100
AcDbLine
 10
-173.6906279645614
 20
59.1357791905375
 30
0.0
 11
-168.5584818844922
 21
64.26792527060661
 31
0.0
  0
LINE
  5
2603
330
18
100
AcDbEntity
  8
DISEGNO
100
AcDbLine
 10
-168.1906279645613
 20
53.99974022121682
 30
0.0
 11
-175.1906279645614
 21
53.99974022121682
 31
0.0
  0
ARC
  5
2604
330
18
100
AcDbEntity
  8
DISEGNO
100
AcDbCircle
 10
-164.1906279645609
 20
74.99974022121683
 30
0.0
 40
10.50000000000053
100
AcDbArc
 50
217.1625202369233
 51
232.8374797630845
  0
LINE
  5
2605
330
18
100
AcDbEntity
  8
DISEGNO
100
AcDbLine
 10
-175.2157542304085
 20
61.14618683062349
 30
0.0
 11
-170.4819319058997
 21
65.88000915513226
 31
0.0
  0
LINE
  5
2606
330
18
100
AcDbEntity
  8
DISEGNO
100
AcDbLine
 10
-170.4819319058993
 20
84.11947128730117
 30
0.0
 11
-175.2157542304085
 21
88.85329361180993
 31
0.0
  0
ARC
  5
2607
330
18
100
AcDbEntity
  8
DISEGNO
100
AcDbCircle
 10
-164.1906279645614
 20
74.99974022121683
 30
0.0
 40
10.50000000000008
100
AcDbArc
 50
127.1625202369155
 51
142.8374797630766
  0
LINE
  5
261B
330
18
100
AcDbEntity
  8
NORMALI
100
AcDbLine
 10
-179.5836679645613
 20
77.39974022121692
 30
0.0
 11
-179.5836679645613
 21
72.59974022121696
 31
0.0
  0
LINE
  5
261C
330
18
100
AcDbEntity
  8
NORMALI
100
AcDbLine
 10
-179.5836679645613
 20
77.39974022121692
 30
0.0
 11
-180.1836679645607
 21
77.99974022121682
 31
0.0
  0
LINE
  5
261D
330
18
100
AcDbEntity
  8
NORMALI
100
AcDbLine
 10
-180.1836679645607
 20
71.99974022121683
 30
0.0
 11
-179.5836679645613
 21
72.59974022121696
 31
0.0
  0
LINE
  5
261E
330
18
100
AcDbEntity
  8
NORMALI
100
AcDbLine
 10
-180.1836679645607
 20
71.99974022121683
 30
0.0
 11
-180.1836679645607
 21
77.99974022121682
 31
0.0
  0
LINE
  5
261F
330
18
100
AcDbEntity
  8
DISEGNO
  6
Continuous
100
AcDbLine
 10
-185.1906279645614
 20
84.99974022121682
 30
0.0
 11
-181.1906279645613
 21
84.99974022121682
 31
0.0
  0
LINE
  5
2620
330
18
100
AcDbEntity
  8
DISEGNO
  6
Continuous
100
AcDbLine
 10
-181.1906279645613
 20
84.99974022121682
 30
0.0
 11
-181.1906279645613
 21
71.99974022121683
 31
0.0
  0
LINE
  5
2623
330
18
100
AcDbEntity
  8
DISEGNO
  6
Continuous
100
AcDbLine
 10
-181.1906279645613
 20
64.99974022121683
 30
0.0
 11
-185.1906279645614
 21
64.99974022121683
 31
0.0
  0
LINE
  5
2624
330
18
100
AcDbEntity
  8
DISEGNO
  6
Continuous
100
AcDbLine
 10
-181.1906279645613
 20
71.99974022121683
 30
0.0
 11
-181.1906279645613
 21
64.99974022121683
 31
0.0
  0
ARC
  5
2633
330
18
100
AcDbEntity
  8
DISEGNO
100
AcDbCircle
 10
-114.1906279645609
 20
74.99974022121818
 30
0.0
 40
6.849999999998999
100
AcDbArc
 50
110.1410207880936
 51
121.2875506404797
  0
ARC
  5
2634
330
18
100
AcDbEntity
  8
DISEGNO
100
AcDbCircle
 10
-114.1906279645609
 20
74.99974022121728
 30
0.0
 40
6.850000000000763
100
AcDbArc
 50
238.7124493595269
 51
249.8589792119064
  0
ARC
  5
2635
330
18
100
AcDbEntity
  8
DISEGNO
100
AcDbCircle
 10
-117.1442683221194
 20
87.14576873420014
 30
0.0
 40
2.000000000000123
100
AcDbArc
 50
224.9999999999908
 51
283.6677485023899
  0
ARC
  5
2636
330
18
100
AcDbEntity
  8
DISEGNO
100
AcDbCircle
 10
-117.1442683221194
 20
62.85371170823305
 30
0.0
 40
2.000000000000498
100
AcDbArc
 50
76.33225149761013
 51
135.0
  0
ARC
  5
263C
330
18
100
AcDbEntity
  8
DISEGNO
100
AcDbCircle
 10
-158.6725950254404
 20
80.6531739108234
 30
0.0
 40
0.0999999999999751
100
AcDbArc
 50
314.9691216512116
 51
45.6944040526677
  0
LINE
  5
263D
330
18
100
AcDbEntity
  8
DISEGNO
100
AcDbLine
 10
-159.2740970517493
 20
79.9109746671952
 30
0.0
 11
-158.6019224656133
 21
80.58242513495065
 31
0.0
  0
ARC
  5
263E
330
18
100
AcDbEntity
  8
DISEGNO
100
AcDbCircle
 10
-159.2034244919223
 20
79.84022589132246
 30
0.0
 40
0.0999999999999391
100
AcDbArc
 50
134.9691216512116
 51
224.1446934976525
  0
ARC
  5
263F
330
18
100
AcDbEntity
  8
DISEGNO
100
AcDbCircle
 10
-164.1906279645609
 20
74.99974022121637
 30
0.0
 40
6.850000000000146
100
AcDbArc
 50
32.99816364525161
 51
44.14469349761565
  0
ARC
  5
2640
330
18
100
AcDbEntity
  8
DISEGNO
100
AcDbCircle
 10
-158.3617462016973
 20
78.78479469830859
 30
0.0
 40
0.100000000000002
100
AcDbArc
 50
212.9981636452625
 51
302.173735491691
  0
LINE
  5
2641
330
18
100
AcDbEntity
  8
DISEGNO
100
AcDbLine
 10
-157.5043086500131
 20
79.20606094411709
 30
0.0
 11
-158.308497369364
 21
78.70015096342445
 31
0.0
  0
ARC
  5
2642
330
18
100
AcDbEntity
  8
DISEGNO
100
AcDbCircle
 10
-157.4510598176798
 20
79.12141720923296
 30
0.0
 40
0.0999999999998686
100
AcDbArc
 50
31.44845309018329
 51
122.1737354916911
  0
ARC
  5
2643
330
18
100
AcDbEntity
  8
DISEGNO
100
AcDbCircle
 10
-164.1906279645618
 20
74.99974022121751
 30
0.0
 40
8.00000000000006
100
AcDbArc
 50
19.98011833836581
 51
31.44845309019459
  0
ARC
  5
2644
330
18
100
AcDbEntity
  8
DISEGNO
100
AcDbCircle
 10
-156.7661191262541
 20
77.6991232081034
 30
0.0
 40
0.1000000000001386
100
AcDbArc
 50
289.2548359370961
 51
19.98011833832897
  0
LINE
  5
2645
330
18
100
AcDbEntity
  8
DISEGNO
100
AcDbLine
 10
-157.6300819089338
 20
77.2914067440754
 30
0.0
 11
-156.7331420934483
 21
77.60471708908903
 31
0.0
  0
ARC
  5
2646
330
18
100
AcDbEntity
  8
DISEGNO
100
AcDbCircle
 10
-157.5971048761284
 20
77.19700062506103
 30
0.0
 40
0.0999999999998246
100
AcDbArc
 50
109.254835936849
 51
198.4304077833443
  0
ARC
  5
2647
330
18
100
AcDbEntity
  8
DISEGNO
100
AcDbCircle
 10
-164.1906279645609
 20
74.99974022121546
 30
0.0
 40
6.850000000000165
100
AcDbArc
 50
7.28387793096111
 51
18.43040778334434
  0
ARC
  5
2648
330
18
100
AcDbEntity
  8
DISEGNO
100
AcDbCircle
 10
-157.2967133722523
 20
75.88089945424553
 30
0.0
 40
0.0999999999999819
100
AcDbArc
 50
187.2838779309094
 51
276.4594497773651
  0
LINE
  5
2649
330
18
100
AcDbEntity
  8
DISEGNO
100
AcDbLine
 10
-156.3414082581189
 20
75.88841901583259
 30
0.0
 11
-157.2854633722522
 21
75.78153428177552
 31
0.0
  0
ARC
  5
264A
330
18
100
AcDbEntity
  8
DISEGNO
100
AcDbCircle
 10
-156.3301582581189
 20
75.78905384336258
 30
0.0
 40
0.1000000000000527
100
AcDbArc
 50
5.734167375959501
 51
96.45944977736514
  0
ARC
  5
264B
330
18
100
AcDbEntity
  8
DISEGNO
100
AcDbCircle
 10
-164.1906279645618
 20
74.99974022121683
 30
0.0
 40
8.000000000000822
100
AcDbArc
 50
354.2658326240924
 51
5.734167375907568
  0
ARC
  5
264C
330
18
100
AcDbEntity
  8
DISEGNO
100
AcDbCircle
 10
-156.3301582581189
 20
74.21042659907084
 30
0.0
 40
0.0999999999999819
100
AcDbArc
 50
263.5405502226348
 51
354.2658326240405
  0
LINE
  5
264D
330
18
100
AcDbEntity
  8
DISEGNO
100
AcDbLine
 10
-157.2854633722522
 20
74.2179461606579
 30
0.0
 11
-156.3414082581189
 21
74.11106142660083
 31
0.0
  0
ARC
  5
264E
330
18
100
AcDbEntity
  8
DISEGNO
100
AcDbCircle
 10
-157.2967133722523
 20
74.11858098818789
 30
0.0
 40
0.0999999999998525
100
AcDbArc
 50
83.54055022263485
 51
172.7161220690906
  0
ARC
  5
264F
330
18
100
AcDbEntity
  8
DISEGNO
100
AcDbCircle
 10
-164.1906279645609
 20
74.99974022121818
 30
0.0
 40
6.850000000000203
100
AcDbArc
 50
341.5695922166557
 51
352.7161220690389
  0
ARC
  5
2650
330
18
100
AcDbEntity
  8
DISEGNO
100
AcDbCircle
 10
-157.5971048761284
 20
72.80247981737239
 30
0.0
 40
0.0999999999999887
100
AcDbArc
 50
161.5695922166556
 51
250.745164063151
  0
LINE
  5
2651
330
18
100
AcDbEntity
  8
DISEGNO
100
AcDbLine
 10
-156.7331420934483
 20
72.39476335334439
 30
0.0
 11
-157.6300819089338
 21
72.70807369835802
 31
0.0
  0
ARC
  5
2652
330
18
100
AcDbEntity
  8
DISEGNO
100
AcDbCircle
 10
-156.7661191262541
 20
72.30035723433025
 30
0.0
 40
0.1000000000002528
100
AcDbArc
 50
340.0198816615519
 51
70.74516406285043
  0
ARC
  5
2653
330
18
100
AcDbEntity
  8
DISEGNO
100
AcDbCircle
 10
-164.1906279645618
 20
74.99974022121591
 30
0.0
 40
8.000000000000026
100
AcDbArc
 50
328.5515469098054
 51
340.0198816616342
  0
ARC
  5
2654
330
18
100
AcDbEntity
  8
DISEGNO
100
AcDbCircle
 10
-157.4510598176803
 20
70.87806323320069
 30
0.0
 40
0.0999999999999523
100
AcDbArc
 50
237.8262645085903
 51
328.5515469098525
  0
LINE
  5
2655
330
18
100
AcDbEntity
  8
DISEGNO
100
AcDbLine
 10
-158.308497369364
 20
71.29932947900897
 30
0.0
 11
-157.5043086500131
 21
70.79341949831633
 31
0.0
  0
ARC
  5
2656
330
18
100
AcDbEntity
  8
DISEGNO
100
AcDbCircle
 10
-158.3617462016973
 20
71.21468574412483
 30
0.0
 40
0.0999999999998342
100
AcDbArc
 50
57.82626450830857
 51
147.0018363547375
  0
ARC
  5
2657
330
18
100
AcDbEntity
  8
DISEGNO
100
AcDbCircle
 10
-164.1906279645609
 20
74.99974022121728
 30
0.0
 40
6.850000000000294
100
AcDbArc
 50
315.8553065023844
 51
327.0018363547484
  0
ARC
  5
2658
330
18
100
AcDbEntity
  8
DISEGNO
100
AcDbCircle
 10
-159.2034244919223
 20
70.15925455111096
 30
0.0
 40
0.0999999999999751
100
AcDbArc
 50
135.8553065023475
 51
225.0308783487884
  0
LINE
  5
2659
330
18
100
AcDbEntity
  8
DISEGNO
100
AcDbLine
 10
-158.6019224656133
 20
69.41705530748277
 30
0.0
 11
-159.2740970517493
 21
70.08850577523822
 31
0.0
  0
ARC
  5
265A
330
18
100
AcDbEntity
  8
DISEGNO
100
AcDbCircle
 10
-158.6725950254404
 20
69.34630653161026
 30
0.0
 40
0.0999999999999252
100
AcDbArc
 50
314.3055959472306
 51
45.03087834868709
  0
ARC
  5
265B
330
18
100
AcDbEntity
  8
DISEGNO
100
AcDbCircle
 10
-119.1778314372004
 20
79.84022589132246
 30
0.0
 40
0.0999999999999751
100
AcDbArc
 50
315.8553065023475
 51
45.03087834878843
  0
LINE
  5
265C
330
18
100
AcDbEntity
  8
DISEGNO
100
AcDbLine
 10
-119.7793334635089
 20
80.58242513495065
 30
0.0
 11
-119.1071588773734
 21
79.9109746671952
 31
0.0
  0
ARC
  5
265D
330
18
100
AcDbEntity
  8
DISEGNO
100
AcDbCircle
 10
-119.7086609036823
 20
80.65317391082363
 30
0.0
 40
0.0999999999997624
100
AcDbArc
 50
134.3055959473323
 51
225.0308783490555
  0
ARC
  5
265E
330
18
100
AcDbEntity
  8
DISEGNO
100
AcDbCircle
 10
-114.1906279645618
 20
74.99974022121569
 30
0.0
 40
8.000000000000568
100
AcDbArc
 50
122.8372611955133
 51
134.3055959473323
  0
ARC
  5
265F
330
18
100
AcDbEntity
  8
DISEGNO
100
AcDbCircle
 10
-118.4744404250132
 20
81.63743189857564
 30
0.0
 40
0.1000000000002051
100
AcDbArc
 50
32.11197879400671
 51
122.8372611953975
  0
LINE
  5
2660
330
18
100
AcDbEntity
  8
DISEGNO
100
AcDbLine
 10
-117.8846964586705
 20
80.88585591501965
 30
0.0
 11
-118.3897393446441
 21
81.69058946609288
 31
0.0
  0
ARC
  5
2661
330
18
100
AcDbEntity
  8
DISEGNO
100
AcDbCircle
 10
-117.7999953783014
 20
80.93901348253689
 30
0.0
 40
0.1000000000000715
100
AcDbArc
 50
212.1119787940068
 51
301.2875506403858
  0
ARC
  5
2662
330
18
100
AcDbEntity
  8
DISEGNO
100
AcDbCircle
 10
-117.7999953783014
 20
69.06046695989653
 30
0.0
 40
0.1000000000002051
100
AcDbArc
 50
58.71244935961419
 51
147.8880212059933
  0
LINE
  5
2663
330
18
100
AcDbEntity
  8
DISEGNO
100
AcDbLine
 10
-118.3897393446441
 20
68.30889097634053
 30
0.0
 11
-117.8846964586705
 21
69.11362452741378
 31
0.0
  0
ARC
  5
2664
330
18
100
AcDbEntity
  8
DISEGNO
100
AcDbCircle
 10
-118.4744404250132
 20
68.36204854385778
 30
0.0
 40
0.0999999999998073
100
AcDbArc
 50
237.1627388046025
 51
327.8880212059933
  0
ARC
  5
2665
330
18
100
AcDbEntity
  8
DISEGNO
100
AcDbCircle
 10
-114.1906279645609
 20
74.99974022121728
 30
0.0
 40
8.000000000000742
100
AcDbArc
 50
225.6944040526676
 51
237.1627388044796
  0
ARC
  5
2666
330
18
100
AcDbEntity
  8
DISEGNO
100
AcDbCircle
 10
-119.7086609036823
 20
69.34630653160979
 30
0.0
 40
0.0999999999998146
100
AcDbArc
 50
134.9691216509444
 51
225.694404052594
  0
LINE
  5
2667
330
18
100
AcDbEntity
  8
DISEGNO
100
AcDbLine
 10
-119.1071588773734
 20
70.08850577523822
 30
0.0
 11
-119.7793334635089
 21
69.41705530748277
 31
0.0
  0
ARC
  5
2668
330
18
100
AcDbEntity
  8
DISEGNO
100
AcDbCircle
 10
-119.1778314372004
 20
70.15925455111096
 30
0.0
 40
0.0999999999999391
100
AcDbArc
 50
314.9691216512116
 51
44.1446934976525
  0
ARC
  5
2669
330
18
100
AcDbEntity
  8
DISEGNO
100
AcDbCircle
 10
-114.1906279645618
 20
74.99974022121477
 30
0.0
 40
6.849999999998527
100
AcDbArc
 50
212.9981636452265
 51
224.1446934976157
  0
ARC
  5
266A
330
18
100
AcDbEntity
  8
DISEGNO
100
AcDbCircle
 10
-120.0195097274254
 20
71.2146857441246
 30
0.0
 40
0.1000000000001944
100
AcDbArc
 50
32.99816364522653
 51
122.1737354916264
  0
LINE
  5
266B
330
18
100
AcDbEntity
  8
DISEGNO
100
AcDbLine
 10
-120.8769472791096
 20
70.79341949831633
 30
0.0
 11
-120.0727585597587
 21
71.29932947900897
 31
0.0
  0
ARC
  5
266C
330
18
100
AcDbEntity
  8
DISEGNO
100
AcDbCircle
 10
-120.9301961114424
 20
70.87806323320069
 30
0.0
 40
0.1000000000003751
100
AcDbArc
 50
211.4484530901475
 51
302.1737354914098
  0
ARC
  5
266D
330
18
100
AcDbEntity
  8
DISEGNO
100
AcDbCircle
 10
-114.1906279645618
 20
74.99974022121591
 30
0.0
 40
7.999999999999205
100
AcDbArc
 50
199.9801183383656
 51
211.4484530901946
  0
ARC
  5
266E
330
18
100
AcDbEntity
  8
DISEGNO
100
AcDbCircle
 10
-121.6151368028686
 20
72.30035723433025
 30
0.0
 40
0.099999999999924
100
AcDbArc
 50
109.2548359371495
 51
199.9801183384481
  0
LINE
  5
266F
330
18
100
AcDbEntity
  8
DISEGNO
100
AcDbLine
 10
-120.7511740201889
 20
72.70807369835802
 30
0.0
 11
-121.6481138356744
 21
72.39476335334439
 31
0.0
  0
ARC
  5
2670
330
18
100
AcDbEntity
  8
DISEGNO
100
AcDbCircle
 10
-120.7841510529942
 20
72.80247981737239
 30
0.0
 40
0.0999999999998246
100
AcDbArc
 50
289.2548359368491
 51
18.43040778334434
  0
ARC
  5
2671
330
18
100
AcDbEntity
  8
DISEGNO
100
AcDbCircle
 10
-114.1906279645618
 20
74.99974022121569
 30
0.0
 40
6.849999999999425
100
AcDbArc
 50
187.283877930948
 51
198.4304077833319
  0
ARC
  5
2672
330
18
100
AcDbEntity
  8
DISEGNO
100
AcDbCircle
 10
-121.0845425568704
 20
74.11858098818789
 30
0.0
 40
0.0999999999999308
100
AcDbArc
 50
7.283877930870418
 51
96.45944977710335
  0
LINE
  5
2673
330
18
100
AcDbEntity
  8
DISEGNO
100
AcDbLine
 10
-122.0398476710038
 20
74.11106142660083
 30
0.0
 11
-121.09579255687
 21
74.2179461606579
 31
0.0
  0
ARC
  5
2674
330
18
100
AcDbEntity
  8
DISEGNO
100
AcDbCircle
 10
-122.0510976710038
 20
74.21042659907062
 30
0.0
 40
0.0999999999995776
100
AcDbArc
 50
185.7341673758556
 51
276.4594497773909
  0
ARC
  5
2675
330
18
100
AcDbEntity
  8
DISEGNO
100
AcDbCircle
 10
-114.1906279645609
 20
74.99974022121683
 30
0.0
 40
8.000000000000348
100
AcDbArc
 50
174.2658326240924
 51
185.7341673759075
  0
ARC
  5
2676
330
18
100
AcDbEntity
  8
DISEGNO
100
AcDbCircle
 10
-122.0510976710034
 20
75.78905384336258
 30
0.0
 40
0.0999999999999819
100
AcDbArc
 50
83.54055022263485
 51
174.2658326240405
  0
LINE
  5
2677
330
18
100
AcDbEntity
  8
DISEGNO
100
AcDbLine
 10
-121.0957925568705
 20
75.78153428177552
 30
0.0
 11
-122.0398476710033
 21
75.88841901583259
 31
0.0
  0
ARC
  5
2678
330
18
100
AcDbEntity
  8
DISEGNO
100
AcDbCircle
 10
-121.0845425568704
 20
75.88089945424576
 30
0.0
 40
0.1000000000003324
100
AcDbArc
 50
263.5405502226606
 51
352.7161220690003
  0
ARC
  5
2679
330
18
100
AcDbEntity
  8
DISEGNO
100
AcDbCircle
 10
-114.1906279645618
 20
74.99974022121773
 30
0.0
 40
6.849999999999412
100
AcDbArc
 50
161.569592216668
 51
172.716122069052
  0
ARC
  5
267A
330
18
100
AcDbEntity
  8
DISEGNO
100
AcDbCircle
 10
-120.7841510529942
 20
77.19700062506103
 30
0.0
 40
0.0999999999999887
100
AcDbArc
 50
341.5695922166557
 51
70.74516406315094
  0
LINE
  5
267B
330
18
100
AcDbEntity
  8
DISEGNO
100
AcDbLine
 10
-121.6481138356744
 20
77.60471708908903
 30
0.0
 11
-120.7511740201889
 21
77.2914067440754
 31
0.0
  0
ARC
  5
267C
330
18
100
AcDbEntity
  8
DISEGNO
100
AcDbCircle
 10
-121.6151368028686
 20
77.6991232081034
 30
0.0
 40
0.1000000000001751
100
AcDbArc
 50
160.019881661671
 51
250.7451640629039
  0
ARC
  5
267D
330
18
100
AcDbEntity
  8
DISEGNO
100
AcDbCircle
 10
-114.1906279645613
 20
74.99974022121773
 30
0.0
 40
7.99999999999952
100
AcDbArc
 50
148.5515469098054
 51
160.0198816616341
  0
ARC
  5
267E
330
18
100
AcDbEntity
  8
DISEGNO
100
AcDbCircle
 10
-120.9301961114429
 20
79.12141720923296
 30
0.0
 40
0.100000000000002
100
AcDbArc
 50
57.82626450830857
 51
148.5515469098167
  0
LINE
  5
267F
330
18
100
AcDbEntity
  8
DISEGNO
100
AcDbLine
 10
-120.0727585597587
 20
78.70015096342445
 30
0.0
 11
-120.8769472791096
 21
79.20606094411709
 31
0.0
  0
ARC
  5
2680
330
18
100
AcDbEntity
  8
DISEGNO
100
AcDbCircle
 10
-120.0195097274254
 20
78.78479469830859
 30
0.0
 40
0.0999999999998342
100
AcDbArc
 50
237.8262645083085
 51
327.0018363547372
  0
ARC
  5
2681
330
18
100
AcDbEntity
  8
DISEGNO
100
AcDbCircle
 10
-114.1906279645618
 20
74.99974022121637
 30
0.0
 40
6.850000000000135
100
AcDbArc
 50
135.8553065023843
 51
147.0018363547484
  0
ARC
  5
2682
330
18
100
AcDbEntity
  8
DISEGNO
100
AcDbCircle
 10
-164.1906279645614
 20
74.99974022121683
 30
0.0
 40
10.49999999999993
100
AcDbArc
 50
327.4127858342404
 51
32.58721416575961
  0
ARC
  5
2683
330
18
100
AcDbEntity
  8
DISEGNO
100
AcDbCircle
 10
-164.1906279645627
 20
74.99974022121865
 30
0.0
 40
10.50000000000009
100
AcDbArc
 50
32.587214165749
 51
39.29341097913782
  0
ARC
  5
2684
330
18
100
AcDbEntity
  8
DISEGNO
100
AcDbCircle
 10
-155.2906279645613
 20
82.28259680363089
 30
0.0
 40
1.000000000000454
100
AcDbArc
 50
180.000000000026
 51
219.2934109791746
  0
LINE
  5
2685
330
18
100
AcDbEntity
  8
DISEGNO
100
AcDbLine
 10
-156.2906279645617
 20
85.31395378358956
 30
0.0
 11
-156.2906279645617
 21
82.28259680363043
 31
0.0
  0
ARC
  5
2686
330
18
100
AcDbEntity
  8
DISEGNO
100
AcDbCircle
 10
-155.2906279645613
 20
85.31395378358935
 30
0.0
 40
1.000000000000329
100
AcDbArc
 50
134.9999999999816
 51
179.999999999987
  0
LINE
  5
2687
330
18
100
AcDbEntity
  8
DISEGNO
100
AcDbLine
 10
-153.1048415269342
 20
88.9139537835897
 30
0.0
 11
-155.9977347457479
 21
86.02106056477623
 31
0.0
  0
ARC
  5
2688
330
18
100
AcDbEntity
  8
DISEGNO
100
AcDbCircle
 10
-151.6906279645609
 20
87.4997402212166
 30
0.0
 40
1.999999999999855
100
AcDbArc
 50
45.0
 51
135.0000000000092
  0
LINE
  5
2689
330
18
100
AcDbEntity
  8
DISEGNO
100
AcDbLine
 10
-147.3835211833748
 20
86.02106056477646
 30
0.0
 11
-150.276414402188
 21
88.9139537835897
 31
0.0
  0
ARC
  5
268A
330
18
100
AcDbEntity
  8
DISEGNO
100
AcDbCircle
 10
-148.0906279645614
 20
85.31395378359002
 30
0.0
 40
1.0
100
AcDbArc
 50
359.999999999987
 51
44.99999999999078
  0
LINE
  5
268B
330
18
100
AcDbEntity
  8
DISEGNO
100
AcDbLine
 10
-147.0906279645614
 20
82.28259680362999
 30
0.0
 11
-147.0906279645614
 21
85.31395378358979
 31
0.0
  0
ARC
  5
268C
330
18
100
AcDbEntity
  8
DISEGNO
100
AcDbCircle
 10
-148.0906279645619
 20
82.28259680363022
 30
0.0
 40
1.000000000000406
100
AcDbArc
 50
320.7065890208255
 51
359.999999999987
  0
ARC
  5
268D
330
18
100
AcDbEntity
  8
DISEGNO
100
AcDbCircle
 10
-139.1906279645627
 20
74.99974022121842
 30
0.0
 40
10.49999999999805
100
AcDbArc
 50
140.7065890208517
 51
147.4127858342404
  0
ARC
  5
268E
330
18
100
AcDbEntity
  8
DISEGNO
100
AcDbCircle
 10
-139.1906279645582
 20
74.99974022121228
 30
0.0
 40
10.50000000000518
100
AcDbArc
 50
147.4127858342292
 51
149.9999999999914
  0
ARC
  5
268F
330
18
100
AcDbEntity
  8
DISEGNO
100
AcDbCircle
 10
-146.9848565986212
 20
79.49974022121683
 30
0.0
 40
1.5
100
AcDbArc
 50
150.0000000000141
 51
269.9999999999739
  0
LINE
  5
2690
330
18
100
AcDbEntity
  8
DISEGNO
100
AcDbLine
 10
-145.3487526791155
 20
77.99974022121682
 30
0.0
 11
-146.9848565986217
 21
77.99974022121682
 31
0.0
  0
ARC
  5
2691
330
18
100
AcDbEntity
  8
DISEGNO
100
AcDbCircle
 10
-139.1906279645618
 20
74.99974022121865
 30
0.0
 40
6.849999999998929
100
AcDbArc
 50
148.4589829624181
 51
154.0264485214666
  0
ARC
  5
2692
330
18
100
AcDbEntity
  8
DISEGNO
100
AcDbCircle
 10
-145.1138759584351
 20
78.63534652595785
 30
0.0
 40
0.1000000000000354
100
AcDbArc
 50
328.4589829623714
 51
57.63455480879777
  0
LINE
  5
2693
330
18
100
AcDbEntity
  8
DISEGNO
100
AcDbLine
 10
-145.8628356732379
 20
79.22840955001039
 30
0.0
 11
-145.0603442096894
 21
78.71981161860708
 31
0.0
  0
ARC
  5
2694
330
18
100
AcDbEntity
  8
DISEGNO
100
AcDbCircle
 10
-145.8093039244922
 20
79.31287464265938
 30
0.0
 40
0.1000000000000525
100
AcDbArc
 50
146.9092724072702
 51
237.6345548087326
  0
ARC
  5
2695
330
18
100
AcDbEntity
  8
DISEGNO
100
AcDbCircle
 10
-139.1906279645609
 20
74.99974022121683
 30
0.0
 40
8.000000000000378
100
AcDbArc
 50
135.440937655549
 51
146.909272407364
  0
ARC
  5
2696
330
18
100
AcDbEntity
  8
DISEGNO
100
AcDbCircle
 10
-144.8195956124473
 20
80.54272887527828
 30
0.0
 40
0.0999999999996595
100
AcDbArc
 50
44.71565525426692
 51
135.4409376557241
  0
LINE
  5
2697
330
18
100
AcDbEntity
  8
DISEGNO
100
AcDbLine
 10
-144.0800645612289
 20
79.93794938721726
 30
0.0
 11
-144.74853488697
 21
80.61308776451459
 31
0.0
  0
ARC
  5
2698
330
18
100
AcDbEntity
  8
DISEGNO
100
AcDbCircle
 10
-144.0090038357511
 20
80.00830827645359
 30
0.0
 40
0.0999999999999784
100
AcDbArc
 50
224.7156552540827
 51
313.8912271004794
  0
ARC
  5
2699
330
18
100
AcDbEntity
  8
DISEGNO
100
AcDbCircle
 10
-139.1906279645609
 20
74.99974022121637
 30
0.0
 40
6.850000000000828
100
AcDbArc
 50
122.7446972481247
 51
133.8912271005069
  0
ARC
  5
269A
330
18
100
AcDbEntity
  8
DISEGNO
100
AcDbCircle
 10
-142.9498595464465
 20
80.84530930504092
 30
0.0
 40
0.0999999999998792
100
AcDbArc
 50
302.7446972480885
 51
31.92026909457743
  0
LINE
  5
269B
330
18
100
AcDbEntity
  8
DISEGNO
100
AcDbLine
 10
-143.3673285303884
 20
81.70460206792313
 30
0.0
 11
-142.8649810771589
 21
80.89818316863512
 31
0.0
  0
ARC
  5
269C
330
18
100
AcDbEntity
  8
DISEGNO
100
AcDbCircle
 10
-143.2824500611009
 20
81.75747593151731
 30
0.0
 40
0.0999999999999908
100
AcDbArc
 50
121.1949866930468
 51
211.9202690945774
  0
ARC
  5
269D
330
18
100
AcDbEntity
  8
DISEGNO
100
AcDbCircle
 10
-139.1906279645609
 20
74.99974022121728
 30
0.0
 40
7.99999999999984
100
AcDbArc
 50
109.7266519412606
 51
121.1949866930758
  0
ARC
  5
269E
330
18
100
AcDbEntity
  8
DISEGNO
100
AcDbCircle
 10
-141.8571399306265
 20
82.43611796409913
 30
0.0
 40
0.1000000000000048
100
AcDbArc
 50
19.00136953975213
 51
109.7266519411538
  0
LINE
  5
269F
330
18
100
AcDbEntity
  8
DISEGNO
100
AcDbLine
 10
-141.4532494622526
 20
81.57035997571393
 30
0.0
 11
-141.7625888512984
 21
82.46867703960651
 31
0.0
  0
ARC
  5
26A0
330
18
100
AcDbEntity
  8
DISEGNO
100
AcDbCircle
 10
-141.3586983829245
 20
81.60291905122154
 30
0.0
 40
0.1000000000000835
100
AcDbArc
 50
199.0013695398801
 51
288.1769413861541
  0
ARC
  5
26A1
330
18
100
AcDbEntity
  8
DISEGNO
100
AcDbCircle
 10
-139.1906279645618
 20
74.99974022121728
 30
0.0
 40
6.849999999999681
100
AcDbArc
 50
97.03041153382189
 51
108.1769413862119
  0
ARC
  5
26A2
330
18
100
AcDbEntity
  8
DISEGNO
100
AcDbCircle
 10
-140.0412812157165
 20
81.89748543587233
 30
0.0
 40
0.100000000000253
100
AcDbArc
 50
277.0304115341369
 51
6.205983380307731
  0
LINE
  5
26A3
330
18
100
AcDbEntity
  8
DISEGNO
100
AcDbLine
 10
-140.0445746166065
 20
82.85281446736144
 30
0.0
 11
-139.9418672476949
 21
81.90829575327143
 31
0.0
  0
ARC
  5
26A4
330
18
100
AcDbEntity
  8
DISEGNO
100
AcDbCircle
 10
-139.9451606485854
 20
82.86362478476053
 30
0.0
 40
0.0999999999999967
100
AcDbArc
 50
95.48070097871031
 51
186.2059833803335
  0
ARC
  5
26A5
330
18
100
AcDbEntity
  8
DISEGNO
100
AcDbCircle
 10
-139.1906279645627
 20
74.99974022121955
 30
0.0
 40
7.999999999997271
100
AcDbArc
 50
90.0
 51
95.48070097878845
  0
ARC
  5
26A6
330
18
100
AcDbEntity
  8
DISEGNO
100
AcDbCircle
 10
-139.19062796456
 20
74.99974022121364
 30
0.0
 40
8.000000000003176
100
AcDbArc
 50
84.51929902121156
 51
90.0
  0
ARC
  5
26A7
330
18
100
AcDbEntity
  8
DISEGNO
100
AcDbCircle
 10
-138.4360952805373
 20
82.86362478476053
 30
0.0
 40
0.1000000000002284
100
AcDbArc
 50
353.7940166198246
 51
84.51929902102753
  0
LINE
  5
26A8
330
18
100
AcDbEntity
  8
DISEGNO
100
AcDbLine
 10
-138.4393886814278
 20
81.9082957532712
 30
0.0
 11
-138.3366813125158
 21
82.85281446736167
 31
0.0
  0
ARC
  5
26A9
330
18
100
AcDbEntity
  8
DISEGNO
100
AcDbCircle
 10
-138.3399747134067
 20
81.89748543587212
 30
0.0
 40
0.0999999999998042
100
AcDbArc
 50
173.7940166196664
 51
262.9695884661006
  0
ARC
  5
26AA
330
18
100
AcDbEntity
  8
DISEGNO
100
AcDbCircle
 10
-139.1906279645609
 20
74.999740221215
 30
0.0
 40
6.850000000001923
100
AcDbArc
 50
71.8230586137923
 51
82.9695884661781
  0
ARC
  5
26AB
330
18
100
AcDbEntity
  8
DISEGNO
100
AcDbCircle
 10
-137.0225575461977
 20
81.6029190512213
 30
0.0
 40
0.1000000000000048
100
AcDbArc
 50
251.8230586137923
 51
340.9986304602479
  0
LINE
  5
26AC
330
18
100
AcDbEntity
  8
DISEGNO
100
AcDbLine
 10
-136.6186670778243
 20
82.46867703960651
 30
0.0
 11
-136.9280064668696
 21
81.57035997571393
 31
0.0
  0
ARC
  5
26AD
330
18
100
AcDbEntity
  8
DISEGNO
100
AcDbCircle
 10
-136.5241159984962
 20
82.43611796409913
 30
0.0
 40
0.0999999999998483
100
AcDbArc
 50
70.2733480588462
 51
160.9986304602478
  0
ARC
  5
26AE
330
18
100
AcDbEntity
  8
DISEGNO
100
AcDbCircle
 10
-139.1906279645618
 20
74.99974022121546
 30
0.0
 40
8.000000000001616
100
AcDbArc
 50
58.80501330692413
 51
70.27334805873933
  0
ARC
  5
26AF
330
18
100
AcDbEntity
  8
DISEGNO
100
AcDbCircle
 10
-135.0988058680213
 20
81.75747593151731
 30
0.0
 40
0.099999999999759
100
AcDbArc
 50
328.0797309055275
 51
58.80501330695317
  0
LINE
  5
26B0
330
18
100
AcDbEntity
  8
DISEGNO
100
AcDbLine
 10
-135.5162748519638
 20
80.89818316863512
 30
0.0
 11
-135.0139273987338
 21
81.70460206792336
 31
0.0
  0
ARC
  5
26B1
330
18
100
AcDbEntity
  8
DISEGNO
100
AcDbCircle
 10
-135.4313963826762
 20
80.84530930504092
 30
0.0
 40
0.1000000000000125
100
AcDbArc
 50
148.0797309054225
 51
237.2553027519115
  0
ARC
  5
26B2
330
18
100
AcDbEntity
  8
DISEGNO
100
AcDbCircle
 10
-139.1906279645613
 20
74.99974022121683
 30
0.0
 40
6.850000000000184
100
AcDbArc
 50
46.10877289949304
 51
57.25530275187526
  0
ARC
  5
26B3
330
18
100
AcDbEntity
  8
DISEGNO
100
AcDbCircle
 10
-134.3722520933716
 20
80.00830827645359
 30
0.0
 40
0.0999999999999826
100
AcDbArc
 50
226.1087728995207
 51
315.2843447459173
  0
LINE
  5
26B4
330
18
100
AcDbEntity
  8
DISEGNO
100
AcDbLine
 10
-133.6327210421527
 20
80.61308776451459
 30
0.0
 11
-134.3011913678938
 21
79.93794938721726
 31
0.0
  0
ARC
  5
26B5
330
18
100
AcDbEntity
  8
DISEGNO
100
AcDbCircle
 10
-133.5616603166754
 20
80.54272887527828
 30
0.0
 40
0.1000000000000311
100
AcDbArc
 50
44.55906234427589
 51
135.284344745733
  0
ARC
  5
26B6
330
18
100
AcDbEntity
  8
DISEGNO
100
AcDbCircle
 10
-139.1906279645609
 20
74.99974022121728
 30
0.0
 40
7.999999999999409
100
AcDbArc
 50
33.09072759263592
 51
44.55906234445093
  0
ARC
  5
26B7
330
18
100
AcDbEntity
  8
DISEGNO
100
AcDbCircle
 10
-132.5719520046304
 20
79.31287464265938
 30
0.0
 40
0.0999999999998434
100
AcDbArc
 50
302.3654451912674
 51
33.09072759272976
  0
LINE
  5
26B8
330
18
100
AcDbEntity
  8
DISEGNO
100
AcDbLine
 10
-133.3209117194333
 20
78.71981161860708
 30
0.0
 11
-132.5184202558848
 21
79.22840955001039
 31
0.0
  0
ARC
  5
26B9
330
18
100
AcDbEntity
  8
DISEGNO
100
AcDbCircle
 10
-133.2673799706872
 20
78.63534652595785
 30
0.0
 40
0.100000000000232
100
AcDbArc
 50
122.3654451914191
 51
211.5410170374877
  0
ARC
  5
26BA
330
18
100
AcDbEntity
  8
DISEGNO
100
AcDbCircle
 10
-139.19062796456
 20
74.9997402212191
 30
0.0
 40
6.84999999999793
100
AcDbArc
 50
25.97355147853332
 51
31.54101703758189
  0
LINE
  5
26BB
330
18
100
AcDbEntity
  8
DISEGNO
100
AcDbLine
 10
-131.3963993305015
 20
77.99974022121682
 30
0.0
 11
-133.0325032500072
 21
77.99974022121682
 31
0.0
  0
ARC
  5
26BC
330
18
100
AcDbEntity
  8
DISEGNO
100
AcDbCircle
 10
-131.3963993305015
 20
79.49974022121683
 30
0.0
 40
1.500000000000206
100
AcDbArc
 50
270.0
 51
29.99999999998589
  0
ARC
  5
26BD
330
18
100
AcDbEntity
  8
DISEGNO
100
AcDbCircle
 10
-139.1906279645609
 20
74.99974022121114
 30
0.0
 40
10.50000000000261
100
AcDbArc
 50
30.00000000003296
 51
32.58721416579586
  0
ARC
  5
26BE
330
18
100
AcDbEntity
  8
DISEGNO
100
AcDbCircle
 10
-139.1906279645618
 20
74.99974022121842
 30
0.0
 40
10.49999999999944
100
AcDbArc
 50
32.58721416575961
 51
39.29341097913782
  0
ARC
  5
26BF
330
18
100
AcDbEntity
  8
DISEGNO
100
AcDbCircle
 10
-130.2906279645613
 20
82.28259680363022
 30
0.0
 40
1.0
100
AcDbArc
 50
180.000000000026
 51
219.2934109791847
  0
LINE
  5
26C0
330
18
100
AcDbEntity
  8
DISEGNO
100
AcDbLine
 10
-131.2906279645613
 20
85.31395378359002
 30
0.0
 11
-131.2906279645613
 21
82.28259680362976
 31
0.0
  0
ARC
  5
26C1
330
18
100
AcDbEntity
  8
DISEGNO
100
AcDbCircle
 10
-130.2906279645613
 20
85.31395378358956
 30
0.0
 40
1.000000000000007
100
AcDbArc
 50
134.9999999999724
 51
179.9999999999739
  0
LINE
  5
26C2
330
18
100
AcDbEntity
  8
DISEGNO
100
AcDbLine
 10
-128.1048415269342
 20
88.9139537835897
 30
0.0
 11
-130.9977347457475
 21
86.02106056477646
 31
0.0
  0
ARC
  5
26C3
330
18
100
AcDbEntity
  8
DISEGNO
100
AcDbCircle
 10
-126.6906279645609
 20
87.4997402212166
 30
0.0
 40
1.999999999999855
100
AcDbArc
 50
45.0
 51
135.0000000000092
  0
LINE
  5
26C4
330
18
100
AcDbEntity
  8
DISEGNO
100
AcDbLine
 10
-122.3835211833743
 20
86.02106056477623
 30
0.0
 11
-125.276414402188
 21
88.9139537835897
 31
0.0
  0
ARC
  5
26C5
330
18
100
AcDbEntity
  8
DISEGNO
100
AcDbCircle
 10
-123.090627964561
 20
85.31395378358979
 30
0.0
 40
1.0
100
AcDbArc
 50
359.999999999987
 51
44.99999999999078
  0
LINE
  5
26C6
330
18
100
AcDbEntity
  8
DISEGNO
100
AcDbLine
 10
-122.090627964561
 20
82.28259680363043
 30
0.0
 11
-122.090627964561
 21
85.31395378358956
 31
0.0
  0
ARC
  5
26C7
330
18
100
AcDbEntity
  8
DISEGNO
100
AcDbCircle
 10
-123.090627964561
 20
82.28259680363066
 30
0.0
 40
0.9999999999999101
100
AcDbArc
 50
320.7065890208255
 51
359.999999999987
  0
ARC
  5
26C8
330
18
100
AcDbEntity
  8
DISEGNO
100
AcDbCircle
 10
-114.1906279645618
 20
74.99974022121865
 30
0.0
 40
10.49999999999869
100
AcDbArc
 50
140.7065890208517
 51
147.4127858342404
  0
ARC
  5
26C9
330
18
100
AcDbEntity
  8
DISEGNO
100
AcDbCircle
 10
-114.1906279645609
 20
74.99974022121683
 30
0.0
 40
10.50000000000044
100
AcDbArc
 50
147.4127858342404
 51
212.5872141657596
  0
ARC
  5
26CA
330
18
100
AcDbEntity
  8
DISEGNO
100
AcDbCircle
 10
-114.19062796456
 20
74.999740221215
 30
0.0
 40
10.50000000000023
100
AcDbArc
 50
212.587214165749
 51
219.2934109791378
  0
ARC
  5
26CB
330
18
100
AcDbEntity
  8
DISEGNO
100
AcDbCircle
 10
-123.0906279645605
 20
67.71688363880253
 30
0.0
 40
0.9999999999995452
100
AcDbArc
 50
0.0000000000390827
 51
39.29341097919479
  0
LINE
  5
26CC
330
18
100
AcDbEntity
  8
DISEGNO
100
AcDbLine
 10
-122.090627964561
 20
64.68552665884385
 30
0.0
 11
-122.090627964561
 21
67.71688363880321
 31
0.0
  0
ARC
  5
26CD
330
18
100
AcDbEntity
  8
DISEGNO
100
AcDbCircle
 10
-123.0906279645605
 20
64.68552665884385
 30
0.0
 40
0.9999999999996864
100
AcDbArc
 50
314.9999999999816
 51
0.0
  0
LINE
  5
26CE
330
18
100
AcDbEntity
  8
DISEGNO
100
AcDbLine
 10
-125.276414402188
 20
61.08552665884372
 30
0.0
 11
-122.3835211833743
 21
63.97841987765741
 31
0.0
  0
ARC
  5
26CF
330
18
100
AcDbEntity
  8
DISEGNO
100
AcDbCircle
 10
-126.6906279645609
 20
62.49974022121683
 30
0.0
 40
2.000000000000176
100
AcDbArc
 50
224.9999999999908
 51
315.0
  0
LINE
  5
26D0
330
18
100
AcDbEntity
  8
DISEGNO
100
AcDbLine
 10
-130.9977347457475
 20
63.97841987765696
 30
0.0
 11
-128.1048415269342
 21
61.08552665884372
 31
0.0
  0
ARC
  5
26D1
330
18
100
AcDbEntity
  8
DISEGNO
100
AcDbCircle
 10
-130.2906279645613
 20
64.6855266588434
 30
0.0
 40
0.9999999999995452
100
AcDbArc
 50
180.0
 51
225.0000000000184
  0
LINE
  5
26D2
330
18
100
AcDbEntity
  8
DISEGNO
100
AcDbLine
 10
-131.2906279645613
 20
67.71688363880366
 30
0.0
 11
-131.2906279645608
 21
64.6855266588434
 31
0.0
  0
ARC
  5
26D3
330
18
100
AcDbEntity
  8
DISEGNO
100
AcDbCircle
 10
-130.2906279645613
 20
67.71688363880343
 30
0.0
 40
0.9999999999999101
100
AcDbArc
 50
140.7065890208254
 51
179.999999999987
  0
ARC
  5
26D4
330
18
100
AcDbEntity
  8
DISEGNO
100
AcDbCircle
 10
-139.1906279645618
 20
74.99974022121546
 30
0.0
 40
10.4999999999997
100
AcDbArc
 50
320.7065890208621
 51
327.4127858342404
  0
ARC
  5
26D5
330
18
100
AcDbEntity
  8
DISEGNO
100
AcDbCircle
 10
-139.1906279645591
 20
74.99974022122137
 30
0.0
 40
10.50000000000057
100
AcDbArc
 50
327.4127858342041
 51
329.999999999967
  0
ARC
  5
26D6
330
18
100
AcDbEntity
  8
DISEGNO
100
AcDbCircle
 10
-131.3963993305015
 20
70.49974022121659
 30
0.0
 40
1.5
100
AcDbArc
 50
330.0000000000141
 51
89.99999999997395
  0
LINE
  5
26D7
330
18
100
AcDbEntity
  8
DISEGNO
100
AcDbLine
 10
-133.0325032500072
 20
71.9997402212166
 30
0.0
 11
-131.396399330501
 21
71.9997402212166
 31
0.0
  0
ARC
  5
26D8
330
18
100
AcDbEntity
  8
DISEGNO
100
AcDbCircle
 10
-139.1906279645609
 20
74.999740221215
 30
0.0
 40
6.849999999999048
100
AcDbArc
 50
328.4589829624181
 51
334.0264485214667
  0
ARC
  5
26D9
330
18
100
AcDbEntity
  8
DISEGNO
100
AcDbCircle
 10
-133.2673799706872
 20
71.36413391647579
 30
0.0
 40
0.1000000000002274
100
AcDbArc
 50
148.4589829626283
 51
237.6345548088849
  0
LINE
  5
26DA
330
18
100
AcDbEntity
  8
DISEGNO
100
AcDbLine
 10
-132.5184202558848
 20
70.77107089242304
 30
0.0
 11
-133.3209117194328
 21
71.27966882382634
 31
0.0
  0
ARC
  5
26DB
330
18
100
AcDbEntity
  8
DISEGNO
100
AcDbCircle
 10
-132.5719520046304
 20
70.68660579977382
 30
0.0
 40
0.0999999999999284
100
AcDbArc
 50
326.9092724073747
 51
57.63455480879777
  0
ARC
  5
26DC
330
18
100
AcDbEntity
  8
DISEGNO
100
AcDbCircle
 10
-139.1906279645618
 20
74.99974022121659
 30
0.0
 40
8.000000000000378
100
AcDbArc
 50
315.440937655549
 51
326.9092724073641
  0
ARC
  5
26DD
330
18
100
AcDbEntity
  8
DISEGNO
100
AcDbCircle
 10
-133.5616603166754
 20
69.45675156715515
 30
0.0
 40
0.0999999999996595
100
AcDbArc
 50
224.7156552542669
 51
315.4409376557241
  0
LINE
  5
26DE
330
18
100
AcDbEntity
  8
DISEGNO
100
AcDbLine
 10
-134.3011913678938
 20
70.06153105521616
 30
0.0
 11
-133.6327210421527
 21
69.38639267791882
 31
0.0
  0
ARC
  5
26DF
330
18
100
AcDbEntity
  8
DISEGNO
100
AcDbCircle
 10
-134.3722520933716
 20
69.99117216597984
 30
0.0
 40
0.0999999999999784
100
AcDbArc
 50
44.71565525408268
 51
133.8912271004793
  0
ARC
  5
26E0
330
18
100
AcDbEntity
  8
DISEGNO
100
AcDbCircle
 10
-139.1906279645618
 20
74.99974022121705
 30
0.0
 40
6.850000000000828
100
AcDbArc
 50
302.7446972481247
 51
313.891227100507
  0
ARC
  5
26E1
330
18
100
AcDbEntity
  8
DISEGNO
100
AcDbCircle
 10
-135.4313963826762
 20
69.15417113739272
 30
0.0
 40
0.0999999999999995
100
AcDbArc
 50
122.7446972481536
 51
211.920269094682
  0
LINE
  5
26E2
330
18
100
AcDbEntity
  8
DISEGNO
100
AcDbLine
 10
-135.0139273987338
 20
68.29487837451029
 30
0.0
 11
-135.5162748519638
 21
69.10129727379831
 31
0.0
  0
ARC
  5
26E3
330
18
100
AcDbEntity
  8
DISEGNO
100
AcDbCircle
 10
-135.0988058680213
 20
68.24200451091633
 30
0.0
 40
0.0999999999999498
100
AcDbArc
 50
301.1949866927651
 51
31.92026909447247
  0
ARC
  5
26E4
330
18
100
AcDbEntity
  8
DISEGNO
100
AcDbCircle
 10
-139.1906279645618
 20
74.99974022121614
 30
0.0
 40
7.99999999999984
100
AcDbArc
 50
289.7266519412607
 51
301.1949866930759
  0
ARC
  5
26E5
330
18
100
AcDbEntity
  8
DISEGNO
100
AcDbCircle
 10
-136.5241159984962
 20
67.56336247833428
 30
0.0
 40
0.1000000000000048
100
AcDbArc
 50
199.0013695397521
 51
289.7266519411537
  0
LINE
  5
26E6
330
18
100
AcDbEntity
  8
DISEGNO
100
AcDbLine
 10
-136.9280064668696
 20
68.42912046671949
 30
0.0
 11
-136.6186670778243
 21
67.5308034028269
 31
0.0
  0
ARC
  5
26E7
330
18
100
AcDbEntity
  8
DISEGNO
100
AcDbCircle
 10
-137.0225575461977
 20
68.39656139121212
 30
0.0
 40
0.0999999999998675
100
AcDbArc
 50
19.00136953975213
 51
108.1769413862077
  0
ARC
  5
26E8
330
18
100
AcDbEntity
  8
DISEGNO
100
AcDbCircle
 10
-139.1906279645609
 20
74.99974022121818
 30
0.0
 40
6.850000000001712
100
AcDbArc
 50
277.0304115338219
 51
288.1769413862077
  0
ARC
  5
26E9
330
18
100
AcDbEntity
  8
DISEGNO
100
AcDbCircle
 10
-138.3399747134062
 20
68.10199500656131
 30
0.0
 40
0.1000000000002776
100
AcDbArc
 50
97.03041153413691
 51
186.2059833804371
  0
LINE
  5
26EA
330
18
100
AcDbEntity
  8
DISEGNO
100
AcDbLine
 10
-138.3366813125158
 20
67.14666597507198
 30
0.0
 11
-138.4393886814278
 21
68.09118468916199
 31
0.0
  0
ARC
  5
26EB
330
18
100
AcDbEntity
  8
DISEGNO
100
AcDbCircle
 10
-138.4360952805373
 20
67.13585565767312
 30
0.0
 40
0.1000000000002664
100
AcDbArc
 50
275.4807009789463
 51
6.205983380175466
  0
ARC
  5
26EC
330
18
100
AcDbEntity
  8
DISEGNO
100
AcDbCircle
 10
-139.19062796456
 20
74.99974022121865
 30
0.0
 40
8.000000000002046
100
AcDbArc
 50
270.0
 51
275.4807009787884
  0
ARC
  5
26ED
330
18
100
AcDbEntity
  8
DISEGNO
100
AcDbCircle
 10
-139.1906279645627
 20
74.999740221215
 30
0.0
 40
7.99999999999838
100
AcDbArc
 50
264.5192990212115
 51
270.0
  0
ARC
  5
26EE
330
18
100
AcDbEntity
  8
DISEGNO
100
AcDbCircle
 10
-139.9451606485854
 20
67.13585565767289
 30
0.0
 40
0.0999999999997764
100
AcDbArc
 50
173.7940166197987
 51
264.5192990212897
  0
LINE
  5
26EF
330
18
100
AcDbEntity
  8
DISEGNO
100
AcDbLine
 10
-139.9418672476949
 20
68.09118468916222
 30
0.0
 11
-140.0445746166065
 21
67.14666597507175
 31
0.0
  0
ARC
  5
26F0
330
18
100
AcDbEntity
  8
DISEGNO
100
AcDbCircle
 10
-140.041281215716
 20
68.10199500656131
 30
0.0
 40
0.0999999999998042
100
AcDbArc
 50
353.7940166196665
 51
82.96958846610058
  0
ARC
  5
26F1
330
18
100
AcDbEntity
  8
DISEGNO
100
AcDbCircle
 10
-139.1906279645618
 20
74.99974022121614
 30
0.0
 40
6.84999999999962
100
AcDbArc
 50
251.823058613788
 51
262.9695884661781
  0
ARC
  5
26F2
330
18
100
AcDbEntity
  8
DISEGNO
100
AcDbCircle
 10
-141.3586983829245
 20
68.39656139121212
 30
0.0
 40
0.1000000000000048
100
AcDbArc
 50
71.8230586137923
 51
160.9986304602478
  0
LINE
  5
26F3
330
18
100
AcDbEntity
  8
DISEGNO
100
AcDbLine
 10
-141.7625888512984
 20
67.5308034028269
 30
0.0
 11
-141.4532494622526
 21
68.42912046671949
 31
0.0
  0
ARC
  5
26F4
330
18
100
AcDbEntity
  8
DISEGNO
100
AcDbCircle
 10
-141.8571399306265
 20
67.56336247833428
 30
0.0
 40
0.0999999999998483
100
AcDbArc
 50
250.2733480588462
 51
340.9986304602479
  0
ARC
  5
26F5
330
18
100
AcDbEntity
  8
DISEGNO
100
AcDbCircle
 10
-139.1906279645609
 20
74.99974022121591
 30
0.0
 40
7.99999999999963
100
AcDbArc
 50
238.8050133069242
 51
250.2733480587394
  0
ARC
  5
26F6
330
18
100
AcDbEntity
  8
DISEGNO
100
AcDbCircle
 10
-143.2824500611009
 20
68.24200451091633
 30
0.0
 40
0.1000000000001449
100
AcDbArc
 50
148.0797309056685
 51
238.805013307018
  0
LINE
  5
26F7
330
18
100
AcDbEntity
  8
DISEGNO
100
AcDbLine
 10
-142.8649810771589
 20
69.10129727379831
 30
0.0
 11
-143.3673285303889
 21
68.29487837451029
 31
0.0
  0
ARC
  5
26F8
330
18
100
AcDbEntity
  8
DISEGNO
100
AcDbCircle
 10
-142.9498595464465
 20
69.15417113739272
 30
0.0
 40
0.0999999999998213
100
AcDbArc
 50
328.079730905318
 51
57.25530275184635
  0
ARC
  5
26F9
330
18
100
AcDbEntity
  8
DISEGNO
100
AcDbCircle
 10
-139.1906279645613
 20
74.99974022121637
 30
0.0
 40
6.85000000000002
100
AcDbArc
 50
226.108772899493
 51
237.2553027518753
  0
ARC
  5
26FA
330
18
100
AcDbEntity
  8
DISEGNO
100
AcDbCircle
 10
-144.0090038357511
 20
69.99117216597984
 30
0.0
 40
0.0999999999999826
100
AcDbArc
 50
46.10877289952068
 51
135.2843447459173
  0
LINE
  5
26FB
330
18
100
AcDbEntity
  8
DISEGNO
100
AcDbLine
 10
-144.7485348869695
 20
69.38639267791905
 30
0.0
 11
-144.0800645612289
 21
70.06153105521616
 31
0.0
  0
ARC
  5
26FC
330
18
100
AcDbEntity
  8
DISEGNO
100
AcDbCircle
 10
-144.8195956124473
 20
69.45675156715537
 30
0.0
 40
0.1000000000001907
100
AcDbArc
 50
224.5590623443772
 51
315.2843447459173
  0
ARC
  5
26FD
330
18
100
AcDbEntity
  8
DISEGNO
100
AcDbCircle
 10
-139.1906279645618
 20
74.99974022121637
 30
0.0
 40
7.999999999999533
100
AcDbArc
 50
213.090727592636
 51
224.5590623444601
  0
ARC
  5
26FE
330
18
100
AcDbEntity
  8
DISEGNO
100
AcDbCircle
 10
-145.8093039244922
 20
70.68660579977382
 30
0.0
 40
0.1000000000000354
100
AcDbArc
 50
122.3654451912022
 51
213.0907275926253
  0
LINE
  5
26FF
330
18
100
AcDbEntity
  8
DISEGNO
100
AcDbLine
 10
-145.0603442096894
 20
71.27966882382634
 30
0.0
 11
-145.8628356732379
 21
70.77107089242304
 31
0.0
  0
ARC
  5
2700
330
18
100
AcDbEntity
  8
DISEGNO
100
AcDbCircle
 10
-145.1138759584355
 20
71.36413391647534
 30
0.0
 40
0.100000000000351
100
AcDbArc
 50
302.3654451914839
 51
31.54101703760618
  0
ARC
  5
2701
330
18
100
AcDbEntity
  8
DISEGNO
100
AcDbCircle
 10
-139.1906279645627
 20
74.99974022121455
 30
0.0
 40
6.849999999998029
100
AcDbArc
 50
205.9735514785333
 51
211.5410170375819
  0
LINE
  5
2702
330
18
100
AcDbEntity
  8
DISEGNO
100
AcDbLine
 10
-146.9848565986212
 20
71.9997402212166
 30
0.0
 11
-145.3487526791155
 21
71.9997402212166
 31
0.0
  0
ARC
  5
2703
330
18
100
AcDbEntity
  8
DISEGNO
100
AcDbCircle
 10
-146.9848565986212
 20
70.49974022121682
 30
0.0
 40
1.499999999999926
100
AcDbArc
 50
90.0
 51
209.9999999999972
  0
ARC
  5
2704
330
18
100
AcDbEntity
  8
DISEGNO
100
AcDbCircle
 10
-139.1906279645613
 20
74.99974022121228
 30
0.0
 40
10.4999999999976
100
AcDbArc
 50
209.9999999999859
 51
212.587214165749
  0
ARC
  5
2705
330
18
100
AcDbEntity
  8
DISEGNO
100
AcDbCircle
 10
-139.1906279645609
 20
74.99974022121524
 30
0.0
 40
10.49999999999959
100
AcDbArc
 50
212.5872141657596
 51
219.2934109791378
  0
ARC
  5
2706
330
18
100
AcDbEntity
  8
DISEGNO
100
AcDbCircle
 10
-148.0906279645614
 20
67.71688363880343
 30
0.0
 40
1.0
100
AcDbArc
 50
0.0000000000260551
 51
39.29341097917458
  0
LINE
  5
2707
330
18
100
AcDbEntity
  8
DISEGNO
100
AcDbLine
 10
-147.0906279645614
 20
64.68552665884363
 30
0.0
 11
-147.0906279645614
 21
67.71688363880389
 31
0.0
  0
ARC
  5
2708
330
18
100
AcDbEntity
  8
DISEGNO
100
AcDbCircle
 10
-148.0906279645614
 20
64.6855266588434
 30
0.0
 40
1.000000000000007
100
AcDbArc
 50
315.0000000000092
 51
0.0000000000130276
  0
LINE
  5
2709
330
18
100
AcDbEntity
  8
DISEGNO
100
AcDbLine
 10
-150.276414402188
 20
61.08552665884372
 30
0.0
 11
-147.3835211833748
 21
63.97841987765696
 31
0.0
  0
ARC
  5
270A
330
18
100
AcDbEntity
  8
DISEGNO
100
AcDbCircle
 10
-151.6906279645609
 20
62.49974022121683
 30
0.0
 40
2.000000000000176
100
AcDbArc
 50
224.9999999999908
 51
315.0
  0
LINE
  5
270B
330
18
100
AcDbEntity
  8
DISEGNO
100
AcDbLine
 10
-155.9977347457479
 20
63.97841987765719
 30
0.0
 11
-153.1048415269342
 21
61.08552665884372
 31
0.0
  0
ARC
  5
270C
330
18
100
AcDbEntity
  8
DISEGNO
100
AcDbCircle
 10
-155.2906279645613
 20
64.68552665884431
 30
0.0
 40
1.000000000000454
100
AcDbArc
 50
180.000000000026
 51
225.0000000000184
  0
LINE
  5
270D
330
18
100
AcDbEntity
  8
DISEGNO
100
AcDbLine
 10
-156.2906279645617
 20
67.71688363880298
 30
0.0
 11
-156.2906279645617
 21
64.68552665884385
 31
0.0
  0
ARC
  5
270E
330
18
100
AcDbEntity
  8
DISEGNO
100
AcDbCircle
 10
-155.2906279645622
 20
67.71688363880253
 30
0.0
 40
0.9999999999997021
100
AcDbArc
 50
140.7065890208052
 51
179.9999999999739
  0
ARC
  5
270F
330
18
100
AcDbEntity
  8
DISEGNO
100
AcDbCircle
 10
-164.1906279645627
 20
74.999740221215
 30
0.0
 40
10.50000000000022
100
AcDbArc
 50
320.7065890208621
 51
327.412785834251
  0
LINE
  5
2710
330
18
100
AcDbEntity
  8
DISEGNO
100
AcDbLine
 10
-154.6906279645613
 20
91.49974022121682
 30
0.0
 11
-154.6906279645613
 21
90.86370125189592
 31
0.0
  0
LINE
  5
2711
330
18
100
AcDbEntity
  8
DISEGNO
100
AcDbLine
 10
-153.9717462827657
 20
91.49974022121682
 30
0.0
 11
-154.6906279645613
 21
91.49974022121682
 31
0.0
  0
LINE
  5
2712
330
18
100
AcDbEntity
  8
DISEGNO
100
AcDbLine
 10
-153.1906279645613
 20
91.49974022121682
 30
0.0
 11
-153.9717462827657
 21
91.49974022121682
 31
0.0
  0
LINE
  5
2713
330
18
100
AcDbEntity
  8
DISEGNO
100
AcDbLine
 10
-153.1906279645613
 20
95.99974022121683
 30
0.0
 11
-153.1906279645613
 21
91.49974022121682
 31
0.0
  0
LINE
  5
2714
330
18
100
AcDbEntity
  8
DISEGNO
100
AcDbLine
 10
-153.2906279645612
 20
95.99974022121683
 30
0.0
 11
-153.1906279645613
 21
95.99974022121683
 31
0.0
  0
LINE
  5
2715
330
18
100
AcDbEntity
  8
DISEGNO
100
AcDbLine
 10
-158.9906279645611
 20
98.99974022121682
 30
0.0
 11
-158.9906279645611
 21
97.99974022121682
 31
0.0
  0
ARC
  5
2716
330
18
100
AcDbEntity
  8
DISEGNO
100
AcDbCircle
 10
-152.9320493207988
 20
99.89974022121646
 30
0.0
 40
0.1000000000003063
100
AcDbArc
 50
45.00000000009213
 51
90.0
  0
LINE
  5
2717
330
18
100
AcDbEntity
  8
DISEGNO
100
AcDbLine
 10
-152.6906279645613
 20
99.79974022121679
 30
0.0
 11
-152.86133864268
 21
99.97045089933545
 31
0.0
  0
LINE
  5
2718
330
18
100
AcDbEntity
  8
DISEGNO
100
AcDbLine
 10
-150.6906279645614
 20
99.79974022121679
 30
0.0
 11
-152.6906279645613
 21
99.79974022121679
 31
0.0
  0
LINE
  5
2719
330
18
100
AcDbEntity
  8
DISEGNO
100
AcDbLine
 10
-150.5199172864427
 20
99.97045089933545
 30
0.0
 11
-150.6906279645614
 21
99.79974022121679
 31
0.0
  0
ARC
  5
271A
330
18
100
AcDbEntity
  8
DISEGNO
100
AcDbCircle
 10
-150.4492066083239
 20
99.89974022121669
 30
0.0
 40
0.1000000000001364
100
AcDbArc
 50
90.0
 51
135.0000000000092
  0
LINE
  5
271B
330
18
100
AcDbEntity
  8
DISEGNO
100
AcDbLine
 10
-143.1906279645613
 20
99.99974022121683
 30
0.0
 11
-150.4492066083239
 21
99.99974022121683
 31
0.0
  0
LINE
  5
271C
330
18
100
AcDbEntity
  8
DISEGNO
100
AcDbLine
 10
-143.1906279645613
 20
98.99974022121682
 30
0.0
 11
-143.1906279645613
 21
99.99974022121683
 31
0.0
  0
LINE
  5
271D
330
18
100
AcDbEntity
  8
DISEGNO
100
AcDbLine
 10
-144.3906279645612
 20
98.99974022121682
 30
0.0
 11
-143.1906279645613
 21
98.99974022121682
 31
0.0
  0
LINE
  5
271E
330
18
100
AcDbEntity
  8
DISEGNO
100
AcDbLine
 10
-144.3906279645612
 20
97.99974022121682
 30
0.0
 11
-144.3906279645612
 21
98.99974022121682
 31
0.0
  0
LINE
  5
271F
330
18
100
AcDbEntity
  8
DISEGNO
100
AcDbLine
 10
-143.1906279645613
 20
97.99974022121682
 30
0.0
 11
-144.3906279645612
 21
97.99974022121682
 31
0.0
  0
LINE
  5
2720
330
18
100
AcDbEntity
  8
DISEGNO
100
AcDbLine
 10
-143.1906279645613
 20
95.99974022121683
 30
0.0
 11
-143.1906279645613
 21
97.99974022121682
 31
0.0
  0
LINE
  5
2721
330
18
100
AcDbEntity
  8
DISEGNO
100
AcDbLine
 10
-150.1906279645614
 20
95.99974022121683
 30
0.0
 11
-143.1906279645613
 21
95.99974022121683
 31
0.0
  0
LINE
  5
2722
330
18
100
AcDbEntity
  8
DISEGNO
100
AcDbLine
 10
-150.1906279645614
 20
91.49974022121682
 30
0.0
 11
-150.1906279645614
 21
95.99974022121683
 31
0.0
  0
LINE
  5
2723
330
18
100
AcDbEntity
  8
DISEGNO
100
AcDbLine
 10
-149.409509646357
 20
91.49974022121682
 30
0.0
 11
-150.1906279645614
 21
91.49974022121682
 31
0.0
  0
LINE
  5
2724
330
18
100
AcDbEntity
  8
DISEGNO
100
AcDbLine
 10
-148.6906279645614
 20
91.49974022121682
 30
0.0
 11
-149.409509646357
 21
91.49974022121682
 31
0.0
  0
LINE
  5
2725
330
18
100
AcDbEntity
  8
DISEGNO
100
AcDbLine
 10
-148.6906279645614
 20
90.86370125189592
 30
0.0
 11
-148.6906279645614
 21
91.49974022121682
 31
0.0
  0
LINE
  5
2726
330
18
100
AcDbEntity
  8
DISEGNO
100
AcDbLine
 10
-143.5584818844927
 20
85.73155517182682
 30
0.0
 11
-148.6906279645614
 21
90.86370125189592
 31
0.0
  0
ARC
  5
2727
330
18
100
AcDbEntity
  8
DISEGNO
100
AcDbCircle
 10
-142.1442683221194
 20
87.14576873420014
 30
0.0
 40
2.000000000000123
100
AcDbArc
 50
224.9999999999908
 51
283.6677485023899
  0
ARC
  5
2728
330
18
100
AcDbEntity
  8
DISEGNO
100
AcDbCircle
 10
-139.1906279645609
 20
74.99974022121728
 30
0.0
 40
10.49999999999954
100
AcDbArc
 50
90.0
 51
103.667748502415
  0
ARC
  5
2729
330
18
100
AcDbEntity
  8
DISEGNO
100
AcDbCircle
 10
-139.1906279645618
 20
74.99974022121728
 30
0.0
 40
10.49999999999951
100
AcDbArc
 50
76.33225149758494
 51
90.0
  0
ARC
  5
272A
330
18
100
AcDbEntity
  8
DISEGNO
100
AcDbCircle
 10
-136.2369876070033
 20
87.14576873420014
 30
0.0
 40
2.000000000000337
100
AcDbArc
 50
256.3322514976101
 51
315.0000000000092
  0
LINE
  5
272B
330
18
100
AcDbEntity
  8
DISEGNO
100
AcDbLine
 10
-129.6906279645609
 20
90.86370125189592
 30
0.0
 11
-134.82277404463
 21
85.73155517182682
 31
0.0
  0
LINE
  5
272C
330
18
100
AcDbEntity
  8
DISEGNO
100
AcDbLine
 10
-129.6906279645609
 20
91.49974022121682
 30
0.0
 11
-129.6906279645609
 21
90.86370125189592
 31
0.0
  0
LINE
  5
272D
330
18
100
AcDbEntity
  8
DISEGNO
100
AcDbLine
 10
-128.9717462827652
 20
91.49974022121682
 30
0.0
 11
-129.6906279645609
 21
91.49974022121682
 31
0.0
  0
LINE
  5
272E
330
18
100
AcDbEntity
  8
DISEGNO
100
AcDbLine
 10
-128.1906279645609
 20
91.49974022121682
 30
0.0
 11
-128.9717462827652
 21
91.49974022121682
 31
0.0
  0
LINE
  5
272F
330
18
100
AcDbEntity
  8
DISEGNO
100
AcDbLine
 10
-128.1906279645609
 20
95.99974022121683
 30
0.0
 11
-128.1906279645609
 21
91.49974022121682
 31
0.0
  0
LINE
  5
2730
330
18
100
AcDbEntity
  8
DISEGNO
100
AcDbLine
 10
-128.2906279645612
 20
95.99974022121683
 30
0.0
 11
-128.1906279645609
 21
95.99974022121683
 31
0.0
  0
LINE
  5
2731
330
18
100
AcDbEntity
  8
DISEGNO
100
AcDbLine
 10
-135.1906279645614
 20
95.99974022121683
 30
0.0
 11
-128.2906279645612
 21
95.99974022121683
 31
0.0
  0
LINE
  5
2732
330
18
100
AcDbEntity
  8
DISEGNO
100
AcDbLine
 10
-135.1906279645614
 20
97.99974022121682
 30
0.0
 11
-135.1906279645614
 21
95.99974022121683
 31
0.0
  0
LINE
  5
2733
330
18
100
AcDbEntity
  8
DISEGNO
100
AcDbLine
 10
-133.9906279645611
 20
97.99974022121682
 30
0.0
 11
-135.1906279645614
 21
97.99974022121682
 31
0.0
  0
LINE
  5
2734
330
18
100
AcDbEntity
  8
DISEGNO
100
AcDbLine
 10
-133.9906279645611
 20
98.99974022121682
 30
0.0
 11
-133.9906279645611
 21
97.99974022121682
 31
0.0
  0
LINE
  5
2735
330
18
100
AcDbEntity
  8
DISEGNO
100
AcDbLine
 10
-135.1906279645614
 20
98.99974022121682
 30
0.0
 11
-133.9906279645611
 21
98.99974022121682
 31
0.0
  0
LINE
  5
2736
330
18
100
AcDbEntity
  8
DISEGNO
100
AcDbLine
 10
-135.1906279645614
 20
99.99974022121683
 30
0.0
 11
-135.1906279645614
 21
98.99974022121682
 31
0.0
  0
LINE
  5
2737
330
18
100
AcDbEntity
  8
DISEGNO
100
AcDbLine
 10
-127.9320493207983
 20
99.99974022121683
 30
0.0
 11
-135.1906279645614
 21
99.99974022121683
 31
0.0
  0
ARC
  5
2738
330
18
100
AcDbEntity
  8
DISEGNO
100
AcDbCircle
 10
-127.9320493207988
 20
99.89974022121714
 30
0.0
 40
0.099999999999824
100
AcDbArc
 50
44.99999999980655
 51
89.99999999973944
  0
LINE
  5
2739
330
18
100
AcDbEntity
  8
DISEGNO
100
AcDbLine
 10
-127.6906279645609
 20
99.79974022121679
 30
0.0
 11
-127.86133864268
 21
99.97045089933545
 31
0.0
  0
LINE
  5
273A
330
18
100
AcDbEntity
  8
DISEGNO
100
AcDbLine
 10
-125.6906279645614
 20
99.79974022121679
 30
0.0
 11
-127.6906279645609
 21
99.79974022121679
 31
0.0
  0
LINE
  5
273B
330
18
100
AcDbEntity
  8
DISEGNO
100
AcDbLine
 10
-125.5199172864422
 20
99.97045089933545
 30
0.0
 11
-125.6906279645614
 21
99.79974022121679
 31
0.0
  0
ARC
  5
273C
330
18
100
AcDbEntity
  8
DISEGNO
100
AcDbCircle
 10
-125.4492066083239
 20
99.89974022121714
 30
0.0
 40
0.0999999999996817
100
AcDbArc
 50
90.0
 51
135.0000000000092
  0
LINE
  5
273D
330
18
100
AcDbEntity
  8
DISEGNO
100
AcDbLine
 10
-118.1906279645613
 20
99.99974022121683
 30
0.0
 11
-125.4492066083239
 21
99.99974022121683
 31
0.0
  0
LINE
  5
273E
330
18
100
AcDbEntity
  8
DISEGNO
100
AcDbLine
 10
-118.1906279645613
 20
98.99974022121682
 30
0.0
 11
-118.1906279645613
 21
99.99974022121683
 31
0.0
  0
LINE
  5
273F
330
18
100
AcDbEntity
  8
DISEGNO
100
AcDbLine
 10
-119.3906279645612
 20
98.99974022121682
 30
0.0
 11
-118.1906279645613
 21
98.99974022121682
 31
0.0
  0
LINE
  5
2740
330
18
100
AcDbEntity
  8
DISEGNO
100
AcDbLine
 10
-119.3906279645612
 20
97.99974022121682
 30
0.0
 11
-119.3906279645612
 21
98.99974022121682
 31
0.0
  0
LINE
  5
2741
330
18
100
AcDbEntity
  8
DISEGNO
100
AcDbLine
 10
-118.1906279645613
 20
97.99974022121682
 30
0.0
 11
-119.3906279645612
 21
97.99974022121682
 31
0.0
  0
LINE
  5
2742
330
18
100
AcDbEntity
  8
DISEGNO
100
AcDbLine
 10
-118.1906279645613
 20
95.99974022121683
 30
0.0
 11
-118.1906279645613
 21
97.99974022121682
 31
0.0
  0
LINE
  5
2743
330
18
100
AcDbEntity
  8
DISEGNO
100
AcDbLine
 10
-125.1906279645613
 20
95.99974022121683
 30
0.0
 11
-118.1906279645613
 21
95.99974022121683
 31
0.0
  0
LINE
  5
2744
330
18
100
AcDbEntity
  8
DISEGNO
100
AcDbLine
 10
-125.1906279645613
 20
91.49974022121682
 30
0.0
 11
-125.1906279645613
 21
95.99974022121683
 31
0.0
  0
LINE
  5
2745
330
18
100
AcDbEntity
  8
DISEGNO
100
AcDbLine
 10
-124.409509646357
 20
91.49974022121682
 30
0.0
 11
-125.1906279645613
 21
91.49974022121682
 31
0.0
  0
LINE
  5
2746
330
18
100
AcDbEntity
  8
DISEGNO
100
AcDbLine
 10
-123.6906279645614
 20
91.49974022121682
 30
0.0
 11
-124.409509646357
 21
91.49974022121682
 31
0.0
  0
LINE
  5
2747
330
18
100
AcDbEntity
  8
DISEGNO
100
AcDbLine
 10
-123.6906279645614
 20
90.86370125189592
 30
0.0
 11
-123.6906279645614
 21
91.49974022121682
 31
0.0
  0
LINE
  5
2748
330
18
100
AcDbEntity
  8
DISEGNO
100
AcDbLine
 10
-118.5584818844927
 20
85.73155517182682
 30
0.0
 11
-123.6906279645614
 21
90.86370125189592
 31
0.0
  0
LINE
  5
2749
330
18
100
AcDbEntity
  8
DISEGNO
100
AcDbLine
 10
-123.6906279645614
 20
59.13577919053773
 30
0.0
 11
-118.5584818844927
 21
64.26792527060661
 31
0.0
  0
LINE
  5
274A
330
18
100
AcDbEntity
  8
DISEGNO
100
AcDbLine
 10
-123.6906279645614
 20
58.49974022121682
 30
0.0
 11
-123.6906279645614
 21
59.13577919053773
 31
0.0
  0
LINE
  5
274B
330
18
100
AcDbEntity
  8
DISEGNO
100
AcDbLine
 10
-124.409509646357
 20
58.49974022121682
 30
0.0
 11
-123.6906279645614
 21
58.49974022121682
 31
0.0
  0
LINE
  5
274C
330
18
100
AcDbEntity
  8
DISEGNO
100
AcDbLine
 10
-125.1906279645613
 20
58.49974022121682
 30
0.0
 11
-124.409509646357
 21
58.49974022121682
 31
0.0
  0
LINE
  5
274D
330
18
100
AcDbEntity
  8
DISEGNO
100
AcDbLine
 10
-125.1906279645613
 20
53.99974022121682
 30
0.0
 11
-125.1906279645613
 21
58.49974022121682
 31
0.0
  0
LINE
  5
274E
330
18
100
AcDbEntity
  8
DISEGNO
100
AcDbLine
 10
-125.0906279645614
 20
53.99974022121682
 30
0.0
 11
-125.1906279645613
 21
53.99974022121682
 31
0.0
  0
LINE
  5
274F
330
18
100
AcDbEntity
  8
DISEGNO
100
AcDbLine
 10
-118.1906279645613
 20
53.99974022121682
 30
0.0
 11
-125.0906279645614
 21
53.99974022121682
 31
0.0
  0
LINE
  5
2750
330
18
100
AcDbEntity
  8
DISEGNO
100
AcDbLine
 10
-118.1906279645613
 20
51.99974022121683
 30
0.0
 11
-118.1906279645613
 21
53.99974022121682
 31
0.0
  0
LINE
  5
2751
330
18
100
AcDbEntity
  8
DISEGNO
100
AcDbLine
 10
-119.3906279645612
 20
51.99974022121683
 30
0.0
 11
-118.1906279645613
 21
51.99974022121683
 31
0.0
  0
LINE
  5
2752
330
18
100
AcDbEntity
  8
DISEGNO
100
AcDbLine
 10
-119.3906279645612
 20
50.99974022121682
 30
0.0
 11
-119.3906279645612
 21
51.99974022121683
 31
0.0
  0
LINE
  5
2753
330
18
100
AcDbEntity
  8
DISEGNO
100
AcDbLine
 10
-118.1906279645613
 20
50.99974022121682
 30
0.0
 11
-119.3906279645612
 21
50.99974022121682
 31
0.0
  0
LINE
  5
2754
330
18
100
AcDbEntity
  8
DISEGNO
100
AcDbLine
 10
-133.9906279645615
 20
50.99974022121682
 30
0.0
 11
-135.1906279645614
 21
50.99974022121682
 31
0.0
  0
LINE
  5
2755
330
18
100
AcDbEntity
  8
DISEGNO
100
AcDbLine
 10
-133.9906279645615
 20
51.99974022121683
 30
0.0
 11
-133.9906279645615
 21
50.99974022121682
 31
0.0
  0
LINE
  5
2756
330
18
100
AcDbEntity
  8
DISEGNO
100
AcDbLine
 10
-135.1906279645614
 20
51.99974022121683
 30
0.0
 11
-133.9906279645615
 21
51.99974022121683
 31
0.0
  0
LINE
  5
2757
330
18
100
AcDbEntity
  8
DISEGNO
100
AcDbLine
 10
-135.1906279645614
 20
53.99974022121682
 30
0.0
 11
-135.1906279645614
 21
51.99974022121683
 31
0.0
  0
LINE
  5
2758
330
18
100
AcDbEntity
  8
DISEGNO
100
AcDbLine
 10
-128.1906279645613
 20
53.99974022121682
 30
0.0
 11
-135.1906279645614
 21
53.99974022121682
 31
0.0
  0
LINE
  5
2759
330
18
100
AcDbEntity
  8
DISEGNO
100
AcDbLine
 10
-128.1906279645613
 20
58.49974022121682
 30
0.0
 11
-128.1906279645613
 21
53.99974022121682
 31
0.0
  0
LINE
  5
275A
330
18
100
AcDbEntity
  8
DISEGNO
100
AcDbLine
 10
-128.9717462827657
 20
58.49974022121682
 30
0.0
 11
-128.1906279645613
 21
58.49974022121682
 31
0.0
  0
LINE
  5
275B
330
18
100
AcDbEntity
  8
DISEGNO
100
AcDbLine
 10
-129.6906279645609
 20
58.49974022121682
 30
0.0
 11
-128.9717462827657
 21
58.49974022121682
 31
0.0
  0
LINE
  5
275C
330
18
100
AcDbEntity
  8
DISEGNO
100
AcDbLine
 10
-129.6906279645609
 20
59.13577919053773
 30
0.0
 11
-129.6906279645609
 21
58.49974022121682
 31
0.0
  0
LINE
  5
275D
330
18
100
AcDbEntity
  8
DISEGNO
100
AcDbLine
 10
-134.82277404463
 20
64.26792527060661
 30
0.0
 11
-129.6906279645609
 21
59.13577919053773
 31
0.0
  0
ARC
  5
275E
330
18
100
AcDbEntity
  8
DISEGNO
100
AcDbCircle
 10
-136.2369876070033
 20
62.8537117082335
 30
0.0
 40
1.999999999999902
100
AcDbArc
 50
44.99999999999078
 51
103.667748502415
  0
ARC
  5
275F
330
18
100
AcDbEntity
  8
DISEGNO
100
AcDbCircle
 10
-139.1906279645609
 20
74.99974022121637
 30
0.0
 40
10.49999999999954
100
AcDbArc
 50
270.0
 51
283.6677485023899
  0
ARC
  5
2760
330
18
100
AcDbEntity
  8
DISEGNO
100
AcDbCircle
 10
-139.1906279645618
 20
74.99974022121637
 30
0.0
 40
10.49999999999952
100
AcDbArc
 50
256.3322514975849
 51
270.0
  0
ARC
  5
2761
330
18
100
AcDbEntity
  8
DISEGNO
100
AcDbCircle
 10
-142.1442683221194
 20
62.85371170823328
 30
0.0
 40
2.000000000000337
100
AcDbArc
 50
76.33225149761013
 51
135.0000000000092
  0
LINE
  5
2762
330
18
100
AcDbEntity
  8
DISEGNO
100
AcDbLine
 10
-148.6906279645614
 20
59.13577919053773
 30
0.0
 11
-143.5584818844927
 21
64.26792527060661
 31
0.0
  0
LINE
  5
2763
330
18
100
AcDbEntity
  8
DISEGNO
100
AcDbLine
 10
-148.6906279645614
 20
58.49974022121682
 30
0.0
 11
-148.6906279645614
 21
59.13577919053773
 31
0.0
  0
LINE
  5
2764
330
18
100
AcDbEntity
  8
DISEGNO
100
AcDbLine
 10
-149.409509646357
 20
58.49974022121682
 30
0.0
 11
-148.6906279645614
 21
58.49974022121682
 31
0.0
  0
LINE
  5
2765
330
18
100
AcDbEntity
  8
DISEGNO
100
AcDbLine
 10
-150.1906279645614
 20
58.49974022121682
 30
0.0
 11
-149.409509646357
 21
58.49974022121682
 31
0.0
  0
LINE
  5
2766
330
18
100
AcDbEntity
  8
DISEGNO
100
AcDbLine
 10
-150.1906279645614
 20
53.99974022121682
 30
0.0
 11
-150.1906279645614
 21
58.49974022121682
 31
0.0
  0
LINE
  5
2767
330
18
100
AcDbEntity
  8
DISEGNO
100
AcDbLine
 10
-150.0906279645614
 20
53.99974022121682
 30
0.0
 11
-150.1906279645614
 21
53.99974022121682
 31
0.0
  0
LINE
  5
2768
330
18
100
AcDbEntity
  8
DISEGNO
100
AcDbLine
 10
-143.1906279645613
 20
53.99974022121682
 30
0.0
 11
-150.0906279645614
 21
53.99974022121682
 31
0.0
  0
LINE
  5
2769
330
18
100
AcDbEntity
  8
DISEGNO
100
AcDbLine
 10
-143.1906279645613
 20
51.99974022121683
 30
0.0
 11
-143.1906279645613
 21
53.99974022121682
 31
0.0
  0
LINE
  5
276A
330
18
100
AcDbEntity
  8
DISEGNO
100
AcDbLine
 10
-144.3906279645612
 20
51.99974022121683
 30
0.0
 11
-143.1906279645613
 21
51.99974022121683
 31
0.0
  0
LINE
  5
276B
330
18
100
AcDbEntity
  8
DISEGNO
100
AcDbLine
 10
-144.3906279645612
 20
50.99974022121682
 30
0.0
 11
-144.3906279645612
 21
51.99974022121683
 31
0.0
  0
LINE
  5
276C
330
18
100
AcDbEntity
  8
DISEGNO
100
AcDbLine
 10
-143.1906279645613
 20
50.99974022121682
 30
0.0
 11
-144.3906279645612
 21
50.99974022121682
 31
0.0
  0
LINE
  5
276D
330
18
100
AcDbEntity
  8
DISEGNO
100
AcDbLine
 10
-158.9906279645611
 20
51.99974022121683
 30
0.0
 11
-158.9906279645611
 21
50.99974022121682
 31
0.0
  0
LINE
  5
276E
330
18
100
AcDbEntity
  8
DISEGNO
100
AcDbLine
 10
-153.1906279645613
 20
58.49974022121682
 30
0.0
 11
-153.1906279645613
 21
53.99974022121682
 31
0.0
  0
LINE
  5
276F
330
18
100
AcDbEntity
  8
DISEGNO
100
AcDbLine
 10
-153.9717462827657
 20
58.49974022121682
 30
0.0
 11
-153.1906279645613
 21
58.49974022121682
 31
0.0
  0
LINE
  5
2770
330
18
100
AcDbEntity
  8
DISEGNO
100
AcDbLine
 10
-154.6906279645613
 20
58.49974022121682
 30
0.0
 11
-153.9717462827657
 21
58.49974022121682
 31
0.0
  0
LINE
  5
2771
330
18
100
AcDbEntity
  8
DISEGNO
100
AcDbLine
 10
-154.6906279645613
 20
59.13577919053773
 30
0.0
 11
-154.6906279645613
 21
58.49974022121682
 31
0.0
  0
LINE
  5
2772
330
18
100
AcDbEntity
  8
ASSI
100
AcDbLine
 10
-94.79062796456128
 20
92.49974022121682
 30
0.0
 11
-98.69062796456091
 21
92.49974022121682
 31
0.0
  0
LINE
  5
2773
330
18
100
AcDbEntity
  8
ASSI
100
AcDbLine
 10
-96.69062796456092
 20
94.49974022121683
 30
0.0
 11
-96.69062796456092
 21
90.49974022121682
 31
0.0
  0
LINE
  5
2774
330
18
100
AcDbEntity
  8
ASSI
100
AcDbLine
 10
-94.79062796456128
 20
57.49974022121683
 30
0.0
 11
-98.69062796456137
 21
57.49974022121683
 31
0.0
  0
LINE
  5
2775
330
18
100
AcDbEntity
  8
ASSI
100
AcDbLine
 10
-96.69062796456138
 20
59.49974022121683
 30
0.0
 11
-96.69062796456138
 21
55.49974022121682
 31
0.0
  0
ARC
  5
2776
330
18
100
AcDbEntity
  8
DISEGNO
100
AcDbCircle
 10
-116.5837350096135
 20
81.52473360595854
 30
0.0
 40
0.0999999999999497
100
AcDbArc
 50
290.1410207880111
 51
19.31659263444521
  0
LINE
  5
2777
330
18
100
AcDbEntity
  8
DISEGNO
100
AcDbLine
 10
-116.8036414263024
 20
82.45441396650972
 30
0.0
 11
-116.4893644899807
 21
81.55781237595125
 31
0.0
  0
ARC
  5
2778
330
18
100
AcDbEntity
  8
DISEGNO
100
AcDbCircle
 10
-116.7092709066692
 20
82.48749273650242
 30
0.0
 40
0.1000000000003618
100
AcDbArc
 50
108.5913102331801
 51
199.3165926343503
  0
ARC
  5
2779
330
18
100
AcDbEntity
  8
DISEGNO
100
AcDbCircle
 10
-114.1906279645622
 20
74.99974022121614
 30
0.0
 40
8.000000000000415
100
AcDbArc
 50
97.12297548123551
 51
108.5913102330402
  0
ARC
  5
277A
330
18
100
AcDbEntity
  8
DISEGNO
100
AcDbCircle
 10
-115.1702231432787
 20
82.83877034527108
 30
0.0
 40
0.1000000000000469
100
AcDbArc
 50
6.397693079836888
 51
97.12297548126304
  0
LINE
  5
277B
330
18
100
AcDbEntity
  8
DISEGNO
100
AcDbLine
 10
-114.9649787875473
 20
81.90574346498534
 30
0.0
 11
-115.0708459026318
 21
82.84991323723989
 31
0.0
  0
ARC
  5
277C
330
18
100
AcDbEntity
  8
DISEGNO
100
AcDbCircle
 10
-114.8656015469005
 20
81.91688635695413
 30
0.0
 40
0.1000000000001195
100
AcDbArc
 50
186.3976930798368
 51
275.573264926283
  0
ARC
  5
277D
330
18
100
AcDbEntity
  8
DISEGNO
100
AcDbCircle
 10
-114.1906279645613
 20
74.99974022121773
 30
0.0
 40
6.849999999999072
100
AcDbArc
 50
84.42673507382052
 51
95.57326492617949
  0
ARC
  5
277E
330
18
100
AcDbEntity
  8
DISEGNO
100
AcDbCircle
 10
-113.5156543822222
 20
81.91688635695413
 30
0.0
 40
0.1000000000000215
100
AcDbArc
 50
264.426735073717
 51
353.6023069202954
  0
LINE
  5
277F
330
18
100
AcDbEntity
  8
DISEGNO
100
AcDbLine
 10
-113.3104100264904
 20
82.84991323723989
 30
0.0
 11
-113.4162771415754
 21
81.90574346498555
 31
0.0
  0
ARC
  5
2780
330
18
100
AcDbEntity
  8
DISEGNO
100
AcDbCircle
 10
-113.2110327858436
 20
82.83877034527131
 30
0.0
 40
0.0999999999997987
100
AcDbArc
 50
82.87702451897455
 51
173.6023069202954
  0
ARC
  5
2781
330
18
100
AcDbEntity
  8
DISEGNO
100
AcDbCircle
 10
-114.1906279645618
 20
74.99974022121614
 30
0.0
 40
8.000000000000635
100
AcDbArc
 50
71.40868976695556
 51
82.8770245187645
  0
ARC
  5
2782
330
18
100
AcDbEntity
  8
DISEGNO
100
AcDbCircle
 10
-111.6719850224531
 20
82.48749273650242
 30
0.0
 40
0.0999999999999497
100
AcDbArc
 50
340.6834073655548
 51
71.4086897670135
  0
LINE
  5
2783
330
18
100
AcDbEntity
  8
DISEGNO
100
AcDbLine
 10
-111.891891439142
 20
81.55781237595125
 30
0.0
 11
-111.5776145028203
 21
82.45441396650972
 31
0.0
  0
ARC
  5
2784
330
18
100
AcDbEntity
  8
DISEGNO
100
AcDbCircle
 10
-111.7975209195092
 20
81.52473360595854
 30
0.0
 40
0.0999999999999787
100
AcDbArc
 50
160.6834073655548
 51
249.8589792119888
  0
ARC
  5
2785
330
18
100
AcDbEntity
  8
DISEGNO
100
AcDbCircle
 10
-114.1906279645613
 20
74.99974022121614
 30
0.0
 40
6.850000000000763
100
AcDbArc
 50
58.71244935952719
 51
69.85897921190643
  0
ARC
  5
2786
330
18
100
AcDbEntity
  8
DISEGNO
100
AcDbCircle
 10
-110.5812605508208
 20
80.93901348253666
 30
0.0
 40
0.0999999999996991
100
AcDbArc
 50
238.7124493595559
 51
327.8880212059712
  0
LINE
  5
2787
330
18
100
AcDbEntity
  8
DISEGNO
100
AcDbLine
 10
-109.9915165844786
 20
81.69058946609288
 30
0.0
 11
-110.4965594704522
 21
80.88585591501965
 31
0.0
  0
ARC
  5
2788
330
18
100
AcDbEntity
  8
DISEGNO
100
AcDbCircle
 10
-109.9068155041095
 20
81.63743189857564
 30
0.0
 40
0.0999999999998073
100
AcDbArc
 50
57.16273880460247
 51
147.8880212059933
  0
ARC
  5
2789
330
18
100
AcDbEntity
  8
DISEGNO
100
AcDbCircle
 10
-114.1906279645618
 20
74.99974022121591
 30
0.0
 40
8.000000000000905
100
AcDbArc
 50
45.6944040526677
 51
57.1627388044796
  0
ARC
  5
278A
330
18
100
AcDbEntity
  8
DISEGNO
100
AcDbCircle
 10
-108.6725950254404
 20
80.6531739108234
 30
0.0
 40
0.0999999999999751
100
AcDbArc
 50
314.9691216512116
 51
45.6944040526677
  0
LINE
  5
278B
330
18
100
AcDbEntity
  8
DISEGNO
100
AcDbLine
 10
-109.2740970517493
 20
79.9109746671952
 30
0.0
 11
-108.6019224656133
 21
80.58242513495065
 31
0.0
  0
ARC
  5
278C
330
18
100
AcDbEntity
  8
DISEGNO
100
AcDbCircle
 10
-109.2034244919223
 20
79.84022589132246
 30
0.0
 40
0.0999999999999391
100
AcDbArc
 50
134.9691216512116
 51
224.1446934976525
  0
ARC
  5
278D
330
18
100
AcDbEntity
  8
DISEGNO
100
AcDbCircle
 10
-114.1906279645609
 20
74.99974022121637
 30
0.0
 40
6.850000000000146
100
AcDbArc
 50
32.99816364525161
 51
44.14469349761565
  0
ARC
  5
278E
330
18
100
AcDbEntity
  8
DISEGNO
100
AcDbCircle
 10
-108.3617462016973
 20
78.78479469830859
 30
0.0
 40
0.100000000000002
100
AcDbArc
 50
212.9981636452625
 51
302.173735491691
  0
LINE
  5
278F
330
18
100
AcDbEntity
  8
DISEGNO
100
AcDbLine
 10
-107.5043086500131
 20
79.20606094411709
 30
0.0
 11
-108.308497369364
 21
78.70015096342445
 31
0.0
  0
ARC
  5
2790
330
18
100
AcDbEntity
  8
DISEGNO
100
AcDbCircle
 10
-107.4510598176798
 20
79.12141720923296
 30
0.0
 40
0.0999999999998686
100
AcDbArc
 50
31.44845309018329
 51
122.1737354916911
  0
ARC
  5
2791
330
18
100
AcDbEntity
  8
DISEGNO
100
AcDbCircle
 10
-114.1906279645613
 20
74.999740221215
 30
0.0
 40
8.000000000000914
100
AcDbArc
 50
19.98011833837791
 51
31.44845309020577
  0
ARC
  5
2792
330
18
100
AcDbEntity
  8
DISEGNO
100
AcDbCircle
 10
-106.7661191262536
 20
77.6991232081034
 30
0.0
 40
0.0999999999999887
100
AcDbArc
 50
289.2548359368491
 51
19.98011833832897
  0
LINE
  5
2793
330
18
100
AcDbEntity
  8
DISEGNO
100
AcDbLine
 10
-107.6300819089338
 20
77.2914067440754
 30
0.0
 11
-106.7331420934483
 21
77.60471708908903
 31
0.0
  0
ARC
  5
2794
330
18
100
AcDbEntity
  8
DISEGNO
100
AcDbCircle
 10
-107.5971048761285
 20
77.19700062506103
 30
0.0
 40
0.0999999999998246
100
AcDbArc
 50
109.254835936849
 51
198.4304077833443
  0
ARC
  5
2795
330
18
100
AcDbEntity
  8
DISEGNO
100
AcDbCircle
 10
-114.1906279645609
 20
74.99974022121546
 30
0.0
 40
6.850000000000165
100
AcDbArc
 50
7.28387793096111
 51
18.43040778334434
  0
ARC
  5
2796
330
18
100
AcDbEntity
  8
DISEGNO
100
AcDbCircle
 10
-107.2967133722523
 20
75.88089945424553
 30
0.0
 40
0.0999999999999819
100
AcDbArc
 50
187.2838779309094
 51
276.4594497773651
  0
LINE
  5
2797
330
18
100
AcDbEntity
  8
DISEGNO
100
AcDbLine
 10
-106.3414082581189
 20
75.88841901583259
 30
0.0
 11
-107.2854633722522
 21
75.78153428177552
 31
0.0
  0
ARC
  5
2798
330
18
100
AcDbEntity
  8
DISEGNO
100
AcDbCircle
 10
-106.3301582581189
 20
75.78905384336258
 30
0.0
 40
0.1000000000000527
100
AcDbArc
 50
5.734167375959501
 51
96.45944977736514
  0
ARC
  5
2799
330
18
100
AcDbEntity
  8
DISEGNO
100
AcDbCircle
 10
-114.1906279645613
 20
74.99974022121683
 30
0.0
 40
8.000000000000369
100
AcDbArc
 50
354.2658326240924
 51
5.734167375907568
  0
ARC
  5
279A
330
18
100
AcDbEntity
  8
DISEGNO
100
AcDbCircle
 10
-106.3301582581189
 20
74.21042659907084
 30
0.0
 40
0.0999999999999819
100
AcDbArc
 50
263.5405502226348
 51
354.2658326240405
  0
LINE
  5
279B
330
18
100
AcDbEntity
  8
DISEGNO
100
AcDbLine
 10
-107.2854633722522
 20
74.2179461606579
 30
0.0
 11
-106.3414082581189
 21
74.11106142660083
 31
0.0
  0
ARC
  5
279C
330
18
100
AcDbEntity
  8
DISEGNO
100
AcDbCircle
 10
-107.2967133722523
 20
74.11858098818789
 30
0.0
 40
0.0999999999998525
100
AcDbArc
 50
83.54055022263485
 51
172.7161220690906
  0
ARC
  5
279D
330
18
100
AcDbEntity
  8
DISEGNO
100
AcDbCircle
 10
-114.1906279645604
 20
74.99974022121818
 30
0.0
 40
6.849999999999772
100
AcDbArc
 50
341.5695922166557
 51
352.7161220690389
  0
ARC
  5
279E
330
18
100
AcDbEntity
  8
DISEGNO
100
AcDbCircle
 10
-107.5971048761285
 20
72.80247981737239
 30
0.0
 40
0.0999999999999887
100
AcDbArc
 50
161.5695922166556
 51
250.745164063151
  0
LINE
  5
279F
330
18
100
AcDbEntity
  8
DISEGNO
100
AcDbLine
 10
-106.7331420934483
 20
72.39476335334439
 30
0.0
 11
-107.6300819089338
 21
72.70807369835802
 31
0.0
  0
ARC
  5
27A0
330
18
100
AcDbEntity
  8
DISEGNO
100
AcDbCircle
 10
-106.7661191262541
 20
72.30035723433025
 30
0.0
 40
0.1000000000002528
100
AcDbArc
 50
340.0198816615519
 51
70.74516406285043
  0
ARC
  5
27A1
330
18
100
AcDbEntity
  8
DISEGNO
100
AcDbCircle
 10
-114.1906279645613
 20
74.99974022121591
 30
0.0
 40
7.999999999999639
100
AcDbArc
 50
328.5515469098054
 51
340.0198816616342
  0
ARC
  5
27A2
330
18
100
AcDbEntity
  8
DISEGNO
100
AcDbCircle
 10
-107.4510598176798
 20
70.87806323320046
 30
0.0
 40
0.100000000000002
100
AcDbArc
 50
237.8262645083085
 51
328.5515469098168
  0
LINE
  5
27A3
330
18
100
AcDbEntity
  8
DISEGNO
100
AcDbLine
 10
-108.308497369364
 20
71.29932947900897
 30
0.0
 11
-107.5043086500131
 21
70.79341949831633
 31
0.0
  0
ARC
  5
27A4
330
18
100
AcDbEntity
  8
DISEGNO
100
AcDbCircle
 10
-108.3617462016973
 20
71.21468574412483
 30
0.0
 40
0.0999999999998342
100
AcDbArc
 50
57.82626450830857
 51
147.0018363547375
  0
ARC
  5
27A5
330
18
100
AcDbEntity
  8
DISEGNO
100
AcDbCircle
 10
-114.1906279645609
 20
74.99974022121728
 30
0.0
 40
6.850000000000294
100
AcDbArc
 50
315.8553065023844
 51
327.0018363547484
  0
ARC
  5
27A6
330
18
100
AcDbEntity
  8
DISEGNO
100
AcDbCircle
 10
-109.2034244919223
 20
70.15925455111096
 30
0.0
 40
0.0999999999999751
100
AcDbArc
 50
135.8553065023475
 51
225.0308783487884
  0
LINE
  5
27A7
330
18
100
AcDbEntity
  8
DISEGNO
100
AcDbLine
 10
-108.6019224656133
 20
69.41705530748277
 30
0.0
 11
-109.2740970517493
 21
70.08850577523822
 31
0.0
  0
ARC
  5
27A8
330
18
100
AcDbEntity
  8
DISEGNO
100
AcDbCircle
 10
-108.6725950254404
 20
69.34630653161002
 30
0.0
 40
0.0999999999999252
100
AcDbArc
 50
314.3055959472306
 51
45.03087834878843
  0
ARC
  5
27A9
330
18
100
AcDbEntity
  8
DISEGNO
100
AcDbCircle
 10
-114.1906279645609
 20
74.99974022121546
 30
0.0
 40
7.999999999998904
100
AcDbArc
 50
302.8372611955204
 51
314.3055959473415
  0
ARC
  5
27AA
330
18
100
AcDbEntity
  8
DISEGNO
100
AcDbCircle
 10
-109.9068155041095
 20
68.36204854385801
 30
0.0
 40
0.100000000000326
100
AcDbArc
 50
212.1119787941115
 51
302.8372611955496
  0
LINE
  5
27AB
330
18
100
AcDbEntity
  8
DISEGNO
100
AcDbLine
 10
-110.4965594704522
 20
69.11362452741378
 30
0.0
 11
-109.9915165844786
 21
68.30889097634053
 31
0.0
  0
ARC
  5
27AC
330
18
100
AcDbEntity
  8
DISEGNO
100
AcDbCircle
 10
-110.5812605508208
 20
69.06046695989676
 30
0.0
 40
0.0999999999998772
100
AcDbArc
 50
32.11197879402885
 51
121.2875506404437
  0
ARC
  5
27AD
330
18
100
AcDbEntity
  8
DISEGNO
100
AcDbCircle
 10
-114.1906279645618
 20
74.99974022121773
 30
0.0
 40
6.850000000001347
100
AcDbArc
 50
290.1410207880935
 51
301.2875506404728
  0
ARC
  5
27AE
330
18
100
AcDbEntity
  8
DISEGNO
100
AcDbCircle
 10
-111.7975209195092
 20
68.47474683647488
 30
0.0
 40
0.0999999999999497
100
AcDbArc
 50
110.1410207880111
 51
199.3165926344452
  0
LINE
  5
27AF
330
18
100
AcDbEntity
  8
DISEGNO
100
AcDbLine
 10
-111.5776145028203
 20
67.5450664759237
 30
0.0
 11
-111.891891439142
 21
68.44166806648217
 31
0.0
  0
ARC
  5
27B0
330
18
100
AcDbEntity
  8
DISEGNO
100
AcDbCircle
 10
-111.6719850224531
 20
67.511987705931
 30
0.0
 40
0.1000000000000013
100
AcDbArc
 50
288.5913102329865
 51
19.31659263444521
  0
ARC
  5
27B1
330
18
100
AcDbEntity
  8
DISEGNO
100
AcDbCircle
 10
-114.1906279645618
 20
74.99974022121728
 30
0.0
 40
8.000000000000584
100
AcDbArc
 50
277.1229754812355
 51
288.5913102330444
  0
ARC
  5
27B2
330
18
100
AcDbEntity
  8
DISEGNO
100
AcDbCircle
 10
-113.2110327858436
 20
67.16071009716211
 30
0.0
 40
0.1000000000000215
100
AcDbArc
 50
186.3976930797045
 51
277.1229754810254
  0
LINE
  5
27B3
330
18
100
AcDbEntity
  8
DISEGNO
100
AcDbLine
 10
-113.4162771415754
 20
68.09373697744809
 30
0.0
 11
-113.3104100264904
 21
67.14956720519353
 31
0.0
  0
ARC
  5
27B4
330
18
100
AcDbEntity
  8
DISEGNO
100
AcDbCircle
 10
-113.5156543822222
 20
68.08259408547929
 30
0.0
 40
0.1000000000001195
100
AcDbArc
 50
6.397693079836888
 51
95.57326492628298
  0
ARC
  5
27B5
330
18
100
AcDbEntity
  8
DISEGNO
100
AcDbCircle
 10
-114.1906279645613
 20
74.99974022121591
 30
0.0
 40
6.849999999999298
100
AcDbArc
 50
264.4267350738205
 51
275.5732649261791
  0
ARC
  5
27B6
330
18
100
AcDbEntity
  8
DISEGNO
100
AcDbCircle
 10
-114.8656015469005
 20
68.08259408547929
 30
0.0
 40
0.1000000000000469
100
AcDbArc
 50
84.42673507371701
 51
173.6023069201631
  0
LINE
  5
27B7
330
18
100
AcDbEntity
  8
DISEGNO
100
AcDbLine
 10
-115.0708459026318
 20
67.14956720519353
 30
0.0
 11
-114.9649787875473
 21
68.09373697744809
 31
0.0
  0
ARC
  5
27B8
330
18
100
AcDbEntity
  8
DISEGNO
100
AcDbCircle
 10
-115.1702231432787
 20
67.16071009716234
 30
0.0
 40
0.1000000000000806
100
AcDbArc
 50
262.877024518737
 51
353.6023069201631
  0
ARC
  5
27B9
330
18
100
AcDbEntity
  8
DISEGNO
100
AcDbCircle
 10
-114.1906279645609
 20
74.99974022121728
 30
0.0
 40
8.000000000000635
100
AcDbArc
 50
251.4086897669556
 51
262.8770245187645
  0
ARC
  5
27BA
330
18
100
AcDbEntity
  8
DISEGNO
100
AcDbCircle
 10
-116.7092709066696
 20
67.511987705931
 30
0.0
 40
0.0999999999999497
100
AcDbArc
 50
160.6834073655548
 51
251.4086897670135
  0
LINE
  5
27BB
330
18
100
AcDbEntity
  8
DISEGNO
100
AcDbLine
 10
-116.4893644899807
 20
68.44166806648217
 30
0.0
 11
-116.8036414263024
 21
67.5450664759237
 31
0.0
  0
ARC
  5
27BC
330
18
100
AcDbEntity
  8
DISEGNO
100
AcDbCircle
 10
-116.5837350096135
 20
68.47474683647511
 30
0.0
 40
0.0999999999999219
100
AcDbArc
 50
340.6834073654271
 51
69.85897921168398
  0
ARC
  5
27BD
330
18
100
AcDbEntity
  8
DISEGNO
100
AcDbCircle
 10
-96.69062796456092
 20
57.49974022121659
 30
0.0
 40
3.400000000000227
100
AcDbArc
 50
345.8518859860638
 51
104.1481140139392
  0
ARC
  5
27BE
330
18
100
AcDbEntity
  8
DISEGNO
100
AcDbCircle
 10
-92.90892628183746
 20
56.5464656632389
 30
0.0
 40
0.4999999999999237
100
AcDbArc
 50
165.8518859860322
 51
224.9999999999816
  0
LINE
  5
27BF
330
18
100
AcDbEntity
  8
DISEGNO
100
AcDbLine
 10
-92.89135500525572
 20
55.82178760547094
 30
0.0
 11
-93.2624796724308
 21
56.1929122726458
 31
0.0
  0
ARC
  5
27C0
330
18
100
AcDbEntity
  8
DISEGNO
100
AcDbCircle
 10
-93.24490839584905
 20
55.46823421487784
 30
0.0
 40
0.4999999999998167
100
AcDbArc
 50
329.4775121859018
 51
44.99999999998157
  0
ARC
  5
27C1
330
18
100
AcDbEntity
  8
DISEGNO
100
AcDbCircle
 10
-96.69062796456138
 20
57.49974022121637
 30
0.0
 40
4.49999999999942
100
AcDbArc
 50
300.5224878140646
 51
329.4775121859244
  0
ARC
  5
27C2
330
18
100
AcDbEntity
  8
DISEGNO
100
AcDbCircle
 10
-94.65912195822239
 20
54.05402065250473
 30
0.0
 40
0.5000000000000844
100
AcDbArc
 50
224.9999999999908
 51
300.5224878140869
  0
LINE
  5
27C3
330
18
100
AcDbEntity
  8
DISEGNO
100
AcDbLine
 10
-95.38380001599035
 20
54.07159192908626
 30
0.0
 11
-95.01267534881572
 21
53.7004672619114
 31
0.0
  0
ARC
  5
27C4
330
18
100
AcDbEntity
  8
DISEGNO
100
AcDbCircle
 10
-95.73735340658368
 20
53.71803853849269
 30
0.0
 40
0.5000000000003354
100
AcDbArc
 50
45.00000000001842
 51
104.1481140139647
  0
ARC
  5
27C5
330
18
100
AcDbEntity
  8
DISEGNO
100
AcDbCircle
 10
-96.69062796456138
 20
57.49974022121683
 30
0.0
 40
3.400000000000227
100
AcDbArc
 50
165.8518859860637
 51
284.1481140139391
  0
ARC
  5
27C6
330
18
100
AcDbEntity
  8
DISEGNO
100
AcDbCircle
 10
-100.4723296472852
 20
58.45301477919406
 30
0.0
 40
0.5000000000002453
100
AcDbArc
 50
345.851885986089
 51
45.00000000001842
  0
LINE
  5
27C7
330
18
100
AcDbEntity
  8
DISEGNO
100
AcDbLine
 10
-102.1655016987142
 20
60.85329361180993
 30
0.0
 11
-100.1187762566919
 21
58.80656816978762
 31
0.0
  0
ARC
  5
27C8
330
18
100
AcDbEntity
  8
DISEGNO
100
AcDbCircle
 10
-102.5190550893076
 20
60.49974022121682
 30
0.0
 40
0.5
100
AcDbArc
 50
44.99999999998157
 51
90.0
  0
LINE
  5
27C9
330
18
100
AcDbEntity
  8
DISEGNO
100
AcDbLine
 10
-102.8119483081209
 20
60.9997402212166
 30
0.0
 11
-102.5190550893076
 21
60.99974022121682
 31
0.0
  0
ARC
  5
27CA
330
18
100
AcDbEntity
  8
DISEGNO
100
AcDbCircle
 10
-102.8119483081209
 20
61.4997402212166
 30
0.0
 40
0.4999999999999237
100
AcDbArc
 50
224.9999999999816
 51
270.0
  0
LINE
  5
27CB
330
18
100
AcDbEntity
  8
DISEGNO
100
AcDbLine
 10
-107.899324023223
 20
65.88000915513226
 30
0.0
 11
-103.1655016987142
 21
61.14618683062349
 31
0.0
  0
ARC
  5
27CC
330
18
100
AcDbEntity
  8
DISEGNO
100
AcDbCircle
 10
-107.5457706326297
 20
66.23356254572559
 30
0.0
 40
0.50000000000007
100
AcDbArc
 50
127.1625202369442
 51
224.9999999999908
  0
ARC
  5
27CD
330
18
100
AcDbEntity
  8
DISEGNO
100
AcDbCircle
 10
-114.1906279645618
 20
74.99974022121683
 30
0.0
 40
10.50000000000057
100
AcDbArc
 50
307.1625202369155
 51
322.8374797630767
  0
ARC
  5
27CE
330
18
100
AcDbEntity
  8
DISEGNO
100
AcDbCircle
 10
-105.4244502890701
 20
68.35488288928513
 30
0.0
 40
0.5000000000000844
100
AcDbArc
 50
44.99999999999078
 51
142.8374797631028
  0
LINE
  5
27CF
330
18
100
AcDbEntity
  8
DISEGNO
100
AcDbLine
 10
-100.337074573968
 20
63.97461395536971
 30
0.0
 11
-105.0708968984768
 21
68.70843627987847
 31
0.0
  0
ARC
  5
27D0
330
18
100
AcDbEntity
  8
DISEGNO
100
AcDbCircle
 10
-100.6906279645613
 20
63.62106056477637
 30
0.0
 40
0.5
100
AcDbArc
 50
0.0
 51
44.99999999999078
  0
LINE
  5
27D1
330
18
100
AcDbEntity
  8
DISEGNO
100
AcDbLine
 10
-100.1906279645613
 20
63.32816734596304
 30
0.0
 11
-100.1906279645613
 21
63.62106056477637
 31
0.0
  0
ARC
  5
27D2
330
18
100
AcDbEntity
  8
DISEGNO
100
AcDbCircle
 10
-99.69062796456137
 20
63.32816734596304
 30
0.0
 40
0.5000000000000844
100
AcDbArc
 50
180.0
 51
224.9999999999908
  0
LINE
  5
27D3
330
18
100
AcDbEntity
  8
DISEGNO
100
AcDbLine
 10
-97.99745591313195
 20
60.92788851334717
 30
0.0
 11
-100.0441813551547
 21
62.9746139553697
 31
0.0
  0
ARC
  5
27D4
330
18
100
AcDbEntity
  8
DISEGNO
100
AcDbCircle
 10
-97.64390252253907
 20
61.28144190394028
 30
0.0
 40
0.4999999999998944
100
AcDbArc
 50
225.0000000000184
 51
284.1481140139648
  0
ARC
  5
27D5
330
18
100
AcDbEntity
  8
DISEGNO
100
AcDbCircle
 10
-96.69062796456092
 20
92.49974022121682
 30
0.0
 40
3.400000000000558
100
AcDbArc
 50
255.8518859860608
 51
14.14811401393624
  0
ARC
  5
27D6
330
18
100
AcDbEntity
  8
DISEGNO
100
AcDbCircle
 10
-97.64390252253907
 20
88.71803853849314
 30
0.0
 40
0.4999999999996021
100
AcDbArc
 50
75.85188598603522
 51
134.9999999999816
  0
LINE
  5
27D7
330
18
100
AcDbEntity
  8
DISEGNO
100
AcDbLine
 10
-100.0441813551547
 20
87.02486648706372
 30
0.0
 11
-97.99745591313195
 21
89.07159192908626
 31
0.0
  0
ARC
  5
27D8
330
18
100
AcDbEntity
  8
DISEGNO
100
AcDbCircle
 10
-99.69062796456183
 20
86.67131309647061
 30
0.0
 40
0.4999999999995453
100
AcDbArc
 50
134.9999999999816
 51
180.0
  0
LINE
  5
27D9
330
18
100
AcDbEntity
  8
DISEGNO
100
AcDbLine
 10
-100.1906279645613
 20
86.37841987765705
 30
0.0
 11
-100.1906279645613
 21
86.67131309647061
 31
0.0
  0
ARC
  5
27DA
330
18
100
AcDbEntity
  8
DISEGNO
100
AcDbCircle
 10
-100.6906279645613
 20
86.37841987765682
 30
0.0
 40
0.4999999999999237
100
AcDbArc
 50
315.0000000000184
 51
0.0000000000260551
  0
LINE
  5
27DB
330
18
100
AcDbEntity
  8
DISEGNO
100
AcDbLine
 10
-105.0708968984768
 20
81.29104416255495
 30
0.0
 11
-100.337074573968
 21
86.02486648706372
 31
0.0
  0
ARC
  5
27DC
330
18
100
AcDbEntity
  8
DISEGNO
100
AcDbCircle
 10
-105.4244502890701
 20
81.64459755314828
 30
0.0
 40
0.5000000000001138
100
AcDbArc
 50
217.1625202368972
 51
315.0000000000092
  0
ARC
  5
27DD
330
18
100
AcDbEntity
  8
DISEGNO
100
AcDbCircle
 10
-114.1906279645618
 20
74.99974022121683
 30
0.0
 40
10.50000000000035
100
AcDbArc
 50
37.16252023692334
 51
52.83747976308447
  0
ARC
  5
27DE
330
18
100
AcDbEntity
  8
DISEGNO
100
AcDbCircle
 10
-107.5457706326297
 20
83.76591789670783
 30
0.0
 40
0.5000000000000844
100
AcDbArc
 50
135.0000000000092
 51
232.8374797630557
  0
LINE
  5
27DF
330
18
100
AcDbEntity
  8
DISEGNO
100
AcDbLine
 10
-103.1655016987142
 20
88.85329361180993
 30
0.0
 11
-107.899324023223
 21
84.11947128730117
 31
0.0
  0
ARC
  5
27E0
330
18
100
AcDbEntity
  8
DISEGNO
100
AcDbCircle
 10
-102.8119483081209
 20
88.49974022121683
 30
0.0
 40
0.5
100
AcDbArc
 50
90.0
 51
135.0000000000184
  0
LINE
  5
27E1
330
18
100
AcDbEntity
  8
DISEGNO
100
AcDbLine
 10
-102.5190550893076
 20
88.99974022121682
 30
0.0
 11
-102.8119483081209
 21
88.99974022121682
 31
0.0
  0
ARC
  5
27E2
330
18
100
AcDbEntity
  8
DISEGNO
100
AcDbCircle
 10
-102.5190550893076
 20
89.49974022121683
 30
0.0
 40
0.5000000000000844
100
AcDbArc
 50
270.0
 51
315.0000000000092
  0
LINE
  5
27E3
330
18
100
AcDbEntity
  8
DISEGNO
100
AcDbLine
 10
-100.1187762566919
 20
91.19291227264602
 30
0.0
 11
-102.1655016987142
 21
89.14618683062348
 31
0.0
  0
ARC
  5
27E4
330
18
100
AcDbEntity
  8
DISEGNO
100
AcDbCircle
 10
-100.4723296472848
 20
91.54646566323959
 30
0.0
 40
0.4999999999997277
100
AcDbArc
 50
314.9999999999447
 51
14.14811401389842
  0
ARC
  5
27E5
330
18
100
AcDbEntity
  8
DISEGNO
100
AcDbCircle
 10
-96.69062796456138
 20
92.49974022121682
 30
0.0
 40
3.400000000000227
100
AcDbArc
 50
75.85188598606041
 51
194.1481140139362
  0
ARC
  5
27E6
330
18
100
AcDbEntity
  8
DISEGNO
100
AcDbCircle
 10
-95.73735340658368
 20
96.28144190394074
 30
0.0
 40
0.5000000000002453
100
AcDbArc
 50
255.8518859860352
 51
314.9999999999816
  0
LINE
  5
27E7
330
18
100
AcDbEntity
  8
DISEGNO
100
AcDbLine
 10
-95.01267534881572
 20
96.29901318052203
 30
0.0
 11
-95.38380001599035
 21
95.92788851334717
 31
0.0
  0
ARC
  5
27E8
330
18
100
AcDbEntity
  8
DISEGNO
100
AcDbCircle
 10
-94.65912195822239
 20
95.94545978992869
 30
0.0
 40
0.5000000000002084
100
AcDbArc
 50
59.4775121859131
 51
135.0000000000092
  0
ARC
  5
27E9
330
18
100
AcDbEntity
  8
DISEGNO
100
AcDbCircle
 10
-96.69062796456138
 20
92.49974022121728
 30
0.0
 40
4.499999999999269
100
AcDbArc
 50
30.52248781406463
 51
59.4775121859131
  0
ARC
  5
27EA
330
18
100
AcDbEntity
  8
DISEGNO
100
AcDbCircle
 10
-93.24490839584905
 20
94.53124622755536
 30
0.0
 40
0.4999999999997629
100
AcDbArc
 50
315.000000000046
 51
30.52248781412286
  0
LINE
  5
27EB
330
18
100
AcDbEntity
  8
DISEGNO
100
AcDbLine
 10
-93.2624796724308
 20
93.80656816978762
 30
0.0
 11
-92.89135500525572
 21
94.17769283696248
 31
0.0
  0
ARC
  5
27EC
330
18
100
AcDbEntity
  8
DISEGNO
100
AcDbCircle
 10
-92.90892628183746
 20
93.45301477919452
 30
0.0
 40
0.4999999999998944
100
AcDbArc
 50
135.0000000000184
 51
194.1481140139677
  0
ARC
  5
27ED
330
18
100
AcDbEntity
  8
DISEGNO
100
AcDbCircle
 10
-114.1906279645609
 20
74.99974022121637
 30
0.0
 40
10.50000000000045
100
AcDbArc
 50
90.0
 51
103.667748502415
  0
ARC
  5
27EE
330
18
100
AcDbEntity
  8
DISEGNO
100
AcDbCircle
 10
-114.1906279645618
 20
74.99974022121683
 30
0.0
 40
10.49999999999995
100
AcDbArc
 50
76.33225149758494
 51
90.0
  0
ARC
  5
27EF
330
18
100
AcDbEntity
  8
DISEGNO
100
AcDbCircle
 10
-111.2369876070033
 20
87.14576873420014
 30
0.0
 40
2.000000000000337
100
AcDbArc
 50
256.3322514976101
 51
315.0000000000092
  0
LINE
  5
27F0
330
18
100
AcDbEntity
  8
DISEGNO
100
AcDbLine
 10
-104.6906279645613
 20
90.86370125189592
 30
0.0
 11
-109.82277404463
 21
85.73155517182682
 31
0.0
  0
LINE
  5
27F1
330
18
100
AcDbEntity
  8
DISEGNO
100
AcDbLine
 10
-104.6906279645613
 20
90.94654396437045
 30
0.0
 11
-104.6906279645613
 21
90.86370125189592
 31
0.0
  0
LINE
  5
27F2
330
18
100
AcDbEntity
  8
DISEGNO
100
AcDbLine
 10
-104.6906279645613
 20
91.49974022121682
 30
0.0
 11
-104.6906279645613
 21
90.94654396437045
 31
0.0
  0
LINE
  5
27F3
330
18
100
AcDbEntity
  8
DISEGNO
100
AcDbLine
 10
-103.9717462827657
 20
91.49974022121682
 30
0.0
 11
-104.6906279645613
 21
91.49974022121682
 31
0.0
  0
LINE
  5
27F4
330
18
100
AcDbEntity
  8
DISEGNO
100
AcDbLine
 10
-103.1906279645613
 20
91.49974022121682
 30
0.0
 11
-103.9717462827657
 21
91.49974022121682
 31
0.0
  0
LINE
  5
27F5
330
18
100
AcDbEntity
  8
DISEGNO
100
AcDbLine
 10
-103.1906279645613
 20
95.99974022121683
 30
0.0
 11
-103.1906279645613
 21
91.49974022121682
 31
0.0
  0
LINE
  5
27F6
330
18
100
AcDbEntity
  8
DISEGNO
100
AcDbLine
 10
-110.1906279645614
 20
95.99974022121683
 30
0.0
 11
-103.1906279645613
 21
95.99974022121683
 31
0.0
  0
LINE
  5
27F7
330
18
100
AcDbEntity
  8
DISEGNO
100
AcDbLine
 10
-110.1906279645614
 20
97.99974022121682
 30
0.0
 11
-110.1906279645614
 21
95.99974022121683
 31
0.0
  0
LINE
  5
27F8
330
18
100
AcDbEntity
  8
DISEGNO
100
AcDbLine
 10
-108.9906279645611
 20
97.99974022121682
 30
0.0
 11
-110.1906279645614
 21
97.99974022121682
 31
0.0
  0
LINE
  5
27F9
330
18
100
AcDbEntity
  8
DISEGNO
100
AcDbLine
 10
-108.9906279645611
 20
98.99974022121682
 30
0.0
 11
-108.9906279645611
 21
97.99974022121682
 31
0.0
  0
LINE
  5
27FA
330
18
100
AcDbEntity
  8
DISEGNO
100
AcDbLine
 10
-110.1906279645614
 20
98.99974022121682
 30
0.0
 11
-108.9906279645611
 21
98.99974022121682
 31
0.0
  0
LINE
  5
27FB
330
18
100
AcDbEntity
  8
DISEGNO
100
AcDbLine
 10
-110.1906279645614
 20
99.99974022121683
 30
0.0
 11
-110.1906279645614
 21
98.99974022121682
 31
0.0
  0
LINE
  5
27FC
330
18
100
AcDbEntity
  8
DISEGNO
100
AcDbLine
 10
-100.9320493207988
 20
99.99974022121683
 30
0.0
 11
-110.1906279645614
 21
99.99974022121683
 31
0.0
  0
ARC
  5
27FD
330
18
100
AcDbEntity
  8
DISEGNO
100
AcDbCircle
 10
-100.9320493207988
 20
99.89974022121669
 30
0.0
 40
0.1000000000001455
100
AcDbArc
 50
44.99999999999078
 51
90.0
  0
LINE
  5
27FE
330
18
100
AcDbEntity
  8
DISEGNO
100
AcDbLine
 10
-100.6906279645613
 20
99.79974022121679
 30
0.0
 11
-100.86133864268
 21
99.97045089933545
 31
0.0
  0
LINE
  5
27FF
330
18
100
AcDbEntity
  8
DISEGNO
100
AcDbLine
 10
-98.69062796456137
 20
99.79974022121679
 30
0.0
 11
-100.6906279645613
 21
99.79974022121679
 31
0.0
  0
LINE
  5
2800
330
18
100
AcDbEntity
  8
DISEGNO
100
AcDbLine
 10
-98.51991728644271
 20
99.97045089933545
 30
0.0
 11
-98.69062796456137
 21
99.79974022121679
 31
0.0
  0
ARC
  5
2801
330
18
100
AcDbEntity
  8
DISEGNO
100
AcDbCircle
 10
-98.44920660832395
 20
99.89974022121669
 30
0.0
 40
0.1000000000001364
100
AcDbArc
 50
90.0
 51
135.0000000000092
  0
LINE
  5
2802
330
18
100
AcDbEntity
  8
DISEGNO
100
AcDbLine
 10
-90.69062796456137
 20
99.99974022121683
 30
0.0
 11
-98.44920660832395
 21
99.99974022121683
 31
0.0
  0
ARC
  5
2803
330
18
100
AcDbEntity
  8
DISEGNO
100
AcDbCircle
 10
-90.69062796456137
 20
98.49974022121683
 30
0.0
 40
1.5
100
AcDbArc
 50
0.0
 51
90.0
  0
LINE
  5
2804
330
18
100
AcDbEntity
  8
DISEGNO
100
AcDbLine
 10
-89.19062796456136
 20
90.74116157745402
 30
0.0
 11
-89.19062796456136
 21
98.49974022121683
 31
0.0
  0
ARC
  5
2805
330
18
100
AcDbEntity
  8
DISEGNO
100
AcDbCircle
 10
-89.29062796456127
 20
90.74116157745379
 30
0.0
 40
0.0999999999999847
100
AcDbArc
 50
315.0000000000921
 51
0.0000000001302755
  0
LINE
  5
2806
330
18
100
AcDbEntity
  8
DISEGNO
100
AcDbLine
 10
-89.39062796456118
 20
90.49974022121659
 30
0.0
 11
-89.21991728644252
 21
90.67045089933527
 31
0.0
  0
LINE
  5
2807
330
18
100
AcDbEntity
  8
DISEGNO
100
AcDbLine
 10
-89.39062796456118
 20
88.49974022121683
 30
0.0
 11
-89.39062796456118
 21
90.49974022121659
 31
0.0
  0
LINE
  5
2808
330
18
100
AcDbEntity
  8
DISEGNO
100
AcDbLine
 10
-89.21991728644252
 20
88.32902954309815
 30
0.0
 11
-89.39062796456118
 21
88.49974022121683
 31
0.0
  0
ARC
  5
2809
330
18
100
AcDbEntity
  8
DISEGNO
100
AcDbCircle
 10
-89.29062796456127
 20
88.25831886497985
 30
0.0
 40
0.0999999999999091
100
AcDbArc
 50
359.9999999997394
 51
44.99999999980655
  0
LINE
  5
280A
330
18
100
AcDbEntity
  8
DISEGNO
100
AcDbLine
 10
-89.19062796456136
 20
78.99974022121682
 30
0.0
 11
-89.19062796456136
 21
88.2583188649794
 31
0.0
  0
LINE
  5
280B
330
18
100
AcDbEntity
  8
DISEGNO
100
AcDbLine
 10
-90.19062796456138
 20
78.99974022121682
 30
0.0
 11
-89.19062796456136
 21
78.99974022121682
 31
0.0
  0
LINE
  5
280C
330
18
100
AcDbEntity
  8
DISEGNO
100
AcDbLine
 10
-90.19062796456138
 20
80.19974022121663
 30
0.0
 11
-90.19062796456138
 21
78.99974022121682
 31
0.0
  0
LINE
  5
280D
330
18
100
AcDbEntity
  8
DISEGNO
100
AcDbLine
 10
-91.28112796456163
 20
80.19974022121663
 30
0.0
 11
-90.19062796456138
 21
80.19974022121663
 31
0.0
  0
LINE
  5
280F
330
18
100
AcDbEntity
  8
DISEGNO
100
AcDbLine
 10
-93.19062796456137
 20
78.99974022121682
 30
0.0
 11
-91.28112796456163
 21
78.99974022121682
 31
0.0
  0
LINE
  5
2810
330
18
100
AcDbEntity
  8
DISEGNO
100
AcDbLine
 10
-93.19062796456137
 20
85.99974022121683
 30
0.0
 11
-93.19062796456137
 21
70.99974022121682
 31
0.0
  0
LINE
  5
2811
330
18
100
AcDbEntity
  8
DISEGNO
100
AcDbLine
 10
-97.69062796456138
 20
85.99974022121683
 30
0.0
 11
-93.19062796456137
 21
85.99974022121683
 31
0.0
  0
LINE
  5
2812
330
18
100
AcDbEntity
  8
DISEGNO
100
AcDbLine
 10
-97.69062796456138
 20
85.21862190301249
 30
0.0
 11
-97.69062796456138
 21
85.99974022121683
 31
0.0
  0
LINE
  5
2813
330
18
100
AcDbEntity
  8
DISEGNO
100
AcDbLine
 10
-97.69062796456138
 20
84.4997402212166
 30
0.0
 11
-97.69062796456138
 21
85.21862190301249
 31
0.0
  0
LINE
  5
2814
330
18
100
AcDbEntity
  8
DISEGNO
100
AcDbLine
 10
-98.32666693388228
 20
84.4997402212166
 30
0.0
 11
-97.69062796456138
 21
84.4997402212166
 31
0.0
  0
LINE
  5
2815
330
18
100
AcDbEntity
  8
DISEGNO
100
AcDbLine
 10
-103.4588130139514
 20
79.36759414114795
 30
0.0
 11
-98.32666693388228
 21
84.4997402212166
 31
0.0
  0
ARC
  5
2816
330
18
100
AcDbEntity
  8
DISEGNO
100
AcDbCircle
 10
-102.044599451578
 20
77.95338057877484
 30
0.0
 40
2.000000000000177
100
AcDbArc
 50
135.0000000000092
 51
193.6677485024024
  0
ARC
  5
2817
330
18
100
AcDbEntity
  8
DISEGNO
100
AcDbCircle
 10
-114.1906279645613
 20
74.99974022121591
 30
0.0
 40
10.5
100
AcDbArc
 50
0.0
 51
13.66774850240241
  0
ARC
  5
2818
330
18
100
AcDbEntity
  8
DISEGNO
100
AcDbCircle
 10
-114.1906279645604
 20
74.99974022121728
 30
0.0
 40
10.49999999999907
100
AcDbArc
 50
346.3322514975975
 51
0.0
  0
ARC
  5
2819
330
18
100
AcDbEntity
  8
DISEGNO
100
AcDbCircle
 10
-102.044599451578
 20
72.04609986365858
 30
0.0
 40
2.000000000000176
100
AcDbArc
 50
166.3322514975976
 51
224.9999999999908
  0
LINE
  5
281A
330
18
100
AcDbEntity
  8
DISEGNO
100
AcDbLine
 10
-98.32666693388228
 20
65.49974022121659
 30
0.0
 11
-103.4588130139514
 21
70.63188630128547
 31
0.0
  0
LINE
  5
281B
330
18
100
AcDbEntity
  8
DISEGNO
100
AcDbLine
 10
-97.69062796456138
 20
65.49974022121659
 30
0.0
 11
-98.32666693388228
 21
65.49974022121659
 31
0.0
  0
LINE
  5
281C
330
18
100
AcDbEntity
  8
DISEGNO
100
AcDbLine
 10
-97.69062796456138
 20
64.78085853942116
 30
0.0
 11
-97.69062796456138
 21
65.49974022121659
 31
0.0
  0
LINE
  5
281D
330
18
100
AcDbEntity
  8
DISEGNO
100
AcDbLine
 10
-97.69062796456138
 20
63.99974022121682
 30
0.0
 11
-97.69062796456138
 21
64.78085853942116
 31
0.0
  0
LINE
  5
281E
330
18
100
AcDbEntity
  8
DISEGNO
100
AcDbLine
 10
-93.19062796456137
 20
63.99974022121682
 30
0.0
 11
-97.69062796456138
 21
63.99974022121682
 31
0.0
  0
LINE
  5
281F
330
18
100
AcDbEntity
  8
DISEGNO
100
AcDbLine
 10
-93.19062796456137
 20
70.99974022121682
 30
0.0
 11
-93.19062796456137
 21
63.99974022121682
 31
0.0
  0
LINE
  5
2820
330
18
100
AcDbEntity
  8
DISEGNO
100
AcDbLine
 10
-91.19062796456137
 20
70.99974022121682
 30
0.0
 11
-93.19062796456137
 21
70.99974022121682
 31
0.0
  0
LINE
  5
2821
330
18
100
AcDbEntity
  8
DISEGNO
100
AcDbLine
 10
-91.19062796456137
 20
69.79974022121678
 30
0.0
 11
-91.19062796456137
 21
70.99974022121682
 31
0.0
  0
LINE
  5
2822
330
18
100
AcDbEntity
  8
DISEGNO
100
AcDbLine
 10
-90.19062796456138
 20
69.79974022121678
 30
0.0
 11
-91.19062796456137
 21
69.79974022121678
 31
0.0
  0
LINE
  5
2823
330
18
100
AcDbEntity
  8
DISEGNO
100
AcDbLine
 10
-90.19062796456138
 20
70.99974022121682
 30
0.0
 11
-90.19062796456138
 21
69.79974022121678
 31
0.0
  0
LINE
  5
2824
330
18
100
AcDbEntity
  8
DISEGNO
100
AcDbLine
 10
-89.19062796456136
 20
70.99974022121682
 30
0.0
 11
-90.19062796456138
 21
70.99974022121682
 31
0.0
  0
LINE
  5
2825
330
18
100
AcDbEntity
  8
DISEGNO
100
AcDbLine
 10
-89.19062796456136
 20
61.74116157745402
 30
0.0
 11
-89.19062796456136
 21
70.99974022121682
 31
0.0
  0
ARC
  5
2826
330
18
100
AcDbEntity
  8
DISEGNO
100
AcDbCircle
 10
-89.29062796456127
 20
61.7411615774538
 30
0.0
 40
0.099999999999824
100
AcDbArc
 50
315.0000000001934
 51
0.0000000001302755
  0
LINE
  5
2827
330
18
100
AcDbEntity
  8
DISEGNO
100
AcDbLine
 10
-89.39062796456118
 20
61.49974022121682
 30
0.0
 11
-89.21991728644252
 21
61.67045089933549
 31
0.0
  0
LINE
  5
2828
330
18
100
AcDbEntity
  8
DISEGNO
100
AcDbLine
 10
-89.39062796456118
 20
59.49974022121683
 30
0.0
 11
-89.39062796456118
 21
61.49974022121682
 31
0.0
  0
LINE
  5
2829
330
18
100
AcDbEntity
  8
DISEGNO
100
AcDbLine
 10
-89.21991728644252
 20
59.32902954309816
 30
0.0
 11
-89.39062796456118
 21
59.49974022121683
 31
0.0
  0
ARC
  5
282A
330
18
100
AcDbEntity
  8
DISEGNO
100
AcDbCircle
 10
-89.29062796456127
 20
59.25831886497985
 30
0.0
 40
0.0999999999999091
100
AcDbArc
 50
359.9999999997394
 51
44.99999999980655
  0
LINE
  5
282B
330
18
100
AcDbEntity
  8
DISEGNO
100
AcDbLine
 10
-89.19062796456136
 20
51.4997402212166
 30
0.0
 11
-89.19062796456136
 21
59.2583188649794
 31
0.0
  0
LINE
  5
282C
330
18
100
AcDbEntity
  8
DISEGNO
100
AcDbLine
 10
-108.9906279645611
 20
50.99974022121682
 30
0.0
 11
-110.1906279645614
 21
50.99974022121682
 31
0.0
  0
LINE
  5
282D
330
18
100
AcDbEntity
  8
DISEGNO
100
AcDbLine
 10
-108.9906279645611
 20
51.99974022121683
 30
0.0
 11
-108.9906279645611
 21
50.99974022121682
 31
0.0
  0
LINE
  5
282E
330
18
100
AcDbEntity
  8
DISEGNO
100
AcDbLine
 10
-110.1906279645614
 20
51.99974022121683
 30
0.0
 11
-108.9906279645611
 21
51.99974022121683
 31
0.0
  0
LINE
  5
282F
330
18
100
AcDbEntity
  8
DISEGNO
100
AcDbLine
 10
-110.1906279645614
 20
53.99974022121682
 30
0.0
 11
-110.1906279645614
 21
51.99974022121683
 31
0.0
  0
LINE
  5
2830
330
18
100
AcDbEntity
  8
DISEGNO
100
AcDbLine
 10
-103.1906279645613
 20
53.99974022121682
 30
0.0
 11
-110.1906279645614
 21
53.99974022121682
 31
0.0
  0
LINE
  5
2831
330
18
100
AcDbEntity
  8
DISEGNO
100
AcDbLine
 10
-103.1906279645613
 20
58.49974022121682
 30
0.0
 11
-103.1906279645613
 21
53.99974022121682
 31
0.0
  0
LINE
  5
2832
330
18
100
AcDbEntity
  8
DISEGNO
100
AcDbLine
 10
-103.9717462827657
 20
58.49974022121682
 30
0.0
 11
-103.1906279645613
 21
58.49974022121682
 31
0.0
  0
LINE
  5
2833
330
18
100
AcDbEntity
  8
DISEGNO
100
AcDbLine
 10
-104.6906279645613
 20
58.49974022121682
 30
0.0
 11
-103.9717462827657
 21
58.49974022121682
 31
0.0
  0
LINE
  5
2834
330
18
100
AcDbEntity
  8
DISEGNO
100
AcDbLine
 10
-104.6906279645613
 20
59.13577919053796
 30
0.0
 11
-104.6906279645613
 21
58.49974022121682
 31
0.0
  0
LINE
  5
2835
330
18
100
AcDbEntity
  8
DISEGNO
100
AcDbLine
 10
-104.7492066083241
 20
59.19435783430049
 30
0.0
 11
-104.6906279645613
 21
59.13577919053796
 31
0.0
  0
LINE
  5
2836
330
18
100
AcDbEntity
  8
DISEGNO
100
AcDbLine
 10
-109.82277404463
 20
64.26792527060661
 30
0.0
 11
-104.7492066083241
 21
59.19435783430049
 31
0.0
  0
ARC
  5
2837
330
18
100
AcDbEntity
  8
DISEGNO
100
AcDbCircle
 10
-111.2369876070033
 20
62.8537117082335
 30
0.0
 40
1.999999999999902
100
AcDbArc
 50
44.99999999999078
 51
103.667748502415
  0
ARC
  5
2838
330
18
100
AcDbEntity
  8
DISEGNO
100
AcDbCircle
 10
-114.1906279645609
 20
74.99974022121683
 30
0.0
 40
10.5
100
AcDbArc
 50
270.0
 51
283.6677485023899
  0
ARC
  5
2839
330
18
100
AcDbEntity
  8
DISEGNO
100
AcDbCircle
 10
-114.1906279645618
 20
74.99974022121637
 30
0.0
 40
10.49999999999952
100
AcDbArc
 50
256.3322514975849
 51
270.0
  0
LINE
  5
284C
330
18
100
AcDbEntity
  8
NORMALI
100
AcDbLine
 10
-98.5822679645612
 20
77.39974022121692
 30
0.0
 11
-98.5822679645612
 21
72.59974022121696
 31
0.0
  0
LINE
  5
284D
330
18
100
AcDbEntity
  8
NORMALI
100
AcDbLine
 10
-98.5822679645612
 20
77.39974022121692
 30
0.0
 11
-97.98226796456084
 21
77.99974022121682
 31
0.0
  0
LINE
  5
284E
330
18
100
AcDbEntity
  8
NORMALI
100
AcDbLine
 10
-97.98226796456084
 20
71.99974022121683
 30
0.0
 11
-97.98226796456084
 21
77.99974022121682
 31
0.0
  0
LINE
  5
284F
330
18
100
AcDbEntity
  8
NORMALI
100
AcDbLine
 10
-97.98226796456084
 20
71.99974022121683
 30
0.0
 11
-98.5822679645612
 21
72.59974022121696
 31
0.0
  0
LINE
  5
2850
330
18
100
AcDbEntity
  8
DISEGNO
  6
Continuous
100
AcDbLine
 10
-97.19062796456137
 20
84.99974022121682
 30
0.0
 11
-97.19062796456137
 21
71.99974022121683
 31
0.0
  0
LINE
  5
2851
330
18
100
AcDbEntity
  8
DISEGNO
  6
Continuous
100
AcDbLine
 10
-93.19062796456137
 20
84.99974022121682
 30
0.0
 11
-97.19062796456137
 21
84.99974022121682
 31
0.0
  0
LINE
  5
2858
330
18
100
AcDbEntity
  8
DISEGNO
  6
Continuous
100
AcDbLine
 10
-97.19062796456137
 20
64.99974022121683
 30
0.0
 11
-93.19062796456137
 21
64.99974022121683
 31
0.0
  0
LINE
  5
2859
330
18
100
AcDbEntity
  8
DISEGNO
  6
Continuous
100
AcDbLine
 10
-97.19062796456137
 20
71.99974022121683
 30
0.0
 11
-97.19062796456137
 21
64.99974022121683
 31
0.0
  0
LINE
  5
2866
330
18
100
AcDbEntity
  8
NORMALI
100
AcDbLine
 10
-180.1836679645607
 20
77.99974022121682
 30
0.0
 11
-181.1906279645613
 21
77.99974022121682
 31
0.0
  0
LINE
  5
2867
330
18
100
AcDbEntity
  8
NORMALI
100
AcDbLine
 10
-180.1836679645607
 20
71.99974022121683
 30
0.0
 11
-181.1906279645613
 21
71.99974022121683
 31
0.0
  0
LINE
  5
2868
330
18
100
AcDbEntity
  8
NORMALI
100
AcDbLine
 10
-179.5836679645613
 20
72.59974022121696
 30
0.0
 11
-181.1906279645613
 21
72.59974022121696
 31
0.0
  0
LINE
  5
2869
330
18
100
AcDbEntity
  8
NORMALI
100
AcDbLine
 10
-179.5836679645613
 20
77.39974022121692
 30
0.0
 11
-181.1906279645613
 21
77.39974022121692
 31
0.0
  0
LINE
  5
286A
330
18
100
AcDbEntity
  8
NORMALI
100
AcDbLine
 10
-97.98226796456084
 20
77.99974022121682
 30
0.0
 11
-97.19062796456139
 21
77.99974022121682
 31
0.0
  0
LINE
  5
286B
330
18
100
AcDbEntity
  8
NORMALI
100
AcDbLine
 10
-97.98226796456084
 20
71.99974022121683
 30
0.0
 11
-97.19062796456139
 21
71.99974022121683
 31
0.0
  0
LINE
  5
286C
330
18
100
AcDbEntity
  8
NORMALI
100
AcDbLine
 10
-98.5822679645612
 20
77.39974022121692
 30
0.0
 11
-97.19062796456139
 21
77.39974022121692
 31
0.0
  0
LINE
  5
286D
330
18
100
AcDbEntity
  8
NORMALI
100
AcDbLine
 10
-98.5822679645612
 20
72.59974022121696
 30
0.0
 11
-97.19062796456139
 21
72.59974022121696
 31
0.0
  0
LINE
  5
28C1
330
18
100
AcDbEntity
  8
ASSI
100
AcDbLine
 10
-792.9460406108042
 20
134.1581851972824
 30
0.0
 11
-792.9460406108042
 21
251.8418148027162
 31
0.0
  0
CIRCLE
  5
28C2
330
18
100
AcDbEntity
  8
DISEGNO
100
AcDbCircle
 10
-822.9980788112357
 20
223.0520382004278
 30
0.0
 40
4.5
  0
CIRCLE
  5
28C3
330
18
100
AcDbEntity
  8
TRATTEGGI
100
AcDbCircle
 10
-822.9980788112325
 20
223.0520382004278
 30
0.0
 40
7.0
  0
LINE
  5
28C4
330
18
100
AcDbEntity
  8
ASSI
100
AcDbLine
 10
-822.9980788112325
 20
212.5327334448749
 30
0.0
 11
-822.9980788112325
 21
233.5713429559807
 31
0.0
  0
LINE
  5
28C5
330
18
100
AcDbEntity
  8
ASSI
100
AcDbLine
 10
-847.9460406108042
 20
210.3211272531942
 30
0.0
 11
-847.9460406108042
 21
233.6650289309234
 31
0.0
  0
CIRCLE
  5
28C6
330
18
100
AcDbEntity
  8
DISEGNO
100
AcDbCircle
 10
-762.8940024103758
 20
223.0520382004278
 30
0.0
 40
4.5
  0
CIRCLE
  5
28C7
330
18
100
AcDbEntity
  8
TRATTEGGI
100
AcDbCircle
 10
-762.8940024103758
 20
223.0520382004278
 30
0.0
 40
7.0
  0
LINE
  5
28C8
330
18
100
AcDbEntity
  8
ASSI
100
AcDbLine
 10
-762.8940024103758
 20
212.5327334448749
 30
0.0
 11
-762.8940024103758
 21
233.5713429559807
 31
0.0
  0
LINE
  5
28C9
330
18
100
AcDbEntity
  8
ASSI
100
AcDbLine
 10
-737.9460406108042
 20
210.3211272531942
 30
0.0
 11
-737.9460406108042
 21
233.6650289309234
 31
0.0
  0
CIRCLE
  5
28CA
330
18
100
AcDbEntity
  8
DISEGNO
100
AcDbCircle
 10
-792.9460406108042
 20
192.9999999999994
 30
0.0
 40
35.0
  0
LINE
  5
28CB
330
18
100
AcDbEntity
  8
ASSI
100
AcDbLine
 10
-734.1042258080874
 20
192.9999999999994
 30
0.0
 11
-851.7878554135213
 21
192.9999999999991
 31
0.0
  0
LINE
  5
28CC
330
18
100
AcDbEntity
  8
ASSI
100
AcDbLine
 10
-773.4133071659289
 20
162.9479617995704
 30
0.0
 11
-752.3746976548231
 21
162.9479617995704
 31
0.0
  0
CIRCLE
  5
28CD
330
18
100
AcDbEntity
  8
TRATTEGGI
100
AcDbCircle
 10
-762.8940024103758
 20
162.947961799571
 30
0.0
 40
7.0
  0
CIRCLE
  5
28CE
330
18
100
AcDbEntity
  8
DISEGNO
100
AcDbCircle
 10
-762.8940024103758
 20
162.947961799571
 30
0.0
 40
4.5
  0
LINE
  5
28CF
330
18
100
AcDbEntity
  8
ASSI
100
AcDbLine
 10
-773.4133071659289
 20
223.0520382004278
 30
0.0
 11
-752.3746976548231
 21
223.0520382004278
 31
0.0
  0
LINE
  5
28D0
330
18
100
AcDbEntity
  8
ASSI
100
AcDbLine
 10
-762.8940024103758
 20
173.4672665551233
 30
0.0
 11
-762.8940024103758
 21
152.4286570440176
 31
0.0
  0
LINE
  5
28D1
330
18
100
AcDbEntity
  8
ASSI
100
AcDbLine
 10
-822.9980788112325
 20
173.4672665551233
 30
0.0
 11
-822.9980788112325
 21
152.4286570440176
 31
0.0
  0
CIRCLE
  5
28D2
330
18
100
AcDbEntity
  8
DISEGNO
100
AcDbCircle
 10
-822.9980788112357
 20
162.947961799571
 30
0.0
 40
4.5
  0
CIRCLE
  5
28D3
330
18
100
AcDbEntity
  8
TRATTEGGI
100
AcDbCircle
 10
-822.9980788112325
 20
162.947961799571
 30
0.0
 40
7.0
  0
LINE
  5
28D4
330
18
100
AcDbEntity
  8
ASSI
100
AcDbLine
 10
-847.9460406108042
 20
175.6788727468044
 30
0.0
 11
-847.9460406108042
 21
152.3349710690752
 31
0.0
  0
CIRCLE
  5
28D5
330
18
100
AcDbEntity
  8
DISEGNO
100
AcDbCircle
 10
-792.9460406108042
 20
192.9999999999994
 30
0.0
 40
28.25000000000841
  0
LINE
  5
28D6
330
18
100
AcDbEntity
  8
ASSI
100
AcDbLine
 10
-856.8515305340111
 20
162.9999999999993
 30
0.0
 11
-839.0731776408243
 21
162.9999999999993
 31
0.0
  0
LINE
  5
28D7
330
18
100
AcDbEntity
  8
ASSI
100
AcDbLine
 10
-812.4787740556799
 20
162.9479617995704
 30
0.0
 11
-833.5173835667855
 21
162.9479617995704
 31
0.0
  0
LINE
  5
28D8
330
18
100
AcDbEntity
  8
ASSI
100
AcDbLine
 10
-856.8515305340111
 20
222.9999999999993
 30
0.0
 11
-839.0731776408243
 21
222.9999999999993
 31
0.0
  0
LINE
  5
28D9
330
18
100
AcDbEntity
  8
ASSI
100
AcDbLine
 10
-812.4787740556799
 20
223.0520382004278
 30
0.0
 11
-833.5173835667855
 21
223.0520382004278
 31
0.0
  0
LINE
  5
28DA
330
18
100
AcDbEntity
  8
ASSI
100
AcDbLine
 10
-737.9460406108042
 20
175.6788727468044
 30
0.0
 11
-737.9460406108042
 21
152.3349710690752
 31
0.0
  0
LINE
  5
28DB
330
18
100
AcDbEntity
  8
ASSI
100
AcDbLine
 10
-729.0405506875972
 20
162.9999999999993
 30
0.0
 11
-746.818903580784
 21
162.9999999999993
 31
0.0
  0
LINE
  5
28DC
330
18
100
AcDbEntity
  8
ASSI
100
AcDbLine
 10
-729.0405506875972
 20
222.9999999999993
 30
0.0
 11
-746.818903580784
 21
222.9999999999993
 31
0.0
  0
LINE
  5
28EE
330
18
100
AcDbEntity
  8
ASSI
100
AcDbLine
 10
-872.051561187712
 20
121.6502327648693
 30
0.0
 11
-872.0515611877111
 21
150.4813447982967
 31
0.0
  0
LINE
  5
28FC
330
18
100
AcDbEntity
  8
ASSI
100
AcDbLine
 10
-942.0515611877124
 20
121.6502327648693
 30
0.0
 11
-942.0515611877116
 21
150.4813447982967
 31
0.0
  0
LINE
  5
290A
330
18
100
AcDbEntity
  8
ASSI
100
AcDbLine
 10
-712.0515611877106
 20
121.6502327648693
 30
0.0
 11
-712.0515611877096
 21
150.4813447982967
 31
0.0
  0
LINE
  5
2918
330
18
100
AcDbEntity
  8
ASSI
100
AcDbLine
 10
-642.0515611877115
 20
121.6502327648693
 30
0.0
 11
-642.0515611877106
 21
150.4813447982967
 31
0.0
  0
LINE
  5
2919
330
18
100
AcDbEntity
  8
ASSI
100
AcDbLine
 10
-1359.64264252375
 20
75.00000000000023
 30
0.0
 11
-316.8986086289651
 21
75.00000000000023
 31
0.0
  0
LINE
  5
291A
330
18
100
AcDbEntity
  8
ASSI
100
AcDbLine
 10
-1449.607248665053
 20
75.00000000000023
 30
0.0
 11
-1662.72728659058
 21
75.00000000000023
 31
0.0
  0
LINE
  5
291B
330
18
100
AcDbEntity
  8
ASSI
100
AcDbLine
 10
-139.1906279645613
 20
38.68690129648667
 30
0.0
 11
-139.1906279645613
 21
263.6875914467359
 31
0.0
  0
LINE
  5
291C
330
18
100
AcDbEntity
  8
ASSI
100
AcDbLine
 10
-164.1906279645614
 20
48.80668425287081
 30
0.0
 11
-164.1906279645614
 21
101.8929291745103
 31
0.0
  0
LINE
  5
2931
330
18
100
AcDbEntity
  8
DISEGNO
100
AcDbLine
 10
-858.4460406108041
 20
128.9999999999993
 30
0.0
 11
-858.4460406108041
 21
153.9999999999943
 31
0.0
  0
LINE
  5
2932
330
18
100
AcDbEntity
  8
DISEGNO
100
AcDbLine
 10
-727.4460406108042
 20
128.9999999999993
 30
0.0
 11
-727.4460406108041
 21
153.9999999999943
 31
0.0
  0
LINE
  5
2933
330
18
100
AcDbEntity
  8
DISEGNO
100
AcDbLine
 10
-858.4460406108041
 20
139.0000000000002
 30
0.0
 11
-967.9460406108042
 21
139.0000000000002
 31
0.0
  0
LINE
  5
2935
330
18
100
AcDbEntity
  8
DISEGNO
100
AcDbLine
 10
-727.4460406108041
 20
-291.6034658691928
 30
0.0
 11
-727.446040610804
 21
-246.6034658691932
 31
0.0
  0
LINE
  5
2936
330
18
100
AcDbEntity
  8
DISEGNO
100
AcDbLine
 10
-858.4460406108041
 20
-291.6034658691928
 30
0.0
 11
-858.4460406108041
 21
-246.6034658691931
 31
0.0
  0
LINE
  5
2937
330
18
100
AcDbEntity
  8
DISEGNO
100
AcDbLine
 10
-863.4460406108042
 20
-241.6034658691931
 30
0.0
 11
-962.9460406108043
 21
-241.6034658691931
 31
0.0
  0
LINE
  5
2938
330
18
100
AcDbEntity
  8
DISEGNO
100
AcDbLine
 10
-863.4460406108042
 20
-241.6034658691931
 30
0.0
 11
-858.4460406108041
 21
-246.6034658691931
 31
0.0
  0
LINE
  5
2939
330
18
100
AcDbEntity
  8
DISEGNO
100
AcDbLine
 10
-722.4460406108041
 20
-241.6034658691932
 30
0.0
 11
-727.446040610804
 21
-246.6034658691932
 31
0.0
  0
LINE
  5
293A
330
18
100
AcDbEntity
  8
DISEGNO
100
AcDbLine
 10
-962.9460406108043
 20
-241.6034658691931
 30
0.0
 11
-967.9460406108043
 21
-246.6034658691931
 31
0.0
  0
LINE
  5
293B
330
18
100
AcDbEntity
  8
DISEGNO
100
AcDbLine
 10
-967.9460406108043
 20
-426.6034658691931
 30
0.0
 11
-962.9460406108043
 21
-431.6034658691931
 31
0.0
  0
LINE
  5
293C
330
18
100
AcDbEntity
  8
DISEGNO
100
AcDbLine
 10
-622.9460406108041
 20
-431.6034658691931
 30
0.0
 11
-617.9460406108042
 21
-426.6034658691931
 31
0.0
  0
LINE
  5
293D
330
18
100
AcDbEntity
  8
DISEGNO
100
AcDbLine
 10
-622.9460406108041
 20
-241.6034658691931
 30
0.0
 11
-617.9460406108042
 21
-246.6034658691931
 31
0.0
  0
LINE
  5
293E
330
18
100
AcDbEntity
  8
DISEGNO
100
AcDbLine
 10
-727.4460406108041
 20
-381.6034658691944
 30
0.0
 11
-727.446040610804
 21
-426.603465869194
 31
0.0
  0
LINE
  5
293F
330
18
100
AcDbEntity
  8
DISEGNO
100
AcDbLine
 10
-722.4460406108041
 20
-431.603465869194
 30
0.0
 11
-727.446040610804
 21
-426.603465869194
 31
0.0
  0
LINE
  5
2940
330
18
100
AcDbEntity
  8
DISEGNO
100
AcDbLine
 10
-858.4460406108041
 20
-381.6034658691944
 30
0.0
 11
-858.4460406108041
 21
-426.603465869194
 31
0.0
  0
LINE
  5
2941
330
18
100
AcDbEntity
  8
DISEGNO
100
AcDbLine
 10
-863.4460406108042
 20
-431.603465869194
 30
0.0
 11
-858.4460406108041
 21
-426.603465869194
 31
0.0
  0
LINE
  5
2942
330
18
100
AcDbEntity
  8
DISEGNO
100
AcDbLine
 10
-863.4460406108033
 20
-431.6034658691932
 30
0.0
 11
-962.9460406108043
 21
-431.6034658691931
 31
0.0
  0
ENDSEC
  0
SECTION
  2
OBJECTS
  0
DICTIONARY
  5
C
330
0
100
AcDbDictionary
281
     1
  3
ACAD_COLOR
350
296F
  3
ACAD_GROUP
350
D
  3
ACAD_LAYOUT
350
A23
  3
ACAD_MATERIAL
350
2945
  3
ACAD_MLEADERSTYLE
350
2994
  3
ACAD_MLINESTYLE
350
1B
  3
ACAD_PLOTSETTINGS
350
A24
  3
ACAD_PLOTSTYLENAME
350
A21
  3
ACAD_SCALELIST
350
2972
  3
ACAD_TABLESTYLE
350
2970
  3
ACAD_VISUALSTYLE
350
295E
  3
ACDB_RECOMPOSE_DATA
350
29A3
  3
AcDbVariableDictionary
350
20A5
  3
ACGREF_MASTER
350
A3E
  3
ACGREFACAD_MASTER
350
A42
  3
AcmDictionary
350
A44
  3
ACME_BOM_MANAGER_NAME
350
A37
  3
ACME_COMMAND_HISTORY
350
A32
  3
ACME_SCOPE_NAME
350
A31
  3
ACMESTATEMGR
350
A3C
  3
AcmeSysVarManager
350
A33
  3
AcmSystemVariableManager
350
A48
  3
AMG
350
A2A
  3
AMGSNAPSETTINGS
350
A77
  3
AMI_MASTER
350
A43
  0
DICTIONARY
  5
209A
330
18
100
AcDbDictionary
280
     1
281
     1
  3
ACAD_INDEX
360
209B
  0
DICTIONARY
  5
296F
102
{ACAD_REACTORS
330
C
102
}
330
C
100
AcDbDictionary
281
     1
  0
DICTIONARY
  5
D
102
{ACAD_REACTORS
330
C
102
}
330
C
100
AcDbDictionary
281
     1
  0
DICTIONARY
  5
A23
102
{ACAD_REACTORS
330
C
102
}
330
C
100
AcDbDictionary
281
     1
  3
Layout1
350
A26
  3
Model
350
A25
  0
DICTIONARY
  5
2945
102
{ACAD_REACTORS
330
C
102
}
330
C
100
AcDbDictionary
281
     1
  3
ByBlock
350
294E
  3
ByLayer
350
2946
  3
Global
350
2956
  0
DICTIONARY
  5
2994
102
{ACAD_REACTORS
330
C
102
}
330
C
100
AcDbDictionary
281
     1
  3
Standard
350
2995
  0
DICTIONARY
  5
1B
102
{ACAD_REACTORS
330
C
102
}
330
C
100
AcDbDictionary
281
     1
  3
STANDARD
350
1C
  0
DICTIONARY
  5
A24
102
{ACAD_REACTORS
330
C
102
}
330
C
100
AcDbDictionary
281
     1
  0
ACDBDICTIONARYWDFLT
  5
A21
102
{ACAD_REACTORS
330
C
102
}
330
C
100
AcDbDictionary
281
     1
  3
Normal
350
A22
100
AcDbDictionaryWithDefault
340
A22
  0
DICTIONARY
  5
2972
102
{ACAD_REACTORS
330
C
102
}
330
C
100
AcDbDictionary
281
     1
  3
A0
350
2973
  3
A1
350
2974
  3
A2
350
2975
  3
A3
350
2976
  3
A4
350
2977
  3
A5
350
2978
  3
A6
350
2979
  3
A7
350
297A
  3
A8
350
297B
  3
A9
350
297C
  3
B0
350
297D
  3
B1
350
297E
  3
B2
350
297F
  3
B3
350
2980
  3
B4
350
2981
  3
B5
350
2982
  3
B6
350
2983
  3
B7
350
2984
  3
B8
350
2985
  3
B9
350
2986
  3
C0
350
2987
  3
C1
350
2988
  3
C2
350
2989
  3
C3
350
298A
  3
C4
350
298B
  3
C5
350
298C
  3
C6
350
298D
  3
C7
350
298E
  3
C8
350
298F
  3
C9
350
2990
  3
D0
350
2991
  3
D1
350
2992
  3
D2
350
2993
  0
DICTIONARY
  5
2970
102
{ACAD_REACTORS
330
C
102
}
330
C
100
AcDbDictionary
281
     1
  3
Standard
350
2971
  0
DICTIONARY
  5
295E
102
{ACAD_REACTORS
330
C
102
}
330
C
100
AcDbDictionary
281
     1
  3
2dWireframe
350
2964
  3
3D Hidden
350
2966
  3
3dWireframe
350
2965
  3
Basic
350
2963
  3
Brighten
350
296A
  3
ColorChange
350
296E
  3
Conceptual
350
2967
  3
Dim
350
2969
  3
Facepattern
350
296D
  3
Flat
350
295F
  3
FlatWithEdges
350
2960
  3
Gouraud
350
2961
  3
GouraudWithEdges
350
2962
  3
Linepattern
350
296C
  3
Realistic
350
2968
  3
Thicken
350
296B
  0
XRECORD
  5
29A3
102
{ACAD_REACTORS
330
C
102
}
330
C
100
AcDbXrecord
280
     1
 90
        1
330
2971
  0
DICTIONARY
  5
20A5
102
{ACAD_REACTORS
330
C
102
}
330
C
100
AcDbDictionary
281
     1
  3
CANNOSCALE
350
29A0
  3
CMLEADERSTYLE
350
299F
  3
CTABLESTYLE
350
299E
  3
DIMASSOC
350
20A7
  3
INDEXCTL
350
20A6
  0
ACAD_PROXY_OBJECT
  5
A3E
102
{ACAD_REACTORS
330
C
102
}
330
C
100
AcDbProxyObject
 90
      499
 91
      517
 95
   851991
 70
     0
 93
       34
310
040000428C
 94
        0
  0
ACAD_PROXY_OBJECT
  5
A42
102
{ACAD_REACTORS
330
C
102
}
330
C
100
AcDbProxyObject
 90
      499
 91
      520
 95
   851991
 70
     0
 93
      114
310
04000041C00000000000000000000C
 94
        0
  0
DICTIONARY
  5
A44
102
{ACAD_REACTORS
330
C
102
}
330
C
100
AcDbDictionary
281
     1
  3
AcmBOMDATA
350
A45
  3
AcmStdDictionary
350
A4A
  0
ACAD_PROXY_OBJECT
  5
A37
102
{ACAD_REACTORS
330
C
102
}
330
C
100
AcDbProxyObject
 90
      499
 91
      511
 95
   851991
 70
     0
 93
       50
310
0001004040000C
330
0
330
0
330
A38
 94
        0
  0
ACAD_PROXY_OBJECT
  5
A32
102
{ACAD_REACTORS
330
C
102
}
330
C
100
AcDbProxyObject
 90
      499
 91
      507
 95
   851991
 70
     0
 93
     3692
310
47805064F464653455440405184D5347202D20436F6D6D616E642043414E43454C4C45442E014191561511539110101461354D1C80B4810DBDB5B585B990810D05390D1531311510B805045452494D40405184D5347202D20436F6D6D616E642043414E43454C4C45442E0140D41053A01411312539150101461354D1C80B4
310
810DBDB5B585B990810D05390D1531311510B8050350414E805045452494D40405184D5347202D20436F6D6D616E642043414E43454C4C45442E014151549054D160140D41053A014110D3D4165010141D3880B481410538050350414E805045452494D40405184D5347202D20436F6D6D616E642043414E43454C4C45442E
310
014191561511539110101461354D1C80B4810DBDB5B585B990810D05390D1531311510B8050350414E80505425245414B805074348414D464552805074348414D464552805074348414D464552805074348414D464552805074348414D464552805074348414D4645528050C475249505F535452455443488050C475249505
310
F535452455443488050350414E805064D4952524F528050350414E805045452494D40405184D5347202D20436F6D6D616E642043414E43454C4C45442E0140D41053A01411693D3D3601415454D055916C
 94
        0
  0
ACAD_PROXY_OBJECT
  5
A31
102
{ACAD_REACTORS
330
C
102
}
330
C
100
AcDbProxyObject
 90
      499
 91
      506
 95
   851991
 70
     0
 93
      218
310
060000444000000000000000000010641E000000000000AAA406AA8C
360
A34
360
A35
360
A36
360
A38
360
A49
360
1CD5
 94
        0
  0
ACAD_PROXY_OBJECT
  5
A3C
102
{ACAD_REACTORS
330
C
102
}
330
C
100
AcDbProxyObject
 90
      499
 91
      516
 95
   851991
 70
     0
 93
       50
310
0600004164128C
 94
        0
  0
ACAD_PROXY_OBJECT
  5
A33
102
{ACAD_REACTORS
330
C
102
}
330
C
100
AcDbProxyObject
 90
      499
 91
      508
 95
   851991
 70
     0
 93
       48
310
90341200000004
330
A34
330
A35
330
A36
 94
        0
  0
ACAD_PROXY_OBJECT
  5
A48
102
{ACAD_REACTORS
330
C
102
}
330
C
100
AcDbProxyObject
 90
      499
 91
      508
 95
   851991
 70
     0
 93
       32
310
90140A00D3
330
A49
 94
        0
  0
DICTIONARY
  5
A2A
102
{ACAD_REACTORS
330
C
102
}
330
C
100
AcDbDictionary
281
     1
  3
AcMgSettings
350
A2B
  3
AMGLAYCFG
350
A4C
  0
DICTIONARY
  5
A77
102
{ACAD_REACTORS
330
C
102
}
330
C
100
AcDbDictionary
281
     1
  3
DIMENSION
350
A7C
  3
FEA
350
A7B
  3
HATCH (1)
350
A78
  3
HATCH (2)
350
A79
  3
SIMPLE WELD
350
A7D
  3
SYMBOLS
350
A7A
  0
ACAD_PROXY_OBJECT
  5
A43
102
{ACAD_REACTORS
330
C
102
}
330
C
100
AcDbProxyObject
 90
      499
 91
      521
 95
   851991
 70
     0
 93
       34
310
050000428C
 94
        0
  0
DICTIONARY
  5
209B
102
{ACAD_REACTORS
330
209A
102
}
330
209A
100
AcDbDictionary
281
     1
  3
*A1
350
209C
  0
LAYOUT
  5
A26
102
{ACAD_REACTORS
330
A23
102
}
330
A23
100
AcDbPlotSettings
  1

  2
C:\Programmi\Acadm 6\plotters\Cadjet 2.pc3
  4

  6

 40
0.0
 41
0.0
 42
0.0
 43
0.0
 44
0.0
 45
0.0
 46
0.0
 47
0.0
 48
0.0
 49
0.0
140
0.0
141
0.0
142
1.0
143
1.0
 70
   688
 72
     0
 73
     0
 74
     5
  7

 75
    16
147
1.0
 76
     0
 77
     2
 78
   300
148
0.0
149
0.0
100
AcDbLayout
  1
Layout1
 70
     1
 71
     1
 10
0.0
 20
0.0
 11
420.0
 21
297.0
 12
0.0
 22
0.0
 32
0.0
 14
1.000000000000000E+20
 24
1.000000000000000E+20
 34
1.000000000000000E+20
 15
-1.000000000000000E+20
 25
-1.000000000000000E+20
 35
-1.000000000000000E+20
146
0.0
 13
0.0
 23
0.0
 33
0.0
 16
1.0
 26
0.0
 36
0.0
 17
0.0
 27
1.0
 37
0.0
 76
     0
330
15
  0
LAYOUT
  5
A25
102
{ACAD_REACTORS
330
A23
102
}
330
A23
100
AcDbPlotSettings
  1

  2
C:\Programmi\Acadm 6\plotters\Cadjet 2.pc3
  4

  6

 40
0.0
 41
0.0
 42
0.0
 43
0.0
 44
0.0
 45
0.0
 46
0.0
 47
0.0
 48
0.0
 49
0.0
140
0.0
141
0.0
142
1.0
143
1.0
 70
  1712
 72
     0
 73
     0
 74
     0
  7

 75
     0
147
1.0
 76
     0
 77
     2
 78
   300
148
0.0
149
0.0
100
AcDbLayout
  1
Model
 70
     1
 71
     0
 10
0.0
 20
0.0
 11
12.0
 21
9.0
 12
0.0
 22
0.0
 32
0.0
 14
0.0
 24
0.0
 34
0.0
 15
0.0
 25
0.0
 35
0.0
146
0.0
 13
0.0
 23
0.0
 33
0.0
 16
1.0
 26
0.0
 36
0.0
 17
0.0
 27
1.0
 37
0.0
 76
     0
330
18
331
2943
  0
MATERIAL
  5
294E
102
{ACAD_XDICTIONARY
360
294F
102
}
102
{ACAD_REACTORS
330
2945
102
}
330
2945
100
AcDbMaterial
  1
ByBlock
 72
     0
 43
0.0208333333333333
 43
0.0
 43
0.0
 43
0.0
 43
0.0
 43
0.0208333333333333
 43
0.0
 43
0.0
 43
0.0
 43
0.0
 43
1.0
 43
0.0
 43
0.0
 43
0.0
 43
0.0
 43
1.0
 77
     0
 47
0.0208333333333333
 47
0.0
 47
0.0
 47
0.0
 47
0.0
 47
0.0208333333333333
 47
0.0
 47
0.0
 47
0.0
 47
0.0
 47
1.0
 47
0.0
 47
0.0
 47
0.0
 47
0.0
 47
1.0
171
     0
 49
0.0208333333333333
 49
0.0
 49
0.0
 49
0.0
 49
0.0
 49
0.0208333333333333
 49
0.0
 49
0.0
 49
0.0
 49
0.0
 49
1.0
 49
0.0
 49
0.0
 49
0.0
 49
0.0
 49
1.0
175
     0
142
0.0208333333333333
142
0.0
142
0.0
142
0.0
142
0.0
142
0.0208333333333333
142
0.0
142
0.0
142
0.0
142
0.0
142
1.0
142
0.0
142
0.0
142
0.0
142
0.0
142
1.0
179
     0
144
0.0208333333333333
144
0.0
144
0.0
144
0.0
144
0.0
144
0.0208333333333333
144
0.0
144
0.0
144
0.0
144
0.0
144
1.0
144
0.0
144
0.0
144
0.0
144
0.0
144
1.0
147
0.0208333333333333
147
0.0
147
0.0
147
0.0
147
0.0
147
0.0208333333333333
147
0.0
147
0.0
147
0.0
147
0.0
147
1.0
147
0.0
147
0.0
147
0.0
147
0.0
147
1.0
  0
MATERIAL
  5
2946
102
{ACAD_XDICTIONARY
360
2947
102
}
102
{ACAD_REACTORS
330
2945
102
}
330
2945
100
AcDbMaterial
  1
ByLayer
 72
     0
 43
0.0208333333333333
 43
0.0
 43
0.0
 43
0.0
 43
0.0
 43
0.0208333333333333
 43
0.0
 43
0.0
 43
0.0
 43
0.0
 43
1.0
 43
0.0
 43
0.0
 43
0.0
 43
0.0
 43
1.0
 77
     0
 47
0.0208333333333333
 47
0.0
 47
0.0
 47
0.0
 47
0.0
 47
0.0208333333333333
 47
0.0
 47
0.0
 47
0.0
 47
0.0
 47
1.0
 47
0.0
 47
0.0
 47
0.0
 47
0.0
 47
1.0
171
     0
 49
0.0208333333333333
 49
0.0
 49
0.0
 49
0.0
 49
0.0
 49
0.0208333333333333
 49
0.0
 49
0.0
 49
0.0
 49
0.0
 49
1.0
 49
0.0
 49
0.0
 49
0.0
 49
0.0
 49
1.0
175
     0
142
0.0208333333333333
142
0.0
142
0.0
142
0.0
142
0.0
142
0.0208333333333333
142
0.0
142
0.0
142
0.0
142
0.0
142
1.0
142
0.0
142
0.0
142
0.0
142
0.0
142
1.0
179
     0
144
0.0208333333333333
144
0.0
144
0.0
144
0.0
144
0.0
144
0.0208333333333333
144
0.0
144
0.0
144
0.0
144
0.0
144
1.0
144
0.0
144
0.0
144
0.0
144
0.0
144
1.0
147
0.0208333333333333
147
0.0
147
0.0
147
0.0
147
0.0
147
0.0208333333333333
147
0.0
147
0.0
147
0.0
147
0.0
147
1.0
147
0.0
147
0.0
147
0.0
147
0.0
147
1.0
  0
MATERIAL
  5
2956
102
{ACAD_XDICTIONARY
360
2957
102
}
102
{ACAD_REACTORS
330
2945
102
}
330
2945
100
AcDbMaterial
  1
Global
 72
     0
 43
0.0208333333333333
 43
0.0
 43
0.0
 43
0.0
 43
0.0
 43
0.0208333333333333
 43
0.0
 43
0.0
 43
0.0
 43
0.0
 43
1.0
 43
0.0
 43
0.0
 43
0.0
 43
0.0
 43
1.0
 77
     0
 47
0.0208333333333333
 47
0.0
 47
0.0
 47
0.0
 47
0.0
 47
0.0208333333333333
 47
0.0
 47
0.0
 47
0.0
 47
0.0
 47
1.0
 47
0.0
 47
0.0
 47
0.0
 47
0.0
 47
1.0
171
     0
 49
0.0208333333333333
 49
0.0
 49
0.0
 49
0.0
 49
0.0
 49
0.0208333333333333
 49
0.0
 49
0.0
 49
0.0
 49
0.0
 49
1.0
 49
0.0
 49
0.0
 49
0.0
 49
0.0
 49
1.0
175
     0
142
0.0208333333333333
142
0.0
142
0.0
142
0.0
142
0.0
142
0.0208333333333333
142
0.0
142
0.0
142
0.0
142
0.0
142
1.0
142
0.0
142
0.0
142
0.0
142
0.0
142
1.0
179
     0
144
0.0208333333333333
144
0.0
144
0.0
144
0.0
144
0.0
144
0.0208333333333333
144
0.0
144
0.0
144
0.0
144
0.0
144
1.0
144
0.0
144
0.0
144
0.0
144
0.0
144
1.0
147
0.0208333333333333
147
0.0
147
0.0
147
0.0
147
0.0
147
0.0208333333333333
147
0.0
147
0.0
147
0.0
147
0.0
147
1.0
147
0.0
147
0.0
147
0.0
147
0.0
147
1.0
  0
MLEADERSTYLE
  5
2995
102
{ACAD_REACTORS
330
2994
102
}
330
2994
100
AcDbMLeaderStyle
170
     2
171
     1
172
     0
 90
        2
 40
0.0
 41
0.0
173
     1
 91
-1056964608
340
12
 92
       -2
290
     1
 42
2.0
291
     1
 43
0.36
  3
Standard
 44
4.0
300

342
F
174
     1
178
     6
175
     1
176
     0
 93
-1056964608
 45
4.0
292
     0
297
     0
 46
4.0
 94
-1056964608
 47
1.0
 49
1.0
140
1.0
293
     1
141
0.0
294
     1
177
     0
142
1.0
295
     0
296
     0
143
0.125
1001
ACAD_MLEADERVER
1070
     2
  0
MLINESTYLE
  5
1C
102
{ACAD_REACTORS
330
1B
102
}
330
1B
100
AcDbMlineStyle
  2
STANDARD
 70
     0
  3

 62
   256
 51
90.0
 52
90.0
 71
     2
 49
0.5
 62
   256
  6
BYLAYER
 49
-0.5
 62
   256
  6
BYLAYER
  0
ACDBPLACEHOLDER
  5
A22
102
{ACAD_REACTORS
330
A21
102
}
330
A21
  0
SCALE
  5
2973
102
{ACAD_REACTORS
330
2972
102
}
330
2972
100
AcDbScale
 70
     0
300
1:1
140
1.0
141
1.0
290
     1
  0
SCALE
  5
2974
102
{ACAD_REACTORS
330
2972
102
}
330
2972
100
AcDbScale
 70
     0
300
1:2
140
1.0
141
2.0
290
     0
  0
SCALE
  5
2975
102
{ACAD_REACTORS
330
2972
102
}
330
2972
100
AcDbScale
 70
     0
300
1:4
140
1.0
141
4.0
290
     0
  0
SCALE
  5
2976
102
{ACAD_REACTORS
330
2972
102
}
330
2972
100
AcDbScale
 70
     0
300
1:5
140
1.0
141
5.0
290
     0
  0
SCALE
  5
2977
102
{ACAD_REACTORS
330
2972
102
}
330
2972
100
AcDbScale
 70
     0
300
1:8
140
1.0
141
8.0
290
     0
  0
SCALE
  5
2978
102
{ACAD_REACTORS
330
2972
102
}
330
2972
100
AcDbScale
 70
     0
300
1:10
140
1.0
141
10.0
290
     0
  0
SCALE
  5
2979
102
{ACAD_REACTORS
330
2972
102
}
330
2972
100
AcDbScale
 70
     0
300
1:16
140
1.0
141
16.0
290
     0
  0
SCALE
  5
297A
102
{ACAD_REACTORS
330
2972
102
}
330
2972
100
AcDbScale
 70
     0
300
1:20
140
1.0
141
20.0
290
     0
  0
SCALE
  5
297B
102
{ACAD_REACTORS
330
2972
102
}
330
2972
100
AcDbScale
 70
     0
300
1:30
140
1.0
141
30.0
290
     0
  0
SCALE
  5
297C
102
{ACAD_REACTORS
330
2972
102
}
330
2972
100
AcDbScale
 70
     0
300
1:40
140
1.0
141
40.0
290
     0
  0
SCALE
  5
297D
102
{ACAD_REACTORS
330
2972
102
}
330
2972
100
AcDbScale
 70
     0
300
1:50
140
1.0
141
50.0
290
     0
  0
SCALE
  5
297E
102
{ACAD_REACTORS
330
2972
102
}
330
2972
100
AcDbScale
 70
     0
300
1:100
140
1.0
141
100.0
290
     0
  0
SCALE
  5
297F
102
{ACAD_REACTORS
330
2972
102
}
330
2972
100
AcDbScale
 70
     0
300
2:1
140
2.0
141
1.0
290
     0
  0
SCALE
  5
2980
102
{ACAD_REACTORS
330
2972
102
}
330
2972
100
AcDbScale
 70
     0
300
4:1
140
4.0
141
1.0
290
     0
  0
SCALE
  5
2981
102
{ACAD_REACTORS
330
2972
102
}
330
2972
100
AcDbScale
 70
     0
300
8:1
140
8.0
141
1.0
290
     0
  0
SCALE
  5
2982
102
{ACAD_REACTORS
330
2972
102
}
330
2972
100
AcDbScale
 70
     0
300
10:1
140
10.0
141
1.0
290
     0
  0
SCALE
  5
2983
102
{ACAD_REACTORS
330
2972
102
}
330
2972
100
AcDbScale
 70
     0
300
100:1
140
100.0
141
1.0
290
     0
  0
SCALE
  5
2984
102
{ACAD_REACTORS
330
2972
102
}
330
2972
100
AcDbScale
 70
     0
300
1/128" = 1'-0"
140
0.0078125
141
12.0
290
     0
  0
SCALE
  5
2985
102
{ACAD_REACTORS
330
2972
102
}
330
2972
100
AcDbScale
 70
     0
300
1/64" = 1'-0"
140
0.015625
141
12.0
290
     0
  0
SCALE
  5
2986
102
{ACAD_REACTORS
330
2972
102
}
330
2972
100
AcDbScale
 70
     0
300
1/32" = 1'-0"
140
0.03125
141
12.0
290
     0
  0
SCALE
  5
2987
102
{ACAD_REACTORS
330
2972
102
}
330
2972
100
AcDbScale
 70
     0
300
1/16" = 1'-0"
140
0.0625
141
12.0
290
     0
  0
SCALE
  5
2988
102
{ACAD_REACTORS
330
2972
102
}
330
2972
100
AcDbScale
 70
     0
300
3/32" = 1'-0"
140
0.09375
141
12.0
290
     0
  0
SCALE
  5
2989
102
{ACAD_REACTORS
330
2972
102
}
330
2972
100
AcDbScale
 70
     0
300
1/8" = 1'-0"
140
0.125
141
12.0
290
     0
  0
SCALE
  5
298A
102
{ACAD_REACTORS
330
2972
102
}
330
2972
100
AcDbScale
 70
     0
300
3/16" = 1'-0"
140
0.1875
141
12.0
290
     0
  0
SCALE
  5
298B
102
{ACAD_REACTORS
330
2972
102
}
330
2972
100
AcDbScale
 70
     0
300
1/4" = 1'-0"
140
0.25
141
12.0
290
     0
  0
SCALE
  5
298C
102
{ACAD_REACTORS
330
2972
102
}
330
2972
100
AcDbScale
 70
     0
300
3/8" = 1'-0"
140
0.375
141
12.0
290
     0
  0
SCALE
  5
298D
102
{ACAD_REACTORS
330
2972
102
}
330
2972
100
AcDbScale
 70
     0
300
1/2" = 1'-0"
140
0.5
141
12.0
290
     0
  0
SCALE
  5
298E
102
{ACAD_REACTORS
330
2972
102
}
330
2972
100
AcDbScale
 70
     0
300
3/4" = 1'-0"
140
0.75
141
12.0
290
     0
  0
SCALE
  5
298F
102
{ACAD_REACTORS
330
2972
102
}
330
2972
100
AcDbScale
 70
     0
300
1" = 1'-0"
140
1.0
141
12.0
290
     0
  0
SCALE
  5
2990
102
{ACAD_REACTORS
330
2972
102
}
330
2972
100
AcDbScale
 70
     0
300
1-1/2" = 1'-0"
140
1.5
141
12.0
290
     0
  0
SCALE
  5
2991
102
{ACAD_REACTORS
330
2972
102
}
330
2972
100
AcDbScale
 70
     0
300
3" = 1'-0"
140
3.0
141
12.0
290
     0
  0
SCALE
  5
2992
102
{ACAD_REACTORS
330
2972
102
}
330
2972
100
AcDbScale
 70
     0
300
6" = 1'-0"
140
6.0
141
12.0
290
     0
  0
SCALE
  5
2993
102
{ACAD_REACTORS
330
2972
102
}
330
2972
100
AcDbScale
 70
     0
300
1'-0" = 1'-0"
140
12.0
141
12.0
290
     0
  0
TABLESTYLE
  5
2971
102
{ACAD_XDICTIONARY
360
29A1
102
}
102
{ACAD_REACTORS
330
2970
102
}
330
2970
100
AcDbTableStyle
  3
Standard
 70
     0
 71
     0
 40
1.5
 41
1.5
280
     0
281
     0
  7
STANDARD
140
4.5
170
     2
 62
     0
 63
     7
283
     0
274
    -2
284
     1
 64
     0
275
    -2
285
     1
 65
     0
276
    -2
286
     1
 66
     0
277
    -2
287
     1
 67
     0
278
    -2
288
     1
 68
     0
279
    -2
289
     1
 69
     0
  7
STANDARD
140
6.0
170
     5
 62
     0
 63
     7
283
     0
274
    -2
284
     1
 64
     0
275
    -2
285
     1
 65
     0
276
    -2
286
     1
 66
     0
277
    -2
287
     1
 67
     0
278
    -2
288
     1
 68
     0
279
    -2
289
     1
 69
     0
  7
STANDARD
140
4.5
170
     5
 62
     0
 63
     7
283
     0
274
    -2
284
     1
 64
     0
275
    -2
285
     1
 65
     0
276
    -2
286
     1
 66
     0
277
    -2
287
     1
 67
     0
278
    -2
288
     1
 68
     0
279
    -2
289
     1
 69
     0
  0
VISUALSTYLE
  5
2964
102
{ACAD_REACTORS
330
295E
102
}
330
295E
100
AcDbVisualStyle
  2
2dWireframe
 70
     4
 71
     0
 72
     2
 73
     0
 90
        0
 40
-0.6
 41
-30.0
 62
     5
 63
     7
421
 16777215
 74
     1
 91
        4
 64
     7
 65
   257
 75
     1
175
     1
 42
1.0
 92
        0
 66
   257
 43
1.0
 76
     1
 77
     6
 78
     2
 67
     7
 79
     5
170
     0
171
     0
290
     0
174
     0
 93
        1
 44
0.0
173
     0
291
     0
 45
0.0
1001
ACAD
1000
AcDbSavedByObjectVersion
1070
     0
  0
VISUALSTYLE
  5
2966
102
{ACAD_REACTORS
330
295E
102
}
330
295E
100
AcDbVisualStyle
  2
3D Hidden
 70
     6
 71
     1
 72
     2
 73
     2
 90
        0
 40
-0.6
 41
-30.0
 62
     5
 63
     7
421
 16777215
 74
     2
 91
        2
 64
     7
 65
   257
 75
     2
175
     1
 42
40.0
 92
        0
 66
   257
 43
1.0
 76
     1
 77
     6
 78
     2
 67
     7
 79
     3
170
     0
171
     0
290
     0
174
     0
 93
        1
 44
0.0
173
     0
291
     0
 45
0.0
1001
ACAD
1000
AcDbSavedByObjectVersion
1070
     0
  0
VISUALSTYLE
  5
2965
102
{ACAD_REACTORS
330
295E
102
}
330
295E
100
AcDbVisualStyle
  2
3dWireframe
 70
     5
 71
     0
 72
     2
 73
     0
 90
        0
 40
-0.6
 41
-30.0
 62
     5
 63
     7
421
 16777215
 74
     1
 91
        4
 64
     7
 65
   257
 75
     1
175
     1
 42
1.0
 92
        0
 66
   257
 43
1.0
 76
     1
 77
     6
 78
     2
 67
     7
 79
     5
170
     0
171
     0
290
     0
174
     0
 93
        1
 44
0.0
173
     0
291
     0
 45
0.0
1001
ACAD
1000
AcDbSavedByObjectVersion
1070
     0
  0
VISUALSTYLE
  5
2963
102
{ACAD_REACTORS
330
295E
102
}
330
295E
100
AcDbVisualStyle
  2
Basic
 70
     7
 71
     1
 72
     0
 73
     1
 90
        0
 40
-0.6
 41
-30.0
 62
     5
 63
     7
421
 16777215
 74
     0
 91
        4
 64
     7
 65
   257
 75
     1
175
     1
 42
1.0
 92
        8
 66
     7
 43
1.0
 76
     1
 77
     6
 78
     2
 67
     7
 79
     5
170
     0
171
     0
290
     0
174
     0
 93
        1
 44
0.0
173
     0
291
     1
 45
0.0
1001
ACAD
1000
AcDbSavedByObjectVersion
1070
     0
  0
VISUALSTYLE
  5
296A
102
{ACAD_REACTORS
330
295E
102
}
330
295E
100
AcDbVisualStyle
  2
Brighten
 70
    12
 71
     2
 72
     2
 73
     0
 90
        0
 40
-0.6
 41
-30.0
 62
     5
 63
     7
421
 16777215
 74
     1
 91
        4
 64
     7
 65
   257
 75
     1
175
     1
 42
1.0
 92
        8
 66
     7
 43
1.0
 76
     1
 77
     6
 78
     2
 67
     7
 79
     5
170
     0
171
     0
290
     0
174
     0
 93
        1
 44
50.0
173
     0
291
     1
 45
0.0
1001
ACAD
1000
AcDbSavedByObjectVersion
1070
     0
  0
VISUALSTYLE
  5
296E
102
{ACAD_REACTORS
330
295E
102
}
330
295E
100
AcDbVisualStyle
  2
ColorChange
 70
    16
 71
     2
 72
     2
 73
     3
 90
        0
 40
-0.6
 41
-30.0
 62
     5
 63
     8
421
  8421504
 74
     1
 91
        4
 64
     7
 65
   257
 75
     1
175
     1
 42
1.0
 92
        8
 66
     8
424
  8421504
 43
1.0
 76
     1
 77
     6
 78
     2
 67
     7
 79
     5
170
     0
171
     0
290
     0
174
     0
 93
        1
 44
0.0
173
     0
291
     1
 45
0.0
1001
ACAD
1000
AcDbSavedByObjectVersion
1070
     0
  0
VISUALSTYLE
  5
2967
102
{ACAD_REACTORS
330
295E
102
}
330
295E
100
AcDbVisualStyle
  2
Conceptual
 70
     9
 71
     3
 72
     2
 73
     0
 90
        0
 40
-0.6
 41
-30.0
 62
     5
 63
     7
421
 16777215
 74
     2
 91
        2
 64
     7
 65
   257
 75
     1
175
     1
 42
40.0
 92
        8
 66
     7
 43
1.0
 76
     1
 77
     6
 78
     2
 67
     7
 79
     3
170
     0
171
     0
290
     0
174
     0
 93
        1
 44
0.0
173
     0
291
     0
 45
0.0
1001
ACAD
1000
AcDbSavedByObjectVersion
1070
     0
  0
VISUALSTYLE
  5
2969
102
{ACAD_REACTORS
330
295E
102
}
330
295E
100
AcDbVisualStyle
  2
Dim
 70
    11
 71
     2
 72
     2
 73
     0
 90
        0
 40
-0.6
 41
-30.0
 62
     5
 63
     7
421
 16777215
 74
     1
 91
        4
 64
     7
 65
   257
 75
     1
175
     1
 42
1.0
 92
        8
 66
     7
 43
1.0
 76
     1
 77
     6
 78
     2
 67
     7
 79
     5
170
     0
171
     0
290
     0
174
     0
 93
        1
 44
-50.0
173
     0
291
     1
 45
0.0
1001
ACAD
1000
AcDbSavedByObjectVersion
1070
     0
  0
VISUALSTYLE
  5
296D
102
{ACAD_REACTORS
330
295E
102
}
330
295E
100
AcDbVisualStyle
  2
Facepattern
 70
    15
 71
     2
 72
     2
 73
     0
 90
        0
 40
-0.6
 41
-30.0
 62
     5
 63
     7
421
 16777215
 74
     1
 91
        4
 64
     7
 65
   257
 75
     1
175
     1
 42
1.0
 92
        8
 66
     7
 43
1.0
 76
     1
 77
     6
 78
     2
 67
     7
 79
     5
170
     0
171
     0
290
     0
174
     0
 93
        1
 44
0.0
173
     0
291
     1
 45
0.0
1001
ACAD
1000
AcDbSavedByObjectVersion
1070
     0
  0
VISUALSTYLE
  5
295F
102
{ACAD_REACTORS
330
295E
102
}
330
295E
100
AcDbVisualStyle
  2
Flat
 70
     0
 71
     2
 72
     1
 73
     1
 90
        2
 40
-0.6
 41
30.0
 62
     5
 63
     7
421
 16777215
 74
     0
 91
        4
 64
     7
 65
   257
 75
     1
175
     1
 42
1.0
 92
        8
 66
     7
 43
1.0
 76
     1
 77
     6
 78
     2
 67
     7
 79
     5
170
     0
171
     0
290
     0
174
     0
 93
       13
 44
0.0
173
     0
291
     1
 45
0.0
1001
ACAD
1000
AcDbSavedByObjectVersion
1070
     0
  0
VISUALSTYLE
  5
2960
102
{ACAD_REACTORS
330
295E
102
}
330
295E
100
AcDbVisualStyle
  2
FlatWithEdges
 70
     1
 71
     2
 72
     1
 73
     1
 90
        2
 40
-0.6
 41
30.0
 62
     5
 63
     7
421
 16777215
 74
     1
 91
        4
 64
     7
 65
   257
 75
     1
175
     1
 42
1.0
 92
        0
 66
   257
 43
1.0
 76
     1
 77
     6
 78
     2
 67
     7
 79
     5
170
     0
171
     0
290
     0
174
     0
 93
       13
 44
0.0
173
     0
291
     1
 45
0.0
1001
ACAD
1000
AcDbSavedByObjectVersion
1070
     0
  0
VISUALSTYLE
  5
2961
102
{ACAD_REACTORS
330
295E
102
}
330
295E
100
AcDbVisualStyle
  2
Gouraud
 70
     2
 71
     2
 72
     2
 73
     1
 90
        2
 40
-0.6
 41
30.0
 62
     5
 63
     7
421
 16777215
 74
     0
 91
        4
 64
     7
 65
   257
 75
     1
175
     1
 42
1.0
 92
        0
 66
     7
 43
1.0
 76
     1
 77
     6
 78
     2
 67
     7
 79
     5
170
     0
171
     0
290
     0
174
     0
 93
       13
 44
0.0
173
     0
291
     1
 45
0.0
1001
ACAD
1000
AcDbSavedByObjectVersion
1070
     0
  0
VISUALSTYLE
  5
2962
102
{ACAD_REACTORS
330
295E
102
}
330
295E
100
AcDbVisualStyle
  2
GouraudWithEdges
 70
     3
 71
     2
 72
     2
 73
     1
 90
        2
 40
-0.6
 41
30.0
 62
     5
 63
     7
421
 16777215
 74
     1
 91
        4
 64
     7
 65
   257
 75
     1
175
     1
 42
1.0
 92
        0
 66
   257
 43
1.0
 76
     1
 77
     6
 78
     2
 67
     7
 79
     5
170
     0
171
     0
290
     0
174
     0
 93
       13
 44
0.0
173
     0
291
     1
 45
0.0
1001
ACAD
1000
AcDbSavedByObjectVersion
1070
     0
  0
VISUALSTYLE
  5
296C
102
{ACAD_REACTORS
330
295E
102
}
330
295E
100
AcDbVisualStyle
  2
Linepattern
 70
    14
 71
     2
 72
     2
 73
     0
 90
        0
 40
-0.6
 41
-30.0
 62
     5
 63
     7
421
 16777215
 74
     1
 91
        4
 64
     7
 65
   257
 75
     7
175
     7
 42
1.0
 92
        8
 66
     7
 43
1.0
 76
     1
 77
     6
 78
     2
 67
     7
 79
     5
170
     0
171
     0
290
     0
174
     0
 93
        1
 44
0.0
173
     0
291
     1
 45
0.0
1001
ACAD
1000
AcDbSavedByObjectVersion
1070
     0
  0
VISUALSTYLE
  5
2968
102
{ACAD_REACTORS
330
295E
102
}
330
295E
100
AcDbVisualStyle
  2
Realistic
 70
     8
 71
     2
 72
     2
 73
     0
 90
        0
 40
-0.6
 41
-30.0
 62
     5
 63
     7
421
 16777215
 74
     1
 91
        0
 64
     7
 65
   257
 75
     1
175
     1
 42
1.0
 92
        8
 66
     8
424
  7895160
 43
1.0
 76
     1
 77
     6
 78
     2
 67
     7
 79
     5
170
     0
171
     0
290
     0
174
     0
 93
       13
 44
0.0
173
     0
291
     0
 45
0.0
1001
ACAD
1000
AcDbSavedByObjectVersion
1070
     0
  0
VISUALSTYLE
  5
296B
102
{ACAD_REACTORS
330
295E
102
}
330
295E
100
AcDbVisualStyle
  2
Thicken
 70
    13
 71
     2
 72
     2
 73
     0
 90
        0
 40
-0.6
 41
-30.0
 62
     5
 63
     7
421
 16777215
 74
     1
 91
        4
 64
     7
 65
   257
 75
     1
175
     1
 42
1.0
 92
       12
 66
     7
 43
1.0
 76
     1
 77
     6
 78
     2
 67
     7
 79
     5
170
     0
171
     0
290
     0
174
     0
 93
        1
 44
0.0
173
     0
291
     1
 45
0.0
1001
ACAD
1000
AcDbSavedByObjectVersion
1070
     0
  0
DICTIONARYVAR
  5
29A0
102
{ACAD_REACTORS
330
20A5
102
}
330
20A5
100
DictionaryVariables
280
     0
  1
1:1
  0
DICTIONARYVAR
  5
299F
102
{ACAD_REACTORS
330
20A5
102
}
330
20A5
100
DictionaryVariables
280
     0
  1
STANDARD
  0
DICTIONARYVAR
  5
299E
102
{ACAD_REACTORS
330
20A5
102
}
330
20A5
100
DictionaryVariables
280
     0
  1
STANDARD
  0
DICTIONARYVAR
  5
20A7
102
{ACAD_REACTORS
330
20A5
102
}
330
20A5
100
DictionaryVariables
280
     0
  1
1
  0
DICTIONARYVAR
  5
20A6
102
{ACAD_REACTORS
330
20A5
102
}
330
20A5
100
DictionaryVariables
280
     0
  1
1
  0
ACAD_PROXY_OBJECT
  5
A45
102
{ACAD_REACTORS
330
A44
102
}
330
A44
100
AcDbProxyObject
 90
      499
 91
      522
 95
   851991
 70
     0
 93
      118
310
405010040CA904C415CD5B07571078
350
A46
 94
        0
  0
DICTIONARY
  5
A4A
102
{ACAD_REACTORS
330
A44
102
}
330
A44
100
AcDbDictionary
281
     1
  3
ANSI
350
1363
  3
ISO
350
A4B
  0
ACAD_PROXY_OBJECT
  5
A34
330
0
100
AcDbProxyObject
 90
      499
 91
      509
 95
   851991
 70
     0
 93
      156
310
00010143D050D351505391D5531054925390D49C
330
A31
 94
        0
  0
ACAD_PROXY_OBJECT
  5
A35
330
0
100
AcDbProxyObject
 90
      499
 91
      509
 95
   851991
 70
     0
 93
      148
310
000101439050D351531253915054925390D49C
330
A31
 94
        0
  0
ACAD_PROXY_OBJECT
  5
A36
330
0
100
AcDbProxyObject
 90
      499
 91
      510
 95
   851991
 70
     0
 93
      156
310
000101439050D35154D6535093D314D25691508C
330
A31
 94
        0
  0
ACAD_PROXY_OBJECT
  5
A38
330
0
100
AcDbProxyObject
 90
      499
 91
      512
 95
   851991
 70
     0
 93
      216
310
00010145111A5CDD1A5B9D184818DBDB5C1BDB995B9D1A4C402B00CD
330
A31
330
0
330
0
 94
        0
  0
ACAD_PROXY_OBJECT
  5
A49
330
0
100
AcDbProxyObject
 90
      499
 91
      524
 95
   851991
 70
     0
 93
      140
310
00010142105350D55494D5110050349534FC
330
A31
 94
        0
  0
ACAD_PROXY_OBJECT
  5
1CD5
330
0
100
AcDbProxyObject
 90
      499
 91
      555
 95
   851991
 70
     0
 93
       28
310
0001406C
330
A31
 94
        0
  0
DICTIONARY
  5
A2B
102
{ACAD_REACTORS
330
A2A
102
}
330
A2A
100
AcDbDictionary
281
     1
  3
DWGSETTINGS
350
A2C
  3
TRANSSETTINGS
350
A2D
  0
ACAD_PROXY_OBJECT
  5
A4C
102
{ACAD_REACTORS
330
A2A
102
}
330
A2A
100
AcDbProxyObject
 90
      499
 91
      526
 95
   851991
 70
     0
 93
    12938
310
41102491013041105357CC1074CA404C504414D5F31439329013241105357CC9054CA404CD04414D5F33419199013441105357CD103466404D504414D5F3540D199013641105357CD90248E404DD04414D5F37411199013841105357CE101466404E504414D5F397F641102324141505357CC4C1074CA408D10505414D5F31
310
3140D19902495041505357CC4C9074C902408C13905414D5F304E41D32902314E41505357CC5390E4CA408C93905414D5F324E41532902334E41505357CCD3906466408D13905414D5F344E40D19902354E41505357CD53903466408D93905414D5F364E40923902374E41505357CDD3904466408E13905414D5F384E40519
310
902394E41505357CE539FD90440CC9053906414D5F31304E41D3290334414E41905357CC4C5390346640D25413906414D5F31324E41D32409044B4C494E41505357D0D3101465094112539193D08414D5F50415245464111942D055241484D3541905357D093D49074C9094115925155D08414D5F56494557534051942D064
310
24548494E4441905357D253959FD90D415514905253105414D5F545240D194250348494441905357D212511074650940D59254D06414D5F56495341D324250650415244494D42505357D410549112535034650941949151911253509414D5F52454644494D4111942553411092139590139CFFFFFFFF415092139594D06424
310
548494E44CFFFFFFFF411093D48C9055241484D3540519411093D48CD055241484D3540923411093D48D5055241484D35CFFFFFFFF4110D0530C90134CFFFFFFFF4110D0530CD0134409234110D0530D5013441D324110D0530DD0134479464110D1539390137CFFFFFFFF4110D15395D0137CFFFFFFFF4110D312539044B4
310
C494ECFFFFFFFF4110D3D38C50130CFFFFFFFF4110D3D38C90131CFFFFFFFF4110D3D38CD0132CFFFFFFFF4110D3D38D10132CFFFFFFFF411111551050134CFFFFFFFF4111125051D0135CFFFFFFFF411112531250135CFFFFFFFF411112535410650415244494DCFFFFFFFF411112535490652454644494DCFFFFFFFF4111
310
91535390138CFFFFFFFF4151915354139013840CFFFFFFFF4151915354D41023441CFFFFFFFF4151915354D5102344140D1941519153559390132CFFFFFFFF4151915355951013240D194112105510D0138CFFFFFFFF411212511390133CFFFFFFFF4112125115D0133CFFFFFFFF411213125390134CFFFFFFFF411213D0D3
310
90137CFFFFFFFF411213D0D5D0137CFFFFFFFF4112539193D04494E464FCFFFFFFFF411311505110135CFFFFFFFF419397D0921395902394ECFFFFFFFF419397D0D3D38C502304ECFFFFFFFF419397D0D3D38C902314ECFFFFFFFF419397D0D3D38CD02324ECFFFFFFFF419397D0D3D38D102324ECFFFFFFFF419397D0D153
310
93902374ECFFFFFFFF419397D0D15395D02374ECFFFFFFFF419397D1125312502354ECFFFFFFFF419397D2105510D02384ECFFFFFFFF419397D2125113902334ECFFFFFFFF419397D2125115D02334ECFFFFFFFF419397D3115051102354ECFFFFFFFF419397D391D25410349504ECFFFFFFFF419397D412105390334414EC
310
FFFFFFFF419397D510D3D3902304ECFFFFFFFF419397D5121312502344ECFFFFFFFF419397D5131153902304ECFFFFFFFF419397D594131250332414ECFFFFFFFF411391D2541024950CFFFFFFFF411410530C9055241484D3540519411410530CD055241484D3540923411410530D5055241484D35CFFFFFFFF4114121053
310
9023441CFFFFFFFF411413D4D390135CFFFFFFFF411490D1D390137CFFFFFFFF411490D1D5D0137CFFFFFFFF4114D09492D0134CFFFFFFFF4114D150D510134CFFFFFFFF4114D6508CD013540923411354D6535013540923411510D3D390130CFFFFFFFF411512131250134CFFFFFFFF411512550C9055241484D354051941
310
1512550CD055241484D3540923411512550D5055241484D35CFFFFFFFF411513115390130CFFFFFFFF415514905253105545241494CCFFFFFFFF411514931250134CFFFFFFFF411516150C5013640D19411516150C9013640D19411516150CD0136CFFFFFFFF411516150D5013641D32411516150DD0136479464115925155
310
D0456494557CFFFFFFFF4115915112103484944CFFFFFFFF4115915115903564953CFFFFFFFF41159413125023241CFFFFFFFF411692569050134CFFFFFFFFAA9FD404FE4290E4C9074C906465054C904465034650248D014651E519FD8C
340
14
340
14
340
14
340
A4D
340
14
340
14
340
14
340
A4E
340
14
340
14
340
A4E
340
A4F
340
14
340
14
340
14
340
14
340
A4D
340
14
340
14
340
14
340
A4E
340
14
340
14
340
A4E
340
A4F
340
14
340
A50
340
14
340
14
340
14
340
14
340
14
340
A4D
340
14
340
14
340
14
340
13
340
13
340
13
340
13
340
13
340
13
340
13
340
13
340
13
340
A51
340
13
340
13
340
13
340
13
340
13
340
13
340
13
340
13
340
13
340
13
340
13
340
13
340
13
340
14
340
13
340
13
340
13
340
13
340
A52
340
13
340
13
340
A51
340
13
340
13
340
13
340
13
340
13
340
13
340
13
340
13
340
A51
340
13
340
13
340
13
340
A52
340
13
340
13
340
13
340
13
340
13
340
13
340
13
340
13
340
13
340
13
340
13
340
13
340
13
340
13
340
A51
340
13
340
13
340
13
340
13
340
13
340
13
340
13
340
13
340
13
340
13
340
13
340
13
340
13
340
13
340
13
340
13
340
13
340
13
340
13
340
13
340
13
340
13
340
A55
 94
        0
  0
ACAD_PROXY_OBJECT
  5
A7C
102
{ACAD_REACTORS
330
A77
102
}
330
A77
100
AcDbProxyObject
 90
      499
 91
      542
 95
   851991
 70
     0
 93
      253
310
43D1444494D454E53494F4E2C414D44545F2A5F44494D404A9012A404A9012AC
 94
        0
  0
ACAD_PROXY_OBJECT
  5
A7B
102
{ACAD_REACTORS
330
A77
102
}
330
A77
100
AcDbProxyObject
 90
      499
 91
      542
 95
   851991
 70
     0
 93
      181
310
43D012A42D05357D191504B505357CA9012A404A9012AC
 94
        0
  0
ACAD_PROXY_OBJECT
  5
A78
102
{ACAD_REACTORS
330
A77
102
}
330
A77
100
AcDbProxyObject
 90
      499
 91
      542
 95
   851991
 70
     0
 93
      133
310
43D054841544348404A9012A404A9012AC
 94
        0
  0
ACAD_PROXY_OBJECT
  5
A79
102
{ACAD_REACTORS
330
A77
102
}
330
A77
100
AcDbProxyObject
 90
      499
 91
      542
 95
   851991
 70
     0
 93
      549
310
43D044C494E4549CE0B0E138B0A8B4E0B0A8B4E138B105357CE0B105357CE138B0A8B505357CE0B0A8B505357CE139012A404A910494E534552542C535444504152543244C
 94
        0
  0
ACAD_PROXY_OBJECT
  5
A7D
102
{ACAD_REACTORS
330
A77
102
}
330
A77
100
AcDbProxyObject
 90
      499
 91
      542
 95
   851991
 70
     0
 93
      181
310
43D0341524341105357CD5012A404C906494E534552544
 94
        0
  0
ACAD_PROXY_OBJECT
  5
A7A
102
{ACAD_REACTORS
330
A77
102
}
330
A77
100
AcDbProxyObject
 90
      499
 91
      542
 95
   851991
 70
     0
 93
     1053
310
43D7841434D46434652414D452C41434D444154554D5441524745542C41434D444154554D49442C41434D57454C4453594D2C41434D5355524653594D2C41434D4645415449442C41434D504152545245462C41434D42414C4C4F4F4E2C414D44544544474553594D2C414D47534352455743414C435441424C45404A9012A
310
404A9012AC
 94
        0
  0
LAYER_INDEX
  5
209C
102
{ACAD_REACTORS
330
209B
102
}
330
209B
100
AcDbIndex
 40
2455405.39224213
100
AcDbLayerIndex
  8
0
360
209D
 90
        1
  8
DISEGNO
360
209E
 90
     1071
  8
ASSI
360
209F
 90
       92
  8
NORMALI
360
20A0
 90
      113
  8
TRATTEGGI
360
20A1
 90
       18
  8
Defpoints
360
20A2
 90
        0
  0
DICTIONARY
  5
294F
330
294E
100
AcDbDictionary
280
     1
281
     1
  3
ACAD_XREC_ROUNDTRIP
360
29A5
  3
BUMPTILE
360
2951
  3
DIFFUSETILE
360
2950
  3
OPACITYTILE
360
2954
  3
REFLECTIONTILE
360
2953
  3
REFRACTIONTILE
360
2955
  3
SPECULARTILE
360
2952
  0
DICTIONARY
  5
2947
330
2946
100
AcDbDictionary
280
     1
281
     1
  3
ACAD_XREC_ROUNDTRIP
360
29A4
  3
BUMPTILE
360
2949
  3
DIFFUSETILE
360
2948
  3
OPACITYTILE
360
294C
  3
REFLECTIONTILE
360
294B
  3
REFRACTIONTILE
360
294D
  3
SPECULARTILE
360
294A
  0
DICTIONARY
  5
2957
330
2956
100
AcDbDictionary
280
     1
281
     1
  3
ACAD_XREC_ROUNDTRIP
360
29A6
  3
BUMPTILE
360
2959
  3
DIFFUSETILE
360
2958
  3
OPACITYTILE
360
295C
  3
REFLECTIONTILE
360
295B
  3
REFRACTIONTILE
360
295D
  3
SPECULARTILE
360
295A
  0
DICTIONARY
  5
29A1
330
2971
100
AcDbDictionary
280
     1
281
     1
  3
ACAD_ROUNDTRIP_2008_TABLESTYLE_CELLSTYLEMAP
360
29A2
  3
ACAD_XREC_ROUNDTRIP
360
29A7
  0
ACAD_PROXY_OBJECT
  5
A46
102
{ACAD_REACTORS
330
A45
102
}
330
A45
100
AcDbProxyObject
 90
      499
 91
      523
 95
   851991
 70
     0
 93
      139
310
057356C1D5C406406AA8FFFFFFFF0AE2404C
330
18
330
0
330
0
 94
        0
  0
ACAD_PROXY_OBJECT
  5
1363
102
{ACAD_REACTORS
330
A4A
102
}
330
A4A
100
AcDbProxyObject
 90
      499
 91
      543
 95
   851991
 70
     0
 93
     2109
310
570B81E85EB51B8BE3FD04414E5349405901409022E07A17AD46E2F8FD2208721C82C6DAA6EAE4CCA8CAF0E8A6E8C88120284A0B1B6A321A329BA3220480A1A82C6DAAECAD8C8D2DCCEA6E8C8812028420B1B6A4B229BA3220480A1682C6DA88C2E8EADAA6E8C88120284A0B1B6A127A6A9BA3220480A2082DAC8E888CAE8C
310
2D2D8A6F2DAA6E8C88120288A0B6B23A29B2B1BA34B7B729BCB6A9BA3220480A2282DAC8E886CADCE8CAE498D2DCCAA6E8C88120285A0B6B23A2737BA32A9BA3220480A1682C682DACE98C2F2A6E8C88120285A0B1A0B6B3A234B6A9BA3220480A2282C682DACE90DED8CA86D0C2E4E8A6E8C88120286A0B1A0B6B3AA34BA3
310
632A9BA3220480A02814
340
BF4
360
1364
360
1365
360
1366
360
1367
360
1368
360
1369
360
136A
360
136B
360
136C
360
136D
360
136E
360
136F
360
1370
360
1371
 94
        0
  0
ACAD_PROXY_OBJECT
  5
A4B
102
{ACAD_REACTORS
330
A4A
102
}
330
A4A
100
AcDbProxyObject
 90
      499
 91
      525
 95
   851991
 70
     0
 93
     2211
310
5700000000000000C40D0349534F405901409020000000000000310322287A1682DAC8E88AC8CECAA6E8C8812028720B1B6A9BAB9332A32BC3A29BA3220480A1282C6DA8C868CA6E8C88120286A0B1B6ABB2B63234B733A9BA3220480A1082C6DA92C8A6E8C88120285A0B1B6A230BA3AB6A9BA3220480A1282C6DA849E9AA
310
6E8C8812028820B6B23A2232BA30B4B629BCB6A9BA3220480A2282DAC8E8A6CAC6E8D2DEDCA6F2DAA6E8C88120288A0B6B23A21B2B73A32B92634B732A9BA3220480A1682DAC8E89CDEE8CAA6E8C88120285A0B1A0B6B3A630BCA9BA3220480A1682C682DACE88D2DAA6E8C88120288A0B1A0B6B3A437B632A1B430B93A29B
310
A3220480A1A82C682DACEA8D2E8D8CAA6E8C881203204C
340
A56
360
A57
360
A58
360
A59
360
A5A
360
A5B
360
A5C
360
A5D
360
A5E
360
A5F
360
A60
360
A61
360
A67
360
A68
360
A74
360
A75
 94
        0
  0
ACAD_PROXY_OBJECT
  5
A2C
102
{ACAD_REACTORS
330
A2B
102
}
330
A2B
100
AcDbProxyObject
 90
      499
 91
      505
 95
   851991
 70
     0
 93
     2396
310
4050B44574753455454494E4753A1286829C8E82A4A482B282A106660F8686AF86C608321A2A720A723A0A849A1ABE1C983E18999AA0C868A9C889282940000000000000488083A1A2A72224A0A9A0A8418983E19183E199820E868A9C8892A6A894000000000000010808321A2A72622A7250000000000000122020C868A9
310
C9E8C8C940000000000000488084A1A624A720A92920ACA0A8418983E19183E19982108698929C8AA8B2A082A0AB098929C8A84A22BA3AAA9A1A0A622A50A0E9882A6A89E849482A02608426A0A5A2AB24A2ABA7E8120CA0A68682988A0C00800010652455649534941501304154D0D0531150540CC4E8C50954494D455354
310
414D504A05EFD5C21F817734141D5915494D253D3905414C4D4B8C0C1107B44574753455454494E4753454E447DC
 94
        0
  0
ACAD_PROXY_OBJECT
  5
A2D
102
{ACAD_REACTORS
330
A2B
102
}
330
A2B
100
AcDbProxyObject
 90
      499
 91
      505
 95
   851991
 70
     0
 93
      852
310
4050D5452414E5353455454494E4753A2488A482AE929C8EA8A4829CA69882A8929E9C0C00800050D4F524947494E414C4C595F4F4E0600400008529A7AAA921A2A620A723A0A81A4AA20A12AAA0A48AA68AA4AC8A0C0080001107B44574753455454494E4753454E447DC
 94
        0
  0
IDBUFFER
  5
209D
330
0
100
AcDbIdBuffer
330
88B
  0
IDBUFFER
  5
209E
330
0
100
AcDbIdBuffer
330
40B
330
40E
330
40F
330
415
330
416
330
417
330
41C
330
41D
330
422
330
423
330
430
330
431
330
435
330
436
330
437
330
438
330
450
330
451
330
45F
330
4C3
330
4FB
330
504
330
505
330
512
330
516
330
517
330
54E
330
54F
330
550
330
564
330
565
330
56F
330
572
330
57A
330
57B
330
586
330
589
330
58B
330
599
330
59A
330
5A3
330
5AA
330
5BB
330
5BC
330
5BD
330
5BE
330
5BF
330
5C0
330
5C3
330
5CF
330
5D7
330
5DE
330
5DF
330
5E0
330
5E1
330
5E2
330
5E5
330
5EA
330
5F2
330
5FB
330
608
330
609
330
60B
330
60C
330
60D
330
610
330
612
330
613
330
623
330
626
330
629
330
62A
330
62B
330
62C
330
67A
330
67B
330
67D
330
682
330
684
330
686
330
690
330
691
330
6C9
330
6CA
330
6CB
330
6CD
330
6D4
330
6DA
330
6DB
330
6DC
330
6DD
330
6E0
330
6F0
330
6F1
330
6F3
330
6F8
330
6F9
330
70E
330
70F
330
723
330
724
330
725
330
726
330
729
330
72A
330
72F
330
734
330
736
330
74B
330
752
330
754
330
758
330
763
330
768
330
769
330
77F
330
792
330
793
330
861
330
8D5
330
8D6
330
8D7
330
8D8
330
994
330
995
330
997
330
998
330
99E
330
99F
330
9A0
330
9A2
330
9A3
330
9A6
330
9A7
330
9A8
330
9B1
330
9B2
330
9BC
330
9C0
330
9CF
330
9D0
330
9DD
330
9DE
330
A07
330
AA9
330
1CE1
330
1CE2
330
1CE3
330
1CE4
330
1CE5
330
1CE6
330
1CF6
330
1CF7
330
1CF8
330
1CF9
330
1CFA
330
1CFB
330
1CFC
330
1CFD
330
1CFE
330
1CFF
330
1D00
330
1D07
330
1D08
330
1D10
330
1D11
330
1D13
330
1D21
330
1D23
330
1D24
330
1D25
330
1D26
330
1D34
330
1D37
330
1D38
330
1D39
330
1D3F
330
1D40
330
1D42
330
1D43
330
1D44
330
1D54
330
1D55
330
1D56
330
1D57
330
1D58
330
1D59
330
1D5A
330
1D5B
330
1D5E
330
1D5F
330
1D60
330
1D61
330
1D62
330
1D64
330
1D65
330
1D66
330
1D69
330
1D6A
330
1D6B
330
1D6C
330
1D6D
330
1D6E
330
1D6F
330
1D70
330
1D71
330
1D72
330
1D73
330
1D74
330
1D75
330
1D76
330
1D77
330
1D78
330
1D79
330
1D7A
330
1EBD
330
1EBF
330
1EC3
330
1EC7
330
1EC9
330
1ECA
330
1EDD
330
1EDE
330
1EEB
330
1EEC
330
1EED
330
1EF6
330
1EF8
330
1EF9
330
1EFA
330
1EFB
330
1EFC
330
1EFD
330
1F17
330
1F18
330
1F19
330
1F1A
330
1F1B
330
1F1C
330
1F1D
330
1F31
330
1F32
330
1F33
330
1F34
330
1F37
330
1F38
330
1F3E
330
1F3F
330
1F40
330
1F41
330
1F42
330
1F4A
330
1FEC
330
1FEE
330
1FEF
330
1FF0
330
200D
330
200E
330
200F
330
2010
330
2011
330
2012
330
202E
330
202F
330
2041
330
2043
330
2045
330
2047
330
2085
330
2086
330
2087
330
2089
330
2090
330
2091
330
2092
330
2093
330
2095
330
2096
330
2097
330
2098
330
2162
330
24F1
330
24F2
330
24F3
330
24F4
330
24F5
330
24F6
330
24F7
330
24F8
330
24FB
330
24FD
330
24FE
330
24FF
330
2500
330
2501
330
2502
330
2503
330
2505
330
2506
330
2507
330
2508
330
2509
330
250A
330
250B
330
250C
330
250D
330
250E
330
250F
330
2510
330
2511
330
2512
330
2513
330
2514
330
2515
330
2516
330
2517
330
2518
330
251B
330
251C
330
251D
330
251E
330
251F
330
2520
330
2521
330
2522
330
2523
330
2524
330
2525
330
2533
330
2534
330
2535
330
2536
330
2537
330
2538
330
2539
330
253A
330
253B
330
253C
330
253D
330
253E
330
253F
330
2540
330
2541
330
2542
330
2543
330
2544
330
2545
330
2546
330
2547
330
2548
330
2549
330
254A
330
254B
330
254C
330
254D
330
254E
330
254F
330
2550
330
2551
330
2552
330
2553
330
2554
330
2555
330
2556
330
2557
330
2558
330
2559
330
255A
330
255B
330
255C
330
255D
330
255E
330
255F
330
2560
330
2561
330
2562
330
2563
330
2564
330
2565
330
2566
330
2567
330
2568
330
2569
330
256A
330
256B
330
256C
330
256D
330
256E
330
256F
330
2570
330
2571
330
2572
330
2573
330
2574
330
2575
330
2576
330
2577
330
2578
330
2579
330
257A
330
257B
330
257C
330
257D
330
257E
330
257F
330
2580
330
2581
330
2582
330
2583
330
2584
330
2585
330
2586
330
2587
330
2588
330
2589
330
258A
330
258B
330
258C
330
258D
330
258E
330
258F
330
2590
330
2591
330
2592
330
2593
330
2594
330
2595
330
2596
330
2597
330
259C
330
259D
330
259E
330
259F
330
25A0
330
25A1
330
25A2
330
25A3
330
25A4
330
25A5
330
25A6
330
25A7
330
25A8
330
25A9
330
25AA
330
25AB
330
25AC
330
25AD
330
25AE
330
25AF
330
25B0
330
25B1
330
25B2
330
25B3
330
25B4
330
25B5
330
25B6
330
25B7
330
25B8
330
25B9
330
25BA
330
25BE
330
25BF
330
25C0
330
25C1
330
25C2
330
25C3
330
25C4
330
25C5
330
25C6
330
25C7
330
25C8
330
25C9
330
25CA
330
25CB
330
25CC
330
25CD
330
25CE
330
25CF
330
25D0
330
25D4
330
25D5
330
25D6
330
25D7
330
25D8
330
25D9
330
25DA
330
25DB
330
25DC
330
25DD
330
25DE
330
25DF
330
25E0
330
25E1
330
25E2
330
25E3
330
25E4
330
25E5
330
25E6
330
25E7
330
25E8
330
25E9
330
25EA
330
25EB
330
25EC
330
25ED
330
25EE
330
25EF
330
25F0
330
25F1
330
25F2
330
25F3
330
25F4
330
25F5
330
25F6
330
25F7
330
25F8
330
25F9
330
25FA
330
25FB
330
25FC
330
25FD
330
25FE
330
25FF
330
2600
330
2601
330
2602
330
2603
330
2604
330
2605
330
2606
330
2607
330
261F
330
2620
330
2623
330
2624
330
2633
330
2634
330
2635
330
2636
330
263C
330
263D
330
263E
330
263F
330
2640
330
2641
330
2642
330
2643
330
2644
330
2645
330
2646
330
2647
330
2648
330
2649
330
264A
330
264B
330
264C
330
264D
330
264E
330
264F
330
2650
330
2651
330
2652
330
2653
330
2654
330
2655
330
2656
330
2657
330
2658
330
2659
330
265A
330
265B
330
265C
330
265D
330
265E
330
265F
330
2660
330
2661
330
2662
330
2663
330
2664
330
2665
330
2666
330
2667
330
2668
330
2669
330
266A
330
266B
330
266C
330
266D
330
266E
330
266F
330
2670
330
2671
330
2672
330
2673
330
2674
330
2675
330
2676
330
2677
330
2678
330
2679
330
267A
330
267B
330
267C
330
267D
330
267E
330
267F
330
2680
330
2681
330
2682
330
2683
330
2684
330
2685
330
2686
330
2687
330
2688
330
2689
330
268A
330
268B
330
268C
330
268D
330
268E
330
268F
330
2690
330
2691
330
2692
330
2693
330
2694
330
2695
330
2696
330
2697
330
2698
330
2699
330
269A
330
269B
330
269C
330
269D
330
269E
330
269F
330
26A0
330
26A1
330
26A2
330
26A3
330
26A4
330
26A5
330
26A6
330
26A7
330
26A8
330
26A9
330
26AA
330
26AB
330
26AC
330
26AD
330
26AE
330
26AF
330
26B0
330
26B1
330
26B2
330
26B3
330
26B4
330
26B5
330
26B6
330
26B7
330
26B8
330
26B9
330
26BA
330
26BB
330
26BC
330
26BD
330
26BE
330
26BF
330
26C0
330
26C1
330
26C2
330
26C3
330
26C4
330
26C5
330
26C6
330
26C7
330
26C8
330
26C9
330
26CA
330
26CB
330
26CC
330
26CD
330
26CE
330
26CF
330
26D0
330
26D1
330
26D2
330
26D3
330
26D4
330
26D5
330
26D6
330
26D7
330
26D8
330
26D9
330
26DA
330
26DB
330
26DC
330
26DD
330
26DE
330
26DF
330
26E0
330
26E1
330
26E2
330
26E3
330
26E4
330
26E5
330
26E6
330
26E7
330
26E8
330
26E9
330
26EA
330
26EB
330
26EC
330
26ED
330
26EE
330
26EF
330
26F0
330
26F1
330
26F2
330
26F3
330
26F4
330
26F5
330
26F6
330
26F7
330
26F8
330
26F9
330
26FA
330
26FB
330
26FC
330
26FD
330
26FE
330
26FF
330
2700
330
2701
330
2702
330
2703
330
2704
330
2705
330
2706
330
2707
330
2708
330
2709
330
270A
330
270B
330
270C
330
270D
330
270E
330
270F
330
2710
330
2711
330
2712
330
2713
330
2714
330
2715
330
2716
330
2717
330
2718
330
2719
330
271A
330
271B
330
271C
330
271D
330
271E
330
271F
330
2720
330
2721
330
2722
330
2723
330
2724
330
2725
330
2726
330
2727
330
2728
330
2729
330
272A
330
272B
330
272C
330
272D
330
272E
330
272F
330
2730
330
2731
330
2732
330
2733
330
2734
330
2735
330
2736
330
2737
330
2738
330
2739
330
273A
330
273B
330
273C
330
273D
330
273E
330
273F
330
2740
330
2741
330
2742
330
2743
330
2744
330
2745
330
2746
330
2747
330
2748
330
2749
330
274A
330
274B
330
274C
330
274D
330
274E
330
274F
330
2750
330
2751
330
2752
330
2753
330
2754
330
2755
330
2756
330
2757
330
2758
330
2759
330
275A
330
275B
330
275C
330
275D
330
275E
330
275F
330
2760
330
2761
330
2762
330
2763
330
2764
330
2765
330
2766
330
2767
330
2768
330
2769
330
276A
330
276B
330
276C
330
276D
330
276E
330
276F
330
2770
330
2771
330
2776
330
2777
330
2778
330
2779
330
277A
330
277B
330
277C
330
277D
330
277E
330
277F
330
2780
330
2781
330
2782
330
2783
330
2784
330
2785
330
2786
330
2787
330
2788
330
2789
330
278A
330
278B
330
278C
330
278D
330
278E
330
278F
330
2790
330
2791
330
2792
330
2793
330
2794
330
2795
330
2796
330
2797
330
2798
330
2799
330
279A
330
279B
330
279C
330
279D
330
279E
330
279F
330
27A0
330
27A1
330
27A2
330
27A3
330
27A4
330
27A5
330
27A6
330
27A7
330
27A8
330
27A9
330
27AA
330
27AB
330
27AC
330
27AD
330
27AE
330
27AF
330
27B0
330
27B1
330
27B2
330
27B3
330
27B4
330
27B5
330
27B6
330
27B7
330
27B8
330
27B9
330
27BA
330
27BB
330
27BC
330
27BD
330
27BE
330
27BF
330
27C0
330
27C1
330
27C2
330
27C3
330
27C4
330
27C5
330
27C6
330
27C7
330
27C8
330
27C9
330
27CA
330
27CB
330
27CC
330
27CD
330
27CE
330
27CF
330
27D0
330
27D1
330
27D2
330
27D3
330
27D4
330
27D5
330
27D6
330
27D7
330
27D8
330
27D9
330
27DA
330
27DB
330
27DC
330
27DD
330
27DE
330
27DF
330
27E0
330
27E1
330
27E2
330
27E3
330
27E4
330
27E5
330
27E6
330
27E7
330
27E8
330
27E9
330
27EA
330
27EB
330
27EC
330
27ED
330
27EE
330
27EF
330
27F0
330
27F1
330
27F2
330
27F3
330
27F4
330
27F5
330
27F6
330
27F7
330
27F8
330
27F9
330
27FA
330
27FB
330
27FC
330
27FD
330
27FE
330
27FF
330
2800
330
2801
330
2802
330
2803
330
2804
330
2805
330
2806
330
2807
330
2808
330
2809
330
280A
330
280B
330
280C
330
280D
330
280F
330
2810
330
2811
330
2812
330
2813
330
2814
330
2815
330
2816
330
2817
330
2818
330
2819
330
281A
330
281B
330
281C
330
281D
330
281E
330
281F
330
2820
330
2821
330
2822
330
2823
330
2824
330
2825
330
2826
330
2827
330
2828
330
2829
330
282A
330
282B
330
282C
330
282D
330
282E
330
282F
330
2830
330
2831
330
2832
330
2833
330
2834
330
2835
330
2836
330
2837
330
2838
330
2839
330
2850
330
2851
330
2858
330
2859
330
28C2
330
28C6
330
28CA
330
28CE
330
28D2
330
28D5
330
2931
330
2932
330
2933
330
2935
330
2936
330
2937
330
2938
330
2939
330
293A
330
293B
330
293C
330
293D
330
293E
330
293F
330
2940
330
2941
330
2942
  0
IDBUFFER
  5
209F
330
0
100
AcDbIdBuffer
330
402
330
40C
330
40D
330
412
330
45A
330
45B
330
45C
330
45E
330
462
330
469
330
46B
330
46C
330
46D
330
470
330
471
330
472
330
485
330
48F
330
4B5
330
4B6
330
4BA
330
4BC
330
4BD
330
4CB
330
4CD
330
4CE
330
4CF
330
4D0
330
4D1
330
4DD
330
4E6
330
4F1
330
554
330
557
330
578
330
596
330
5B4
330
5E4
330
627
330
628
330
62D
330
6CC
330
99C
330
9DF
330
9E0
330
A05
330
A06
330
1D12
330
1D41
330
1D63
330
1F4F
330
20C3
330
2102
330
2104
330
2106
330
215E
330
24F0
330
2526
330
2598
330
2599
330
259A
330
259B
330
2772
330
2773
330
2774
330
2775
330
28C1
330
28C4
330
28C5
330
28C8
330
28C9
330
28CB
330
28CC
330
28CF
330
28D0
330
28D1
330
28D4
330
28D6
330
28D7
330
28D8
330
28D9
330
28DA
330
28DB
330
28DC
330
28EE
330
28FC
330
290A
330
2918
330
2919
330
291A
330
291B
330
291C
  0
IDBUFFER
  5
20A0
330
0
100
AcDbIdBuffer
330
43B
330
43C
330
43D
330
43E
330
43F
330
440
330
441
330
445
330
446
330
447
330
448
330
449
330
44A
330
44B
330
571
330
59B
330
59C
330
59D
330
59E
330
5A2
330
5A4
330
5A9
330
5AB
330
5C2
330
5C6
330
5C7
330
5C8
330
5C9
330
5CA
330
5CB
330
5D1
330
5D2
330
5D3
330
5D4
330
5D5
330
5D6
330
5D8
330
5E6
330
5E7
330
5EC
330
5ED
330
5EE
330
5EF
330
5FC
330
5FD
330
5FE
330
5FF
330
60E
330
60F
330
611
330
624
330
625
330
697
330
698
330
69C
330
69D
330
6A0
330
772
330
773
330
77A
330
77B
330
781
330
8CE
330
8CF
330
8D0
330
8D1
330
8D2
330
8D3
330
9E1
330
9ED
330
AAA
330
AAB
330
AAC
330
AAD
330
AAE
330
AAF
330
AB0
330
AB1
330
AB2
330
1D0B
330
1D0C
330
1D0D
330
1D0E
330
1D0F
330
1D3A
330
1D3B
330
1D3C
330
1D3D
330
1D3E
330
1EF2
330
1EF3
330
1EF4
330
1EF5
330
2016
330
2017
330
2018
330
2019
330
261B
330
261C
330
261D
330
261E
330
284C
330
284D
330
284E
330
284F
330
2866
330
2867
330
2868
330
2869
330
286A
330
286B
330
286C
330
286D
  0
IDBUFFER
  5
20A1
330
0
100
AcDbIdBuffer
330
996
330
999
330
99A
330
99B
330
99D
330
9A1
330
9A4
330
9A5
330
A7E
330
A7F
330
A80
330
A81
330
1D67
330
1D68
330
28C3
330
28C7
330
28CD
330
28D3
  0
IDBUFFER
  5
20A2
330
0
100
AcDbIdBuffer
  0
XRECORD
  5
29A5
102
{ACAD_REACTORS
330
294F
102
}
330
294F
100
AcDbXrecord
280
     1
102
MATERIAL
148
0.0
149
0.0
149
0.0
 93
        0
 94
      127
282
     0
 72
     0
 77
     0
171
     0
175
     0
179
     0
273
     0
  0
XRECORD
  5
2951
102
{ACAD_REACTORS
330
294F
102
}
330
294F
100
AcDbXrecord
280
     1
270
     1
271
     1
  0
XRECORD
  5
2950
102
{ACAD_REACTORS
330
294F
102
}
330
294F
100
AcDbXrecord
280
     1
270
     1
271
     1
  0
XRECORD
  5
2954
102
{ACAD_REACTORS
330
294F
102
}
330
294F
100
AcDbXrecord
280
     1
270
     1
271
     1
  0
XRECORD
  5
2953
102
{ACAD_REACTORS
330
294F
102
}
330
294F
100
AcDbXrecord
280
     1
270
     1
271
     1
  0
XRECORD
  5
2955
102
{ACAD_REACTORS
330
294F
102
}
330
294F
100
AcDbXrecord
280
     1
270
     1
271
     1
  0
XRECORD
  5
2952
102
{ACAD_REACTORS
330
294F
102
}
330
294F
100
AcDbXrecord
280
     1
270
     1
271
     1
  0
XRECORD
  5
29A4
102
{ACAD_REACTORS
330
2947
102
}
330
2947
100
AcDbXrecord
280
     1
102
MATERIAL
148
0.0
149
0.0
149
0.0
 93
        0
 94
      127
282
     0
 72
     0
 77
     0
171
     0
175
     0
179
     0
273
     0
  0
XRECORD
  5
2949
102
{ACAD_REACTORS
330
2947
102
}
330
2947
100
AcDbXrecord
280
     1
270
     1
271
     1
  0
XRECORD
  5
2948
102
{ACAD_REACTORS
330
2947
102
}
330
2947
100
AcDbXrecord
280
     1
270
     1
271
     1
  0
XRECORD
  5
294C
102
{ACAD_REACTORS
330
2947
102
}
330
2947
100
AcDbXrecord
280
     1
270
     1
271
     1
  0
XRECORD
  5
294B
102
{ACAD_REACTORS
330
2947
102
}
330
2947
100
AcDbXrecord
280
     1
270
     1
271
     1
  0
XRECORD
  5
294D
102
{ACAD_REACTORS
330
2947
102
}
330
2947
100
AcDbXrecord
280
     1
270
     1
271
     1
  0
XRECORD
  5
294A
102
{ACAD_REACTORS
330
2947
102
}
330
2947
100
AcDbXrecord
280
     1
270
     1
271
     1
  0
XRECORD
  5
29A6
102
{ACAD_REACTORS
330
2957
102
}
330
2957
100
AcDbXrecord
280
     1
102
MATERIAL
148
0.0
149
0.0
149
0.0
 93
        0
 94
      127
282
     0
 72
     0
 77
     0
171
     0
175
     0
179
     0
273
     0
  0
XRECORD
  5
2959
102
{ACAD_REACTORS
330
2957
102
}
330
2957
100
AcDbXrecord
280
     1
270
     1
271
     1
  0
XRECORD
  5
2958
102
{ACAD_REACTORS
330
2957
102
}
330
2957
100
AcDbXrecord
280
     1
270
     1
271
     1
  0
XRECORD
  5
295C
102
{ACAD_REACTORS
330
2957
102
}
330
2957
100
AcDbXrecord
280
     1
270
     1
271
     1
  0
XRECORD
  5
295B
102
{ACAD_REACTORS
330
2957
102
}
330
2957
100
AcDbXrecord
280
     1
270
     1
271
     1
  0
XRECORD
  5
295D
102
{ACAD_REACTORS
330
2957
102
}
330
2957
100
AcDbXrecord
280
     1
270
     1
271
     1
  0
XRECORD
  5
295A
102
{ACAD_REACTORS
330
2957
102
}
330
2957
100
AcDbXrecord
280
     1
270
     1
271
     1
  0
CELLSTYLEMAP
  5
29A2
102
{ACAD_REACTORS
330
29A1
102
}
330
29A1
100
AcDbCellStyleMap
 90
        3
300
CELLSTYLE
  1
TABLEFORMAT_BEGIN
 90
        5
170
     1
 91
        0
 92
    32768
 62
   257
 93
        1
300
CONTENTFORMAT
  1
CONTENTFORMAT_BEGIN
 90
        0
 91
        0
 92
      512
 93
        0
300

 40
0.0
140
1.0
 94
        5
 62
     0
340
F
144
6.0
309
CONTENTFORMAT_END
171
     1
301
MARGIN
  1
CELLMARGIN_BEGIN
 40
1.5
 40
1.5
 40
1.5
 40
1.5
 40
4.5
 40
4.5
309
CELLMARGIN_END
 94
        6
 95
        1
302
GRIDFORMAT
  1
GRIDFORMAT_BEGIN
 90
        0
 91
        1
 62
     0
 92
       -2
340
0
 93
        0
 40
1.125
309
GRIDFORMAT_END
 95
        2
302
GRIDFORMAT
  1
GRIDFORMAT_BEGIN
 90
        0
 91
        1
 62
     0
 92
       -2
340
0
 93
        0
 40
1.125
309
GRIDFORMAT_END
 95
        4
302
GRIDFORMAT
  1
GRIDFORMAT_BEGIN
 90
        0
 91
        1
 62
     0
 92
       -2
340
0
 93
        0
 40
1.125
309
GRIDFORMAT_END
 95
        8
302
GRIDFORMAT
  1
GRIDFORMAT_BEGIN
 90
        0
 91
        1
 62
     0
 92
       -2
340
0
 93
        0
 40
1.125
309
GRIDFORMAT_END
 95
       16
302
GRIDFORMAT
  1
GRIDFORMAT_BEGIN
 90
        0
 91
        1
 62
     0
 92
       -2
340
0
 93
        0
 40
1.125
309
GRIDFORMAT_END
 95
       32
302
GRIDFORMAT
  1
GRIDFORMAT_BEGIN
 90
        0
 91
        1
 62
     0
 92
       -2
340
0
 93
        0
 40
1.125
309
GRIDFORMAT_END
309
TABLEFORMAT_END
  1
CELLSTYLE_BEGIN
 90
        1
 91
        1
300
_TITLE
309
CELLSTYLE_END
300
CELLSTYLE
  1
TABLEFORMAT_BEGIN
 90
        5
170
     1
 91
        0
 92
        0
 62
   257
 93
        1
300
CONTENTFORMAT
  1
CONTENTFORMAT_BEGIN
 90
        0
 91
        0
 92
      512
 93
        0
300

 40
0.0
140
1.0
 94
        5
 62
     0
340
F
144
4.5
309
CONTENTFORMAT_END
171
     1
301
MARGIN
  1
CELLMARGIN_BEGIN
 40
1.5
 40
1.5
 40
1.5
 40
1.5
 40
4.5
 40
4.5
309
CELLMARGIN_END
 94
        6
 95
        1
302
GRIDFORMAT
  1
GRIDFORMAT_BEGIN
 90
        0
 91
        1
 62
     0
 92
       -2
340
0
 93
        0
 40
1.125
309
GRIDFORMAT_END
 95
        2
302
GRIDFORMAT
  1
GRIDFORMAT_BEGIN
 90
        0
 91
        1
 62
     0
 92
       -2
340
0
 93
        0
 40
1.125
309
GRIDFORMAT_END
 95
        4
302
GRIDFORMAT
  1
GRIDFORMAT_BEGIN
 90
        0
 91
        1
 62
     0
 92
       -2
340
0
 93
        0
 40
1.125
309
GRIDFORMAT_END
 95
        8
302
GRIDFORMAT
  1
GRIDFORMAT_BEGIN
 90
        0
 91
        1
 62
     0
 92
       -2
340
0
 93
        0
 40
1.125
309
GRIDFORMAT_END
 95
       16
302
GRIDFORMAT
  1
GRIDFORMAT_BEGIN
 90
        0
 91
        1
 62
     0
 92
       -2
340
0
 93
        0
 40
1.125
309
GRIDFORMAT_END
 95
       32
302
GRIDFORMAT
  1
GRIDFORMAT_BEGIN
 90
        0
 91
        1
 62
     0
 92
       -2
340
0
 93
        0
 40
1.125
309
GRIDFORMAT_END
309
TABLEFORMAT_END
  1
CELLSTYLE_BEGIN
 90
        2
 91
        1
300
_HEADER
309
CELLSTYLE_END
300
CELLSTYLE
  1
TABLEFORMAT_BEGIN
 90
        5
170
     1
 91
        0
 92
        0
 62
   257
 93
        1
300
CONTENTFORMAT
  1
CONTENTFORMAT_BEGIN
 90
        0
 91
        0
 92
      512
 93
        0
300

 40
0.0
140
1.0
 94
        2
 62
     0
340
F
144
4.5
309
CONTENTFORMAT_END
171
     1
301
MARGIN
  1
CELLMARGIN_BEGIN
 40
1.5
 40
1.5
 40
1.5
 40
1.5
 40
4.5
 40
4.5
309
CELLMARGIN_END
 94
        6
 95
        1
302
GRIDFORMAT
  1
GRIDFORMAT_BEGIN
 90
        0
 91
        1
 62
     0
 92
       -2
340
0
 93
        0
 40
1.125
309
GRIDFORMAT_END
 95
        2
302
GRIDFORMAT
  1
GRIDFORMAT_BEGIN
 90
        0
 91
        1
 62
     0
 92
       -2
340
0
 93
        0
 40
1.125
309
GRIDFORMAT_END
 95
        4
302
GRIDFORMAT
  1
GRIDFORMAT_BEGIN
 90
        0
 91
        1
 62
     0
 92
       -2
340
0
 93
        0
 40
1.125
309
GRIDFORMAT_END
 95
        8
302
GRIDFORMAT
  1
GRIDFORMAT_BEGIN
 90
        0
 91
        1
 62
     0
 92
       -2
340
0
 93
        0
 40
1.125
309
GRIDFORMAT_END
 95
       16
302
GRIDFORMAT
  1
GRIDFORMAT_BEGIN
 90
        0
 91
        1
 62
     0
 92
       -2
340
0
 93
        0
 40
1.125
309
GRIDFORMAT_END
 95
       32
302
GRIDFORMAT
  1
GRIDFORMAT_BEGIN
 90
        0
 91
        1
 62
     0
 92
       -2
340
0
 93
        0
 40
1.125
309
GRIDFORMAT_END
309
TABLEFORMAT_END
  1
CELLSTYLE_BEGIN
 90
        3
 91
        2
300
_DATA
309
CELLSTYLE_END
  0
XRECORD
  5
29A7
102
{ACAD_REACTORS
330
29A1
102
}
330
29A1
100
AcDbXrecord
280
     1
102
ACAD_ROUNDTRIP_PRE2007_TABLESTYLE
 90
      512
 91
        0
  1

 92
      512
 93
        0
  2

 94
      512
 95
        0
  3

  0
ACAD_PROXY_OBJECT
  5
1364
330
1363
100
AcDbProxyObject
 90
      499
 91
      544
 95
   851991
 70
     0
 93
       96
310
57020E80A0280A0280A0280800
 94
        0
  0
ACAD_PROXY_OBJECT
  5
1365
330
1363
100
AcDbProxyObject
 90
      499
 91
      545
 95
   851991
 70
     0
 93
      332
310
5710E405014050140501405014050140501405014250140501405014050140501200000000000000040C
340
BF5
 94
        0
  0
ACAD_PROXY_OBJECT
  5
1366
330
1363
100
AcDbProxyObject
 90
      499
 91
      546
 95
   851991
 70
     0
 93
      402
310
570C199999999999E99F91F405014050140501405014050140501405014050140501405014050140501405014050140501404C
340
0
 94
        0
  0
ACAD_PROXY_OBJECT
  5
1367
330
1363
100
AcDbProxyObject
 90
      499
 91
      547
 95
   851991
 70
     0
 93
       10
310
570C
 94
        0
  0
ACAD_PROXY_OBJECT
  5
1368
330
1363
100
AcDbProxyObject
 90
      499
 91
      548
 95
   851991
 70
     0
 93
      223
310
572290EA22A7D90F49F9353333333333727F44D4CCCCCCCCCDC9FA04
340
BE9
340
BEA
 94
        0
  0
ACAD_PROXY_OBJECT
  5
1369
330
1363
100
AcDbProxyObject
 90
      499
 91
      549
 95
   851991
 70
     0
 93
    12881
310
5710E4112551153501411413D4CB901405014069011349A4F2590CB64FD3347454E545241434F2C4954412C302C504F532E2C47454E54524154582C25732C2847454E4D53472067656E647767203232322940690120281A8AA2CA0281A8AA602028120280A03202269349E4B2196C9FA648E8A9CA8A482869E5892A8825860
310
58A2A980588E8A9CA8A482A8B0584AE658508E8A9C9AA68E40CECADCC8EECE406464665280D202405044E414D45405044E4F4D454051C40640A8BA5C2E97CBE502404CD1D15395149050D3CB1255104B0C0B1393D3514B11D15395149055160B095CCB0A11D1539354D1C819D95B991DD9C80C8C8D8A50190B3D424C4F434B
310
3A4E414D4540480A0A888AA686A480A16888AA686A492B4929E9C8A80A3A80C81D10782C06030180C809D23A2A72A2920A1A79624AA209618162222A9A1A924AD24A7A7229623A2A72A2920AA2C1612B9961423A2A726A9A39033B2B7323BB39019189B94A024809014214D51053911054911014214D510539110549110147
310
501904A383BFDFEFF5FBFCFD3747454E545241434F2C4954412C302C5354414E444152442C47454E54524154582C25732C2847454E4D53472067656E64776720323138294049012028426A0AA22A924A0A620284A6A0AA22A924A0A622A028EA0320B41416D838E9017D9FA708E8A9CA8A482869E5892A8825860589A82A88
310
AA49282988A588E8A9CA8A482A8B0584AE658508E8A9C9AA68E40CECADCC8EECE406464625280D202405044E4F5445405044E4F54414051D40641A8BA5C2E97CBE5F23F4CD1D15395149050D3CB1255104B0C0B1393D5104B11D15395149055160B095CCB0A11D1539354D1C819D95B991DD9C80C8C8D4A501A40480A0CAC8
310
A9C889EA480A128C9EA49C92A89EA48A80A3A80C83D174B85D2F97CBE47E9C23A2A72A2920A1A79624AA209618162327A92724AA27A9229623A2A72A2920AA2C1612B9961423A2A726A9A39033B2B7323BB39019191A14A0348090141911154D0D48C90143511154D0D492569253D391480C90147501908A20F0580C060301
310
9013B47454E545241434F2C4954412C302C4445534352495A494F4E4520322C47454E54524154582C25732C2847454E4D53472067656E6477672033362940490120284A9AA20A72220A922192028529AA20A72220A92210192028EA0321347077FBFDFEBF7F9FA728E8A9CA8A482869E5892A882586058A6A8829C8882A488
310
4064588E8A9CA8A482A8B0584AE658508E8A9C9AA68E40CECADCC8EECE4064646052809202405094D4154455249414C324050B4D4154455249414C4520324051D40642A8282DB071D202FB3F4E51D15395149050D3CB1255104B0C0B135055115492505311480C8B11D15395149055160B095CCB0A11D1539354D1C819D95B
310
991DD9C80D0C0A501240480A089A82A6A680A0A9A82A6A68280A3A80A0485A0681174B85D2F97CBE47E99A3A2A72A2920A1A79624AA2096181626A0A9A9A09623A2A72A2920AA2C1612B9961423A2A726A9A39033B2B7323BB3901A1914A024809014154149250D150141941491569693D01475014090C409022E970BA5F2F
310
97C8FD3447454E545241434F2C4954412C302C5052455A5A4F2C47454E54524154582C25732C2847454E4D53472067656E6477672034332940490120281A224A6A028326A4A9AAA920A028EA028121A81A045D2E174BE5F2F91FA688E8A9CA8A482869E5892A8825860589A92A6AAA482588E8A9CA8A482A8B0584AE658508
310
E8A9C9AA68E40CECADCC8EECE406868528092024050E441022E07A17AD46E338FD1E004062B355AAD56AB7D8FCACD56AB55AADF63F41CF4F125511534F9014062B355AAD56AB7D8FCACD56AB55AADF63F41CF4F125511534F9014062431F8FC5E0F3B8FC90C7E3F1783CEE3F41CF4F125511534F9014062431F8FC5E0F3B8F
310
C90C7E3F1783CEE3F41CF4F125511534F90140A404ACD56AB55AADF63F2B355AAD56AB7D8FD073D3C4954454D3E405063D3C5154593E405018ACD56AB55AADF63F2B355AAD56AB7D8FD073D3C4954454D3E40640400ACD56AB55AADF63F2B355AAD56AB7D8FE8800000000000002081A0881A068120480A032208521122080
310
D21480D211480A1485214852050000000000003C2FC000000000000F0BF4050241C3BDF4F8D976EA23F0EF7D3E365DBA88FCB81E85EB51B8BE3FC80D069014090541D06901A5C0F42F5A8DC5F1FA0483A048098A0280CC
340
0
340
0
 94
        0
  0
ACAD_PROXY_OBJECT
  5
136A
330
1363
100
AcDbProxyObject
 90
      499
 91
      550
 95
   851991
 70
     0
 93
      960
310
5700B81E85EB51B8CE3F4BCF511155105253080F11115510525317D3105091530F971414D0D05311480F11115510525317D05094D4D0D053114F92341C9A9999999999B93F26A666666666724FC000000000000E03F40000000000000040000000000000051000000000000002440478B81E85EB51B8CE3F00
340
BE5
340
BF4
 94
        0
  0
ACAD_PROXY_OBJECT
  5
136B
330
1363
100
AcDbProxyObject
 90
      499
 91
      551
 95
   851991
 70
     0
 93
      745
310
570031703D0BD6A3719C7E999EA9A2A1AA24A7A7101E29A2A1AA24A7A72FA620A122A62FA324A929AA1F169E29A2A1AA24A7A72FA620A122A62FA620A9AA1F1353333333333B27EFF41C8823C4D4CCCCCCCCCEC9FC5C0F42F5A8DC671FCC
340
BE5
340
BF4
 94
        0
  0
ACAD_PROXY_OBJECT
  5
136C
330
1363
100
AcDbProxyObject
 90
      499
 91
      552
 95
   851991
 70
     0
 93
      279
310
5702B8716D9CEF7C33F0A5723F0BD4A2F0FC295C8FC2F528BC3FA199999999999F99FC
 94
        0
  0
ACAD_PROXY_OBJECT
  5
136D
330
1363
100
AcDbProxyObject
 90
      499
 91
      553
 95
   851991
 70
     0
 93
     5890
310
571084050B90142A40502405094D6F64656C6C6F2031405EA3D3C696628657175616C28486F6C653A7461707065642C223022292C222525632220486F6C653A6469612C20486F6C653A6E6F6D696E616C2022202220696628657175616C28486F6C653A756E6974732C223122292C2278222C222D22292022202220486F6C6
310
53A706974636864657363293E207B5C46414D4744543B787D203C696628657175616C28486F6C653A7465726D696E6174696F6E2C223022292C486F6C653A64657074682C225448525522293E5C507B5C46414D4744543B767D2525633C486F6C653A63746469613E207B5C46414D4744543B787D203C486F6C653A6374646
310
57074683E40640503405094D6F64656C6C6F2031405E33D3C696628657175616C28486F6C653A7461707065642C223022292C222525632220486F6C653A6469612C20486F6C653A6E6F6D696E616C2022202220696628657175616C28486F6C653A756E6974732C223122292C2278222C222D22292022202220486F6C653A7
310
06974636864657363293E207B5C46414D4744543B787D203C696628657175616C28486F6C653A7465726D696E6174696F6E2C223022292C486F6C653A64657074682C225448525522293E5C507B5C46414D4744543B777D2525633C486F6C653A63746469613E2058203C486F6C653A6374616E676C653E252564406405014
310
05094D6F64656C6C6F2031405B43D3C696628657175616C28486F6C653A7461707065642C223022292C222525632220486F6C653A6469612C20486F6C653A6E6F6D696E616C2022202220696628657175616C28486F6C653A756E6974732C223122292C2278222C222D22292022202220486F6C653A7069746368646573632
310
93E5C507B5C46414D4744543B787D203C696628657175616C28486F6C653A7465726D696E6174696F6E2C223022292C486F6C653A64657074682C225448525522293E4064051E405094D6F64656C6C6F20314050C3D3C535444503A444553433E40640515A8C
 94
        0
  0
ACAD_PROXY_OBJECT
  5
136E
330
1363
100
AcDbProxyObject
 90
      499
 91
      538
 95
   851991
 70
     0
 93
       20
310
57101C
340
0
 94
        0
  0
ACAD_PROXY_OBJECT
  5
136F
330
1363
100
AcDbProxyObject
 90
      499
 91
      539
 95
   851991
 70
     0
 93
      258
310
57102000000000000380FC000000000000E03F408F0F9023C3E40DB18CCCFFFF8C
340
BF7
340
0
340
0
340
BF8
340
BF9
340
0
340
BFA
340
BFB
340
BFC
340
0
 94
        0
  0
ACAD_PROXY_OBJECT
  5
1370
330
1363
100
AcDbProxyObject
 90
      499
 91
      554
 95
   851991
 70
     0
 93
    13409
310
5711A023FFFFFFFD010300002E07A17AD46E2F8FC09010300002E07A17AD46E2F8FC080511454C454E434F20434F4F5244494E415445015011D15395149050D3CB1255104B0C0B1153115390D3C810D3D3D49112539055114B11D15395149055160B095CCB0A11D1539354D1C819D95B991A5B5E880CCC0A78000C00000000
310
0000000000000000000000007B14AE47E17AA43F2E07A17AD46E2F8FD021EC52B91F85EA90FCB81E85EB51B8BE3F40A014315105091531310481193D4924053B47454E545241434F2C4954412C302C544142454C4C4120464F52492C47454E54524154582C25732C2847454E4D53472067656E64696D7A20333129E0003000
310
000000000000000000000000000001EC52B91F85EA90FCB81E85EB51B8BE3F4087B14AE47E17AA43F2E07A17AD46E2F8FD0290B4410F4450240D04415014391244D05449074510C4350F000141D3D49251D253914053547454E545241434F2C4954412C302C4F524947494E452C47454E54524154582C25732C2847454E4D5
310
3472067656E64696D7A20312900010105002214000283A7A924A3A4A72280A6A8E8A9CA8A482869E5892A8825860589EA4928E929C8A588E8A9CA8A482A8B0584AE658508E8A9C9AA68E40CECADCC8D2DAF4406252000202080043E8000504464F524F014C91D15395149050D3CB1255104B0C0B1193D493CB11D153951490
310
55160B095CCB0A11D1539354D1C819D95B991A5B5E880C8A405163D3C486F6C654974656D3E3C486F6C65496E6465783E010104002234000280AC00A5E8E8A9CA8A482869E5892A882586058B0588E8A9CA8A482A8B0584AE658508E8A9C9AA68E40CECADCC8D2DAF4406652000202000040A800050159014BD1D153951490
310
50D3CB1255104B0C0B164B11D15395149055160B095CCB0A11D1539354D1C819D95B991A5B5E880D0A4000404000081D0000A02A40297A3A2A72A2920A1A79624AA20961816291623A2A72A2920AA2C1612B9961423A2A726A9A39033B2B73234B6BD101B148000808000104A000141954ACC0D0D0D0053447454E54524143
310
4F2C4954412C302C552B303434342C47454E54524154582C25732C2847454E4D53472067656E64696D7A203729000101030020B40002822827A99700A668E8A9CA8A482869E5892A882586058A09EA65C588E8A9CA8A482A8B0584AE658508E8A9C9AA68E40CECADCC8D2DAF4406268520002020A004068000506494E44494
310
345014D51D15395149050D3CB1255104B0C0B1253911250D14B11D15395149055160B095CCB0A11D1539354D1C819D95B991A5B5E880C4D4A400040414008750000A088C9EA49E0299A3A2A72A2920A1A79624AA209618162327A9279623A2A72A2920AA2C1612B9961423A2A726A9A39033B2B73234B6BD10189B14800080
310
8200112A000142D253911250D1481193D493C053A47454E545241434F2C4954412C302C494E4449434520464F524F2C47454E54524154582C25732C2847454E4D53472067656E64696D7A20313729000101050022740002819292A180A628E8A9CA8A482869E5892A8825860584A4A86588E8A9CA8A482A8B0584AE658508E
310
8A9C9AA68E40CECADCC8D2DAF4407052000202020041E80005035154C0014C91D15395149050D3CB1255104B0C0B1455300B11D15395149055160B095CCB0A11D1539354D1C819D95B991A5B5E880C4E4A400040418008A50000A16888AA686A492B4929E9C8A029D23A2A72A2920A1A79624AA209618162222A9A1A924AD2
310
4A7A7229623A2A72A2920AA2C1612B9961423A2A726A9A39033B2B73234B6BD10191814800080020010CA00014214D51053911054910053747454E545241434F2C4954412C302C5354414E444152442C47454E54524154582C25732C2847454E4D53472067656E64696D7A20323129000100040021B4878030026A66666666
310
67A4FE064D4CCCCCCCCCF49FC049A9999999999E93F809353333333333D27F0226A6666666667A4FE044D4CCCCCCCCCF49FC009A9999999999D93F801353333333333D27F0026A6666666667A4FE004D4CCCCCCCCCF49FC0D819703D0BD6A371BC7F03000000000000001020633B333333333032050F006004D4CCCCCCCCCF
310
49FC0C9A9999999999E93F819353333333333D27F0326A6666666667A4FE064D4CCCCCCCCCF49FC0C9A9999999999E93F801353333333333B27F0026A6666666667A4FE064D4CCCCCCCCCF49FC009A9999999999E93F81B032E07A17AD46E378FE06000000000000002040C6766666666660640A088800000021E000000890
310
000002260000008220E00020089000000206000200810000804C
340
0
340
0
340
0
340
0
 94
        0
  0
ACAD_PROXY_OBJECT
  5
1371
330
1363
100
AcDbProxyObject
 90
      499
 91
      541
 95
   851991
 70
     0
 93
     5766
310
5719741105394D2506414E53495F4342905394D257D512551554D15414E53495F54525F5265766973696F6E6C697374614191243202831372E307832322E30706F6C6C2E2941905394D257D0D1246202832382E307834302E30706F6C6C2E2941905394D257D1911412028382E357831312E30706F6C6C2E2941905394D257
310
D051242202831312E307831372E30706F6C6C2E2941905394D257D091244202832322E307833342E30706F6C6C2E2941905394D257D111245202833342E307834342E30706F6C6C2E2941905394D257D150544505394D24810D85C9D1A59DB1A5BC81050D0C414E53495F5449544C4541434310D85C9D1A59DB1A5BC81554D
310
0A414E53495F544954555344105394D24810D85C9D1A59DB1A5BC81050B414E53495F5449544C454144105394D24810D85C9D1A59DB1A5BC81110B414E53495F5449544C454444505394D24810D85C9D1A59DB1A5BC81110D0C414E53495F5449544C45444342116456C656E636F207265766973696F6E6920445F54525F45
310
505394D257D51497D4995D9A5CDA5BDB9B1A5CDD19116456C656E636F207265766973696F6E6920415F424C5F45505394D257D09317D4995D9A5CDA5BDB9B1A5CDD18516456C656E636F207265766973696F6E6920415F544C5F45505394D257D51317D4995D9A5CDA5BDB9B1A5CDD18516456C656E636F207265766973696
310
F6E6920445F424C5F45505394D257D09317D4995D9A5CDA5BDB9B1A5CDD19116456C656E636F207265766973696F6E6920445F544C5F45505394D257D51317D4995D9A5CDA5BDB9B1A5CDD19116456C656E636F207265766973696F6E6920415F42525F45505394D257D09497D4995D9A5CDA5BDB9B1A5CDD18516456C656E
310
636F207265766973696F6E6920415F54525F45505394D257D51497D4995D9A5CDA5BDB9B1A5CDD18516456C656E636F207265766973696F6E6920445F42525F45505394D257D09497D4995D9A5CDA5BDB9B1A5CDD190
 94
        0
  0
ACAD_PROXY_OBJECT
  5
A57
330
A4B
100
AcDbProxyObject
 90
      499
 91
      527
 95
   851991
 70
     0
 93
       12
310
571C
 94
        0
  0
ACAD_PROXY_OBJECT
  5
A58
330
A4B
100
AcDbProxyObject
 90
      499
 91
      528
 95
   851991
 70
     0
 93
       96
310
572A0E80A0280A0280A0280F00
 94
        0
  0
ACAD_PROXY_OBJECT
  5
A59
330
A4B
100
AcDbProxyObject
 90
      499
 91
      529
 95
   851991
 70
     0
 93
      272
310
5710E4050140501405014050140501405014050140D01405012C00000000000000406C
340
A62
 94
        0
  0
ACAD_PROXY_OBJECT
  5
A5A
330
A4B
100
AcDbProxyObject
 90
      499
 91
      530
 95
   851991
 70
     0
 93
      496
310
5728666666666667A67E199999999999E99FD22405014050140501405014050140501405014050140501405014050140501405014050140501405014050140
340
A63
 94
        0
  0
ACAD_PROXY_OBJECT
  5
A5B
330
A4B
100
AcDbProxyObject
 90
      499
 91
      531
 95
   851991
 70
     0
 93
       10
310
570C
 94
        0
  0
ACAD_PROXY_OBJECT
  5
A5C
330
A4B
100
AcDbProxyObject
 90
      499
 91
      532
 95
   851991
 70
     0
 93
      223
310
572290EA22A7D90F49F8000000000000108140000000000000420204
340
A64
340
A65
 94
        0
  0
ACAD_PROXY_OBJECT
  5
A5D
330
A4B
100
AcDbProxyObject
 90
      499
 91
      533
 95
   851991
 70
     0
 93
    12879
310
5710E411255115350141141BDCCB90140501406901000000000000091013347454E545241434F2C4954412C302C506F732E2C47454E54524154582C25732C2847454E4D53472067656E647767203232322940690120281A8AA2CA0281A8BA702028120280A0320200000000000012202648E8A9CA8A482869E5892A8825860
310
58A2E9C0588E8A9CA8A482A8B0584AE658508E8A9C9AA68E40CECADCC8EECE406464665280D202405044E414D45405044E6F6D654051C40640A80000000000004E404CD1D15395149050D3CB1255104B0C0B139BDB594B11D15395149055160B095CCB0A11D1539354D1C819D95B991DD9C80C8C8D8A50190B3D424C4F434B
310
3A4E414D4540480A0A888AA686A480A1688CAE6C6E4D2F4D2DEDCCA80A3A80C81D0000000000100A2809D23A2A72A2920A1A79624AA209618162232B9B1B934BD34B7B7329623A2A72A2920AA2C1612B9961423A2A726A9A39033B2B7323BB39019189B94A034809014214D51053911054911014214DD185B99185C9910147
310
501904A000000000000125013747454E545241434F2C4954412C302C5374616E646172642C47454E54524154582C25732C2847454E4D53472067656E64776720323138294069012028426A0AA22A924A0A620284A6B0BA32B934B0B632A028EA0320B40000000000001CA02708E8A9CA8A482869E5892A8825860589AC2E8C
310
AE4D2C2D8CA588E8A9CA8A482A8B0584AE658508E8A9C9AA68E40CECADCC8EECE406464625280D202405044E4F5445405044E6F74614051D40641A80000000000003E404CD1D15395149050D3CB1255104B0C0B139BDD184B11D15395149055160B095CCB0A11D1539354D1C819D95B991DD9C80C8C8D4A501240480A0CAC8
310
A9C889EA480A128CDEE4DCD2E8DEE4CA80A3A80C83D00000000000007C809C23A2A72A2920A1A79624AA209618162337B93734BA37B9329623A2A72A2920AA2C1612B9961423A2A726A9A39033B2B7323BB39019191A14A0248090141911154D0D48C9014351195CD8DC9A5E9A5BDB99480C90147501908A00000000002014
310
5013B47454E545241434F2C4954412C302C4465736372697A696F6E6520322C47454E54524154582C25732C2847454E4D53472067656E6477672033362940490120284A9AA20A72220A922192028529BA30B73230B93210192028EA03213400000000000024A02728E8A9CA8A482869E5892A882586058A6E8C2DCC8C2E4C8
310
4064588E8A9CA8A482A8B0584AE658508E8A9C9AA68E40CECADCC8EECE4064646052809202405094D4154455249414C324050B4D6174657269616C6520324051D40642A8713D0AD7A37045404E51D15395149050D3CB1255104B0C0B13585D195C9A585B19480C8B11D15395149055160B095CCB0A11D1539354D1C819D95B
310
991DD9C80D0C0A501240480A089A82A6A680A0A9AC2E6E6C280A3A80A0485A068100000000000007C8099A3A2A72A2920A1A79624AA2096181626B0B9B9B09623A2A72A2920AA2C1612B9961423A2A726A9A39033B2B7323BB3901A1914A024809014154149250D150141941C995E9E9BD01475014090C4090200000000000
310
00F9013447454E545241434F2C4954412C302C5072657A7A6F2C47454E54524154582C25732C2847454E4D53472067656E6477672034332940490120281A224A6A028326B4B9BAB930A028EA028121A81A040000000000001F202688E8A9CA8A482869E5892A8825860589AD2E6EAE4C2588E8A9CA8A482A8B0584AE658508
310
E8A9C9AA68E40CECADCC8EECE406868528092024050E445020000000000000510107004060000000000000F9000000000000003E4041CF4F125511534F9014060000000000000F9000000000000003E4041CF4F125511534F9014060000000000000D100000000000000344041CF4F125511534F9014060000000000000D10
310
0000000000000344041CF4F125511534F90140A4040000000000003E400000000000000F901073D3C4954454D3E405063D3C5154593E4050180000000000003E400000000000000F901073D3C4954454D3E406404000000000000003E400000000000000F902888000000000000208081A0881A068120480A0322085211220
310
80D21480D211480A1485214852050000000000003C2FC000000000000F0BF4050241CCDCCCCCCCCCCEC3F3373333333333B0FC0000000000000C40480D0590140D04416406800000000000018808120480A026280A02
340
0
340
0
 94
        0
  0
ACAD_PROXY_OBJECT
  5
A5E
330
A4B
100
AcDbProxyObject
 90
      499
 91
      534
 95
   851991
 70
     0
 93
      864
310
5704000000000000144048CF4F11115510525317D3105091530F880A0F11115510525317D05094D4D0D053114F8A51141C9A9999999999B93F26A666666666724FC000000000000E03F4000000000000004000000000000005100000000000000244041C000000000000144000
340
14
340
A56
 94
        0
  0
ACAD_PROXY_OBJECT
  5
A5F
330
A4B
100
AcDbProxyObject
 90
      499
 91
      535
 95
   851991
 70
     0
 93
      745
310
5700B00000000000002880959E9E29A2A1AA24A7A72FA620A122A62FA324A929AA1F169E29A2A1AA24A7A72FA620A122A62FA620A9AA1F00000000000004880FF41C88A0E0000000000001220000000000000028800000000000000A204C
340
97
340
A56
 94
        0
  0
ACAD_PROXY_OBJECT
  5
A60
330
A4B
100
AcDbProxyObject
 90
      499
 91
      536
 95
   851991
 70
     0
 93
      151
310
57280000000000000840A3D0A5723F0BD1F200
 94
        0
  0
ACAD_PROXY_OBJECT
  5
A61
330
A4B
100
AcDbProxyObject
 90
      499
 91
      537
 95
   851991
 70
     0
 93
     5762
310
571084050B90142A40502405094D6F64656C6C6F2031405DC3D2525633C486F6C653A63746469613E2078203C486F6C653A637464657074683E20555C503C696628657175616C28486F6C653A7461707065642C223022292C222525632220486F6C653A6469612C20486F6C653A6E6F6D696E616C20222078202220486F6C6
310
53A70697463686465736320696628657175616C28486F6C653A7461707065642C223122292C222078202220486F6C653A74617064657074682C222229293E203C696628657175616C28486F6C653A7465726D696E6174696F6E2C223022292C22202F202220486F6C653A64657074682C222022293E40640503405094D6F64
310
656C6C6F2031405DD3D2525633C486F6C653A63746469613E2078203C486F6C653A6374616E676C653E2525645C503C696628657175616C28486F6C653A7461707065642C223022292C222525632220486F6C653A6469612C20486F6C653A6E6F6D696E616C20222078202220486F6C653A706974636864657363206966286
310
57175616C28486F6C653A7461707065642C223122292C222078202220486F6C653A74617064657074682C222229293E203C696628657175616C28486F6C653A7465726D696E6174696F6E2C223022292C22202F202220486F6C653A64657074682C222022293E40640501405094D6F64656C6C6F2031405B83D3C696628657
310
175616C28486F6C653A7461707065642C223022292C222525632220486F6C653A6469612C20486F6C653A6E6F6D696E616C20222078202220486F6C653A70697463686465736320696628657175616C28486F6C653A7461707065642C223122292C222078202220486F6C653A74617064657074682C222229293E203C69662
310
8657175616C28486F6C653A7465726D696E6174696F6E2C223022292C22202F202220486F6C653A64657074682C222022293E4064051E405094D6F64656C6C6F20314050C3D3C535444503A444553433E40640515A8C
 94
        0
  0
ACAD_PROXY_OBJECT
  5
A67
330
A4B
100
AcDbProxyObject
 90
      499
 91
      538
 95
   851991
 70
     0
 93
       20
310
57101C
340
A4C
 94
        0
  0
ACAD_PROXY_OBJECT
  5
A68
330
A4B
100
AcDbProxyObject
 90
      499
 91
      539
 95
   851991
 70
     0
 93
      250
310
571020000000000000A1000000000000002440408F0F9023C3E409A0DCFFFF8C
340
A69
340
0
340
0
340
A6A
340
A6B
340
A6C
340
A6D
340
A6E
340
A73
340
0
 94
        0
  0
ACAD_PROXY_OBJECT
  5
A74
330
A4B
100
AcDbProxyObject
 90
      499
 91
      540
 95
   851991
 70
     0
 93
    13755
310
5711A003FFFFFFFD0303000300000000000003100090303000300000000000003100080511456C656E636F20636F6F7264696E617465015011D15395149050D3CB1255104B0C0B115B195B98DBC818DBDBDC991A5B985D194B11D15395149055160B095CCB0A11D1539354D1C819D95B991A5B5E880CCC0A78000C00000000
310
000000000000000000000001000000000000031010240000000000000C4040A0143151858995B1B1848199BDC9A4053B47454E545241434F2C4954412C302C546162656C6C6120666F72692C47454E54524154582C25732C2847454E4D53472067656E64696D7A20333129E000300000000000000000000000000000000400
310
00000000000C40409000000000000031010290D44111409034110541D0C4350F4050E44D03449074510F000141D3DC9A59DA5B994053547454E545241434F2C4954412C302C4F726967696E652C47454E54524154582C25732C2847454E4D53472067656E64696D7A203129000101050022140002822337B93780A648E8A9C
310
A8A482869E5892A8825860588CDEE4DE588E8A9CA8A482A8B0584AE658508E8A9C9AA68E40CECADCC8D2DAF4406452029F9E9E27B934B3B4B71F1E24A31427A91424A9A12620A7259427B934B3B4B7149624A9A12620A7259424B73232BC149496111116111711149F1E24B73232BC1F00808200111A000140560052F47454
310
E545241434F2C4954412C302C582C47454E54524154582C25732C2847454E4D53472067656E64696D7A20332900010100002054000280AC80A5E8E8A9CA8A482869E5892A882586058B2588E8A9CA8A482A8B0584AE658508E8A9C9AA68E40CECADCC8D2DAF4406852000202000040E800050172014BD1D15395149050D3CB
310
1255104B0C0B1C8B11D15395149055160B095CCB0A11D1539354D1C819D95B991A5B5E880D8A400040400008250000A0CAA5660686868029A23A2A72A2920A1A79624AA209618162A95981A1A1A1623A2A72A2920AA2C1612B9961423A2A726A9A39033B2B73234B6BD101B948000808180105A000140C94958C053147454E
310
545241434F2C4954412C302C2525632C47454E54524154582C25732C2847454E4D53472067656E64696D7A203829000101010020F4000285A232B9B1B934BD34B7B73280A748E8A9CA8A482869E5892A88258605888CAE6C6E4D2F4D2DEDCCA588E8A9CA8A482A8B0584AE658508E8A9C9AA68E40CECADCC8D2DAF44064605
310
2000200080043280005085374616E64617264014DD1D15395149050D3CB1255104B0C0B14DD185B99185C990B11D15395149055160B095CCB0A11D1539354D1C819D95B991A5B5E880C8C4A4000400100086D0000A0E9EE4D2CED2DCCA029AA3A2A72A2920A1A79624AA2096181627B934B3B4B7329623A2A72A2920AA2C16
310
12B9961423A2A726A9A39033B2B73234B6BD10189480A026202020A0043E8000504506F732E014CD1D15395149050D3CB1255104B0C0B141BDCCB8B11D15395149055160B095CCB0A11D1539354D1C819D95B991A5B5E880C4D0A4000404140080D0000A0C92DCC8D2C6CA029AA3A2A72A2920A1A79624AA2096181624B732
310
34B1B29623A2A72A2920AA2C1612B9961423A2A726A9A39033B2B73234B6BD10189A94800080828010EA000142D25B991A58D948199BDC9BC053A47454E545241434F2C4954412C302C496E6469636520666F726F2C47454E54524154582C25732C2847454E4D53472067656E64696D7A20313729000101050022740002822
310
337B93780A668E8A9CA8A482869E5892A8825860588CDEE4DE588E8A9CA8A482A8B0584AE658508E8A9C9AA68E40CECADCC8D2DAF440626C52000202080044A80005035174E0014C91D15395149050D3CB1255104B0C0B145D380B11D15395149055160B095CCB0A11D1539354D1C819D95B991A5B5E880C4E4A4000404180
310
08A521E000000000000001CA040C00000000000034408080000000000006881010000000000000D102040000000000001A204080000000000003440818000000000000728103000000000000125020600000000004028A040000000000000034408000000000000004881000000000000000D102000000000000001A204000
310
000000000003440818000000000000508143C0000000000000039408180000000000006881030000000000000D102060000000000001A2040C00000000000034408180000000000006881030000000000000E5020600000000000024A040C00000000008051408000000000000006881000000000000000910200000000000
310
0001A2040000000000000034408180000000000006881030000000000000A10283A2000000087800000204000000818000002080000008280000020E00000080A24000000C
340
0
340
0
340
0
340
0
 94
        0
  0
ACAD_PROXY_OBJECT
  5
A75
330
A4B
100
AcDbProxyObject
 90
      499
 91
      541
 95
   851991
 70
     0
 93
     7258
310
5719740D254D3D0649534F5F4133429254D3D7D5125513115051349534F5F42525F5265766973696F6E6C69737446111413478342028323937783834316D6D2920421254D3D7D04D1E0D11141327835202835393478323130326D6D29421254D3D7D04C9E0D51141347839202832393778313839326D6D29421254D3D7D04D
310
1E0E51141337837202834323078323038306D6D29421254D3D7D04CDE0DD1141347838202832393778313638326D6D29421254D3D7D04D1E0E11141327834202835393478313638326D6D29421254D3D7D04C9E0D10E41312028353934783834316D6D29419254D3D7D04C51141347837202832393778313437316D6D29421
310
254D3D7D04D1E0DD1141347836202832393778313236316D6D29421254D3D7D04D1E0D91141347835202832393778313035316D6D29421254D3D7D04D1E0D5104130202838343078313138396D6D2920419254D3D7D04C10E41332028323937783432306D6D29419254D3D7D04CD1141327833202835393478313236316D6D
310
29421254D3D7D04C9E0CD10413478332028323937783633306D6D29421254D3D7D04D1E0CD1141337834202834323078313138396D6D29421254D3D7D04CDE0D11141337836202834323078313738336D6D29421254D3D7D04CDE0D91141337835202834323078313438366D6D29421254D3D7D04CDE0D50E4132202834323
310
0783539346D6D29419254D3D7D04C910413378332028343230783839316D6D29421254D3D7D04CDE0CD0E41342028323937783231306D6D29419254D3D7D04D1124130783220283131383978313638326D6D29421254D3D7D04C1E0C9124130783320283131383978323532336D6D29421254D3D7D04C1E0CD114131783420
310
2838343178323337386D6D29421254D3D7D04C5E0D11141317833202838343178313738336D6D29421254D3D7D04C5E0CD0243D254D3C810D85C9D1A59DB1A5BC81050A49534F5F5449544C454143D254D3C810D85C9D1A59DB1A5BC81090A49534F5F5449544C454241114456C656E636F207265766973696F6E695F54525
310
F44D254D3D7D51497D4995D9A5CDA5BDB9B1A5CDD114456C656E636F207265766973696F6E695F424C5F44D254D3D7D09317D4995D9A5CDA5BDB9B1A5CDD114456C656E636F207265766973696F6E695F544C5F44D254D3D7D51317D4995D9A5CDA5BDB9B1A5CDD114456C656E636F207265766973696F6E695F42525F44D2
310
54D3D7D09497D4995D9A5CDA5BDB9B1A5CDD0C
 94
        0
  0
ENDSEC
  0
EOF
