  0
SECTION
  2
HEADER
  9
$ACADVER
  1
AC1018
  9
$ACADMAINTVER
 70
   104
  9
$DWGCODEPAGE
  3
ANSI_1252
  9
$LASTSAVEDBY
  1
Achim
  9
$CUSTOMPROPERTYTAG
  1
AmdtFileType
  9
$CUSTOMPROPERTY
  1
84
  9
$INSBASE
 10
0.0
 20
0.0
 30
0.0
  9
$EXTMIN
 10
-1687.003425099606
 20
-468.690639344525
 30
0.0
  9
$EXTMAX
 10
-9.19012796456127
 20
264.5565932735458
 30
0.0
  9
$LIMMIN
 10
0.0
 20
0.0
  9
$LIMMAX
 10
420.0
 20
297.0
  9
$ORTHOMODE
 70
     1
  9
$REGENMODE
 70
     1
  9
$FILLMODE
 70
     1
  9
$QTEXTMODE
 70
     0
  9
$MIRRTEXT
 70
     1
  9
$LTSCALE
 40
20.0
  9
$ATTMODE
 70
     1
  9
$TEXTSIZE
 40
2.5
  9
$TRACEWID
 40
1.0
  9
$TEXTSTYLE
  7
STANDARD
  9
$CLAYER
  8
ASSI
  9
$CELTYPE
  6
BYLAYER
  9
$CECOLOR
 62
   256
  9
$CELTSCALE
 40
1.0
  9
$DISPSILH
 70
     0
  9
$DIMSCALE
 40
1.0
  9
$DIMASZ
 40
2.5
  9
$DIMEXO
 40
0.625
  9
$DIMDLI
 40
3.75
  9
$DIMRND
 40
0.0
  9
$DIMDLE
 40
0.0
  9
$DIMEXE
 40
1.25
  9
$DIMTP
 40
0.0
  9
$DIMTM
 40
0.0
  9
$DIMTXT
 40
2.5
  9
$DIMCEN
 40
2.5
  9
$DIMTSZ
 40
0.0
  9
$DIMTOL
 70
     0
  9
$DIMLIM
 70
     0
  9
$DIMTIH
 70
     0
  9
$DIMTOH
 70
     0
  9
$DIMSE1
 70
     0
  9
$DIMSE2
 70
     0
  9
$DIMTAD
 70
     1
  9
$DIMZIN
 70
     8
  9
$DIMBLK
  1

  9
$DIMASO
 70
     1
  9
$DIMSHO
 70
     1
  9
$DIMPOST
  1

  9
$DIMAPOST
  1

  9
$DIMALT
 70
     0
  9
$DIMALTD
 70
     4
  9
$DIMALTF
 40
0.0394
  9
$DIMLFAC
 40
1.0
  9
$DIMTOFL
 70
     1
  9
$DIMTVP
 40
0.0
  9
$DIMTIX
 70
     0
  9
$DIMSOXD
 70
     0
  9
$DIMSAH
 70
     0
  9
$DIMBLK1
  1

  9
$DIMBLK2
  1

  9
$DIMSTYLE
  2
STANDARD
  9
$DIMCLRD
 70
     0
  9
$DIMCLRE
 70
     0
  9
$DIMCLRT
 70
     0
  9
$DIMTFAC
 40
1.0
  9
$DIMGAP
 40
0.625
  9
$DIMJUST
 70
     0
  9
$DIMSD1
 70
     0
  9
$DIMSD2
 70
     0
  9
$DIMTOLJ
 70
     1
  9
$DIMTZIN
 70
     0
  9
$DIMALTZ
 70
     0
  9
$DIMALTTZ
 70
     0
  9
$DIMUPT
 70
     0
  9
$DIMDEC
 70
     4
  9
$DIMTDEC
 70
     4
  9
$DIMALTU
 70
     8
  9
$DIMALTTD
 70
     4
  9
$DIMTXSTY
  7
STANDARD
  9
$DIMAUNIT
 70
     0
  9
$DIMADEC
 70
     0
  9
$DIMALTRND
 40
0.0
  9
$DIMAZIN
 70
     0
  9
$DIMDSEP
 70
    46
  9
$DIMATFIT
 70
     3
  9
$DIMFRAC
 70
     0
  9
$DIMLDRBLK
  1

  9
$DIMLUNIT
 70
     6
  9
$DIMLWD
 70
    -2
  9
$DIMLWE
 70
    -2
  9
$DIMTMOVE
 70
     0
  9
$LUNITS
 70
     2
  9
$LUPREC
 70
     4
  9
$SKETCHINC
 40
1.0
  9
$FILLETRAD
 40
10.0
  9
$AUNITS
 70
     0
  9
$AUPREC
 70
     0
  9
$MENU
  1
.
  9
$ELEVATION
 40
0.0
  9
$PELEVATION
 40
0.0
  9
$THICKNESS
 40
0.0
  9
$LIMCHECK
 70
     0
  9
$CHAMFERA
 40
5.0
  9
$CHAMFERB
 40
5.0
  9
$CHAMFERC
 40
20.0
  9
$CHAMFERD
 40
0.0
  9
$SKPOLY
 70
     0
  9
$TDCREATE
 40
2451849.758561400
  9
$TDUCREATE
 40
2451849.675228067
  9
$TDUPDATE
 40
2455405.391153530
  9
$TDUUPDATE
 40
2455405.307820197
  9
$TDINDWG
 40
0.0975328009
  9
$TDUSRTIMER
 40
0.0975328009
  9
$USRTIMER
 70
     1
  9
$ANGBASE
 50
0.0
  9
$ANGDIR
 70
     0
  9
$PDMODE
 70
     0
  9
$PDSIZE
 40
0.0
  9
$PLINEWID
 40
0.0
  9
$SPLFRAME
 70
     0
  9
$SPLINETYPE
 70
     6
  9
$SPLINESEGS
 70
     8
  9
$HANDSEED
  5
229B
  9
$SURFTAB1
 70
     6
  9
$SURFTAB2
 70
     6
  9
$SURFTYPE
 70
     6
  9
$SURFU
 70
     6
  9
$SURFV
 70
     6
  9
$UCSBASE
  2

  9
$UCSNAME
  2

  9
$UCSORG
 10
0.0
 20
0.0
 30
0.0
  9
$UCSXDIR
 10
1.0
 20
0.0
 30
0.0
  9
$UCSYDIR
 10
0.0
 20
1.0
 30
0.0
  9
$UCSORTHOREF
  2

  9
$UCSORTHOVIEW
 70
     0
  9
$UCSORGTOP
 10
0.0
 20
0.0
 30
0.0
  9
$UCSORGBOTTOM
 10
0.0
 20
0.0
 30
0.0
  9
$UCSORGLEFT
 10
0.0
 20
0.0
 30
0.0
  9
$UCSORGRIGHT
 10
0.0
 20
0.0
 30
0.0
  9
$UCSORGFRONT
 10
0.0
 20
0.0
 30
0.0
  9
$UCSORGBACK
 10
0.0
 20
0.0
 30
0.0
  9
$PUCSBASE
  2

  9
$PUCSNAME
  2

  9
$PUCSORG
 10
0.0
 20
0.0
 30
0.0
  9
$PUCSXDIR
 10
1.0
 20
0.0
 30
0.0
  9
$PUCSYDIR
 10
0.0
 20
1.0
 30
0.0
  9
$PUCSORTHOREF
  2

  9
$PUCSORTHOVIEW
 70
     0
  9
$PUCSORGTOP
 10
0.0
 20
0.0
 30
0.0
  9
$PUCSORGBOTTOM
 10
0.0
 20
0.0
 30
0.0
  9
$PUCSORGLEFT
 10
0.0
 20
0.0
 30
0.0
  9
$PUCSORGRIGHT
 10
0.0
 20
0.0
 30
0.0
  9
$PUCSORGFRONT
 10
0.0
 20
0.0
 30
0.0
  9
$PUCSORGBACK
 10
0.0
 20
0.0
 30
0.0
  9
$USERI1
 70
     0
  9
$USERI2
 70
     0
  9
$USERI3
 70
     0
  9
$USERI4
 70
     0
  9
$USERI5
 70
     0
  9
$USERR1
 40
0.0
  9
$USERR2
 40
0.0
  9
$USERR3
 40
0.0
  9
$USERR4
 40
0.0
  9
$USERR5
 40
0.0
  9
$WORLDVIEW
 70
     1
  9
$SHADEDGE
 70
     3
  9
$SHADEDIF
 70
    70
  9
$TILEMODE
 70
     1
  9
$MAXACTVP
 70
    48
  9
$PINSBASE
 10
0.0
 20
0.0
 30
0.0
  9
$PLIMCHECK
 70
     0
  9
$PEXTMIN
 10
1.000000000000000E+20
 20
1.000000000000000E+20
 30
1.000000000000000E+20
  9
$PEXTMAX
 10
-1.000000000000000E+20
 20
-1.000000000000000E+20
 30
-1.000000000000000E+20
  9
$PLIMMIN
 10
0.0
 20
0.0
  9
$PLIMMAX
 10
420.0
 20
297.0
  9
$UNITMODE
 70
     0
  9
$VISRETAIN
 70
     1
  9
$PLINEGEN
 70
     0
  9
$PSLTSCALE
 70
     1
  9
$TREEDEPTH
 70
  3020
  9
$CMLSTYLE
  2
STANDARD
  9
$CMLJUST
 70
     0
  9
$CMLSCALE
 40
20.0
  9
$PROXYGRAPHICS
 70
     1
  9
$MEASUREMENT
 70
     1
  9
$CELWEIGHT
370
    -1
  9
$ENDCAPS
280
     0
  9
$JOINSTYLE
280
     0
  9
$LWDISPLAY
290
     0
  9
$INSUNITS
 70
     0
  9
$HYPERLINKBASE
  1

  9
$STYLESHEET
  1

  9
$XEDIT
290
     1
  9
$CEPSNTYPE
380
     0
  9
$PSTYLEMODE
290
     1
  9
$FINGERPRINTGUID
  2
{A4E3B0BD-8385-11D6-9A29-000102212E7C}
  9
$VERSIONGUID
  2
{7DE79876-4A21-454E-A487-90C9B1D0E348}
  9
$EXTNAMES
290
     1
  9
$PSVPSCALE
 40
0.0
  9
$OLESTARTUP
290
     0
  9
$SORTENTS
280
   127
  9
$INDEXCTL
280
     1
  9
$HIDETEXT
280
     0
  9
$XCLIPFRAME
290
     0
  9
$HALOGAP
280
     0
  9
$OBSCOLOR
 70
   257
  9
$OBSLTYPE
280
     0
  9
$INTERSECTIONDISPLAY
280
     0
  9
$INTERSECTIONCOLOR
 70
   257
  9
$DIMASSOC
280
     1
  9
$PROJECTNAME
  1

  0
ENDSEC
  0
SECTION
  2
CLASSES
  0
CLASS
  1
LWPOLYLINE
  2
AcDbPolyline
  3
ObjectDBX Classes
 90
        0
 91
        0
280
     0
281
     1
  0
CLASS
  1
ACDBDICTIONARYWDFLT
  2
AcDbDictionaryWithDefault
  3
ObjectDBX Classes
 90
        0
 91
        1
280
     0
281
     0
  0
CLASS
  1
ACDBPLACEHOLDER
  2
AcDbPlaceHolder
  3
ObjectDBX Classes
 90
        0
 91
        1
280
     0
281
     0
  0
CLASS
  1
LAYOUT
  2
AcDbLayout
  3
ObjectDBX Classes
 90
        0
 91
        2
280
     0
281
     0
  0
CLASS
  1
ACME_DOCUMENT
  2
AcMeDbDoc
  3
AcMeServices
 90
        0
 91
        0
280
     0
281
     0
  0
CLASS
  1
AMGSETTINGSOBJ
  2
AmgSettingsObj
  3
"AcadM|Product Description: AutoCAD Mechanical 2000|Company: Autodesk"
 90
        0
 91
        2
280
     0
281
     0
  0
CLASS
  1
ACMESCOPE
  2
AcMeScope
  3
AcMeServices
 90
        0
 91
        1
280
     0
281
     0
  0
CLASS
  1
ACMECOMMANDHISTORY
  2
AcMeCommandHistory
  3
AcMeServices
 90
        0
 91
        1
280
     0
281
     0
  0
CLASS
  1
ACIMSYSVARMAN
  2
AcImSysVarManager
  3
AcMeServices
 90
        0
 91
        2
280
     0
281
     0
  0
CLASS
  1
ACIMREALSYSVAR
  2
AcImRealSysVar
  3
AcMeServices
 90
        0
 91
        2
280
     0
281
     0
  0
CLASS
  1
ACIMINTSYSVAR
  2
AcImIntSysVar
  3
AcMeServices
 90
        0
 91
        1
280
     0
281
     0
  0
CLASS
  1
ACMEDRAWINGMAN
  2
AcMeDrawingMan
  3
AcMeServices
 90
        0
 91
        1
280
     0
281
     0
  0
CLASS
  1
ACMEVIEW
  2
AcMeView
  3
AcMeServices
 90
        0
 91
        1
280
     0
281
     0
  0
CLASS
  1
ACDBENTITYCACHE
  2
AcMeEntityCache
  3
AcMeServices
 90
        0
 91
        0
280
     0
281
     0
  0
CLASS
  1
GSMANAGER
  2
AcMeGSManager
  3
AcMeServices
 90
        0
 91
        0
280
     0
281
     0
  0
CLASS
  1
AMDTINTERNALREACTOR
  2
AmdtInternalReactor
  3
AcMeServices
 90
        0
 91
        0
280
     0
281
     0
  0
CLASS
  1
ACMESTATEMGR
  2
AcMeStateMgr
  3
AcMeServices
 90
        0
 91
        1
280
     0
281
     0
  0
CLASS
  1
ACGREFMASTER
  2
AcGrefMaster
  3
AcAttribServices
 90
        0
 91
        1
280
     0
281
     0
  0
CLASS
  1
ACME_DATABASE
  2
AcMeDbDatabase
  3
AcMeServices
 90
        0
 91
        0
280
     0
281
     0
  0
CLASS
  1
ACRFINSADJUSTERMGR
  2
AcRfInsAdjusterMgr
  3
AcMeServices
 90
        0
 91
        0
280
     0
281
     0
  0
CLASS
  1
ACGREFACADMASTER
  2
AcGrefacadMaster
  3
AcGrefServices
 90
        0
 91
        1
280
     0
281
     0
  0
CLASS
  1
AMIMASTER
  2
AmiMaster
  3
AmiServices
 90
        0
 91
        1
280
     0
281
     0
  0
CLASS
  1
ACMDATADICTIONARY
  2
AcmDataDictionary
  3
"AcmSymBB|Product Description: AutoCAD Mechanical 2000|Company: Autodesk"
 90
        0
 91
        1
280
     0
281
     0
  0
CLASS
  1
ACMDATAENTRYBLOCK
  2
AcmDataEntryBlock
  3
"AcmSymBB|Product Description: AutoCAD Mechanical 2000|Company: Autodesk"
 90
        0
 91
        1
280
     0
281
     0
  0
CLASS
  1
ACIMSTRSYSVAR
  2
AcImStrSysVar
  3
AcMeServices
 90
        0
 91
        1
280
     0
281
     0
  0
CLASS
  1
ACMSTANDARDISO
  2
AcmStandardISO
  3
"Amdt_StdImp|Product Description: AutoCAD Mechanical 2000|Company: Autodesk"
 90
        0
 91
        1
280
     0
281
     0
  0
CLASS
  1
AMGOBJPROPCFG
  2
AmgObjPropCfg
  3
"AmgLay|Product Description: AutoCAD Mechanical 2000|Company: Autodesk"
 90
        1
 91
        1
280
     0
281
     0
  0
CLASS
  1
AMDTEDGESTANDARDISO
  2
AmdtEdgeStdISO
  3
"Amdt_StdImp|Product Description: AutoCAD Mechanical 2000|Company: Autodesk"
 90
        0
 91
        1
280
     0
281
     0
  0
CLASS
  1
ACMSURFSTANDARDISO
  2
AcmSurfTextStdISO
  3
"Amdt_StdImp|Product Description: AutoCAD Mechanical 2000|Company: Autodesk"
 90
        0
 91
        1
280
     0
281
     0
  0
CLASS
  1
ACMFCFSTANDARDISO
  2
AcmFCFStdISO
  3
"Amdt_StdImp|Product Description: AutoCAD Mechanical 2000|Company: Autodesk"
 90
        0
 91
        1
280
     0
281
     0
  0
CLASS
  1
ACMWELDSTANDARDISO
  2
AcmWeldingStdISO
  3
"Amdt_StdImp|Product Description: AutoCAD Mechanical 2000|Company: Autodesk"
 90
        0
 91
        1
280
     0
281
     0
  0
CLASS
  1
ACMIDSTANDARDISO
  2
AcmIdStdISO
  3
"Amdt_StdImp|Product Description: AutoCAD Mechanical 2000|Company: Autodesk"
 90
        0
 91
        1
280
     0
281
     0
  0
CLASS
  1
ACMDATUMSTANDARDISO
  2
AcmDatumStdISO
  3
"Amdt_StdImp|Product Description: AutoCAD Mechanical 2000|Company: Autodesk"
 90
        0
 91
        1
280
     0
281
     0
  0
CLASS
  1
ACMBOMSTANDARDISO
  2
AcmBOMStdISO
  3
"Amdt_StdImp|Product Description: AutoCAD Mechanical 2000|Company: Autodesk"
 90
        0
 91
        1
280
     0
281
     0
  0
CLASS
  1
ACMDETAILSTANDARDISO
  2
AmdtDetailSymStdISO
  3
"Amdt_StdImp|Product Description: AutoCAD Mechanical 2000|Company: Autodesk"
 90
        0
 91
        1
280
     0
281
     0
  0
CLASS
  1
ACMSECTIONSTANDARDISO
  2
AmdtSectionSymStdISO
  3
"Amdt_StdImp|Product Description: AutoCAD Mechanical 2000|Company: Autodesk"
 90
        0
 91
        1
280
     0
281
     0
  0
CLASS
  1
ACMCENTERLINESTANDARDISO
  2
AmdtCenterLineStdISO
  3
"Amdt_StdImp|Product Description: AutoCAD Mechanical 2000|Company: Autodesk"
 90
        0
 91
        1
280
     0
281
     0
  0
CLASS
  1
ACMNOTESTANDARDISO
  2
AmdtNoteStdISO
  3
"Amdt_StdImp|Product Description: AutoCAD Mechanical 2000|Company: Autodesk"
 90
        0
 91
        1
280
     0
281
     0
  0
CLASS
  1
ACAMGLAYSTD
  2
AcAmgLayStd
  3
"AcAmgLayStd|Product Description: AutoCAD Mechanical 2000|Company: Autodesk"
 90
        0
 91
        2
280
     0
281
     0
  0
CLASS
  1
ACAMGDIMSTD
  2
AcAmgDimStd
  3
"AcAmgDimStd|Product Description: AutoCAD Mechanical 2000|Company: Autodesk"
 90
        0
 91
        2
280
     0
281
     0
  0
CLASS
  1
ACAMGHOLECHARTSTDISO
  2
AcAmgHoleChartStdISO
  3
ACMSYMBB_MODULE_NAME
 90
        0
 91
        1
280
     0
281
     0
  0
CLASS
  1
ACAMGTITLESTD
  2
AcAmgTitleStd
  3
"TITLEAPP"
 90
        0
 91
        2
280
     0
281
     0
  0
CLASS
  1
ACAMGFILTERDAT
  2
AcAmgFilterDat
  3
"AcadM|Product Description: AutoCAD Mechanical 2000|Company: Autodesk"
 90
        0
 91
        6
280
     0
281
     0
  0
CLASS
  1
ACMSTANDARDANSI
  2
AcmStandardANSI
  3
"Amdt_StdImp|Product Description: AutoCAD Mechanical 2000|Company: Autodesk"
 90
        0
 91
        1
280
     0
281
     0
  0
CLASS
  1
ACMSURFSTANDARDANSI
  2
AcmSurfTextStdANSI
  3
"Amdt_StdImp|Product Description: AutoCAD Mechanical 2000|Company: Autodesk"
 90
        0
 91
        1
280
     0
281
     0
  0
CLASS
  1
ACMFCFSTANDARDANSI
  2
AcmFCFStdANSI
  3
"Amdt_StdImp|Product Description: AutoCAD Mechanical 2000|Company: Autodesk"
 90
        0
 91
        1
280
     0
281
     0
  0
CLASS
  1
ACMWELDSTANDARDANSI
  2
AcmWeldingStdANSI
  3
"Amdt_StdImp|Product Description: AutoCAD Mechanical 2000|Company: Autodesk"
 90
        0
 91
        1
280
     0
281
     0
  0
CLASS
  1
ACMIDSTANDARDANSI
  2
AcmIdStdANSI
  3
"Amdt_StdImp|Product Description: AutoCAD Mechanical 2000|Company: Autodesk"
 90
        0
 91
        1
280
     0
281
     0
  0
CLASS
  1
ACMDATUMSTANDARDANSI
  2
AcmDatumStdANSI
  3
"Amdt_StdImp|Product Description: AutoCAD Mechanical 2000|Company: Autodesk"
 90
        0
 91
        1
280
     0
281
     0
  0
CLASS
  1
ACMBOMSTANDARDANSI
  2
AcmBOMStdANSI
  3
"Amdt_StdImp|Product Description: AutoCAD Mechanical 2000|Company: Autodesk"
 90
        0
 91
        1
280
     0
281
     0
  0
CLASS
  1
ACMDETAILSTANDARDANSI
  2
AmdtDetailSymStdANSI
  3
"Amdt_StdImp|Product Description: AutoCAD Mechanical 2000|Company: Autodesk"
 90
        0
 91
        1
280
     0
281
     0
  0
CLASS
  1
ACMSECTIONSTANDARDANSI
  2
AmdtSectionSymStdANSI
  3
"Amdt_StdImp|Product Description: AutoCAD Mechanical 2000|Company: Autodesk"
 90
        0
 91
        1
280
     0
281
     0
  0
CLASS
  1
ACMCENTERLINESTANDARDANSI
  2
AmdtCenterLineStdANSI
  3
"Amdt_StdImp|Product Description: AutoCAD Mechanical 2000|Company: Autodesk"
 90
        0
 91
        1
280
     0
281
     0
  0
CLASS
  1
ACMNOTESTANDARDANSI
  2
AmdtNoteStdANSI
  3
"Amdt_StdImp|Product Description: AutoCAD Mechanical 2000|Company: Autodesk"
 90
        0
 91
        1
280
     0
281
     0
  0
CLASS
  1
ACAMGHOLECHARTSTDANSI
  2
AcAmgHoleChartStdANSI
  3
ACMSYMBB_MODULE_NAME
 90
        0
 91
        1
280
     0
281
     0
  0
CLASS
  1
AMDTFORMULAUPDATEDISPATCHER
  2
AmdtFormulaUpdateDispatcher
  3
AcMeServices
 90
        0
 91
        1
280
     0
281
     0
  0
CLASS
  1
LAYER_INDEX
  2
AcDbLayerIndex
  3
ObjectDBX Classes
 90
        0
 91
        1
280
     0
281
     0
  0
CLASS
  1
IDBUFFER
  2
AcDbIdBuffer
  3
ObjectDBX Classes
 90
        0
 91
        6
280
     0
281
     0
  0
CLASS
  1
DICTIONARYVAR
  2
AcDbDictionaryVar
  3
ObjectDBX Classes
 90
        0
 91
        5
280
     0
281
     0
  0
CLASS
  1
MATERIAL
  2
AcDbMaterial
  3
ObjectDBX Classes
 90
     1153
 91
        3
280
     0
281
     0
  0
CLASS
  1
VISUALSTYLE
  2
AcDbVisualStyle
  3
ObjectDBX Classes
 90
     4095
 91
       16
280
     0
281
     0
  0
CLASS
  1
TABLESTYLE
  2
AcDbTableStyle
  3
ObjectDBX Classes
 90
     4095
 91
        1
280
     0
281
     0
  0
CLASS
  1
SCALE
  2
AcDbScale
  3
ObjectDBX Classes
 90
     1153
 91
       33
280
     0
281
     0
  0
CLASS
  1
MLEADERSTYLE
  2
AcDbMLeaderStyle
  3
ACDB_MLEADERSTYLE_CLASS
 90
     4095
 91
        1
280
     0
281
     0
  0
CLASS
  1
CELLSTYLEMAP
  2
AcDbCellStyleMap
  3
ObjectDBX Classes
 90
     1152
 91
        1
280
     0
281
     0
  0
ENDSEC
  0
SECTION
  2
TABLES
  0
TABLE
  2
VPORT
  5
8
330
0
100
AcDbSymbolTable
 70
     1
  0
VPORT
  5
2236
330
8
100
AcDbSymbolTableRecord
100
AcDbViewportTableRecord
  2
*Active
 70
     0
 10
0.0
 20
0.0
 11
1.0
 21
1.0
 12
-762.6897303469263
 22
-102.051335150761
 13
0.0
 23
0.0
 14
10.0
 24
10.0
 15
10.0
 25
10.0
 16
0.0
 26
0.0
 36
1.0
 17
0.0
 27
0.0
 37
0.0
 40
1067.294894251898
 41
1.739910313901345
 42
50.0
 43
0.0
 44
0.0
 50
0.0
 51
0.0
 71
     0
 72
  1234
 73
     1
 74
     0
 75
     0
 76
     0
 77
     0
 78
     0
281
     0
 65
     1
110
0.0
120
0.0
130
0.0
111
1.0
121
0.0
131
0.0
112
0.0
122
1.0
132
0.0
 79
     0
146
0.0
  0
ENDTAB
  0
TABLE
  2
LTYPE
  5
5
330
0
100
AcDbSymbolTable
 70
    16
  0
LTYPE
  5
12
330
5
100
AcDbSymbolTableRecord
100
AcDbLinetypeTableRecord
  2
BYBLOCK
 70
     0
  3

 72
    65
 73
     0
 40
0.0
  0
LTYPE
  5
13
330
5
100
AcDbSymbolTableRecord
100
AcDbLinetypeTableRecord
  2
BYLAYER
 70
     0
  3

 72
    65
 73
     0
 40
0.0
  0
LTYPE
  5
14
330
5
100
AcDbSymbolTableRecord
100
AcDbLinetypeTableRecord
  2
CONTINUOUS
 70
     0
  3
Solid line
 72
    65
 73
     0
 40
0.0
  0
LTYPE
  5
97
330
5
100
AcDbSymbolTableRecord
100
AcDbLinetypeTableRecord
  2
CENTER
 70
     0
  3
____ _ ____ _ ____ _ ____ _ ____ _ ____ _ ____ 
 72
    65
 73
     4
 40
2.0
 49
1.25
 74
     0
 49
-0.25
 74
     0
 49
0.25
 74
     0
 49
-0.25
 74
     0
  0
LTYPE
  5
98
330
5
100
AcDbSymbolTableRecord
100
AcDbLinetypeTableRecord
  2
DASHED
 70
     0
  3
__ __ __ __ __ __ __ __ __ __ __ __ __ __ __ __
 72
    65
 73
     2
 40
0.75
 49
0.5
 74
     0
 49
-0.25
 74
     0
  0
LTYPE
  5
A4D
330
5
100
AcDbSymbolTableRecord
100
AcDbLinetypeTableRecord
  2
AM_ISO02W050
 70
     0
  3
__ __ __ __ __ __ __ __ __ __ __ __ __ __ __
 72
    65
 73
     2
 40
7.5
 49
6.0
 74
     0
 49
-1.5
 74
     0
  0
LTYPE
  5
A4E
330
5
100
AcDbSymbolTableRecord
100
AcDbLinetypeTableRecord
  2
AM_ISO08W050
 70
     0
  3
____ . ____ . ____ . ____ . ____ . ____ . ____
 72
    65
 73
     4
 40
18.0
 49
12.0
 74
     0
 49
-1.5
 74
     0
 49
3.0
 74
     0
 49
-1.5
 74
     0
  0
LTYPE
  5
A4F
330
5
100
AcDbSymbolTableRecord
100
AcDbLinetypeTableRecord
  2
AM_ISO09W050
 70
     0
  3
_____ . . _____ . . _____ . . ____ .. ____
 72
    65
 73
     6
 40
22.5
 49
12.0
 74
     0
 49
-1.5
 74
     0
 49
3.0
 74
     0
 49
-1.5
 74
     0
 49
3.0
 74
     0
 49
-1.5
 74
     0
  0
LTYPE
  5
A50
330
5
100
AcDbSymbolTableRecord
100
AcDbLinetypeTableRecord
  2
Amconstr
 70
     0
  3
_______________________
 72
    65
 73
     2
 40
9999.0
 49
9999.0
 74
     0
 49
0.0
 74
     0
  0
LTYPE
  5
A51
330
5
100
AcDbSymbolTableRecord
100
AcDbLinetypeTableRecord
  2
AM_ISO08W050x2
 70
     0
  3
__ . __ . __ . __ . __ . __
 72
    65
 73
     4
 40
9.0
 49
6.0
 74
     0
 49
-0.75
 74
     0
 49
1.5
 74
     0
 49
-0.75
 74
     0
  0
LTYPE
  5
A52
330
5
100
AcDbSymbolTableRecord
100
AcDbLinetypeTableRecord
  2
AM_ISO02W050x2
 70
     0
  3
 _ _ _ _ _ _ _ _ _ _ _ _
 72
    65
 73
     2
 40
3.75
 49
3.0
 74
     0
 49
-0.75
 74
     0
  0
LTYPE
  5
A55
330
5
100
AcDbSymbolTableRecord
100
AcDbLinetypeTableRecord
  2
Amzigzag
 70
     0
  3
/\/-/\/-/\/-/\/-/\/-/\/
 72
    65
 73
     2
 40
11.0001
 49
0.0001
 74
     4
 75
   135
340
A54
 46
0.04
 50
0.0
 44
0.0
 45
0.0
 49
-11.0
 74
     0
  0
LTYPE
  5
A63
330
5
100
AcDbSymbolTableRecord
100
AcDbLinetypeTableRecord
  2
ACISOWELD
 70
     0
  3
_ _ _ _ _
 72
    65
 73
     2
 40
2.0
 49
2.0
 74
     0
 49
-1.0
 74
     0
  0
LTYPE
  5
A64
330
5
100
AcDbSymbolTableRecord
100
AcDbLinetypeTableRecord
  2
ACISOTGB
 70
     0
  3
__ . . __ . .
 72
    65
 73
     6
 40
9.0
 49
4.0
 74
     0
 49
-1.0
 74
     0
 49
1.0
 74
     0
 49
-1.0
 74
     0
 49
1.0
 74
     0
 49
-1.0
 74
     0
  0
LTYPE
  5
A65
330
5
100
AcDbSymbolTableRecord
100
AcDbLinetypeTableRecord
  2
ACISOTGL
 70
     0
  3
_ _ _ _ _
 72
    65
 73
     2
 40
3.0
 49
2.0
 74
     0
 49
-1.0
 74
     0
  0
LTYPE
  5
BE5
330
5
100
AcDbSymbolTableRecord
100
AcDbLinetypeTableRecord
  2
PHANTOM2
 70
     0
  3
Phantom (.5x) ___ _ _ ___ _ _ ___ _ _ ___ _ _
 72
    65
 73
     6
 40
1.25
 49
0.625
 74
     0
 49
-0.125
 74
     0
 49
0.125
 74
     0
 49
-0.125
 74
     0
 49
0.125
 74
     0
 49
-0.125
 74
     0
  0
LTYPE
  5
BE9
330
5
100
AcDbSymbolTableRecord
100
AcDbLinetypeTableRecord
  2
ACANSTGB
 70
     0
  3
__ . . __ . .
 72
    65
 73
     6
 40
0.35433070866
 49
0.15748031496
 74
     0
 49
-0.03937007874
 74
     0
 49
0.03937007874
 74
     0
 49
-0.03937007874
 74
     0
 49
0.03937007874
 74
     0
 49
-0.03937007874
 74
     0
  0
LTYPE
  5
BEA
330
5
100
AcDbSymbolTableRecord
100
AcDbLinetypeTableRecord
  2
ACANSTGL
 70
     0
  3
_ _ _ _ _
 72
    65
 73
     2
 40
0.11811023622
 49
0.07874015748
 74
     0
 49
-0.03937007874
 74
     0
  0
ENDTAB
  0
TABLE
  2
LAYER
  5
2
330
0
100
AcDbSymbolTable
 70
     6
  0
LAYER
  5
E
330
2
100
AcDbSymbolTableRecord
100
AcDbLayerTableRecord
  2
0
 70
     0
 62
     7
  6
CONTINUOUS
370
    -3
390
A22
  0
LAYER
  5
9A
330
2
100
AcDbSymbolTableRecord
100
AcDbLayerTableRecord
  2
DISEGNO
 70
     0
 62
     7
  6
CONTINUOUS
370
    -3
390
A22
  0
LAYER
  5
9B
330
2
100
AcDbSymbolTableRecord
100
AcDbLayerTableRecord
  2
ASSI
 70
     0
 62
     2
  6
CENTER
370
    -3
390
A22
  0
LAYER
  5
9C
330
2
100
AcDbSymbolTableRecord
100
AcDbLayerTableRecord
  2
NORMALI
 70
     0
 62
     6
  6
CONTINUOUS
370
    -3
390
A22
  0
LAYER
  5
9E
330
2
100
AcDbSymbolTableRecord
100
AcDbLayerTableRecord
  2
TRATTEGGI
 70
     0
 62
     8
  6
DASHED
370
    -3
390
A22
  0
LAYER
  5
A84
330
2
100
AcDbSymbolTableRecord
100
AcDbLayerTableRecord
  2
Defpoints
 70
     0
 62
     7
  6
CONTINUOUS
290
     0
370
    -3
390
A22
  0
ENDTAB
  0
TABLE
  2
STYLE
  5
3
330
0
100
AcDbSymbolTable
 70
     6
  0
STYLE
  5
F
330
3
100
AcDbSymbolTableRecord
100
AcDbTextStyleTableRecord
  2
STANDARD
 70
     0
 40
0.0
 41
1.0
 50
0.0
 71
     0
 42
2.5
  3
txt
  4

  0
STYLE
  5
A54
330
3
100
AcDbSymbolTableRecord
100
AcDbTextStyleTableRecord
  2

 70
     1
 40
0.0
 41
1.0
 50
0.0
 71
     0
 42
2.5
  3
ltypeshp.shx
  4

  0
STYLE
  5
A56
330
3
100
AcDbSymbolTableRecord
100
AcDbTextStyleTableRecord
  2
ACISOTS
 70
     0
 40
1.0
 41
1.0
 50
0.0
 71
     0
 42
2.5
  3
isocp.shx
  4

  0
STYLE
  5
A62
330
3
100
AcDbSymbolTableRecord
100
AcDbTextStyleTableRecord
  2
ACISOGDT
 70
     0
 40
0.0
 41
1.0
 50
0.0
 71
     0
 42
2.5
  3
amgdt.shx
  4

  0
STYLE
  5
BF4
330
3
100
AcDbSymbolTableRecord
100
AcDbTextStyleTableRecord
  2
ACANSTS
 70
     0
 40
1.0
 41
1.0
 50
0.0
 71
     0
 42
2.5
  3
romans.shx
  4

  0
STYLE
  5
BF5
330
3
100
AcDbSymbolTableRecord
100
AcDbTextStyleTableRecord
  2
ACANSGDT
 70
     0
 40
0.0
 41
1.0
 50
0.0
 71
     0
 42
2.5
  3
amgdtans.shx
  4

  0
ENDTAB
  0
TABLE
  2
VIEW
  5
6
330
0
100
AcDbSymbolTable
 70
     0
  0
ENDTAB
  0
TABLE
  2
UCS
  5
7
330
0
100
AcDbSymbolTable
 70
     0
  0
ENDTAB
  0
TABLE
  2
APPID
  5
9
330
0
100
AcDbSymbolTable
 70
     7
  0
APPID
  5
10
330
9
100
AcDbSymbolTableRecord
100
AcDbRegAppTableRecord
  2
ACAD
 70
     0
  0
APPID
  5
A0
330
9
100
AcDbSymbolTableRecord
100
AcDbRegAppTableRecord
  2
COMAU_ACADLIB
 70
     0
  0
APPID
  5
75D
330
9
100
AcDbSymbolTableRecord
100
AcDbRegAppTableRecord
  2
ZIMM
 70
     0
  0
APPID
  5
A2F
330
9
100
AcDbSymbolTableRecord
100
AcDbRegAppTableRecord
  2
MCAD_NO_VIS
 70
     0
  0
APPID
  5
A30
330
9
100
AcDbSymbolTableRecord
100
AcDbRegAppTableRecord
  2
ACAD_TEMP_GRAPHIC
 70
     0
  0
APPID
  5
A41
330
9
100
AcDbSymbolTableRecord
100
AcDbRegAppTableRecord
  2
ACATTRIBSERVICES
 70
     0
  0
APPID
  5
2289
330
9
100
AcDbSymbolTableRecord
100
AcDbRegAppTableRecord
  2
ACAD_MLEADERVER
 70
     0
  0
ENDTAB
  0
TABLE
  2
DIMSTYLE
  5
A
330
0
100
AcDbSymbolTable
 70
    14
100
AcDbDimStyleTable
 71
     1
340
1D
  0
DIMSTYLE
105
1D
330
A
100
AcDbSymbolTableRecord
100
AcDbDimStyleTableRecord
  2
STANDARD
 70
     0
340
F
  0
DIMSTYLE
105
A69
330
A
100
AcDbSymbolTableRecord
100
AcDbDimStyleTableRecord
  2
AM_ISO
 70
     0
  4
"
 41
2.5
 42
1.0
 43
10.0
 44
1.0
 47
0.1
 48
0.1
 73
     0
 74
     0
 77
     1
 78
     8
 79
     2
140
3.5
141
0.0
143
0.0393701
146
0.71
147
1.5
172
     1
176
   256
177
   256
178
     2
271
     2
272
     3
274
     4
283
     0
284
     8
340
F
371
    -1
372
    -1
  0
DIMSTYLE
105
A6A
330
A
100
AcDbSymbolTableRecord
100
AcDbDimStyleTableRecord
  2
AM_ISO$3
 70
     0
  4
"
 41
2.5
 42
1.0
 43
10.0
 44
1.0
 47
0.1
 48
0.1
 73
     0
 77
     1
 78
     8
 79
     2
140
3.5
141
0.0
143
0.0393701
146
0.71
147
1.5
176
   256
177
   256
178
     2
271
     2
272
     3
274
     4
283
     0
284
     8
288
     1
289
     0
340
F
371
    -1
372
    -1
  0
DIMSTYLE
105
A6B
330
A
100
AcDbSymbolTableRecord
100
AcDbDimStyleTableRecord
  2
AM_ISO$4
 70
     0
  4
"
 41
2.5
 42
1.0
 43
10.0
 44
1.0
 47
0.1
 48
0.1
 73
     0
 77
     1
 78
     8
 79
     2
140
3.5
141
0.0
143
0.0393701
146
0.71
147
1.5
176
   256
177
   256
178
     2
271
     2
272
     3
274
     4
283
     0
284
     8
288
     1
289
     0
340
F
371
    -1
372
    -1
  0
DIMSTYLE
105
A6C
330
A
100
AcDbSymbolTableRecord
100
AcDbDimStyleTableRecord
  2
AM_ISO$6
 70
     0
  4
"
 41
2.5
 42
1.0
 43
10.0
 44
1.0
 47
0.1
 48
0.1
 73
     0
 74
     0
 78
     8
 79
     2
140
3.5
141
0.0
143
0.0393701
146
0.71
147
1.5
172
     1
176
   256
177
   256
178
     2
271
     2
272
     3
274
     4
283
     0
284
     8
340
F
371
    -1
372
    -1
  0
DIMSTYLE
105
A6D
330
A
100
AcDbSymbolTableRecord
100
AcDbDimStyleTableRecord
  2
AM_ISO$7
 70
     0
  4
"
 41
2.5
 42
1.0
 43
10.0
 44
1.0
 47
0.1
 48
0.1
 73
     0
 74
     0
 77
     1
 78
     8
 79
     2
140
5.0
141
0.0
143
0.0393701
146
0.71
147
1.5
172
     1
176
   256
177
   256
178
     2
271
     2
272
     3
274
     4
283
     0
284
     8
340
F
371
    -1
372
    -1
  0
DIMSTYLE
105
A6E
330
A
100
AcDbSymbolTableRecord
100
AcDbDimStyleTableRecord
  2
AM_ISO$SF
 70
     0
  4
"
 41
2.5
 42
1.0
 43
10.0
 44
1.0
 47
0.1
 48
0.1
 73
     0
 74
     0
 75
     1
 76
     1
 77
     1
 78
     8
 79
     2
140
3.5
141
0.0
143
0.0393701
146
0.71
147
1.5
172
     1
176
   256
177
   256
178
     2
271
     2
272
     3
274
     4
283
     0
284
     8
340
F
371
    -1
372
    -1
  0
DIMSTYLE
105
A73
330
A
100
AcDbSymbolTableRecord
100
AcDbDimStyleTableRecord
  2
AM_ISO$SH
 70
     0
  4
"
 41
2.5
 42
1.0
 43
10.0
 44
1.0
 47
0.1
 48
0.1
 73
     0
 74
     0
 75
     1
 76
     1
 77
     1
 78
     8
 79
     2
140
3.5
141
0.0
143
0.0393701
144
2.0
146
0.71
147
1.5
172
     1
173
     1
176
   256
177
   256
178
     2
271
     2
272
     3
274
     4
283
     0
284
     8
340
F
343
A6F
371
    -1
372
    -1
  0
DIMSTYLE
105
BF7
330
A
100
AcDbSymbolTableRecord
100
AcDbDimStyleTableRecord
  2
AM_ANSI
 70
     0
  4
mm
 41
0.1
 42
0.05
 43
0.5
 44
0.1
 47
0.1
 48
0.1
 78
     7
 79
     2
140
0.12
141
0.0
146
0.71
147
0.06
176
   256
177
   256
178
     2
274
     4
284
     7
340
F
371
    -1
372
    -1
  0
DIMSTYLE
105
BF8
330
A
100
AcDbSymbolTableRecord
100
AcDbDimStyleTableRecord
  2
AM_ANSI$3
 70
     0
  4
mm
 41
0.1
 42
0.05
 43
0.5
 44
0.1
 47
0.1
 48
0.1
 78
     7
 79
     2
140
0.12
141
0.0
146
0.71
147
0.06
176
   256
177
   256
178
     2
274
     4
284
     7
288
     1
289
     0
340
F
371
    -1
372
    -1
  0
DIMSTYLE
105
BF9
330
A
100
AcDbSymbolTableRecord
100
AcDbDimStyleTableRecord
  2
AM_ANSI$4
 70
     0
  4
mm
 41
0.1
 42
0.05
 43
0.5
 44
0.1
 47
0.1
 48
0.1
 78
     7
 79
     2
140
0.12
141
0.0
146
0.71
147
0.06
176
   256
177
   256
178
     2
274
     4
284
     7
288
     1
289
     0
340
F
371
    -1
372
    -1
  0
DIMSTYLE
105
BFA
330
A
100
AcDbSymbolTableRecord
100
AcDbDimStyleTableRecord
  2
AM_ANSI$7
 70
     0
  4
mm
 41
0.1
 42
0.05
 43
0.5
 44
0.1
 47
0.1
 48
0.1
 78
     7
 79
     2
140
0.24
141
0.0
146
0.71
147
0.06
176
   256
177
   256
178
     2
274
     4
284
     7
340
F
371
    -1
372
    -1
  0
DIMSTYLE
105
BFB
330
A
100
AcDbSymbolTableRecord
100
AcDbDimStyleTableRecord
  2
AM_ANSI$SF
 70
     0
  4
mm
 41
0.1
 42
0.05
 43
0.5
 44
0.1
 47
0.1
 48
0.1
 75
     1
 76
     1
 78
     7
 79
     2
140
0.12
141
0.0
146
0.71
147
0.06
176
   256
177
   256
178
     2
274
     4
284
     7
340
F
371
    -1
372
    -1
  0
DIMSTYLE
105
BFC
330
A
100
AcDbSymbolTableRecord
100
AcDbDimStyleTableRecord
  2
AM_ANSI$SH
 70
     0
  4
mm
 41
0.1
 42
0.05
 43
0.5
 44
0.1
 47
0.1
 48
0.1
 75
     1
 76
     1
 78
     7
 79
     2
140
0.12
141
0.0
146
0.71
147
0.06
173
     1
176
   256
177
   256
178
     2
274
     4
284
     7
340
F
343
A6F
371
    -1
372
    -1
  0
ENDTAB
  0
TABLE
  2
BLOCK_RECORD
  5
1
330
0
100
AcDbSymbolTable
 70
     2
  0
BLOCK_RECORD
  5
18
102
{ACAD_XDICTIONARY
360
209A
102
}
330
1
100
AcDbSymbolTableRecord
100
AcDbBlockTableRecord
  2
*MODEL_SPACE
340
A25
  0
BLOCK_RECORD
  5
15
330
1
100
AcDbSymbolTableRecord
100
AcDbBlockTableRecord
  2
*PAPER_SPACE
340
A26
  0
BLOCK_RECORD
  5
94D
330
1
100
AcDbSymbolTableRecord
100
AcDbBlockTableRecord
  2

340
0
  0
BLOCK_RECORD
  5
A6F
330
1
100
AcDbSymbolTableRecord
100
AcDbBlockTableRecord
  2
GENAXEH
340
0
  0
ENDTAB
  0
ENDSEC
  0
SECTION
  2
BLOCKS
  0
BLOCK
  5
19
330
18
100
AcDbEntity
  8
0
100
AcDbBlockBegin
  2
*MODEL_SPACE
 70
     0
 10
0.0
 20
0.0
 30
0.0
  3
*MODEL_SPACE
  1

  0
ENDBLK
  5
1A
330
18
100
AcDbEntity
  8
0
100
AcDbBlockEnd
  0
BLOCK
  5
16
330
15
100
AcDbEntity
 67
     1
  8
0
100
AcDbBlockBegin
  2
*PAPER_SPACE
 70
     0
 10
0.0
 20
0.0
 30
0.0
  3
*PAPER_SPACE
  1

  0
ENDBLK
  5
17
330
15
100
AcDbEntity
 67
     1
  8
0
100
AcDbBlockEnd
  0
BLOCK
  5
94E
330
94D
100
AcDbEntity
  8
0
100
AcDbBlockBegin
  2

 70
     0
 10
0.0
 20
0.0
 30
0.0
  3

  1

  0
ENDBLK
  5
94F
330
94D
100
AcDbEntity
  8
0
100
AcDbBlockEnd
  0
BLOCK
  5
A71
330
A6F
100
AcDbEntity
  8
0
100
AcDbBlockBegin
  2
GENAXEH
 70
     0
 10
0.0
 20
0.0
 30
0.0
  3
GENAXEH
  1

  0
LINE
  5
A70
330
A6F
100
AcDbEntity
  8
0
100
AcDbLine
 10
-1.0
 20
0.0
 30
0.0
 11
1.0
 21
0.0
 31
0.0
  0
ENDBLK
  5
A72
330
A6F
100
AcDbEntity
  8
0
100
AcDbBlockEnd
  0
ENDSEC
  0
SECTION
  2
ENTITIES
  0
LINE
  5
402
330
18
100
AcDbEntity
  8
ASSI
100
AcDbLine
 10
-703.287538425368
 20
156.4999999999993
 30
0.0
 11
-672.6045427962404
 21
156.4999999999993
 31
0.0
  0
LINE
  5
40B
330
18
100
AcDbEntity
  8
DISEGNO
100
AcDbLine
 10
-617.9460406108023
 20
53.99999999999931
 30
0.0
 11
-1177.946040610804
 21
53.99999999999931
 31
0.0
  0
LINE
  5
40C
330
18
100
AcDbEntity
  8
ASSI
100
AcDbLine
 10
-600.4366306636597
 20
-256.1034658691931
 30
0.0
 11
-1184.620771269957
 21
-256.1034658691931
 31
0.0
  0
LINE
  5
40D
330
18
100
AcDbEntity
  8
ASSI
100
AcDbLine
 10
-599.986014008778
 20
-417.1034658691931
 30
0.0
 11
-1183.695763996314
 21
-417.1034658691931
 31
0.0
  0
LINE
  5
40E
330
18
100
AcDbEntity
  8
DISEGNO
100
AcDbLine
 10
-617.9460406108055
 20
249.0000000000002
 30
0.0
 11
-967.9460406108042
 21
248.9999999999998
 31
0.0
  0
LINE
  5
40F
330
18
100
AcDbEntity
  8
DISEGNO
100
AcDbLine
 10
-617.9460406108042
 20
139.0000000000002
 30
0.0
 11
-727.4460406108042
 21
139.0000000000002
 31
0.0
  0
LINE
  5
412
330
18
100
AcDbEntity
  8
ASSI
100
AcDbLine
 10
-309.2883342654622
 20
-336.6034658691932
 30
0.0
 11
-1379.866752576728
 21
-336.6034658691932
 31
0.0
  0
LINE
  5
414
330
18
100
AcDbEntity
  8
DISEGNO
100
AcDbLine
 10
-1177.946040610803
 20
29.00000000000023
 30
0.0
 11
-622.9460406108041
 21
28.99999999999932
 31
0.0
  0
LINE
  5
415
330
18
100
AcDbEntity
  8
DISEGNO
100
AcDbLine
 10
-617.9460406108042
 20
51.00000000000022
 30
0.0
 11
-1177.946040610804
 21
51.00000000000022
 31
0.0
  0
LINE
  5
416
330
18
100
AcDbEntity
  8
DISEGNO
100
AcDbLine
 10
-617.9460406108042
 20
114.9999999999993
 30
0.0
 11
-1177.946040610804
 21
114.9999999999993
 31
0.0
  0
LINE
  5
417
330
18
100
AcDbEntity
  8
DISEGNO
100
AcDbLine
 10
-617.9460406108042
 20
128.9999999999993
 30
0.0
 11
-1177.946040610804
 21
128.9999999999993
 31
0.0
  0
LINE
  5
418
330
18
100
AcDbEntity
  8
DISEGNO
100
AcDbLine
 10
-1177.946040610804
 20
21.00000000000034
 30
0.0
 11
-622.9460406108041
 21
20.99999999999932
 31
0.0
  0
LINE
  5
419
330
18
100
AcDbEntity
  8
DISEGNO
100
AcDbLine
 10
-591.196046907296
 20
-0.0000000000006821
 30
0.0
 11
-1177.946040610803
 21
0.0000000000002274
 31
0.0
  0
LINE
  5
41C
330
18
100
AcDbEntity
  8
DISEGNO
100
AcDbLine
 10
-619.9460406108041
 20
-466.6034658691931
 30
0.0
 11
-1175.946040610804
 21
-466.6034658691931
 31
0.0
  0
LINE
  5
41D
330
18
100
AcDbEntity
  8
DISEGNO
100
AcDbLine
 10
-619.9460406108041
 20
-206.6034658691931
 30
0.0
 11
-1175.946040610804
 21
-206.6034658691931
 31
0.0
  0
LINE
  5
422
330
18
100
AcDbEntity
  8
DISEGNO
100
AcDbLine
 10
-622.9460406108041
 20
-431.6034658691931
 30
0.0
 11
-722.4460406108053
 21
-431.6034658691932
 31
0.0
  0
LINE
  5
423
330
18
100
AcDbEntity
  8
DISEGNO
100
AcDbLine
 10
-622.946040610804
 20
-241.6034658691931
 30
0.0
 11
-722.4460406108043
 21
-241.6034658691931
 31
0.0
  0
LINE
  5
430
330
18
100
AcDbEntity
  8
DISEGNO
100
AcDbLine
 10
-1343.046040610802
 20
-386.6034658691936
 30
0.0
 11
-1177.946040610804
 21
-386.6034658691932
 31
0.0
  0
LINE
  5
431
330
18
100
AcDbEntity
  8
DISEGNO
100
AcDbLine
 10
-1343.046040610802
 20
-286.6034658691936
 30
0.0
 11
-1177.946040610804
 21
-286.6034658691932
 31
0.0
  0
LINE
  5
435
330
18
100
AcDbEntity
  8
DISEGNO
100
AcDbLine
 10
-1343.046040610804
 20
-286.6034658691932
 30
0.0
 11
-1343.046040610804
 21
-386.6034658691932
 31
0.0
  0
LINE
  5
436
330
18
100
AcDbEntity
  8
DISEGNO
100
AcDbLine
 10
-1342.0460406108
 20
-386.6034658691932
 30
0.0
 11
-1343.0460406108
 21
-385.6034658691931
 31
0.0
  0
LINE
  5
437
330
18
100
AcDbEntity
  8
DISEGNO
100
AcDbLine
 10
-1343.0460406108
 20
-287.6034658691931
 30
0.0
 11
-1342.0460406108
 21
-286.6034658691932
 31
0.0
  0
LINE
  5
438
330
18
100
AcDbEntity
  8
DISEGNO
100
AcDbLine
 10
-1308.046040610804
 20
-286.6034658691922
 30
0.0
 11
-1308.046040610804
 21
-386.603465869194
 31
0.0
  0
CIRCLE
  5
43B
330
18
100
AcDbEntity
  8
NORMALI
100
AcDbCircle
 10
-1328.046040610802
 20
-377.1034658691931
 30
0.0
 40
5.0
1001
COMAU_ACADLIB
1000
00302053
1000
Vite T.C.E.I. UNI 5931 - M6x25 - 8.8
  0
LINE
  5
43C
330
18
100
AcDbEntity
  8
NORMALI
100
AcDbLine
 10
-1308.046040610804
 20
-347.1034658691927
 30
0.0
 11
-1289.046040610804
 21
-347.1034658691926
 31
0.0
  0
LINE
  5
43D
330
18
100
AcDbEntity
  8
NORMALI
100
AcDbLine
 10
-1308.046040610804
 20
-367.1034658691927
 30
0.0
 11
-1289.046040610804
 21
-367.1034658691927
 31
0.0
  0
LINE
  5
43E
330
18
100
AcDbEntity
  8
NORMALI
100
AcDbLine
 10
-1288.046040610804
 20
-366.1034658691927
 30
0.0
 11
-1288.046040610804
 21
-348.1034658691927
 31
0.0
  0
LINE
  5
43F
330
18
100
AcDbEntity
  8
NORMALI
100
AcDbLine
 10
-1289.046040610804
 20
-367.1034658691927
 30
0.0
 11
-1289.046040610804
 21
-347.1034658691927
 31
0.0
  0
LINE
  5
440
330
18
100
AcDbEntity
  8
NORMALI
100
AcDbLine
 10
-1289.046040610804
 20
-367.1034658691927
 30
0.0
 11
-1288.046040610804
 21
-366.1034658691927
 31
0.0
  0
LINE
  5
441
330
18
100
AcDbEntity
  8
NORMALI
100
AcDbLine
 10
-1289.046040610804
 20
-347.1034658691927
 30
0.0
 11
-1288.046040610804
 21
-348.1034658691927
 31
0.0
  0
LINE
  5
445
330
18
100
AcDbEntity
  8
NORMALI
100
AcDbLine
 10
-1308.046040610804
 20
-306.1034658691936
 30
0.0
 11
-1289.046040610804
 21
-306.1034658691936
 31
0.0
  0
LINE
  5
446
330
18
100
AcDbEntity
  8
NORMALI
100
AcDbLine
 10
-1308.046040610804
 20
-326.1034658691936
 30
0.0
 11
-1289.046040610804
 21
-326.1034658691936
 31
0.0
  0
LINE
  5
447
330
18
100
AcDbEntity
  8
NORMALI
100
AcDbLine
 10
-1288.046040610804
 20
-307.1034658691936
 30
0.0
 11
-1288.046040610804
 21
-325.1034658691936
 31
0.0
  0
LINE
  5
448
330
18
100
AcDbEntity
  8
NORMALI
100
AcDbLine
 10
-1289.046040610804
 20
-306.1034658691936
 30
0.0
 11
-1289.046040610804
 21
-326.1034658691936
 31
0.0
  0
LINE
  5
449
330
18
100
AcDbEntity
  8
NORMALI
100
AcDbLine
 10
-1289.046040610804
 20
-326.1034658691936
 30
0.0
 11
-1288.046040610804
 21
-325.1034658691936
 31
0.0
  0
LINE
  5
44A
330
18
100
AcDbEntity
  8
NORMALI
100
AcDbLine
 10
-1289.046040610804
 20
-306.1034658691936
 30
0.0
 11
-1288.046040610804
 21
-307.1034658691936
 31
0.0
  0
CIRCLE
  5
44B
330
18
100
AcDbEntity
  8
NORMALI
100
AcDbCircle
 10
-1328.046040610802
 20
-296.1034658691931
 30
0.0
 40
5.0
1001
COMAU_ACADLIB
1000
00302053
1000
Vite T.C.E.I. UNI 5931 - M6x25 - 8.8
  0
LINE
  5
450
330
18
100
AcDbEntity
  8
DISEGNO
100
AcDbLine
 10
-967.9460406108043
 20
-246.6034658691932
 30
0.0
 11
-967.9460406108043
 21
-426.6034658691931
 31
0.0
  0
LINE
  5
451
330
18
100
AcDbEntity
  8
DISEGNO
100
AcDbLine
 10
-1177.946040610804
 20
-208.6034658691931
 30
0.0
 11
-1177.946040610804
 21
-464.6034658691931
 31
0.0
  0
LINE
  5
45A
330
18
100
AcDbEntity
  8
ASSI
100
AcDbLine
 10
-1167.033214086135
 20
-434.603465869194
 30
0.0
 11
-1148.858867135473
 21
-434.603465869194
 31
0.0
  0
LINE
  5
45B
330
18
100
AcDbEntity
  8
ASSI
100
AcDbLine
 10
-1167.23363111257
 20
-459.603465869194
 30
0.0
 11
-1148.858867135473
 21
-459.603465869194
 31
0.0
  0
LINE
  5
45C
330
18
100
AcDbEntity
  8
ASSI
100
AcDbLine
 10
-1167.033214086135
 20
-447.103465869194
 30
0.0
 11
-1148.858867135473
 21
-447.103465869194
 31
0.0
  0
LINE
  5
45E
330
18
100
AcDbEntity
  8
ASSI
100
AcDbLine
 10
-1157.946040610804
 20
-468.690639344525
 30
0.0
 11
-1157.946040610804
 21
-425.5162923938631
 31
0.0
  0
LINE
  5
45F
330
18
100
AcDbEntity
  8
DISEGNO
100
AcDbLine
 10
-1177.946040610804
 20
-464.6034658691931
 30
0.0
 11
-1175.946040610804
 21
-466.6034658691931
 31
0.0
  0
LINE
  5
462
330
18
100
AcDbEntity
  8
ASSI
100
AcDbLine
 10
-1152.946040610802
 20
-428.6018087338486
 30
0.0
 11
-1152.946040610802
 21
-405.3307439072157
 31
0.0
  0
LINE
  5
469
330
18
100
AcDbEntity
  8
ASSI
100
AcDbLine
 10
-1082.946040610804
 20
-428.6018087338486
 30
0.0
 11
-1082.946040610804
 21
-405.3307439072157
 31
0.0
  0
LINE
  5
46B
330
18
100
AcDbEntity
  8
ASSI
100
AcDbLine
 10
-987.9460406108041
 20
-468.690639344525
 30
0.0
 11
-987.9460406108023
 21
-425.5162923938631
 31
0.0
  0
LINE
  5
46C
330
18
100
AcDbEntity
  8
ASSI
100
AcDbLine
 10
-997.0332140861351
 20
-459.603465869194
 30
0.0
 11
-978.8588671354732
 21
-459.603465869194
 31
0.0
  0
LINE
  5
46D
330
18
100
AcDbEntity
  8
ASSI
100
AcDbLine
 10
-997.0332140861351
 20
-447.103465869194
 30
0.0
 11
-978.8588671354732
 21
-447.103465869194
 31
0.0
  0
LINE
  5
470
330
18
100
AcDbEntity
  8
ASSI
100
AcDbLine
 10
-997.0332140861332
 20
-434.603465869194
 30
0.0
 11
-978.8588671354732
 21
-434.603465869194
 31
0.0
  0
LINE
  5
471
330
18
100
AcDbEntity
  8
ASSI
100
AcDbLine
 10
-1012.946040610804
 20
-428.6018087338491
 30
0.0
 11
-1012.946040610804
 21
-405.3307439072161
 31
0.0
  0
LINE
  5
472
330
18
100
AcDbEntity
  8
ASSI
100
AcDbLine
 10
-942.9460406108042
 20
-405.3944090858952
 30
0.0
 11
-942.9460406108024
 21
-428.8125185861098
 31
0.0
  0
LINE
  5
485
330
18
100
AcDbEntity
  8
ASSI
100
AcDbLine
 10
-872.946040610806
 20
-405.70254317573
 30
0.0
 11
-872.946040610806
 21
-428.5043885626462
 31
0.0
  0
LINE
  5
48F
330
18
100
AcDbEntity
  8
ASSI
100
AcDbLine
 10
-712.9460406108059
 20
-405.7025431757336
 30
0.0
 11
-712.9460406108059
 21
-428.5043885626499
 31
0.0
  0
LINE
  5
4B5
330
18
100
AcDbEntity
  8
ASSI
100
AcDbLine
 10
-1167.23363111257
 20
-213.6034658691932
 30
0.0
 11
-1148.858867135473
 21
-213.6034658691932
 31
0.0
  0
LINE
  5
4B6
330
18
100
AcDbEntity
  8
ASSI
100
AcDbLine
 10
-1167.033214086135
 20
-226.1034658691932
 30
0.0
 11
-1148.858867135473
 21
-226.1034658691932
 31
0.0
  0
LINE
  5
4BA
330
18
100
AcDbEntity
  8
ASSI
100
AcDbLine
 10
-1167.033214086135
 20
-238.6034658691932
 30
0.0
 11
-1148.858867135473
 21
-238.6034658691932
 31
0.0
  0
LINE
  5
4BC
330
18
100
AcDbEntity
  8
ASSI
100
AcDbLine
 10
-1157.946040610804
 20
-204.5162923938622
 30
0.0
 11
-1157.946040610804
 21
-247.6906393445241
 31
0.0
  0
LINE
  5
4BD
330
18
100
AcDbEntity
  8
ASSI
100
AcDbLine
 10
-1152.946040610802
 20
-244.6051230045376
 30
0.0
 11
-1152.946040610802
 21
-267.8761878311705
 31
0.0
  0
LINE
  5
4C3
330
18
100
AcDbEntity
  8
DISEGNO
100
AcDbLine
 10
-1175.946040610804
 20
-206.6034658691931
 30
0.0
 11
-1177.946040610804
 21
-208.6034658691931
 31
0.0
  0
LINE
  5
4CB
330
18
100
AcDbEntity
  8
ASSI
100
AcDbLine
 10
-1082.946040610804
 20
-244.6051230045376
 30
0.0
 11
-1082.946040610804
 21
-267.8761878311705
 31
0.0
  0
LINE
  5
4CD
330
18
100
AcDbEntity
  8
ASSI
100
AcDbLine
 10
-987.9460406108041
 20
-204.5162923938622
 30
0.0
 11
-987.9460406108023
 21
-247.6906393445241
 31
0.0
  0
LINE
  5
4CE
330
18
100
AcDbEntity
  8
ASSI
100
AcDbLine
 10
-997.0332140861332
 20
-238.6034658691932
 30
0.0
 11
-978.8588671354732
 21
-238.6034658691932
 31
0.0
  0
LINE
  5
4CF
330
18
100
AcDbEntity
  8
ASSI
100
AcDbLine
 10
-1012.946040610804
 20
-244.6051230045371
 30
0.0
 11
-1012.946040610804
 21
-267.87618783117
 31
0.0
  0
LINE
  5
4D0
330
18
100
AcDbEntity
  8
ASSI
100
AcDbLine
 10
-997.0332140861351
 20
-213.6034658691932
 30
0.0
 11
-978.8588671354732
 21
-213.6034658691932
 31
0.0
  0
LINE
  5
4D1
330
18
100
AcDbEntity
  8
ASSI
100
AcDbLine
 10
-997.0332140861351
 20
-226.1034658691932
 30
0.0
 11
-978.8588671354732
 21
-226.1034658691932
 31
0.0
  0
LINE
  5
4DD
330
18
100
AcDbEntity
  8
ASSI
100
AcDbLine
 10
-942.9460406108042
 20
-267.812522652491
 30
0.0
 11
-942.9460406108024
 21
-244.3944131522761
 31
0.0
  0
LINE
  5
4E6
330
18
100
AcDbEntity
  8
ASSI
100
AcDbLine
 10
-872.946040610806
 20
-267.5043885626563
 30
0.0
 11
-872.946040610806
 21
-244.70254317574
 31
0.0
  0
LINE
  5
4F1
330
18
100
AcDbEntity
  8
ASSI
100
AcDbLine
 10
-712.9460406108059
 20
-267.5043885626522
 30
0.0
 11
-712.9460406108059
 21
-244.7025431757359
 31
0.0
  0
LINE
  5
4FB
330
18
100
AcDbEntity
  8
DISEGNO
100
AcDbLine
 10
-1343.046040610805
 20
100.0000000000002
 30
0.0
 11
-1178.257806304517
 21
100.0000000000002
 31
0.0
  0
LINE
  5
4FC
330
18
100
AcDbEntity
  8
DISEGNO
100
AcDbLine
 10
-1343.046040610805
 20
21.00000000000023
 30
0.0
 11
-1177.946040610804
 21
21.00000000000023
 31
0.0
  0
LINE
  5
4FD
330
18
100
AcDbEntity
  8
DISEGNO
100
AcDbLine
 10
-1343.046040610805
 20
29.00000000000023
 30
0.0
 11
-1177.946040610804
 21
29.00000000000023
 31
0.0
  0
LINE
  5
4FE
330
18
100
AcDbEntity
  8
DISEGNO
100
AcDbLine
 10
-1343.046040610805
 20
0.0000000000002274
 30
0.0
 11
-1177.946040610804
 21
0.0000000000002274
 31
0.0
  0
LINE
  5
504
330
18
100
AcDbEntity
  8
DISEGNO
100
AcDbLine
 10
-1287.686475093339
 20
79.00000000000613
 30
0.0
 11
-1343.046040610805
 21
79.00000000000114
 31
0.0
  0
LINE
  5
505
330
18
100
AcDbEntity
  8
DISEGNO
100
AcDbLine
 10
-1287.686475093339
 20
71.00000000000612
 30
0.0
 11
-1343.046040610805
 21
71.00000000000114
 31
0.0
  0
LINE
  5
512
330
18
100
AcDbEntity
  8
DISEGNO
100
AcDbLine
 10
-967.9460406108042
 20
128.9999999999993
 30
0.0
 11
-967.9460406108042
 21
248.9999999999998
 31
0.0
  0
LINE
  5
516
330
18
100
AcDbEntity
  8
DISEGNO
100
AcDbLine
 10
-1174.946040610804
 20
114.9999999999993
 30
0.0
 11
-1174.946040610802
 21
54.00000000000023
 31
0.0
  0
LINE
  5
517
330
18
100
AcDbEntity
  8
DISEGNO
100
AcDbLine
 10
-1177.946040610804
 20
128.9999999999993
 30
0.0
 11
-1177.946040610804
 21
51.00000000000022
 31
0.0
  0
LINE
  5
54E
330
18
100
AcDbEntity
  8
DISEGNO
100
AcDbLine
 10
-729.9460406108042
 20
141.0355860756451
 30
0.0
 11
-855.9460406108042
 21
141.0355860756447
 31
0.0
  0
LINE
  5
54F
330
18
100
AcDbEntity
  8
DISEGNO
100
AcDbLine
 10
-729.9460406108042
 20
141.0355860756456
 30
0.0
 11
-855.9460406108042
 21
141.0355860756447
 31
0.0
  0
LINE
  5
550
330
18
100
AcDbEntity
  8
DISEGNO
100
AcDbLine
 10
-857.9460406108042
 20
143.0355860756447
 30
0.0
 11
-857.9460406108042
 21
246.9999999999998
 31
0.0
  0
LINE
  5
554
330
18
100
AcDbEntity
  8
ASSI
100
AcDbLine
 10
-897.9460406108042
 20
146.7248574649687
 30
0.0
 11
-897.9460406108042
 21
172.9550779493564
 31
0.0
  0
LINE
  5
557
330
18
100
AcDbEntity
  8
ASSI
100
AcDbLine
 10
-913.2875384253679
 20
156.4999999999993
 30
0.0
 11
-882.6045427962403
 21
156.4999999999993
 31
0.0
  0
LINE
  5
564
330
18
100
AcDbEntity
  8
DISEGNO
100
AcDbLine
 10
-855.9460406108042
 20
141.0355860756447
 30
0.0
 11
-857.9460406108042
 21
143.0355860756447
 31
0.0
  0
LINE
  5
565
330
18
100
AcDbEntity
  8
DISEGNO
100
AcDbLine
 10
-855.9460406108042
 20
141.0355860756447
 30
0.0
 11
-857.9460406108042
 21
143.0355860756447
 31
0.0
  0
LINE
  5
56F
330
18
100
AcDbEntity
  8
DISEGNO
100
AcDbLine
 10
-857.9460406108042
 20
246.9999999999998
 30
0.0
 11
-855.9460406108042
 21
248.9999999999998
 31
0.0
  0
CIRCLE
  5
571
330
18
100
AcDbEntity
  8
NORMALI
100
AcDbCircle
 10
-792.9460406108042
 20
192.9999999999993
 30
0.0
 40
12.5
  0
LINE
  5
572
330
18
100
AcDbEntity
  8
DISEGNO
100
AcDbLine
 10
-727.9460406108041
 20
143.0355860756451
 30
0.0
 11
-727.9460406108041
 21
246.9999999999998
 31
0.0
  0
LINE
  5
578
330
18
100
AcDbEntity
  8
ASSI
100
AcDbLine
 10
-687.9460406108042
 20
146.9490473658051
 30
0.0
 11
-687.9460406108042
 21
173.2463512174525
 31
0.0
  0
LINE
  5
57A
330
18
100
AcDbEntity
  8
DISEGNO
100
AcDbLine
 10
-727.9460406108041
 20
143.0355860756451
 30
0.0
 11
-729.9460406108042
 21
141.0355860756451
 31
0.0
  0
LINE
  5
57B
330
18
100
AcDbEntity
  8
DISEGNO
100
AcDbLine
 10
-727.9460406108041
 20
143.0355860756456
 30
0.0
 11
-729.9460406108042
 21
141.0355860756456
 31
0.0
  0
LINE
  5
586
330
18
100
AcDbEntity
  8
DISEGNO
100
AcDbLine
 10
-727.9460406108041
 20
246.9999999999998
 30
0.0
 11
-729.9460406108042
 21
248.9999999999998
 31
0.0
  0
LINE
  5
589
330
18
100
AcDbEntity
  8
DISEGNO
100
AcDbLine
 10
-617.9460406108042
 20
-208.6034658691931
 30
0.0
 11
-617.9460406108042
 21
-464.603465869194
 31
0.0
  0
LINE
  5
58B
330
18
100
AcDbEntity
  8
DISEGNO
100
AcDbLine
 10
-619.9460406108041
 20
-466.603465869194
 30
0.0
 11
-617.9460406108042
 21
-464.603465869194
 31
0.0
  0
LINE
  5
596
330
18
100
AcDbEntity
  8
ASSI
100
AcDbLine
 10
-642.9460406108059
 20
-405.702543175735
 30
0.0
 11
-642.9460406108059
 21
-428.5043885626513
 31
0.0
  0
LINE
  5
599
330
18
100
AcDbEntity
  8
DISEGNO
100
AcDbLine
 10
-333.0460406108029
 20
-386.6034658691927
 30
0.0
 11
-602.0905263303879
 21
-386.6034658691932
 31
0.0
  0
LINE
  5
59A
330
18
100
AcDbEntity
  8
DISEGNO
100
AcDbLine
 10
-333.0460406108029
 20
-286.6034658691927
 30
0.0
 11
-602.0905263303898
 21
-286.6034658691932
 31
0.0
  0
LINE
  5
59B
330
18
100
AcDbEntity
  8
NORMALI
100
AcDbLine
 10
-443.046040610804
 20
-361.6034658691932
 30
0.0
 11
-602.0905263303898
 21
-361.6034658691932
 31
0.0
  0
LINE
  5
59C
330
18
100
AcDbEntity
  8
NORMALI
100
AcDbLine
 10
-443.046040610804
 20
-311.6034658691932
 30
0.0
 11
-602.0905263303898
 21
-311.6034658691932
 31
0.0
  0
LINE
  5
59D
330
18
100
AcDbEntity
  8
NORMALI
100
AcDbLine
 10
-432.9460406108055
 20
-271.1034658691928
 30
0.0
 11
-602.0905263303898
 21
-271.1034658691941
 31
0.0
  0
LINE
  5
59E
330
18
100
AcDbEntity
  8
NORMALI
100
AcDbLine
 10
-432.9460406108055
 20
-402.1034658691927
 30
0.0
 11
-592.0905263303898
 21
-402.1034658691931
 31
0.0
  0
LINE
  5
5A2
330
18
100
AcDbEntity
  8
NORMALI
100
AcDbLine
 10
-602.0905263303898
 20
-361.6034658691932
 30
0.0
 11
-617.9460406108042
 21
-361.6034658691932
 31
0.0
  0
LINE
  5
5A3
330
18
100
AcDbEntity
  8
DISEGNO
100
AcDbLine
 10
-602.0905263303879
 20
-386.6034658691932
 30
0.0
 11
-617.9460406108042
 21
-386.6034658691932
 31
0.0
  0
LINE
  5
5A4
330
18
100
AcDbEntity
  8
NORMALI
100
AcDbLine
 10
-592.0905263303898
 20
-402.1034658691931
 30
0.0
 11
-617.9460406108042
 21
-402.1034658691931
 31
0.0
  0
LINE
  5
5A9
330
18
100
AcDbEntity
  8
NORMALI
100
AcDbLine
 10
-602.0905263303898
 20
-271.1034658691941
 30
0.0
 11
-617.9460406108042
 21
-271.1034658691931
 31
0.0
  0
LINE
  5
5AA
330
18
100
AcDbEntity
  8
DISEGNO
100
AcDbLine
 10
-602.0905263303898
 20
-286.6034658691932
 30
0.0
 11
-618.5460406108063
 21
-286.6034658691932
 31
0.0
  0
LINE
  5
5AB
330
18
100
AcDbEntity
  8
NORMALI
100
AcDbLine
 10
-602.0905263303898
 20
-311.6034658691932
 30
0.0
 11
-617.9460406108042
 21
-311.6034658691932
 31
0.0
  0
LINE
  5
5B4
330
18
100
AcDbEntity
  8
ASSI
100
AcDbLine
 10
-642.9460406108059
 20
-267.5043885626513
 30
0.0
 11
-642.9460406108059
 21
-244.702543175735
 31
0.0
  0
LINE
  5
5BB
330
18
100
AcDbEntity
  8
DISEGNO
100
AcDbLine
 10
-619.9460406108041
 20
-206.6034658691931
 30
0.0
 11
-617.9460406108042
 21
-208.6034658691931
 31
0.0
  0
LINE
  5
5BC
330
18
100
AcDbEntity
  8
DISEGNO
100
AcDbLine
 10
-407.9460406108064
 20
-286.6034658691927
 30
0.0
 11
-407.9460406108064
 21
-386.6034658691927
 31
0.0
  0
LINE
  5
5BD
330
18
100
AcDbEntity
  8
DISEGNO
100
AcDbLine
 10
-346.0460893480031
 20
-286.6034658691936
 30
0.0
 11
-346.0460893480031
 21
-386.6034658691932
 31
0.0
  0
LINE
  5
5BE
330
18
100
AcDbEntity
  8
DISEGNO
100
AcDbLine
 10
-333.0460406108029
 20
-286.6034658691932
 30
0.0
 11
-333.0460406108029
 21
-386.6034658691932
 31
0.0
  0
LINE
  5
5BF
330
18
100
AcDbEntity
  8
DISEGNO
100
AcDbLine
 10
-343.046040610805
 20
-286.6034658691932
 30
0.0
 11
-343.046040610805
 21
-386.6034658691932
 31
0.0
  0
LINE
  5
5C0
330
18
100
AcDbEntity
  8
DISEGNO
100
AcDbLine
 10
-443.046040610804
 20
-287.6034658691931
 30
0.0
 11
-443.046040610804
 21
-385.6034658691931
 31
0.0
  0
LINE
  5
5C2
330
18
100
AcDbEntity
  8
NORMALI
100
AcDbLine
 10
-432.9460406108055
 20
-402.1034658691927
 30
0.0
 11
-432.9460406108055
 21
-386.6034658691928
 31
0.0
  0
LINE
  5
5C3
330
18
100
AcDbEntity
  8
DISEGNO
100
AcDbLine
 10
-443.046040610804
 20
-385.6034658691931
 30
0.0
 11
-442.046040610804
 21
-386.6034658691931
 31
0.0
  0
LINE
  5
5C6
330
18
100
AcDbEntity
  8
NORMALI
100
AcDbLine
 10
-407.9460406108045
 20
-347.1034658691922
 30
0.0
 11
-426.9460406108046
 21
-347.1034658691922
 31
0.0
  0
LINE
  5
5C7
330
18
100
AcDbEntity
  8
NORMALI
100
AcDbLine
 10
-407.9460406108045
 20
-367.1034658691922
 30
0.0
 11
-426.9460406108046
 21
-367.1034658691922
 31
0.0
  0
LINE
  5
5C8
330
18
100
AcDbEntity
  8
NORMALI
100
AcDbLine
 10
-427.9460406108046
 20
-366.1034658691922
 30
0.0
 11
-427.9460406108046
 21
-348.1034658691922
 31
0.0
  0
LINE
  5
5C9
330
18
100
AcDbEntity
  8
NORMALI
100
AcDbLine
 10
-426.9460406108046
 20
-367.1034658691922
 30
0.0
 11
-426.9460406108046
 21
-347.1034658691922
 31
0.0
  0
LINE
  5
5CA
330
18
100
AcDbEntity
  8
NORMALI
100
AcDbLine
 10
-426.9460406108055
 20
-367.1034658691922
 30
0.0
 11
-427.9460406108055
 21
-366.1034658691922
 31
0.0
  0
LINE
  5
5CB
330
18
100
AcDbEntity
  8
NORMALI
100
AcDbLine
 10
-426.9460406108046
 20
-347.1034658691922
 30
0.0
 11
-427.9460406108046
 21
-348.1034658691922
 31
0.0
  0
LINE
  5
5CF
330
18
100
AcDbEntity
  8
DISEGNO
100
AcDbLine
 10
-344.046040610805
 20
-386.6034658691932
 30
0.0
 11
-343.046040610805
 21
-385.6034658691931
 31
0.0
  0
LINE
  5
5D1
330
18
100
AcDbEntity
  8
NORMALI
100
AcDbLine
 10
-407.9460406108045
 20
-306.1034658691923
 30
0.0
 11
-426.9460406108046
 21
-306.1034658691923
 31
0.0
  0
LINE
  5
5D2
330
18
100
AcDbEntity
  8
NORMALI
100
AcDbLine
 10
-407.9460406108045
 20
-326.1034658691922
 30
0.0
 11
-426.9460406108046
 21
-326.1034658691922
 31
0.0
  0
LINE
  5
5D3
330
18
100
AcDbEntity
  8
NORMALI
100
AcDbLine
 10
-427.9460406108046
 20
-307.1034658691922
 30
0.0
 11
-427.9460406108046
 21
-325.1034658691922
 31
0.0
  0
LINE
  5
5D4
330
18
100
AcDbEntity
  8
NORMALI
100
AcDbLine
 10
-426.9460406108046
 20
-306.1034658691923
 30
0.0
 11
-426.9460406108046
 21
-326.1034658691922
 31
0.0
  0
LINE
  5
5D5
330
18
100
AcDbEntity
  8
NORMALI
100
AcDbLine
 10
-426.9460406108046
 20
-326.1034658691922
 30
0.0
 11
-427.9460406108046
 21
-325.1034658691922
 31
0.0
  0
LINE
  5
5D6
330
18
100
AcDbEntity
  8
NORMALI
100
AcDbLine
 10
-426.9460406108055
 20
-306.1034658691923
 30
0.0
 11
-427.9460406108055
 21
-307.1034658691922
 31
0.0
  0
LINE
  5
5D7
330
18
100
AcDbEntity
  8
DISEGNO
100
AcDbLine
 10
-442.046040610804
 20
-286.6034658691931
 30
0.0
 11
-443.046040610804
 21
-287.6034658691931
 31
0.0
  0
LINE
  5
5D8
330
18
100
AcDbEntity
  8
NORMALI
100
AcDbLine
 10
-432.9460406108055
 20
-271.1034658691928
 30
0.0
 11
-432.9460406108055
 21
-286.6034658691928
 31
0.0
  0
LINE
  5
5DE
330
18
100
AcDbEntity
  8
DISEGNO
100
AcDbLine
 10
-343.046040610805
 20
-287.6049259624877
 30
0.0
 11
-344.046040610805
 21
-286.6049259624877
 31
0.0
  0
LINE
  5
5DF
330
18
100
AcDbEntity
  8
DISEGNO
100
AcDbLine
 10
-1607.004425099605
 20
128.9999999999993
 30
0.0
 11
-1687.003425099606
 21
128.9999571293037
 31
0.0
  0
LINE
  5
5E0
330
18
100
AcDbEntity
  8
DISEGNO
  6
Continuous
100
AcDbLine
 10
-1607.003925099606
 20
114.9996065729713
 30
0.0
 11
-1687.003425099606
 21
114.9999571293033
 31
0.0
  0
LINE
  5
5E1
330
18
100
AcDbEntity
  8
DISEGNO
100
AcDbLine
 10
-407.9460406108064
 20
138.000000000002
 30
0.0
 11
-407.9460406108064
 21
113.0000000000002
 31
0.0
  0
LINE
  5
5E2
330
18
100
AcDbEntity
  8
DISEGNO
100
AcDbLine
 10
-343.046040610805
 20
135.000000000002
 30
0.0
 11
-343.0460406108041
 21
113.0000000000002
 31
0.0
  0
LINE
  5
5E4
330
18
100
AcDbEntity
  8
ASSI
100
AcDbLine
 10
-642.0515611877108
 20
125.797699169874
 30
0.0
 11
-642.0515611877108
 21
150.4663688631528
 31
0.0
  0
LINE
  5
5E5
330
18
100
AcDbEntity
  8
DISEGNO
100
AcDbLine
 10
-617.9460406108055
 20
249.0000000000002
 30
0.0
 11
-617.9460406108042
 21
51.00000000000022
 31
0.0
  0
LINE
  5
5E6
330
18
100
AcDbEntity
  8
NORMALI
100
AcDbLine
 10
-427.9460406108064
 20
136.000000000002
 30
0.0
 11
-427.9460406108064
 21
118.000000000002
 31
0.0
  0
LINE
  5
5E7
330
18
100
AcDbEntity
  8
NORMALI
100
AcDbLine
 10
-426.9460406108064
 20
137.000000000002
 30
0.0
 11
-426.9460406108064
 21
117.000000000002
 31
0.0
  0
LINE
  5
5E8
330
18
100
AcDbEntity
  8
DISEGNO
100
AcDbLine
 10
-601.196046907296
 20
20.99999999999932
 30
0.0
 11
-343.0460406108041
 21
21.00000000000023
 31
0.0
  0
LINE
  5
5E9
330
18
100
AcDbEntity
  8
DISEGNO
100
AcDbLine
 10
-591.196046907296
 20
29.00000000000023
 30
0.0
 11
-343.0460406108041
 21
28.99999999999932
 31
0.0
  0
LINE
  5
5EA
330
18
100
AcDbEntity
  8
DISEGNO
100
AcDbLine
 10
-343.0460406108041
 20
100.0000000000002
 30
0.0
 11
-590.428912224444
 21
100.0000000000002
 31
0.0
  0
LINE
  5
5EB
330
18
100
AcDbEntity
  8
DISEGNO
100
AcDbLine
 10
-333.0460406108041
 20
0.0000000000002274
 30
0.0
 11
-591.196046907296
 21
-0.0000000000006821
 31
0.0
  0
LINE
  5
5EC
330
18
100
AcDbEntity
  8
NORMALI
100
AcDbLine
 10
-591.196046907296
 20
65.00000000000023
 30
0.0
 11
-432.9460406108055
 21
65.00000000000023
 31
0.0
  0
LINE
  5
5ED
330
18
100
AcDbEntity
  8
NORMALI
100
AcDbLine
 10
-601.196046907296
 20
85.00000000000023
 30
0.0
 11
-432.9460406108055
 21
85.00000000000023
 31
0.0
  0
LINE
  5
5EE
330
18
100
AcDbEntity
  8
NORMALI
100
AcDbLine
 10
-443.046040610804
 20
101.9999999999993
 30
0.0
 11
-597.330730807725
 21
101.9999999999993
 31
0.0
  0
LINE
  5
5EF
330
18
100
AcDbEntity
  8
NORMALI
100
AcDbLine
 10
-443.046040610804
 20
106.5000000000002
 30
0.0
 11
-591.196046907296
 21
106.5000000000002
 31
0.0
  0
LINE
  5
5F2
330
18
100
AcDbEntity
  8
DISEGNO
100
AcDbLine
 10
-620.9460406108023
 20
114.9999999999993
 30
0.0
 11
-620.9460406108023
 21
54.00000000000023
 31
0.0
  0
LINE
  5
5F5
330
18
100
AcDbEntity
  8
DISEGNO
100
AcDbLine
 10
-622.9460406108041
 20
28.99999999999932
 30
0.0
 11
-591.196046907296
 21
29.00000000000023
 31
0.0
  0
LINE
  5
5F6
330
18
100
AcDbEntity
  8
DISEGNO
100
AcDbLine
 10
-622.9460406108041
 20
20.99999999999932
 30
0.0
 11
-601.196046907296
 21
20.99999999999932
 31
0.0
  0
LINE
  5
5FB
330
18
100
AcDbEntity
  8
DISEGNO
100
AcDbLine
 10
-590.428912224444
 20
100.0000000000002
 30
0.0
 11
-617.9460406108042
 21
99.99999999999932
 31
0.0
  0
LINE
  5
5FC
330
18
100
AcDbEntity
  8
NORMALI
100
AcDbLine
 10
-591.196046907296
 20
106.5000000000002
 30
0.0
 11
-617.9460406108023
 21
106.5000000000002
 31
0.0
  0
LINE
  5
5FD
330
18
100
AcDbEntity
  8
NORMALI
100
AcDbLine
 10
-597.330730807725
 20
101.9999999999993
 30
0.0
 11
-617.9460406108023
 21
101.9999999999993
 31
0.0
  0
LINE
  5
5FE
330
18
100
AcDbEntity
  8
NORMALI
100
AcDbLine
 10
-617.9460406108042
 20
85.00000000000023
 30
0.0
 11
-601.196046907296
 21
85.00000000000023
 31
0.0
  0
LINE
  5
5FF
330
18
100
AcDbEntity
  8
NORMALI
100
AcDbLine
 10
-617.9460406108042
 20
65.00000000000023
 30
0.0
 11
-591.196046907296
 21
65.00000000000023
 31
0.0
  0
LINE
  5
608
330
18
100
AcDbEntity
  8
DISEGNO
100
AcDbLine
 10
-333.0460406108032
 20
114.9999999999993
 30
0.0
 11
-333.0460406108041
 21
0.0000000000002274
 31
0.0
  0
LINE
  5
609
330
18
100
AcDbEntity
  8
DISEGNO
100
AcDbLine
 10
-343.0460406108041
 20
113.0000000000002
 30
0.0
 11
-343.0460406108041
 21
0.0000000000002274
 31
0.0
  0
LINE
  5
60B
330
18
100
AcDbEntity
  8
DISEGNO
100
AcDbLine
 10
-343.0460406108041
 20
70.99999999999932
 30
0.0
 11
-433.0410406108057
 21
70.99999999999932
 31
0.0
  0
LINE
  5
60C
330
18
100
AcDbEntity
  8
DISEGNO
100
AcDbLine
 10
-343.0460406108041
 20
79.00000000000023
 30
0.0
 11
-433.0410406108057
 21
79.00000000000023
 31
0.0
  0
LINE
  5
60D
330
18
100
AcDbEntity
  8
DISEGNO
100
AcDbLine
 10
-343.0460406108041
 20
112.9999999999993
 30
0.0
 11
-443.046040610804
 21
112.9999999999993
 31
0.0
  0
LINE
  5
60E
330
18
100
AcDbEntity
  8
NORMALI
100
AcDbLine
 10
-432.9460406108055
 20
85.00000000000023
 30
0.0
 11
-432.9460406108046
 21
65.00000000000023
 31
0.0
  0
LINE
  5
60F
330
18
100
AcDbEntity
  8
NORMALI
100
AcDbLine
 10
-407.9460406108064
 20
117.000000000002
 30
0.0
 11
-426.8510406108061
 21
117.000000000002
 31
0.0
  0
LINE
  5
610
330
18
100
AcDbEntity
  8
DISEGNO
100
AcDbLine
 10
-443.046040610804
 20
100.0000000000002
 30
0.0
 11
-443.046040610804
 21
112.9999999999993
 31
0.0
  0
LINE
  5
611
330
18
100
AcDbEntity
  8
NORMALI
100
AcDbLine
 10
-426.8510406108061
 20
117.000000000002
 30
0.0
 11
-427.8510406108061
 21
118.000000000002
 31
0.0
  0
LINE
  5
612
330
18
100
AcDbEntity
  8
DISEGNO
100
AcDbLine
 10
-333.0460406108032
 20
114.9999999999993
 30
0.0
 11
-343.0460406108041
 21
114.9999999999993
 31
0.0
  0
LINE
  5
613
330
18
100
AcDbEntity
  8
DISEGNO
100
AcDbLine
 10
-1687.003425099606
 20
128.9999571293037
 30
0.0
 11
-1687.003425099606
 21
114.9999571293033
 31
0.0
  0
LINE
  5
623
330
18
100
AcDbEntity
  8
DISEGNO
100
AcDbLine
 10
-407.9460406108064
 20
138.000000000002
 30
0.0
 11
-346.0460406108041
 21
138.000000000002
 31
0.0
  0
LINE
  5
624
330
18
100
AcDbEntity
  8
NORMALI
100
AcDbLine
 10
-407.9460406108064
 20
137.000000000002
 30
0.0
 11
-426.9460406108064
 21
137.000000000002
 31
0.0
  0
LINE
  5
625
330
18
100
AcDbEntity
  8
NORMALI
100
AcDbLine
 10
-426.9460406108064
 20
137.000000000002
 30
0.0
 11
-427.9460406108064
 21
136.000000000002
 31
0.0
  0
LINE
  5
626
330
18
100
AcDbEntity
  8
DISEGNO
100
AcDbLine
 10
-346.046040610805
 20
138.000000000002
 30
0.0
 11
-343.046040610805
 21
135.000000000002
 31
0.0
  0
LINE
  5
627
330
18
100
AcDbEntity
  8
ASSI
100
AcDbLine
 10
-1637.503425099606
 20
150.1083808625337
 30
0.0
 11
-1637.503425099607
 21
112.7969586326942
 31
0.0
  0
LINE
  5
628
330
18
100
AcDbEntity
  8
ASSI
100
AcDbLine
 10
-1476.503425099606
 20
112.7969586326942
 30
0.0
 11
-1476.503425099606
 21
150.5117695366095
 31
0.0
  0
LINE
  5
629
330
18
100
AcDbEntity
  8
DISEGNO
100
AcDbLine
 10
-1507.003334981621
 20
137.0000000000011
 30
0.0
 11
-1507.003334981622
 21
114.9999999999988
 31
0.0
  0
LINE
  5
62A
330
18
100
AcDbEntity
  8
DISEGNO
100
AcDbLine
 10
-1607.004425099605
 20
137.0000000000011
 30
0.0
 11
-1607.004425099605
 21
114.9999999999991
 31
0.0
  0
LINE
  5
62B
330
18
100
AcDbEntity
  8
DISEGNO
100
AcDbLine
 10
-1461.696165099606
 20
136.9999999999997
 30
0.0
 11
-1461.696165099606
 21
128.9999999999998
 31
0.0
  0
LINE
  5
62C
330
18
100
AcDbEntity
  8
DISEGNO
100
AcDbLine
 10
-1652.096165099606
 20
136.9999999999997
 30
0.0
 11
-1652.096165099606
 21
128.9999999999998
 31
0.0
  0
LINE
  5
62D
330
18
100
AcDbEntity
  8
ASSI
100
AcDbLine
 10
-1557.003425099606
 20
-30.08876137283392
 30
0.0
 11
-1557.003425099606
 21
264.5565932735458
 31
0.0
  0
LINE
  5
67A
330
18
100
AcDbEntity
  8
DISEGNO
100
AcDbLine
 10
-1641.696165099606
 20
129.4999999999993
 30
0.0
 11
-1607.004425099605
 21
129.4999999999993
 31
0.0
  0
ARC
  5
67B
330
18
100
AcDbEntity
  8
DISEGNO
100
AcDbCircle
 10
-1641.696165099604
 20
129.0999999999978
 30
0.0
 40
0.4000000000017394
100
AcDbArc
 50
90.00000000023614
 51
179.9999999997394
  0
LINE
  5
67D
330
18
100
AcDbEntity
  8
DISEGNO
100
AcDbLine
 10
-1469.002425099606
 20
50.99974022121694
 30
0.0
 11
-1469.002425099606
 21
114.9997402212168
 31
0.0
  0
LINE
  5
682
330
18
100
AcDbEntity
  8
DISEGNO
100
AcDbLine
 10
-1469.002425099606
 20
50.99974022121694
 30
0.0
 11
-1505.003125099606
 21
50.99974022121694
 31
0.0
  0
LINE
  5
684
330
18
100
AcDbEntity
  8
DISEGNO
100
AcDbLine
 10
-1505.003125099606
 20
114.994377450446
 30
0.0
 11
-1505.003125099606
 21
84.99974022121694
 31
0.0
  0
LINE
  5
686
330
18
100
AcDbEntity
  8
DISEGNO
100
AcDbLine
 10
-1487.903625099606
 20
50.99974022121694
 30
0.0
 11
-1469.002425099606
 21
50.99974022121694
 31
0.0
  0
LINE
  5
690
330
18
100
AcDbEntity
  8
DISEGNO
100
AcDbLine
 10
-1427.003425099606
 20
128.9999999999993
 30
0.0
 11
-1507.003425099606
 21
128.9999999999993
 31
0.0
  0
LINE
  5
691
330
18
100
AcDbEntity
  8
DISEGNO
  6
Continuous
100
AcDbLine
 10
-1427.003425099606
 20
114.9999999999993
 30
0.0
 11
-1507.003334981622
 21
114.9999999999988
 31
0.0
  0
LINE
  5
697
330
18
100
AcDbEntity
  8
NORMALI
100
AcDbLine
 10
-1491.380547303028
 20
64.99974022121694
 30
0.0
 11
-1505.823125099606
 21
64.99974022121694
 31
0.0
  0
LINE
  5
698
330
18
100
AcDbEntity
  8
NORMALI
100
AcDbLine
 10
-1507.003125099606
 20
66.17974022121723
 30
0.0
 11
-1505.823125099606
 21
64.99974022121694
 31
0.0
  0
LINE
  5
69C
330
18
100
AcDbEntity
  8
NORMALI
100
AcDbLine
 10
-1491.503125099606
 20
84.99974022121694
 30
0.0
 11
-1505.823125099606
 21
84.99974022121694
 31
0.0
  0
LINE
  5
69D
330
18
100
AcDbEntity
  8
NORMALI
100
AcDbLine
 10
-1507.003125099606
 20
83.81974022121756
 30
0.0
 11
-1505.823125099606
 21
84.99974022121694
 31
0.0
  0
LINE
  5
6A0
330
18
100
AcDbEntity
  8
NORMALI
100
AcDbLine
 10
-1491.503125099606
 20
84.99974022121694
 30
0.0
 11
-1491.503125099606
 21
64.99974022121694
 31
0.0
  0
LINE
  5
6C9
330
18
100
AcDbEntity
  8
DISEGNO
100
AcDbLine
 10
-1472.096165099606
 20
129.4999999999993
 30
0.0
 11
-1507.003425099606
 21
129.4999999999993
 31
0.0
  0
ARC
  5
6CA
330
18
100
AcDbEntity
  8
DISEGNO
100
AcDbCircle
 10
-1472.096165099608
 20
129.0999999999978
 30
0.0
 40
0.4000000000017394
100
AcDbArc
 50
0.0000000002605581
 51
89.99999999976386
  0
LINE
  5
6CB
330
18
100
AcDbEntity
  8
DISEGNO
100
AcDbLine
 10
-1427.003425099606
 20
128.9999999999993
 30
0.0
 11
-1427.003425099606
 21
114.9999999999993
 31
0.0
  0
LINE
  5
6CC
330
18
100
AcDbEntity
  8
ASSI
100
AcDbLine
 10
-1498.79061160018
 20
192.9999999999993
 30
0.0
 11
-1615.216238599032
 21
192.9999999999993
 31
0.0
  0
LINE
  5
6CD
330
18
100
AcDbEntity
  8
DISEGNO
100
AcDbLine
 10
-1502.896165099607
 20
248.9999999999993
 30
0.0
 11
-1610.896165099604
 21
248.9999999999998
 31
0.0
  0
LINE
  5
6D4
330
18
100
AcDbEntity
  8
DISEGNO
100
AcDbLine
 10
-1507.003334981621
 20
137.0000000000011
 30
0.0
 11
-1607.004425099605
 21
137.0000000000011
 31
0.0
  0
LINE
  5
6DA
330
18
100
AcDbEntity
  8
DISEGNO
100
AcDbLine
 10
-1610.896165099604
 20
140.9999999999993
 30
0.0
 11
-1610.896165099604
 21
248.9999999999993
 31
0.0
  0
LINE
  5
6DB
330
18
100
AcDbEntity
  8
DISEGNO
100
AcDbLine
 10
-1602.096165099606
 20
248.9999999999998
 30
0.0
 11
-1602.096165099606
 21
153.9999999999966
 31
0.0
  0
LINE
  5
6DC
330
18
100
AcDbEntity
  8
DISEGNO
100
AcDbLine
 10
-1592.096165099606
 20
137.0001110725627
 30
0.0
 11
-1592.096165099604
 21
248.9999999999995
 31
0.0
  0
LINE
  5
6DD
330
18
100
AcDbEntity
  8
DISEGNO
  6
DASHED
 62
     8
100
AcDbLine
 10
-1604.896165099604
 20
227.9999999999993
 30
0.0
 11
-1604.896165099604
 21
157.9999999999993
 31
0.0
  0
ARC
  5
6E0
330
18
100
AcDbEntity
  8
DISEGNO
100
AcDbCircle
 10
-1617.096165099609
 20
153.9999999999998
 30
0.0
 40
15.00000000000006
100
AcDbArc
 50
270.0000000000108
 51
359.9999999999883
  0
LINE
  5
6F0
330
18
100
AcDbEntity
  8
DISEGNO
100
AcDbLine
 10
-1633.295165099606
 20
138.9999999999997
 30
0.0
 11
-1650.096165099606
 21
138.9999999999997
 31
0.0
  0
ARC
  5
6F1
330
18
100
AcDbEntity
  8
DISEGNO
100
AcDbCircle
 10
-1650.096165099606
 20
136.9999999999997
 30
0.0
 40
2.0
100
AcDbArc
 50
90.0
 51
180.0
  0
LINE
  5
6F3
330
18
100
AcDbEntity
  8
DISEGNO
100
AcDbLine
 10
-1617.096165099606
 20
138.9999999999997
 30
0.0
 11
-1633.295165099606
 21
138.9999999999997
 31
0.0
  0
LINE
  5
6F8
330
18
100
AcDbEntity
  8
DISEGNO
100
AcDbLine
 10
-1610.896165099604
 20
140.9999999999993
 30
0.0
 11
-1609.612850326062
 21
140.9999999999991
 31
0.0
  0
LINE
  5
6F9
330
18
100
AcDbEntity
  8
DISEGNO
  6
DASHED
 62
     8
100
AcDbLine
 10
-1604.896165099604
 20
157.9999999999993
 30
0.0
 11
-1610.896165099604
 21
157.9999999999993
 31
0.0
  0
ARC
  5
70E
330
18
100
AcDbEntity
  8
DISEGNO
100
AcDbCircle
 10
-1600.096165099606
 20
246.9999999999998
 30
0.0
 40
2.0
100
AcDbArc
 50
90.0
 51
180.0
  0
LINE
  5
70F
330
18
100
AcDbEntity
  8
DISEGNO
  6
DASHED
 62
     8
100
AcDbLine
 10
-1604.896165099604
 20
227.9999999999993
 30
0.0
 11
-1610.896165099604
 21
227.9999999999993
 31
0.0
  0
LINE
  5
723
330
18
100
AcDbEntity
  8
DISEGNO
100
AcDbLine
 10
-1502.896165099608
 20
140.9999999999993
 30
0.0
 11
-1502.896165099608
 21
248.9999999999993
 31
0.0
  0
LINE
  5
724
330
18
100
AcDbEntity
  8
DISEGNO
100
AcDbLine
 10
-1511.696165099609
 20
248.9999999999998
 30
0.0
 11
-1511.696165099574
 21
153.9999999999943
 31
0.0
  0
LINE
  5
725
330
18
100
AcDbEntity
  8
DISEGNO
100
AcDbLine
 10
-1521.696165099606
 20
137.0000000000006
 30
0.0
 11
-1521.696165099609
 21
248.9999999999993
 31
0.0
  0
LINE
  5
726
330
18
100
AcDbEntity
  8
DISEGNO
  6
DASHED
 62
     8
100
AcDbLine
 10
-1508.896165099608
 20
227.9999999999993
 30
0.0
 11
-1508.896165099603
 21
157.9999999999993
 31
0.0
  0
LINE
  5
729
330
18
100
AcDbEntity
  8
DISEGNO
100
AcDbLine
 10
-1480.497165099606
 20
138.9999999999997
 30
0.0
 11
-1463.696165099606
 21
138.9999999999997
 31
0.0
  0
ARC
  5
72A
330
18
100
AcDbEntity
  8
DISEGNO
100
AcDbCircle
 10
-1496.696165099606
 20
153.9999999999998
 30
0.0
 40
15.00000000000001
100
AcDbArc
 50
180.0000000000209
 51
270.0000000000005
  0
LINE
  5
72F
330
18
100
AcDbEntity
  8
DISEGNO
100
AcDbLine
 10
-1502.896165099608
 20
140.9999999999993
 30
0.0
 11
-1504.179479873153
 21
140.9999999999991
 31
0.0
  0
LINE
  5
734
330
18
100
AcDbEntity
  8
DISEGNO
  6
DASHED
 62
     8
100
AcDbLine
 10
-1508.896165099608
 20
157.9999999999993
 30
0.0
 11
-1502.896165099608
 21
157.9999999999993
 31
0.0
  0
LINE
  5
736
330
18
100
AcDbEntity
  8
DISEGNO
100
AcDbLine
 10
-1496.696165099606
 20
138.9999999999997
 30
0.0
 11
-1480.497165099606
 21
138.9999999999997
 31
0.0
  0
ARC
  5
74B
330
18
100
AcDbEntity
  8
DISEGNO
100
AcDbCircle
 10
-1463.696165099606
 20
136.9999999999997
 30
0.0
 40
2.0
100
AcDbArc
 50
0.000000000000007
 51
90.0
  0
LINE
  5
752
330
18
100
AcDbEntity
  8
DISEGNO
  6
DASHED
 62
     8
100
AcDbLine
 10
-1508.896165099608
 20
227.9999999999993
 30
0.0
 11
-1502.896165099608
 21
227.9999999999993
 31
0.0
  0
ARC
  5
754
330
18
100
AcDbEntity
  8
DISEGNO
100
AcDbCircle
 10
-1513.696165099606
 20
246.9999999999998
 30
0.0
 40
2.0
100
AcDbArc
 50
0.000000000000007
 51
90.0
  0
LINE
  5
758
330
18
100
AcDbEntity
  8
DISEGNO
100
AcDbLine
 10
-1521.896165099606
 20
248.9999999999998
 30
0.0
 11
-1513.696165099606
 21
248.9999999999998
 31
0.0
  0
LINE
  5
763
330
18
100
AcDbEntity
  8
DISEGNO
100
AcDbLine
 10
-1505.003125099606
 20
64.99974022121694
 30
0.0
 11
-1505.003125099606
 21
50.99974022121694
 31
0.0
  0
LINE
  5
768
330
18
100
AcDbEntity
  8
DISEGNO
100
AcDbLine
 10
-1645.004425099606
 20
50.99974022121694
 30
0.0
 11
-1609.003725099605
 21
50.99974022121694
 31
0.0
  0
LINE
  5
769
330
18
100
AcDbEntity
  8
DISEGNO
100
AcDbLine
 10
-1609.003725099605
 20
64.99974022121694
 30
0.0
 11
-1609.003725099605
 21
50.99974022121694
 31
0.0
  0
LINE
  5
772
330
18
100
AcDbEntity
  8
NORMALI
100
AcDbLine
 10
-1607.003725099605
 20
66.17974022121723
 30
0.0
 11
-1608.183725099606
 21
64.99974022121694
 31
0.0
  0
LINE
  5
773
330
18
100
AcDbEntity
  8
NORMALI
100
AcDbLine
 10
-1622.503725099605
 20
64.99974022121694
 30
0.0
 11
-1608.183725099606
 21
64.99974022121694
 31
0.0
  0
LINE
  5
77A
330
18
100
AcDbEntity
  8
NORMALI
100
AcDbLine
 10
-1607.003725099605
 20
83.81974022121756
 30
0.0
 11
-1608.183725099606
 21
84.99974022121694
 31
0.0
  0
LINE
  5
77B
330
18
100
AcDbEntity
  8
NORMALI
100
AcDbLine
 10
-1622.503725099605
 20
84.99974022121694
 30
0.0
 11
-1608.183725099606
 21
84.99974022121694
 31
0.0
  0
LINE
  5
77F
330
18
100
AcDbEntity
  8
DISEGNO
100
AcDbLine
 10
-1626.103225099606
 20
50.99974022121694
 30
0.0
 11
-1645.004425099606
 21
50.99974022121694
 31
0.0
  0
LINE
  5
781
330
18
100
AcDbEntity
  8
NORMALI
100
AcDbLine
 10
-1622.503725099605
 20
84.99974022121694
 30
0.0
 11
-1622.503725099605
 21
64.99974022121694
 31
0.0
  0
LINE
  5
792
330
18
100
AcDbEntity
  8
DISEGNO
100
AcDbLine
 10
-1645.004425099606
 20
50.99974022121694
 30
0.0
 11
-1645.004425099606
 21
114.9997402212168
 31
0.0
  0
LINE
  5
793
330
18
100
AcDbEntity
  8
DISEGNO
100
AcDbLine
 10
-1609.003725099605
 20
114.994377450446
 30
0.0
 11
-1609.003725099605
 21
84.99974022121694
 31
0.0
  0
LINE
  5
861
330
18
100
AcDbEntity
  8
DISEGNO
100
AcDbLine
 10
-1487.902925099605
 20
50.99974022121694
 30
0.0
 11
-1469.002425099606
 21
50.99974022121694
 31
0.0
  0
LINE
  5
88B
330
18
100
AcDbEntity
  8
0
100
AcDbLine
 10
-1243.046040610804
 20
111.9999999999993
 30
0.0
 11
-1343.046040610805
 21
111.9999999999993
 31
0.0
  0
LINE
  5
8CE
330
18
100
AcDbEntity
  8
NORMALI
100
AcDbLine
 10
-1308.046040610804
 20
113.0000000000018
 30
0.0
 11
-1289.046040610804
 21
113.0000000000018
 31
0.0
  0
LINE
  5
8CF
330
18
100
AcDbEntity
  8
NORMALI
100
AcDbLine
 10
-1288.046040610804
 20
132.0000000000018
 30
0.0
 11
-1288.046040610804
 21
114.0000000000018
 31
0.0
  0
LINE
  5
8D0
330
18
100
AcDbEntity
  8
NORMALI
100
AcDbLine
 10
-1289.046040610804
 20
133.0000000000018
 30
0.0
 11
-1289.046040610804
 21
113.0000000000018
 31
0.0
  0
LINE
  5
8D1
330
18
100
AcDbEntity
  8
NORMALI
100
AcDbLine
 10
-1289.046040610804
 20
113.0000000000018
 30
0.0
 11
-1288.046040610804
 21
114.0000000000018
 31
0.0
  0
LINE
  5
8D2
330
18
100
AcDbEntity
  8
NORMALI
100
AcDbLine
 10
-1289.046040610804
 20
133.0000000000018
 30
0.0
 11
-1288.046040610804
 21
132.0000000000018
 31
0.0
  0
LINE
  5
8D3
330
18
100
AcDbEntity
  8
NORMALI
100
AcDbLine
 10
-1308.046040610804
 20
133.0000000000018
 30
0.0
 11
-1289.046040610804
 21
133.0000000000018
 31
0.0
  0
LINE
  5
8D5
330
18
100
AcDbEntity
  8
DISEGNO
100
AcDbLine
 10
-1308.046040610805
 20
134.000000000002
 30
0.0
 11
-1340.046040610805
 21
134.000000000002
 31
0.0
  0
LINE
  5
8D6
330
18
100
AcDbEntity
  8
DISEGNO
100
AcDbLine
 10
-1308.046040610804
 20
134.000000000002
 30
0.0
 11
-1308.046040610804
 21
112.0
 31
0.0
  0
LINE
  5
8D7
330
18
100
AcDbEntity
  8
DISEGNO
100
AcDbLine
 10
-1340.046040610805
 20
134.000000000002
 30
0.0
 11
-1343.046040610805
 21
131.000000000002
 31
0.0
  0
LINE
  5
8D8
330
18
100
AcDbEntity
  8
DISEGNO
100
AcDbLine
 10
-1343.046040610804
 20
131.0000000000027
 30
0.0
 11
-1343.046040610805
 21
0.0000000000002274
 31
0.0
  0
LINE
  5
994
330
18
100
AcDbEntity
  8
DISEGNO
100
AcDbLine
 10
-617.9460406108037
 20
-371.6034658691932
 30
0.0
 11
-967.9460406108042
 21
-371.6034658691932
 31
0.0
  0
LINE
  5
995
330
18
100
AcDbEntity
  8
DISEGNO
100
AcDbLine
 10
-617.9460406108037
 20
-381.6034658691934
 30
0.0
 11
-967.9460406108042
 21
-381.6034658691934
 31
0.0
  0
LINE
  5
996
330
18
100
AcDbEntity
  8
TRATTEGGI
 62
     8
100
AcDbLine
 10
-758.8405200338971
 20
-384.6034658691892
 30
0.0
 11
-828.8405200338971
 21
-384.6034658691892
 31
0.0
  0
LINE
  5
997
330
18
100
AcDbEntity
  8
DISEGNO
100
AcDbLine
 10
-727.9460406108041
 20
-390.6034658691934
 30
0.0
 11
-857.9460406108042
 21
-390.6034658691934
 31
0.0
  0
LINE
  5
998
330
18
100
AcDbEntity
  8
DISEGNO
100
AcDbLine
 10
-727.9460406108041
 20
-390.6034658691934
 30
0.0
 11
-727.9460406108041
 21
-381.6034658691934
 31
0.0
  0
LINE
  5
999
330
18
100
AcDbEntity
  8
TRATTEGGI
 62
     8
100
AcDbLine
 10
-758.8405200338971
 20
-384.6034658691892
 30
0.0
 11
-758.8405200338971
 21
-390.2034658691892
 31
0.0
  0
LINE
  5
99A
330
18
100
AcDbEntity
  8
TRATTEGGI
 62
     8
100
AcDbLine
 10
-806.3405200338975
 20
-384.6034658691892
 30
0.0
 11
-806.3405200338973
 21
-336.6034658691932
 31
0.0
  0
LINE
  5
99B
330
18
100
AcDbEntity
  8
TRATTEGGI
 62
     8
100
AcDbLine
 10
-781.340520033897
 20
-384.6034658691892
 30
0.0
 11
-781.3405200338969
 21
-336.6034658691932
 31
0.0
  0
LINE
  5
99C
330
18
100
AcDbEntity
  8
ASSI
100
AcDbLine
 10
-793.840520033897
 20
-271.7747380632268
 30
0.0
 11
-793.840520033897
 21
-394.816279368619
 31
0.0
  0
LINE
  5
99D
330
18
100
AcDbEntity
  8
TRATTEGGI
 62
     8
100
AcDbLine
 10
-828.8405200338971
 20
-384.6034658691892
 30
0.0
 11
-828.8405200338974
 21
-390.6034658691934
 31
0.0
  0
LINE
  5
99E
330
18
100
AcDbEntity
  8
DISEGNO
100
AcDbLine
 10
-857.9460406108042
 20
-390.6034658691934
 30
0.0
 11
-857.9460406108042
 21
-381.6034658691934
 31
0.0
  0
LINE
  5
99F
330
18
100
AcDbEntity
  8
DISEGNO
100
AcDbLine
 10
-617.9460406108037
 20
-301.6034658691931
 30
0.0
 11
-967.9460406108042
 21
-301.6034658691931
 31
0.0
  0
LINE
  5
9A0
330
18
100
AcDbEntity
  8
DISEGNO
100
AcDbLine
 10
-617.9460406108037
 20
-291.6034658691929
 30
0.0
 11
-967.9460406108042
 21
-291.6034658691929
 31
0.0
  0
LINE
  5
9A1
330
18
100
AcDbEntity
  8
TRATTEGGI
 62
     8
100
AcDbLine
 10
-758.8405200338971
 20
-288.6034658691928
 30
0.0
 11
-828.8405200338971
 21
-288.6034658691883
 31
0.0
  0
LINE
  5
9A2
330
18
100
AcDbEntity
  8
DISEGNO
100
AcDbLine
 10
-727.9460406108041
 20
-282.6034658691929
 30
0.0
 11
-857.9460406108042
 21
-282.6034658691929
 31
0.0
  0
LINE
  5
9A3
330
18
100
AcDbEntity
  8
DISEGNO
100
AcDbLine
 10
-727.9460406108041
 20
-282.6034658691929
 30
0.0
 11
-727.9460406108041
 21
-291.6034658691929
 31
0.0
  0
LINE
  5
9A4
330
18
100
AcDbEntity
  8
TRATTEGGI
 62
     8
100
AcDbLine
 10
-758.8405200338971
 20
-288.6034658691928
 30
0.0
 11
-758.8405200338971
 21
-282.6034658691929
 31
0.0
  0
LINE
  5
9A5
330
18
100
AcDbEntity
  8
TRATTEGGI
 62
     8
100
AcDbLine
 10
-828.8405200338971
 20
-288.6034658691928
 30
0.0
 11
-828.8405200338971
 21
-282.6034658691929
 31
0.0
  0
LINE
  5
9A6
330
18
100
AcDbEntity
  8
DISEGNO
100
AcDbLine
 10
-857.9460406108042
 20
-282.6034658691929
 30
0.0
 11
-857.9460406108042
 21
-291.6034658691929
 31
0.0
  0
LINE
  5
9A7
330
18
100
AcDbEntity
  8
DISEGNO
  6
DASHED
 62
     8
100
AcDbLine
 10
-1605.110685099607
 20
180.4999999999991
 30
0.0
 11
-1557.003425099606
 21
180.4999999999991
 31
0.0
  0
LINE
  5
9A8
330
18
100
AcDbEntity
  8
DISEGNO
  6
DASHED
 62
     8
100
AcDbLine
 10
-1605.110685099607
 20
205.4999999999995
 30
0.0
 11
-1557.003425099606
 21
205.4999999999995
 31
0.0
  0
LINE
  5
9B1
330
18
100
AcDbEntity
  8
DISEGNO
100
AcDbLine
 10
-1607.003925099606
 20
1.5
 30
0.0
 11
-1607.003925099606
 21
123.5
 31
0.0
  0
LINE
  5
9B2
330
18
100
AcDbEntity
  8
DISEGNO
100
AcDbLine
 10
-1507.002925099605
 20
1.5
 30
0.0
 11
-1507.002925099606
 21
123.4945532865747
 31
0.0
  0
LINE
  5
9BC
330
18
100
AcDbEntity
  8
DISEGNO
100
AcDbLine
 10
-1605.503925099606
 20
0.0
 30
0.0
 11
-1508.502925099605
 21
0.0
 31
0.0
  0
ARC
  5
9C0
330
18
100
AcDbEntity
  8
DISEGNO
100
AcDbCircle
 10
-1605.503925099606
 20
1.5
 30
0.0
 40
1.5
100
AcDbArc
 50
180.0
 51
270.0
  0
ARC
  5
9CF
330
18
100
AcDbEntity
  8
DISEGNO
100
AcDbCircle
 10
-1508.502925099605
 20
1.5
 30
0.0
 40
1.5
100
AcDbArc
 50
270.0
 51
0.0
  0
LINE
  5
9D0
330
18
100
AcDbEntity
  8
DISEGNO
100
AcDbLine
 10
-1605.503925099606
 20
125.0
 30
0.0
 11
-1508.502925380375
 21
124.9945532865747
 31
0.0
  0
ARC
  5
9DD
330
18
100
AcDbEntity
  8
DISEGNO
100
AcDbCircle
 10
-1605.503925099606
 20
123.5
 30
0.0
 40
1.5
100
AcDbArc
 50
90.0
 51
180.0
  0
LINE
  5
9DE
330
18
100
AcDbEntity
  8
DISEGNO
100
AcDbLine
 10
-1607.003925099606
 20
120.505446713425
 30
0.0
 11
-1607.003925099606
 21
121.9999999999997
 31
0.0
  0
LINE
  5
9DF
330
18
100
AcDbEntity
  8
ASSI
100
AcDbLine
 10
-1585.253425099606
 20
96.82456054975979
 30
0.0
 11
-1585.253425099606
 21
113.1750143911651
 31
0.0
  0
LINE
  5
9E0
330
18
100
AcDbEntity
  8
ASSI
100
AcDbLine
 10
-1528.753425099606
 20
112.7597518853124
 30
0.0
 11
-1528.753425099606
 21
97.23982305553159
 31
0.0
  0
CIRCLE
  5
9E1
330
18
100
AcDbEntity
  8
NORMALI
100
AcDbCircle
 10
-1585.253425099606
 20
104.9997874704625
 30
0.0
 40
5.0
1001
COMAU_ACADLIB
1000
00302052
1000
Vite T.C.E.I. UNI 5931 - M6x20 - 8.8
  0
CIRCLE
  5
9ED
330
18
100
AcDbEntity
  8
NORMALI
100
AcDbCircle
 10
-1528.805013035645
 20
104.999787470422
 30
0.0
 40
5.0
1001
COMAU_ACADLIB
1000
00302052
1000
Vite T.C.E.I. UNI 5931 - M6x20 - 8.8
  0
LINE
  5
A05
330
18
100
AcDbEntity
  8
ASSI
100
AcDbLine
 10
-1520.993460684716
 20
104.999787470422
 30
0.0
 11
-1536.513389514497
 21
104.999787470422
 31
0.0
  0
LINE
  5
A06
330
18
100
AcDbEntity
  8
ASSI
100
AcDbLine
 10
-1593.428652020308
 20
104.9997874704625
 30
0.0
 11
-1577.078198178903
 21
104.9997874704625
 31
0.0
  0
ARC
  5
A07
330
18
100
AcDbEntity
  8
DISEGNO
100
AcDbCircle
 10
-1508.502925099605
 20
123.4945532865747
 30
0.0
 40
1.5
100
AcDbArc
 50
0.0
 51
90.00001072460001
  0
LINE
  5
A7E
330
18
100
AcDbEntity
  8
TRATTEGGI
100
AcDbLine
 10
-1557.003425099606
 20
208.9999999999993
 30
0.0
 11
-1509.110685099607
 21
208.9999999999993
 31
0.0
  0
LINE
  5
A7F
330
18
100
AcDbEntity
  8
TRATTEGGI
100
AcDbLine
 10
-1557.003425099606
 20
176.9999999999993
 30
0.0
 11
-1509.110685099607
 21
176.9999999999993
 31
0.0
  0
LINE
  5
A80
330
18
100
AcDbEntity
  8
TRATTEGGI
 62
     8
100
AcDbLine
 10
-777.840520033897
 20
-288.6034658691916
 30
0.0
 11
-777.840520033897
 21
-336.6034658691931
 31
0.0
  0
LINE
  5
A81
330
18
100
AcDbEntity
  8
TRATTEGGI
 62
     8
100
AcDbLine
 10
-809.8405200338971
 20
-288.6034658691895
 30
0.0
 11
-809.8405200338969
 21
-336.6034658691931
 31
0.0
  0
LINE
  5
AA9
330
18
100
AcDbEntity
  8
DISEGNO
100
AcDbLine
 10
-1243.046040610804
 20
111.9999999999993
 30
0.0
 11
-1243.046040610804
 21
100.0000000000002
 31
0.0
  0
LINE
  5
AAA
330
18
100
AcDbEntity
  8
NORMALI
100
AcDbLine
 10
-1288.024784592546
 20
-271.1034658691928
 30
0.0
 11
-1177.946040610804
 21
-271.1034658691941
 31
0.0
  0
LINE
  5
AAB
330
18
100
AcDbEntity
  8
NORMALI
100
AcDbLine
 10
-1288.024784592546
 20
-271.1034658691928
 30
0.0
 11
-1288.024784592546
 21
-286.6034658691928
 31
0.0
  0
LINE
  5
AAC
330
18
100
AcDbEntity
  8
NORMALI
100
AcDbLine
 10
-1288.024784592546
 20
-402.1034658691927
 30
0.0
 11
-1177.946040610804
 21
-402.1034658691931
 31
0.0
  0
LINE
  5
AAD
330
18
100
AcDbEntity
  8
NORMALI
100
AcDbLine
 10
-1288.024784592546
 20
-402.1034658691927
 30
0.0
 11
-1288.024784592546
 21
-386.6034658691928
 31
0.0
  0
LINE
  5
AAE
330
18
100
AcDbEntity
  8
NORMALI
100
AcDbLine
 10
-1194.69603431431
 20
85.00000000000023
 30
0.0
 11
-1287.686475093338
 21
85.00000000000023
 31
0.0
  0
LINE
  5
AAF
330
18
100
AcDbEntity
  8
NORMALI
100
AcDbLine
 10
-1204.69603431431
 20
65.00000000000023
 30
0.0
 11
-1287.686475093338
 21
65.00000000000023
 31
0.0
  0
LINE
  5
AB0
330
18
100
AcDbEntity
  8
NORMALI
100
AcDbLine
 10
-1177.946040610802
 20
85.00000000000023
 30
0.0
 11
-1194.69603431431
 21
85.00000000000023
 31
0.0
  0
LINE
  5
AB1
330
18
100
AcDbEntity
  8
NORMALI
100
AcDbLine
 10
-1177.946040610802
 20
65.00000000000023
 30
0.0
 11
-1204.69603431431
 21
65.00000000000023
 31
0.0
  0
LINE
  5
AB2
330
18
100
AcDbEntity
  8
NORMALI
100
AcDbLine
 10
-1287.686475093338
 20
85.00000000000023
 30
0.0
 11
-1287.686475093339
 21
65.00000000000023
 31
0.0
  0
LINE
  5
1CE0
330
18
100
AcDbEntity
  8
ASSI
100
AcDbLine
 10
-139.1901279645612
 20
-30.08876137283392
 30
0.0
 11
-139.1901279645612
 21
264.5565932735458
 31
0.0
  0
LINE
  5
1CE1
330
18
100
AcDbEntity
  8
DISEGNO
100
AcDbLine
 10
-85.29738796456285
 20
140.9999999999993
 30
0.0
 11
-85.29738796456285
 21
248.9999999999993
 31
0.0
  0
LINE
  5
1CE2
330
18
100
AcDbEntity
  8
DISEGNO
100
AcDbLine
 10
-104.0973879645612
 20
137.0001110725627
 30
0.0
 11
-104.0973879645635
 21
248.9999999999995
 31
0.0
  0
ARC
  5
1CE3
330
18
100
AcDbEntity
  8
DISEGNO
100
AcDbCircle
 10
-79.09738796455804
 20
153.9999999999998
 30
0.0
 40
15.00000000000006
100
AcDbArc
 50
180.0000000000117
 51
269.9999999999891
  0
LINE
  5
1CE4
330
18
100
AcDbEntity
  8
DISEGNO
100
AcDbLine
 10
-193.2973879645592
 20
140.9999999999993
 30
0.0
 11
-193.2973879645592
 21
248.9999999999993
 31
0.0
  0
LINE
  5
1CE5
330
18
100
AcDbEntity
  8
DISEGNO
100
AcDbLine
 10
-174.4973879645613
 20
137.0000000000006
 30
0.0
 11
-174.4973879645586
 21
248.9999999999993
 31
0.0
  0
ARC
  5
1CE6
330
18
100
AcDbEntity
  8
DISEGNO
100
AcDbCircle
 10
-199.4973879645613
 20
153.9999999999998
 30
0.0
 40
15.00000000000001
100
AcDbArc
 50
269.9999999999995
 51
359.9999999999791
  0
LINE
  5
1CF6
330
18
100
AcDbEntity
  8
DISEGNO
100
AcDbLine
 10
-62.89838796456115
 20
138.9999999999997
 30
0.0
 11
-46.09738796456077
 21
138.9999999999997
 31
0.0
  0
LINE
  5
1CF7
330
18
100
AcDbEntity
  8
DISEGNO
100
AcDbLine
 10
-89.18912796456153
 20
128.9999999999993
 30
0.0
 11
-9.19012796456127
 21
128.9999571293037
 31
0.0
  0
LINE
  5
1CF8
330
18
100
AcDbEntity
  8
DISEGNO
  6
Continuous
100
AcDbLine
 10
-89.18962796456117
 20
114.9996065729713
 30
0.0
 11
-9.19012796456127
 21
114.9999571293033
 31
0.0
  0
LINE
  5
1CF9
330
18
100
AcDbEntity
  8
DISEGNO
100
AcDbLine
 10
-54.49738796456131
 20
129.4999999999993
 30
0.0
 11
-89.18912796456197
 21
129.4999999999993
 31
0.0
  0
LINE
  5
1CFA
330
18
100
AcDbEntity
  8
DISEGNO
100
AcDbLine
 10
-51.18912796456107
 20
50.99974022121694
 30
0.0
 11
-87.18982796456158
 21
50.99974022121694
 31
0.0
  0
LINE
  5
1CFB
330
18
100
AcDbEntity
  8
DISEGNO
100
AcDbLine
 10
-70.09032796456131
 20
50.99974022121694
 30
0.0
 11
-51.18912796456107
 21
50.99974022121694
 31
0.0
  0
LINE
  5
1CFC
330
18
100
AcDbEntity
  8
DISEGNO
100
AcDbLine
 10
-51.18912796456107
 20
50.99974022121694
 30
0.0
 11
-51.18912796456107
 21
114.9997402212168
 31
0.0
  0
LINE
  5
1CFD
330
18
100
AcDbEntity
  8
DISEGNO
100
AcDbLine
 10
-9.19012796456127
 20
128.9999571293037
 30
0.0
 11
-9.19012796456127
 21
114.9999571293033
 31
0.0
  0
ARC
  5
1CFE
330
18
100
AcDbEntity
  8
DISEGNO
100
AcDbCircle
 10
-46.09738796456077
 20
136.9999999999997
 30
0.0
 40
2.0
100
AcDbArc
 50
0.000000000000007
 51
90.0
  0
LINE
  5
1CFF
330
18
100
AcDbEntity
  8
DISEGNO
100
AcDbLine
 10
-44.09738796456077
 20
136.9999999999997
 30
0.0
 11
-44.09738796456077
 21
128.9999999999998
 31
0.0
  0
ARC
  5
1D00
330
18
100
AcDbEntity
  8
DISEGNO
100
AcDbCircle
 10
-54.49738796456268
 20
129.0999999999978
 30
0.0
 40
0.4000000000017394
100
AcDbArc
 50
0.0000000002605581
 51
89.99999999976386
  0
LINE
  5
1D02
330
18
100
AcDbEntity
  8
DISEGNO
100
AcDbLine
 10
-89.18962796456117
 20
1.5
 30
0.0
 11
-89.18962796456117
 21
123.5
 31
0.0
  0
LINE
  5
1D03
330
18
100
AcDbEntity
  8
DISEGNO
100
AcDbLine
 10
-189.1906279645614
 20
1.5
 30
0.0
 11
-189.1906279645609
 21
123.4945532865747
 31
0.0
  0
LINE
  5
1D04
330
18
100
AcDbEntity
  8
DISEGNO
100
AcDbLine
 10
-90.68962796456117
 20
0.0
 30
0.0
 11
-187.6906279645614
 21
0.0
 31
0.0
  0
ARC
  5
1D05
330
18
100
AcDbEntity
  8
DISEGNO
100
AcDbCircle
 10
-90.68962796456117
 20
1.5
 30
0.0
 40
1.5
100
AcDbArc
 50
270.0
 51
0.000000000000007
  0
ARC
  5
1D06
330
18
100
AcDbEntity
  8
DISEGNO
100
AcDbCircle
 10
-187.6906279645614
 20
1.5
 30
0.0
 40
1.5
100
AcDbArc
 50
180.0
 51
270.0
  0
LINE
  5
1D07
330
18
100
AcDbEntity
  8
DISEGNO
100
AcDbLine
 10
-189.1902180825459
 20
137.0000000000011
 30
0.0
 11
-89.18912796456197
 21
137.0000000000011
 31
0.0
  0
LINE
  5
1D08
330
18
100
AcDbEntity
  8
DISEGNO
100
AcDbLine
 10
-90.68962796456117
 20
125.0
 30
0.0
 11
-187.6906276837921
 21
124.9945532865747
 31
0.0
  0
LINE
  5
1D0B
330
18
100
AcDbEntity
  8
NORMALI
100
AcDbLine
 10
-73.68982796456157
 20
84.99974022121694
 30
0.0
 11
-73.68982796456157
 21
64.99974022121694
 31
0.0
  0
LINE
  5
1D0C
330
18
100
AcDbEntity
  8
NORMALI
100
AcDbLine
 10
-73.68982796456157
 20
64.99974022121694
 30
0.0
 11
-88.00982796456128
 21
64.99974022121694
 31
0.0
  0
LINE
  5
1D0D
330
18
100
AcDbEntity
  8
NORMALI
100
AcDbLine
 10
-89.18982796456157
 20
66.17974022121723
 30
0.0
 11
-88.00982796456128
 21
64.99974022121694
 31
0.0
  0
LINE
  5
1D0E
330
18
100
AcDbEntity
  8
NORMALI
100
AcDbLine
 10
-73.68982796456157
 20
84.99974022121694
 30
0.0
 11
-88.00982796456128
 21
84.99974022121694
 31
0.0
  0
LINE
  5
1D0F
330
18
100
AcDbEntity
  8
NORMALI
100
AcDbLine
 10
-89.18982796456157
 20
83.81974022121756
 30
0.0
 11
-88.00982796456128
 21
84.99974022121694
 31
0.0
  0
LINE
  5
1D10
330
18
100
AcDbEntity
  8
DISEGNO
100
AcDbLine
 10
-89.18912796456197
 20
137.0000000000011
 30
0.0
 11
-89.18912796456153
 21
114.9999999999991
 31
0.0
  0
ARC
  5
1D11
330
18
100
AcDbEntity
  8
DISEGNO
100
AcDbCircle
 10
-90.68962796456117
 20
123.5
 30
0.0
 40
1.5
100
AcDbArc
 50
0.000000000000007
 51
90.0
  0
LINE
  5
1D12
330
18
100
AcDbEntity
  8
ASSI
100
AcDbLine
 10
-58.69012796456127
 20
150.1083808625337
 30
0.0
 11
-58.69012796456036
 21
112.7969586326942
 31
0.0
  0
LINE
  5
1D13
330
18
100
AcDbEntity
  8
DISEGNO
100
AcDbLine
 10
-89.18962796456117
 20
120.505446713425
 30
0.0
 11
-89.18962796456117
 21
121.9999999999997
 31
0.0
  0
LINE
  5
1D21
330
18
100
AcDbEntity
  8
DISEGNO
100
AcDbLine
 10
-79.09738796456077
 20
138.9999999999997
 30
0.0
 11
-62.89838796456115
 21
138.9999999999997
 31
0.0
  0
LINE
  5
1D26
330
18
100
AcDbEntity
  8
DISEGNO
100
AcDbLine
 10
-85.29738796456285
 20
140.9999999999993
 30
0.0
 11
-86.58070273810471
 21
140.9999999999991
 31
0.0
  0
LINE
  5
1D34
330
18
100
AcDbEntity
  8
DISEGNO
100
AcDbLine
 10
-227.1911279645615
 20
50.99974022121694
 30
0.0
 11
-227.1911279645615
 21
114.9997402212168
 31
0.0
  0
LINE
  5
1D37
330
18
100
AcDbEntity
  8
DISEGNO
100
AcDbLine
 10
-208.2899279645612
 20
50.99974022121694
 30
0.0
 11
-227.1911279645615
 21
50.99974022121694
 31
0.0
  0
LINE
  5
1D38
330
18
100
AcDbEntity
  8
DISEGNO
100
AcDbLine
 10
-208.2906279645617
 20
50.99974022121694
 30
0.0
 11
-227.1911279645615
 21
50.99974022121694
 31
0.0
  0
LINE
  5
1D39
330
18
100
AcDbEntity
  8
DISEGNO
100
AcDbLine
 10
-227.1911279645615
 20
50.99974022121694
 30
0.0
 11
-191.1904279645609
 21
50.99974022121694
 31
0.0
  0
LINE
  5
1D3A
330
18
100
AcDbEntity
  8
NORMALI
100
AcDbLine
 10
-204.690427964561
 20
84.99974022121694
 30
0.0
 11
-204.690427964561
 21
64.99974022121694
 31
0.0
  0
LINE
  5
1D3B
330
18
100
AcDbEntity
  8
NORMALI
100
AcDbLine
 10
-204.8130057611392
 20
64.99974022121694
 30
0.0
 11
-190.3704279645612
 21
64.99974022121694
 31
0.0
  0
LINE
  5
1D3C
330
18
100
AcDbEntity
  8
NORMALI
100
AcDbLine
 10
-189.190427964561
 20
66.17974022121723
 30
0.0
 11
-190.3704279645612
 21
64.99974022121694
 31
0.0
  0
LINE
  5
1D3D
330
18
100
AcDbEntity
  8
NORMALI
100
AcDbLine
 10
-204.690427964561
 20
84.99974022121694
 30
0.0
 11
-190.3704279645612
 21
84.99974022121694
 31
0.0
  0
LINE
  5
1D3E
330
18
100
AcDbEntity
  8
NORMALI
100
AcDbLine
 10
-189.190427964561
 20
83.81974022121756
 30
0.0
 11
-190.3704279645612
 21
84.99974022121694
 31
0.0
  0
LINE
  5
1D3F
330
18
100
AcDbEntity
  8
DISEGNO
100
AcDbLine
 10
-269.1901279645612
 20
128.9999999999993
 30
0.0
 11
-189.1901279645612
 21
128.9999999999993
 31
0.0
  0
LINE
  5
1D40
330
18
100
AcDbEntity
  8
DISEGNO
  6
Continuous
100
AcDbLine
 10
-269.1901279645612
 20
114.9999999999993
 30
0.0
 11
-189.1902180825455
 21
114.9999999999988
 31
0.0
  0
LINE
  5
1D41
330
18
100
AcDbEntity
  8
ASSI
100
AcDbLine
 10
-219.6901279645613
 20
112.7969586326942
 30
0.0
 11
-219.6901279645613
 21
150.5117695366095
 31
0.0
  0
LINE
  5
1D42
330
18
100
AcDbEntity
  8
DISEGNO
100
AcDbLine
 10
-189.1902180825459
 20
137.0000000000011
 30
0.0
 11
-189.1902180825455
 21
114.9999999999988
 31
0.0
  0
ARC
  5
1D43
330
18
100
AcDbEntity
  8
DISEGNO
100
AcDbCircle
 10
-187.6906279645614
 20
123.4945532865747
 30
0.0
 40
1.5
100
AcDbArc
 50
89.9999892754
 51
180.0
  0
LINE
  5
1D54
330
18
100
AcDbEntity
  8
DISEGNO
100
AcDbLine
 10
-224.0973879645608
 20
129.4999999999993
 30
0.0
 11
-189.1901279645612
 21
129.4999999999993
 31
0.0
  0
LINE
  5
1D55
330
18
100
AcDbEntity
  8
DISEGNO
100
AcDbLine
 10
-199.4973879645613
 20
138.9999999999997
 30
0.0
 11
-213.2983879645608
 21
138.9999999999997
 31
0.0
  0
LINE
  5
1D56
330
18
100
AcDbEntity
  8
DISEGNO
100
AcDbLine
 10
-193.2973879645592
 20
140.9999999999993
 30
0.0
 11
-192.0140731910142
 21
140.9999999999991
 31
0.0
  0
ARC
  5
1D58
330
18
100
AcDbEntity
  8
DISEGNO
100
AcDbCircle
 10
-232.4973879645613
 20
136.9999999999997
 30
0.0
 40
2.0
100
AcDbArc
 50
90.0
 51
180.0
  0
ARC
  5
1D59
330
18
100
AcDbEntity
  8
DISEGNO
100
AcDbCircle
 10
-224.0973879645594
 20
129.0999999999978
 30
0.0
 40
0.4000000000017394
100
AcDbArc
 50
90.00000000023614
 51
179.9999999997394
  0
LINE
  5
1D5A
330
18
100
AcDbEntity
  8
DISEGNO
100
AcDbLine
 10
-234.4973879645613
 20
136.9999999999997
 30
0.0
 11
-234.4973879645613
 21
128.9999999999998
 31
0.0
  0
LINE
  5
1D5B
330
18
100
AcDbEntity
  8
DISEGNO
100
AcDbLine
 10
-213.2983879645608
 20
138.9999999999997
 30
0.0
 11
-232.4973879645613
 21
138.9999999999997
 31
0.0
  0
LINE
  5
1D5F
330
18
100
AcDbEntity
  8
DISEGNO
100
AcDbLine
 10
-269.1901279645612
 20
128.9999999999993
 30
0.0
 11
-269.1901279645612
 21
114.9999999999993
 31
0.0
  0
ARC
  5
1D60
330
18
100
AcDbEntity
  8
DISEGNO
100
AcDbCircle
 10
-182.4973879645613
 20
246.9999999999998
 30
0.0
 40
2.0
100
AcDbArc
 50
90.0
 51
180.0
  0
LINE
  5
1D61
330
18
100
AcDbEntity
  8
DISEGNO
  6
DASHED
 62
     8
100
AcDbLine
 10
-91.08286796456013
 20
205.4999999999995
 30
0.0
 11
-139.1901279645612
 21
205.4999999999995
 31
0.0
  0
LINE
  5
1D62
330
18
100
AcDbEntity
  8
DISEGNO
  6
DASHED
 62
     8
100
AcDbLine
 10
-91.08286796456013
 20
180.4999999999991
 30
0.0
 11
-139.1901279645612
 21
180.4999999999991
 31
0.0
  0
LINE
  5
1D63
330
18
100
AcDbEntity
  8
ASSI
100
AcDbLine
 10
-197.4029414639867
 20
192.9999999999993
 30
0.0
 11
-80.97731446513535
 21
192.9999999999993
 31
0.0
  0
LINE
  5
1D64
330
18
100
AcDbEntity
  8
DISEGNO
100
AcDbLine
 10
-193.2973879645597
 20
248.9999999999993
 30
0.0
 11
-85.29738796456285
 21
248.9999999999998
 31
0.0
  0
LINE
  5
1D65
330
18
100
AcDbEntity
  8
DISEGNO
100
AcDbLine
 10
-94.09738796456077
 20
248.9999999999998
 30
0.0
 11
-94.09738796456077
 21
153.9999999999966
 31
0.0
  0
LINE
  5
1D66
330
18
100
AcDbEntity
  8
DISEGNO
  6
DASHED
 62
     8
100
AcDbLine
 10
-91.29738796456285
 20
227.9999999999993
 30
0.0
 11
-91.29738796456285
 21
157.9999999999993
 31
0.0
  0
LINE
  5
1D67
330
18
100
AcDbEntity
  8
TRATTEGGI
100
AcDbLine
 10
-139.1901279645612
 20
208.9999999999993
 30
0.0
 11
-187.0828679645597
 21
208.9999999999993
 31
0.0
  0
LINE
  5
1D68
330
18
100
AcDbEntity
  8
TRATTEGGI
100
AcDbLine
 10
-139.1901279645612
 20
176.9999999999993
 30
0.0
 11
-187.0828679645597
 21
176.9999999999993
 31
0.0
  0
LINE
  5
1D69
330
18
100
AcDbEntity
  8
DISEGNO
  6
DASHED
 62
     8
100
AcDbLine
 10
-91.29738796456285
 20
157.9999999999993
 30
0.0
 11
-85.29738796456285
 21
157.9999999999993
 31
0.0
  0
LINE
  5
1D6A
330
18
100
AcDbEntity
  8
DISEGNO
  6
DASHED
 62
     8
100
AcDbLine
 10
-91.29738796456285
 20
227.9999999999993
 30
0.0
 11
-85.29738796456285
 21
227.9999999999993
 31
0.0
  0
ARC
  5
1D6B
330
18
100
AcDbEntity
  8
DISEGNO
100
AcDbCircle
 10
-96.09738796456078
 20
246.9999999999998
 30
0.0
 40
2.0
100
AcDbArc
 50
0.000000000000007
 51
90.0
  0
LINE
  5
1D6C
330
18
100
AcDbEntity
  8
DISEGNO
100
AcDbLine
 10
-174.297387964561
 20
248.9999999999998
 30
0.0
 11
-182.4973879645613
 21
248.9999999999998
 31
0.0
  0
LINE
  5
1D6D
330
18
100
AcDbEntity
  8
DISEGNO
100
AcDbLine
 10
-184.4973879645586
 20
248.9999999999998
 30
0.0
 11
-184.4973879645931
 21
153.9999999999943
 31
0.0
  0
LINE
  5
1D6E
330
18
100
AcDbEntity
  8
DISEGNO
  6
DASHED
 62
     8
100
AcDbLine
 10
-187.2973879645592
 20
227.9999999999993
 30
0.0
 11
-187.2973879645637
 21
157.9999999999993
 31
0.0
  0
LINE
  5
1D6F
330
18
100
AcDbEntity
  8
DISEGNO
  6
DASHED
 62
     8
100
AcDbLine
 10
-187.2973879645592
 20
157.9999999999993
 30
0.0
 11
-193.2973879645592
 21
157.9999999999993
 31
0.0
  0
LINE
  5
1D70
330
18
100
AcDbEntity
  8
DISEGNO
  6
DASHED
 62
     8
100
AcDbLine
 10
-187.2973879645592
 20
227.9999999999993
 30
0.0
 11
-193.2973879645592
 21
227.9999999999993
 31
0.0
  0
LINE
  5
1D71
330
18
100
AcDbEntity
  8
DISEGNO
100
AcDbLine
 10
-227.1911279645614
 20
50.99974022121705
 30
0.0
 11
-227.1911279645615
 21
114.9997402212168
 31
0.0
  0
LINE
  5
1D72
330
18
100
AcDbEntity
  8
DISEGNO
100
AcDbLine
 10
-217.1911279645615
 20
53.99974022121682
 30
0.0
 11
-217.1911279645624
 21
95.9997402212166
 31
0.0
  0
LINE
  5
1D73
330
18
100
AcDbEntity
  8
DISEGNO
100
AcDbLine
 10
-217.1911279645615
 20
80.29874022121679
 30
0.0
 11
-217.1911279645615
 21
94.49974022121683
 31
0.0
  0
LINE
  5
1D74
330
18
100
AcDbEntity
  8
DISEGNO
100
AcDbLine
 10
-217.1911279645615
 20
69.6997402212171
 30
0.0
 11
-217.1911279645615
 21
55.49974022121682
 31
0.0
  0
LINE
  5
1D75
330
18
100
AcDbEntity
  8
DISEGNO
100
AcDbLine
 10
-227.1911279645615
 20
53.99974022121682
 30
0.0
 11
-208.9911279645617
 21
53.99974022121682
 31
0.0
  0
LINE
  5
1D76
330
18
100
AcDbEntity
  8
DISEGNO
100
AcDbLine
 10
-217.1911279645615
 20
55.49974022121682
 30
0.0
 11
-215.6911279645615
 21
53.99974022121682
 31
0.0
  0
LINE
  5
1D77
330
18
100
AcDbEntity
  8
DISEGNO
100
AcDbLine
 10
-212.1911279645615
 20
95.99974022121704
 30
0.0
 11
-212.1911279645615
 21
114.9997402212168
 31
0.0
  0
LINE
  5
1D78
330
18
100
AcDbEntity
  8
DISEGNO
100
AcDbLine
 10
-217.1911279645615
 20
94.49974022121683
 30
0.0
 11
-215.6911279645615
 21
95.99974022121683
 31
0.0
  0
LINE
  5
1D79
330
18
100
AcDbEntity
  8
DISEGNO
100
AcDbLine
 10
-217.1911279645605
 20
95.99974022121683
 30
0.0
 11
-209.1901279645613
 21
95.99974022121683
 31
0.0
  0
LINE
  5
1D7A
330
18
100
AcDbEntity
  8
DISEGNO
100
AcDbLine
 10
-215.6911279645615
 20
95.99974022121683
 30
0.0
 11
-208.9911279645617
 21
95.99974022121683
 31
0.0
  0
LINE
  5
1D7B
330
18
100
AcDbEntity
  8
DISEGNO
100
AcDbLine
 10
-185.1001279645611
 20
20.90874022121693
 30
0.0
 11
-185.1001279645611
 21
35.49974022121683
 31
0.0
  0
LINE
  5
1D7C
330
18
100
AcDbEntity
  8
DISEGNO
100
AcDbLine
 10
-153.6911279645615
 20
29.24974022121683
 30
0.0
 11
-153.6911279645615
 21
32.99974022121683
 31
0.0
  0
ARC
  5
1D7D
330
18
100
AcDbEntity
  8
DISEGNO
100
AcDbCircle
 10
-105.4261279645611
 20
35.26774022121685
 30
0.0
 40
2.5
100
AcDbArc
 50
220.0339999999838
 51
315.0010000000018
  0
LINE
  5
1D7E
330
18
100
AcDbEntity
  8
DISEGNO
100
AcDbLine
 10
-124.6901279645612
 20
29.24974022121683
 30
0.0
 11
-124.6901279645612
 21
32.99974022121683
 31
0.0
  0
ARC
  5
1D7F
330
18
100
AcDbEntity
  8
DISEGNO
100
AcDbCircle
 10
-114.1901279645612
 20
24.99974022121683
 30
0.0
 40
8.0
100
AcDbArc
 50
97.47776000000866
 51
108.2363999999804
  0
LINE
  5
1D80
330
18
100
AcDbEntity
  8
DISEGNO
100
AcDbLine
 10
-115.2311279645614
 20
32.93174022121707
 30
0.0
 11
-115.0071279645612
 21
31.95174022121705
 31
0.0
  0
LINE
  5
1D81
330
18
100
AcDbEntity
  8
DISEGNO
100
AcDbLine
 10
-113.1481279645618
 20
32.93174022121707
 30
0.0
 11
-113.372127964561
 21
31.95174022121705
 31
0.0
  0
ARC
  5
1D82
330
18
100
AcDbEntity
  8
DISEGNO
100
AcDbCircle
 10
-114.1901279645612
 20
24.99974022121683
 30
0.0
 40
8.0
100
AcDbArc
 50
71.76299999998303
 51
82.52200000001934
  0
LINE
  5
1D83
330
18
100
AcDbEntity
  8
DISEGNO
100
AcDbLine
 10
-89.19012796456128
 20
38.24974022121683
 30
0.0
 11
-89.19012796456128
 21
29.09074022121718
 31
0.0
  0
LINE
  5
1D84
330
18
100
AcDbEntity
  8
DISEGNO
100
AcDbLine
 10
-98.91712796456113
 20
33.99974022121682
 30
0.0
 11
-103.0661279645614
 21
29.84974022121719
 31
0.0
  0
LINE
  5
1D85
330
18
100
AcDbEntity
  8
DISEGNO
100
AcDbLine
 10
-93.28112796456162
 20
29.09074022121718
 30
0.0
 11
-93.28112796456162
 21
35.49974022121683
 31
0.0
  0
LINE
  5
1D86
330
18
100
AcDbEntity
  8
DISEGNO
100
AcDbLine
 10
-189.1911279645615
 20
38.24974022121683
 30
0.0
 11
-189.1911279645615
 21
29.09074022121718
 31
0.0
  0
ARC
  5
1D87
330
18
100
AcDbEntity
  8
DISEGNO
100
AcDbCircle
 10
-164.1911279645615
 20
24.99974022121683
 30
0.0
 40
8.0
100
AcDbArc
 50
97.47769999999686
 51
108.2364999999801
  0
LINE
  5
1D88
330
18
100
AcDbEntity
  8
DISEGNO
100
AcDbLine
 10
-179.4641279645616
 20
33.99974022121682
 30
0.0
 11
-175.314127964561
 21
29.84974022121719
 31
0.0
  0
ARC
  5
1D89
330
18
100
AcDbEntity
  8
DISEGNO
100
AcDbCircle
 10
-172.9541279645614
 20
35.26774022121685
 30
0.0
 40
2.5
100
AcDbArc
 50
224.9989999999982
 51
319.9660000000162
  0
ARC
  5
1D8A
330
18
100
AcDbEntity
  8
DISEGNO
100
AcDbCircle
 10
-164.1911279645615
 20
24.99974022121683
 30
0.0
 40
8.0
100
AcDbArc
 50
71.76399999999464
 51
82.52200000001934
  0
LINE
  5
1D8B
330
18
100
AcDbEntity
  8
DISEGNO
100
AcDbLine
 10
-163.1491279645611
 20
32.93174022121707
 30
0.0
 11
-163.3731279645612
 21
31.95174022121705
 31
0.0
  0
LINE
  5
1D8C
330
18
100
AcDbEntity
  8
DISEGNO
100
AcDbLine
 10
-165.2321279645616
 20
32.93174022121707
 30
0.0
 11
-165.0081279645615
 21
31.95174022121705
 31
0.0
  0
LINE
  5
1D8D
330
18
100
AcDbEntity
  8
ASSI
100
AcDbLine
 10
-164.1911279645615
 20
91.68491344586072
 30
0.0
 11
-164.1911279645615
 21
-0.0002597787831746
 31
0.0
  0
LINE
  5
1D8E
330
18
100
AcDbEntity
  8
ASSI
100
AcDbLine
 10
-114.1901279645612
 20
91.60862746207021
 30
0.0
 11
-114.1901279645612
 21
-0.0002597787831746
 31
0.0
  0
ARC
  5
1D8F
330
18
100
AcDbEntity
  8
DISEGNO
100
AcDbCircle
 10
-164.1911279645615
 20
24.99974022121683
 30
0.0
 40
8.0
100
AcDbArc
 50
226.048999999991
 51
236.8080000000195
  0
ARC
  5
1D90
330
18
100
AcDbEntity
  8
DISEGNO
100
AcDbCircle
 10
-164.1911279645615
 20
24.99974022121683
 30
0.0
 40
8.0
100
AcDbArc
 50
123.1920999999902
 51
133.9509000000022
  0
ARC
  5
1D91
330
18
100
AcDbEntity
  8
DISEGNO
100
AcDbCircle
 10
-164.1911279645615
 20
24.99974022121683
 30
0.0
 40
7.0
100
AcDbArc
 50
134.7220999999835
 51
148.1352999999974
  0
LINE
  5
1D92
330
18
100
AcDbEntity
  8
DISEGNO
100
AcDbLine
 10
-169.7431279645611
 20
30.75874022121684
 30
0.0
 11
-169.1161279645616
 21
29.97274022121678
 31
0.0
  0
LINE
  5
1D93
330
18
100
AcDbEntity
  8
DISEGNO
100
AcDbLine
 10
-169.7431279645611
 20
19.23974022121706
 30
0.0
 11
-169.1161279645616
 21
20.02574022121712
 31
0.0
  0
ARC
  5
1D94
330
18
100
AcDbEntity
  8
DISEGNO
100
AcDbCircle
 10
-164.1911279645615
 20
24.99974022121683
 30
0.0
 40
7.0
100
AcDbArc
 50
211.8649999999936
 51
225.2779999999976
  0
LINE
  5
1D95
330
18
100
AcDbEntity
  8
DISEGNO
100
AcDbLine
 10
-177.4411279645615
 20
-0.0002597787831746
 30
0.0
 11
-168.1911279645615
 21
-0.0002597787831746
 31
0.0
  0
LINE
  5
1D96
330
18
100
AcDbEntity
  8
DISEGNO
100
AcDbLine
 10
-168.1911279645615
 20
3.999740221216825
 30
0.0
 11
-174.6911279645614
 21
3.999740221216825
 31
0.0
  0
LINE
  5
1D97
330
18
100
AcDbEntity
  8
DISEGNO
100
AcDbLine
 10
-168.8981279645618
 20
13.83774022121702
 30
0.0
 11
-173.1911279645615
 21
9.544740221216898
 31
0.0
  0
LINE
  5
1D98
330
18
100
AcDbEntity
  8
DISEGNO
100
AcDbLine
 10
-189.1911279645615
 20
1.499740221216825
 30
0.0
 11
-189.1911279645615
 21
9.249740221216825
 31
0.0
  0
ARC
  5
1D99
330
18
100
AcDbEntity
  8
DISEGNO
100
AcDbCircle
 10
-181.6911279645615
 20
7.499740221216825
 30
0.0
 40
3.5
100
AcDbArc
 50
250.2090000000059
 51
18.45299999999316
  0
LINE
  5
1D9A
330
18
100
AcDbEntity
  8
DISEGNO
100
AcDbLine
 10
-187.6911279645615
 20
-0.0002597787831746
 30
0.0
 11
-179.9411279645615
 21
-0.0002597787831746
 31
0.0
  0
ARC
  5
1D9B
330
18
100
AcDbEntity
  8
DISEGNO
100
AcDbCircle
 10
-187.6911279645615
 20
1.499740221216825
 30
0.0
 40
1.5
100
AcDbArc
 50
180.0
 51
270.0
  0
LINE
  5
1D9C
330
18
100
AcDbEntity
  8
DISEGNO
100
AcDbLine
 10
-177.4411279645615
 20
0.1997402212170982
 30
0.0
 11
-179.9411279645615
 21
0.1997402212170982
 31
0.0
  0
LINE
  5
1D9D
330
18
100
AcDbEntity
  8
DISEGNO
100
AcDbLine
 10
-177.4411279645615
 20
0.1997402212170982
 30
0.0
 11
-177.4411279645615
 21
-0.0002597787831746
 31
0.0
  0
LINE
  5
1D9E
330
18
100
AcDbEntity
  8
DISEGNO
100
AcDbLine
 10
-179.9411279645615
 20
0.1997402212170982
 30
0.0
 11
-179.9411279645615
 21
-0.0002597787831746
 31
0.0
  0
LINE
  5
1D9F
330
18
100
AcDbEntity
  8
DISEGNO
100
AcDbLine
 10
-189.1911279645615
 20
11.74974022121682
 30
0.0
 11
-189.1911279645615
 21
20.90874022121693
 31
0.0
  0
ARC
  5
1DA0
330
18
100
AcDbEntity
  8
DISEGNO
100
AcDbCircle
 10
-164.1911279645615
 20
24.99974022121683
 30
0.0
 40
11.0
100
AcDbArc
 50
220.5279999999935
 51
230.0889999999803
  0
LINE
  5
1DA1
330
18
100
AcDbEntity
  8
DISEGNO
100
AcDbLine
 10
-179.4641279645616
 20
15.99974022121682
 30
0.0
 11
-175.314127964561
 21
20.14874022121717
 31
0.0
  0
LINE
  5
1DA2
330
18
100
AcDbEntity
  8
DISEGNO
100
AcDbLine
 10
-185.1001279645611
 20
20.90874022121693
 30
0.0
 11
-185.1001279645611
 21
14.49974022121682
 31
0.0
  0
LINE
  5
1DA3
330
18
100
AcDbEntity
  8
DISEGNO
100
AcDbLine
 10
-178.1001279645611
 20
13.82774022121725
 30
0.0
 11
-174.019127964561
 21
17.90874022121693
 31
0.0
  0
ARC
  5
1DA4
330
18
100
AcDbEntity
  8
DISEGNO
100
AcDbCircle
 10
-181.6911279645615
 20
7.499740221216825
 30
0.0
 40
3.5
100
AcDbArc
 50
69.2180000000129
 51
199.7909999999977
  0
ARC
  5
1DA5
330
18
100
AcDbEntity
  8
DISEGNO
100
AcDbCircle
 10
-184.1651279645616
 20
5.024740221216916
 30
0.0
 40
1.0
100
AcDbArc
 50
151.6025000000072
 51
298.3990000000254
  0
LINE
  5
1DA6
330
18
100
AcDbEntity
  8
DISEGNO
100
AcDbLine
 10
-188.9911279645616
 20
11.74974022121682
 30
0.0
 11
-188.9911279645616
 21
9.249740221216825
 31
0.0
  0
LINE
  5
1DA7
330
18
100
AcDbEntity
  8
DISEGNO
100
AcDbLine
 10
-188.9911279645616
 20
11.74974022121682
 30
0.0
 11
-189.1911279645615
 21
11.74974022121682
 31
0.0
  0
LINE
  5
1DA8
330
18
100
AcDbEntity
  8
DISEGNO
100
AcDbLine
 10
-188.9911279645616
 20
9.249740221216825
 30
0.0
 11
-189.1911279645615
 21
9.249740221216825
 31
0.0
  0
ARC
  5
1DA9
330
18
100
AcDbEntity
  8
DISEGNO
100
AcDbCircle
 10
-171.8901279645611
 20
15.7947402212169
 30
0.0
 40
1.0
100
AcDbArc
 50
315.0010000000018
 51
50.0879999999991
  0
LINE
  5
1DAA
330
18
100
AcDbEntity
  8
DISEGNO
100
AcDbLine
 10
-173.1911279645615
 20
8.499740221216825
 30
0.0
 11
-174.6911279645614
 21
8.499740221216825
 31
0.0
  0
LINE
  5
1DAB
330
18
100
AcDbEntity
  8
DISEGNO
100
AcDbLine
 10
-178.1001279645611
 20
13.12074022121692
 30
0.0
 11
-180.4491279645613
 21
10.77174022121676
 31
0.0
  0
LINE
  5
1DAC
330
18
100
AcDbEntity
  8
DISEGNO
100
AcDbLine
 10
-178.1001279645611
 20
13.12074022121692
 30
0.0
 11
-178.1001279645611
 21
13.82774022121725
 31
0.0
  0
LINE
  5
1DAD
330
18
100
AcDbEntity
  8
DISEGNO
100
AcDbLine
 10
-175.9781279645617
 20
10.99974022121682
 30
0.0
 11
-175.2711279645614
 21
10.99974022121682
 31
0.0
  0
LINE
  5
1DAE
330
18
100
AcDbEntity
  8
DISEGNO
100
AcDbLine
 10
-175.9781279645617
 20
10.99974022121682
 30
0.0
 11
-178.3701279645615
 21
8.606740221216796
 31
0.0
  0
LINE
  5
1DAF
330
18
100
AcDbEntity
  8
DISEGNO
100
AcDbLine
 10
-179.4641279645616
 20
15.99974022121682
 30
0.0
 11
-180.6001279645611
 21
15.99974022121682
 31
0.0
  0
LINE
  5
1DB0
330
18
100
AcDbEntity
  8
DISEGNO
100
AcDbLine
 10
-180.6001279645611
 20
15.99974022121682
 30
0.0
 11
-180.6001279645611
 21
14.49974022121682
 31
0.0
  0
ARC
  5
1DB1
330
18
100
AcDbEntity
  8
DISEGNO
100
AcDbCircle
 10
-185.9251279645618
 20
5.975740221216938
 30
0.0
 40
1.0
100
AcDbArc
 50
331.6029999999956
 51
19.79099999999772
  0
LINE
  5
1DB2
330
18
100
AcDbEntity
  8
DISEGNO
100
AcDbLine
 10
-180.6001279645611
 20
14.49974022121682
 30
0.0
 11
-185.1001279645611
 21
14.49974022121682
 31
0.0
  0
ARC
  5
1DB3
330
18
100
AcDbEntity
  8
DISEGNO
100
AcDbCircle
 10
-183.2141279645616
 20
3.264740221217152
 30
0.0
 40
1.0
100
AcDbArc
 50
70.20900000000589
 51
118.3991000000073
  0
LINE
  5
1DB4
330
18
100
AcDbEntity
  8
DISEGNO
100
AcDbLine
 10
-174.6911279645614
 20
3.999740221216825
 30
0.0
 11
-174.6911279645614
 21
8.499740221216825
 31
0.0
  0
LINE
  5
1DB5
330
18
100
AcDbEntity
  8
DISEGNO
100
AcDbLine
 10
-173.1911279645615
 20
8.499740221216825
 30
0.0
 11
-173.1911279645615
 21
9.544740221216898
 31
0.0
  0
LINE
  5
1DB6
330
18
100
AcDbEntity
  8
DISEGNO
100
AcDbLine
 10
-175.2711279645614
 20
10.99974022121682
 30
0.0
 11
-171.1831279645616
 21
15.08774022121702
 31
0.0
  0
LINE
  5
1DB7
330
18
100
AcDbEntity
  8
DISEGNO
100
AcDbLine
 10
-185.1001279645611
 20
29.09074022121718
 30
0.0
 11
-187.1001279645611
 21
29.09074022121718
 31
0.0
  0
LINE
  5
1DB8
330
18
100
AcDbEntity
  8
DISEGNO
100
AcDbLine
 10
-185.1001279645611
 20
20.90874022121693
 30
0.0
 11
-187.1001279645611
 21
20.90874022121693
 31
0.0
  0
LINE
  5
1DB9
330
18
100
AcDbEntity
  8
DISEGNO
100
AcDbLine
 10
-187.1001279645611
 20
30.09074022121718
 30
0.0
 11
-187.1001279645611
 21
29.09074022121718
 31
0.0
  0
LINE
  5
1DBA
330
18
100
AcDbEntity
  8
DISEGNO
100
AcDbLine
 10
-188.1001279645611
 20
30.09074022121718
 30
0.0
 11
-188.1001279645611
 21
29.09074022121718
 31
0.0
  0
LINE
  5
1DBB
330
18
100
AcDbEntity
  8
DISEGNO
100
AcDbLine
 10
-188.1001279645611
 20
29.09074022121718
 30
0.0
 11
-189.1911279645615
 21
29.09074022121718
 31
0.0
  0
LINE
  5
1DBC
330
18
100
AcDbEntity
  8
DISEGNO
100
AcDbLine
 10
-187.1001279645611
 20
30.09074022121718
 30
0.0
 11
-188.1001279645611
 21
30.09074022121718
 31
0.0
  0
LINE
  5
1DBD
330
18
100
AcDbEntity
  8
DISEGNO
100
AcDbLine
 10
-187.1001279645611
 20
19.90874022121693
 30
0.0
 11
-187.1001279645611
 21
20.90874022121693
 31
0.0
  0
LINE
  5
1DBE
330
18
100
AcDbEntity
  8
DISEGNO
100
AcDbLine
 10
-188.1001279645611
 20
19.90874022121693
 30
0.0
 11
-188.1001279645611
 21
20.90874022121693
 31
0.0
  0
LINE
  5
1DBF
330
18
100
AcDbEntity
  8
DISEGNO
100
AcDbLine
 10
-188.1001279645611
 20
20.90874022121693
 30
0.0
 11
-189.1911279645615
 21
20.90874022121693
 31
0.0
  0
LINE
  5
1DC0
330
18
100
AcDbEntity
  8
DISEGNO
100
AcDbLine
 10
-187.1001279645611
 20
19.90874022121693
 30
0.0
 11
-188.1001279645611
 21
19.90874022121693
 31
0.0
  0
LINE
  5
1DC1
330
18
100
AcDbEntity
  8
DISEGNO
100
AcDbLine
 10
-170.1361279645612
 20
28.69474022121699
 30
0.0
 11
-171.0411279645618
 21
29.13074022121714
 31
0.0
  0
ARC
  5
1DC2
330
18
100
AcDbEntity
  8
DISEGNO
100
AcDbCircle
 10
-164.1911279645615
 20
24.99974022121683
 30
0.0
 40
8.0
100
AcDbArc
 50
175.6165999999963
 51
185.3793999999987
  0
LINE
  5
1DC3
330
18
100
AcDbEntity
  8
DISEGNO
100
AcDbLine
 10
-170.1361279645612
 20
21.30374022121691
 30
0.0
 11
-171.0411279645618
 21
20.86774022121722
 31
0.0
  0
ARC
  5
1DC4
330
18
100
AcDbEntity
  8
DISEGNO
100
AcDbCircle
 10
-164.1911279645615
 20
24.99974022121683
 30
0.0
 40
8.0
100
AcDbArc
 50
200.3350000000075
 51
211.0940000000055
  0
LINE
  5
1DC5
330
18
100
AcDbEntity
  8
DISEGNO
100
AcDbLine
 10
-171.6921279645617
 20
22.21974022121708
 30
0.0
 11
-170.7861279645617
 21
22.65574022121677
 31
0.0
  0
ARC
  5
1DC6
330
18
100
AcDbEntity
  8
DISEGNO
100
AcDbCircle
 10
-164.1911279645615
 20
24.99974022121683
 30
0.0
 40
7.0
100
AcDbArc
 50
186.1506000000028
 51
199.564000000002
  0
LINE
  5
1DC7
330
18
100
AcDbEntity
  8
DISEGNO
100
AcDbLine
 10
-171.1501279645613
 20
24.24974022121683
 30
0.0
 11
-172.1551279645614
 21
24.24974022121683
 31
0.0
  0
LINE
  5
1DC8
330
18
100
AcDbEntity
  8
DISEGNO
100
AcDbLine
 10
-171.6921279645617
 20
27.77974022121703
 30
0.0
 11
-170.7861279645617
 21
27.34374022121688
 31
0.0
  0
ARC
  5
1DC9
330
18
100
AcDbEntity
  8
DISEGNO
100
AcDbCircle
 10
-164.1911279645615
 20
24.99974022121683
 30
0.0
 40
7.0
100
AcDbArc
 50
160.4365000000135
 51
173.8493999999971
  0
LINE
  5
1DCA
330
18
100
AcDbEntity
  8
DISEGNO
100
AcDbLine
 10
-171.1501279645613
 20
25.74974022121683
 30
0.0
 11
-172.1551279645614
 21
25.74974022121683
 31
0.0
  0
ARC
  5
1DCB
330
18
100
AcDbEntity
  8
DISEGNO
100
AcDbCircle
 10
-164.1911279645615
 20
24.99974022121683
 30
0.0
 40
8.0
100
AcDbArc
 50
148.9061000000019
 51
159.6652000000123
  0
ARC
  5
1DCC
330
18
100
AcDbEntity
  8
DISEGNO
100
AcDbCircle
 10
-164.1911279645615
 20
24.99974022121683
 30
0.0
 40
11.0
100
AcDbArc
 50
164.6734000000104
 51
195.326999999999
  0
ARC
  5
1DCD
330
18
100
AcDbEntity
  8
DISEGNO
100
AcDbCircle
 10
-176.7281279645617
 20
21.56274022121693
 30
0.0
 40
2.0
100
AcDbArc
 50
315.0000000000092
 51
15.326999999999
  0
ARC
  5
1DCE
330
18
100
AcDbEntity
  8
DISEGNO
100
AcDbCircle
 10
-176.7281279645617
 20
28.43574022121698
 30
0.0
 40
2.0
100
AcDbArc
 50
344.673000000001
 51
44.99999999999078
  0
ARC
  5
1DCF
330
18
100
AcDbEntity
  8
DISEGNO
100
AcDbCircle
 10
-173.3121279645615
 20
17.20174022121705
 30
0.0
 40
1.0
100
AcDbArc
 50
40.52500000001655
 51
135.0005999999845
  0
LINE
  5
1DD0
330
18
100
AcDbEntity
  8
DISEGNO
100
AcDbLine
 10
-103.1091279645611
 20
10.99974022121682
 30
0.0
 11
-107.1971279645609
 21
15.08774022121702
 31
0.0
  0
LINE
  5
1DD1
330
18
100
AcDbEntity
  8
DISEGNO
100
AcDbLine
 10
-100.9401279645612
 20
-0.0002597787831746
 30
0.0
 11
-110.1901279645612
 21
-0.0002597787831746
 31
0.0
  0
LINE
  5
1DD2
330
18
100
AcDbEntity
  8
DISEGNO
100
AcDbLine
 10
-110.1901279645612
 20
3.999740221216825
 30
0.0
 11
-103.6901279645612
 21
3.999740221216825
 31
0.0
  0
ARC
  5
1DD3
330
18
100
AcDbEntity
  8
DISEGNO
100
AcDbCircle
 10
-114.1901279645612
 20
24.99974022121683
 30
0.0
 40
8.0
100
AcDbArc
 50
328.9059999999945
 51
339.6649999999925
  0
LINE
  5
1DD4
330
18
100
AcDbEntity
  8
DISEGNO
100
AcDbLine
 10
-106.6881279645608
 20
22.21974022121708
 30
0.0
 11
-107.5941279645617
 21
22.65574022121677
 31
0.0
  0
LINE
  5
1DD5
330
18
100
AcDbEntity
  8
DISEGNO
100
AcDbLine
 10
-107.2301279645612
 20
24.24974022121683
 30
0.0
 11
-106.2251279645611
 21
24.24974022121683
 31
0.0
  0
LINE
  5
1DD6
330
18
100
AcDbEntity
  8
DISEGNO
100
AcDbLine
 10
-106.6881279645608
 20
27.77974022121703
 30
0.0
 11
-107.5941279645617
 21
27.34374022121688
 31
0.0
  0
LINE
  5
1DD7
330
18
100
AcDbEntity
  8
DISEGNO
100
AcDbLine
 10
-107.2301279645612
 20
25.74974022121683
 30
0.0
 11
-106.2251279645611
 21
25.74974022121683
 31
0.0
  0
ARC
  5
1DD8
330
18
100
AcDbEntity
  8
DISEGNO
100
AcDbCircle
 10
-114.1901279645612
 20
24.99974022121683
 30
0.0
 40
8.0
100
AcDbArc
 50
20.33500000000748
 51
31.09400000000548
  0
LINE
  5
1DD9
330
18
100
AcDbEntity
  8
DISEGNO
100
AcDbLine
 10
-109.4831279645609
 20
13.83774022121702
 30
0.0
 11
-105.1901279645612
 21
9.544740221216898
 31
0.0
  0
ARC
  5
1DDA
330
18
100
AcDbEntity
  8
DISEGNO
100
AcDbCircle
 10
-114.1901279645612
 20
24.99974022121683
 30
0.0
 40
11.0
100
AcDbArc
 50
309.9110000000197
 51
319.4720000000065
  0
LINE
  5
1DDB
330
18
100
AcDbEntity
  8
DISEGNO
100
AcDbLine
 10
-160.1911279645614
 20
3.999740221216825
 30
0.0
 11
-160.1911279645614
 21
1.999740221216825
 31
0.0
  0
LINE
  5
1DDC
330
18
100
AcDbEntity
  8
DISEGNO
100
AcDbLine
 10
-135.1901279645612
 20
3.999740221216825
 30
0.0
 11
-135.1901279645612
 21
1.999740221216825
 31
0.0
  0
LINE
  5
1DDD
330
18
100
AcDbEntity
  8
DISEGNO
100
AcDbLine
 10
-143.1911279645615
 20
3.999740221216825
 30
0.0
 11
-143.1911279645615
 21
1.999740221216825
 31
0.0
  0
LINE
  5
1DDE
330
18
100
AcDbEntity
  8
DISEGNO
100
AcDbLine
 10
-110.1901279645612
 20
3.999740221216825
 30
0.0
 11
-110.1901279645612
 21
1.999740221216825
 31
0.0
  0
LINE
  5
1DDF
330
18
100
AcDbEntity
  8
DISEGNO
100
AcDbLine
 10
-118.1901279645612
 20
3.999740221216825
 30
0.0
 11
-118.1901279645612
 21
1.999740221216825
 31
0.0
  0
LINE
  5
1DE0
330
18
100
AcDbEntity
  8
DISEGNO
100
AcDbLine
 10
-168.1911279645615
 20
3.999740221216825
 30
0.0
 11
-168.1911279645615
 21
1.999740221216825
 31
0.0
  0
LINE
  5
1DE1
330
18
100
AcDbEntity
  8
DISEGNO
100
AcDbLine
 10
-152.9411279645614
 20
-0.0002597787831746
 30
0.0
 11
-160.1911279645614
 21
-0.0002597787831746
 31
0.0
  0
LINE
  5
1DE2
330
18
100
AcDbEntity
  8
DISEGNO
100
AcDbLine
 10
-159.1911279645614
 20
1.999740221216825
 30
0.0
 11
-159.1911279645614
 21
0.9997402212168253
 31
0.0
  0
LINE
  5
1DE3
330
18
100
AcDbEntity
  8
DISEGNO
100
AcDbLine
 10
-160.1911279645614
 20
0.9997402212168253
 30
0.0
 11
-160.1911279645614
 21
-0.0002597787831746
 31
0.0
  0
LINE
  5
1DE4
330
18
100
AcDbEntity
  8
DISEGNO
100
AcDbLine
 10
-159.1911279645614
 20
0.9997402212168253
 30
0.0
 11
-160.1911279645614
 21
0.9997402212168253
 31
0.0
  0
LINE
  5
1DE5
330
18
100
AcDbEntity
  8
DISEGNO
100
AcDbLine
 10
-159.1911279645614
 20
1.999740221216825
 30
0.0
 11
-160.1911279645614
 21
1.999740221216825
 31
0.0
  0
LINE
  5
1DE6
330
18
100
AcDbEntity
  8
DISEGNO
100
AcDbLine
 10
-169.1911279645615
 20
1.999740221216825
 30
0.0
 11
-169.1911279645615
 21
0.9997402212168253
 31
0.0
  0
LINE
  5
1DE7
330
18
100
AcDbEntity
  8
DISEGNO
100
AcDbLine
 10
-168.1911279645615
 20
0.9997402212168253
 30
0.0
 11
-168.1911279645615
 21
-0.0002597787831746
 31
0.0
  0
LINE
  5
1DE8
330
18
100
AcDbEntity
  8
DISEGNO
100
AcDbLine
 10
-169.1911279645615
 20
0.9997402212168253
 30
0.0
 11
-168.1911279645615
 21
0.9997402212168253
 31
0.0
  0
LINE
  5
1DE9
330
18
100
AcDbEntity
  8
DISEGNO
100
AcDbLine
 10
-169.1911279645615
 20
1.999740221216825
 30
0.0
 11
-168.1911279645615
 21
1.999740221216825
 31
0.0
  0
LINE
  5
1DEA
330
18
100
AcDbEntity
  8
DISEGNO
100
AcDbLine
 10
-150.4411279645615
 20
-0.0002597787831746
 30
0.0
 11
-143.1911279645615
 21
-0.0002597787831746
 31
0.0
  0
LINE
  5
1DEB
330
18
100
AcDbEntity
  8
DISEGNO
100
AcDbLine
 10
-150.4411279645615
 20
0.1997402212170982
 30
0.0
 11
-150.4411279645615
 21
-0.0002597787831746
 31
0.0
  0
LINE
  5
1DEC
330
18
100
AcDbEntity
  8
DISEGNO
100
AcDbLine
 10
-152.9411279645614
 20
0.1997402212170982
 30
0.0
 11
-152.9411279645614
 21
-0.0002597787831746
 31
0.0
  0
LINE
  5
1DED
330
18
100
AcDbEntity
  8
DISEGNO
100
AcDbLine
 10
-152.9411279645614
 20
0.1997402212170982
 30
0.0
 11
-150.4411279645615
 21
0.1997402212170982
 31
0.0
  0
LINE
  5
1DEE
330
18
100
AcDbEntity
  8
DISEGNO
100
AcDbLine
 10
-144.1911279645615
 20
1.999740221216825
 30
0.0
 11
-144.1911279645615
 21
0.9997402212168253
 31
0.0
  0
LINE
  5
1DEF
330
18
100
AcDbEntity
  8
DISEGNO
100
AcDbLine
 10
-143.1911279645615
 20
0.9997402212168253
 30
0.0
 11
-143.1911279645615
 21
-0.0002597787831746
 31
0.0
  0
LINE
  5
1DF0
330
18
100
AcDbEntity
  8
DISEGNO
100
AcDbLine
 10
-144.1911279645615
 20
0.9997402212168253
 30
0.0
 11
-143.1911279645615
 21
0.9997402212168253
 31
0.0
  0
LINE
  5
1DF1
330
18
100
AcDbEntity
  8
DISEGNO
100
AcDbLine
 10
-144.1911279645615
 20
1.999740221216825
 30
0.0
 11
-143.1911279645615
 21
1.999740221216825
 31
0.0
  0
LINE
  5
1DF2
330
18
100
AcDbEntity
  8
DISEGNO
100
AcDbLine
 10
-125.4401279645612
 20
-0.0002597787831746
 30
0.0
 11
-118.1901279645612
 21
-0.0002597787831746
 31
0.0
  0
LINE
  5
1DF3
330
18
100
AcDbEntity
  8
DISEGNO
100
AcDbLine
 10
-125.4401279645612
 20
0.1997402212170982
 30
0.0
 11
-127.9401279645612
 21
0.1997402212170982
 31
0.0
  0
LINE
  5
1DF4
330
18
100
AcDbEntity
  8
DISEGNO
100
AcDbLine
 10
-125.4401279645612
 20
0.1997402212170982
 30
0.0
 11
-125.4401279645612
 21
-0.0002597787831746
 31
0.0
  0
LINE
  5
1DF5
330
18
100
AcDbEntity
  8
DISEGNO
100
AcDbLine
 10
-127.9401279645612
 20
0.1997402212170982
 30
0.0
 11
-127.9401279645612
 21
-0.0002597787831746
 31
0.0
  0
LINE
  5
1DF6
330
18
100
AcDbEntity
  8
DISEGNO
100
AcDbLine
 10
-134.1901279645612
 20
1.999740221216825
 30
0.0
 11
-134.1901279645612
 21
0.9997402212168253
 31
0.0
  0
LINE
  5
1DF7
330
18
100
AcDbEntity
  8
DISEGNO
100
AcDbLine
 10
-134.1901279645612
 20
0.9997402212168253
 30
0.0
 11
-135.1901279645612
 21
0.9997402212168253
 31
0.0
  0
LINE
  5
1DF8
330
18
100
AcDbEntity
  8
DISEGNO
100
AcDbLine
 10
-135.1901279645612
 20
0.9997402212168253
 30
0.0
 11
-135.1901279645612
 21
-0.0002597787831746
 31
0.0
  0
LINE
  5
1DF9
330
18
100
AcDbEntity
  8
DISEGNO
100
AcDbLine
 10
-134.1901279645612
 20
1.999740221216825
 30
0.0
 11
-135.1901279645612
 21
1.999740221216825
 31
0.0
  0
LINE
  5
1DFA
330
18
100
AcDbEntity
  8
DISEGNO
100
AcDbLine
 10
-127.9401279645612
 20
-0.0002597787831746
 30
0.0
 11
-135.1901279645612
 21
-0.0002597787831746
 31
0.0
  0
LINE
  5
1DFB
330
18
100
AcDbEntity
  8
DISEGNO
100
AcDbLine
 10
-109.1901279645612
 20
1.999740221216825
 30
0.0
 11
-109.1901279645612
 21
0.9997402212168253
 31
0.0
  0
LINE
  5
1DFC
330
18
100
AcDbEntity
  8
DISEGNO
100
AcDbLine
 10
-110.1901279645612
 20
0.9997402212168253
 30
0.0
 11
-110.1901279645612
 21
-0.0002597787831746
 31
0.0
  0
LINE
  5
1DFD
330
18
100
AcDbEntity
  8
DISEGNO
100
AcDbLine
 10
-109.1901279645612
 20
0.9997402212168253
 30
0.0
 11
-110.1901279645612
 21
0.9997402212168253
 31
0.0
  0
LINE
  5
1DFE
330
18
100
AcDbEntity
  8
DISEGNO
100
AcDbLine
 10
-109.1901279645612
 20
1.999740221216825
 30
0.0
 11
-110.1901279645612
 21
1.999740221216825
 31
0.0
  0
LINE
  5
1DFF
330
18
100
AcDbEntity
  8
DISEGNO
100
AcDbLine
 10
-119.1901279645612
 20
1.999740221216825
 30
0.0
 11
-119.1901279645612
 21
0.9997402212168253
 31
0.0
  0
LINE
  5
1E00
330
18
100
AcDbEntity
  8
DISEGNO
100
AcDbLine
 10
-118.1901279645612
 20
0.9997402212168253
 30
0.0
 11
-118.1901279645612
 21
-0.0002597787831746
 31
0.0
  0
LINE
  5
1E01
330
18
100
AcDbEntity
  8
DISEGNO
100
AcDbLine
 10
-119.1901279645612
 20
0.9997402212168253
 30
0.0
 11
-118.1901279645612
 21
0.9997402212168253
 31
0.0
  0
LINE
  5
1E02
330
18
100
AcDbEntity
  8
DISEGNO
100
AcDbLine
 10
-119.1901279645612
 20
1.999740221216825
 30
0.0
 11
-118.1901279645612
 21
1.999740221216825
 31
0.0
  0
LINE
  5
1E03
330
18
100
AcDbEntity
  8
DISEGNO
100
AcDbLine
 10
-149.4621279645612
 20
23.74974022121683
 30
0.0
 11
-128.9181279645613
 21
23.74974022121683
 31
0.0
  0
LINE
  5
1E04
330
18
100
AcDbEntity
  8
DISEGNO
100
AcDbLine
 10
-127.6901279645612
 20
26.24974022121683
 30
0.0
 11
-150.6911279645614
 21
26.24974022121683
 31
0.0
  0
LINE
  5
1E05
330
18
100
AcDbEntity
  8
DISEGNO
100
AcDbLine
 10
-134.1901279645612
 20
16.99974022121682
 30
0.0
 11
-144.1911279645615
 21
16.99974022121682
 31
0.0
  0
LINE
  5
1E06
330
18
100
AcDbEntity
  8
DISEGNO
100
AcDbLine
 10
-135.0181279645617
 20
13.99974022121682
 30
0.0
 11
-143.3621279645617
 21
13.99974022121682
 31
0.0
  0
ARC
  5
1E07
330
18
100
AcDbEntity
  8
DISEGNO
100
AcDbCircle
 10
-164.1911279645615
 20
24.99974022121683
 30
0.0
 40
11.0
100
AcDbArc
 50
316.9210000000011
 51
337.0069999999903
  0
LINE
  5
1E08
330
18
100
AcDbEntity
  8
DISEGNO
100
AcDbLine
 10
-166.6941279645612
 20
17.40074022121712
 30
0.0
 11
-166.470127964561
 21
18.38074022121714
 31
0.0
  0
LINE
  5
1E09
330
18
100
AcDbEntity
  8
DISEGNO
100
AcDbLine
 10
-161.9111279645617
 20
18.38074022121714
 30
0.0
 11
-161.6871279645615
 21
17.40074022121712
 31
0.0
  0
LINE
  5
1E0A
330
18
100
AcDbEntity
  8
DISEGNO
100
AcDbLine
 10
-163.1491279645611
 20
17.06774022121703
 30
0.0
 11
-163.3731279645612
 21
18.04774022121705
 31
0.0
  0
LINE
  5
1E0B
330
18
100
AcDbEntity
  8
DISEGNO
100
AcDbLine
 10
-165.2321279645616
 20
17.06774022121703
 30
0.0
 11
-165.0081279645615
 21
18.04774022121705
 31
0.0
  0
LINE
  5
1E0C
330
18
100
AcDbEntity
  8
DISEGNO
100
AcDbLine
 10
-155.1901279645612
 20
8.499740221216825
 30
0.0
 11
-153.6911279645615
 21
8.499740221216825
 31
0.0
  0
LINE
  5
1E0D
330
18
100
AcDbEntity
  8
DISEGNO
100
AcDbLine
 10
-153.6911279645615
 20
3.999740221216825
 30
0.0
 11
-160.1911279645614
 21
3.999740221216825
 31
0.0
  0
ARC
  5
1E0E
330
18
100
AcDbEntity
  8
DISEGNO
100
AcDbCircle
 10
-151.9181279645613
 20
14.75774022121709
 30
0.0
 40
3.0
100
AcDbArc
 50
224.9999999999908
 51
315.0000000000092
  0
LINE
  5
1E0F
330
18
100
AcDbEntity
  8
DISEGNO
100
AcDbLine
 10
-154.0391279645614
 20
12.63574022121725
 30
0.0
 11
-156.1091279645611
 21
14.70574022121695
 31
0.0
  0
LINE
  5
1E10
330
18
100
AcDbEntity
  8
DISEGNO
100
AcDbLine
 10
-155.1901279645612
 20
9.544740221216898
 30
0.0
 11
-155.1901279645612
 21
8.499740221216825
 31
0.0
  0
LINE
  5
1E11
330
18
100
AcDbEntity
  8
DISEGNO
100
AcDbLine
 10
-159.4841279645611
 20
13.83774022121702
 30
0.0
 11
-155.1901279645612
 21
9.544740221216898
 31
0.0
  0
ARC
  5
1E12
330
18
100
AcDbEntity
  8
DISEGNO
100
AcDbCircle
 10
-154.6951279645614
 20
16.12074022121692
 30
0.0
 40
2.0
100
AcDbArc
 50
136.9208999999942
 51
224.9999999999908
  0
ARC
  5
1E13
330
18
100
AcDbEntity
  8
DISEGNO
100
AcDbCircle
 10
-164.1911279645615
 20
24.99974022121683
 30
0.0
 40
11.0
100
AcDbArc
 50
255.3279999999833
 51
284.6720000000167
  0
ARC
  5
1E14
330
18
100
AcDbEntity
  8
DISEGNO
100
AcDbCircle
 10
-164.1911279645615
 20
24.99974022121683
 30
0.0
 40
8.0
100
AcDbArc
 50
251.7629999999831
 51
262.5220000000194
  0
ARC
  5
1E15
330
18
100
AcDbEntity
  8
DISEGNO
100
AcDbCircle
 10
-167.4831279645609
 20
12.4237402212168
 30
0.0
 40
2.0
100
AcDbArc
 50
75.32799999998329
 51
134.9999000000072
  0
ARC
  5
1E16
330
18
100
AcDbEntity
  8
DISEGNO
100
AcDbCircle
 10
-164.1911279645615
 20
24.99974022121683
 30
0.0
 40
8.0
100
AcDbArc
 50
277.4779999999806
 51
288.2360000000053
  0
ARC
  5
1E17
330
18
100
AcDbEntity
  8
DISEGNO
100
AcDbCircle
 10
-160.8981279645618
 20
12.4237402212168
 30
0.0
 40
2.0
100
AcDbArc
 50
44.99999999999078
 51
104.6723999999963
  0
LINE
  5
1E18
330
18
100
AcDbEntity
  8
DISEGNO
100
AcDbLine
 10
-148.1911279645615
 20
9.999740221216825
 30
0.0
 11
-144.7761279645615
 21
13.41374022121704
 31
0.0
  0
LINE
  5
1E19
330
18
100
AcDbEntity
  8
DISEGNO
100
AcDbLine
 10
-149.1911279645615
 20
3.999740221216825
 30
0.0
 11
-143.1911279645615
 21
3.999740221216825
 31
0.0
  0
ARC
  5
1E1A
330
18
100
AcDbEntity
  8
DISEGNO
100
AcDbCircle
 10
-144.1911279645615
 20
13.99974022121682
 30
0.0
 40
3.0
100
AcDbArc
 50
90.0000053719892
 51
135.0001000000204
  0
LINE
  5
1E1B
330
18
100
AcDbEntity
  8
DISEGNO
100
AcDbLine
 10
-146.3121279645615
 20
16.12074022121692
 30
0.0
 11
-149.7971279645612
 21
12.63574022121725
 31
0.0
  0
LINE
  5
1E1C
330
18
100
AcDbEntity
  8
DISEGNO
100
AcDbLine
 10
-148.1911279645615
 20
9.999740221216825
 30
0.0
 11
-148.1911279645615
 21
8.499740221216825
 31
0.0
  0
LINE
  5
1E1D
330
18
100
AcDbEntity
  8
DISEGNO
100
AcDbLine
 10
-148.1911279645615
 20
8.499740221216825
 30
0.0
 11
-149.1911279645615
 21
8.499740221216825
 31
0.0
  0
LINE
  5
1E1E
330
18
100
AcDbEntity
  8
DISEGNO
100
AcDbLine
 10
-149.1911279645615
 20
3.999740221216825
 30
0.0
 11
-149.1911279645615
 21
8.499740221216825
 31
0.0
  0
LINE
  5
1E1F
330
18
100
AcDbEntity
  8
DISEGNO
100
AcDbLine
 10
-153.6911279645615
 20
3.999740221216825
 30
0.0
 11
-153.6911279645615
 21
8.499740221216825
 31
0.0
  0
ARC
  5
1E20
330
18
100
AcDbEntity
  8
DISEGNO
100
AcDbCircle
 10
-143.3621279645617
 20
11.99974022121682
 30
0.0
 40
2.0
100
AcDbArc
 50
90.0
 51
134.9997999999867
  0
ARC
  5
1E21
330
18
100
AcDbEntity
  8
DISEGNO
100
AcDbCircle
 10
-149.4621279645612
 20
18.74974022121682
 30
0.0
 40
5.0
100
AcDbArc
 50
90.0000053719892
 51
157.0065999999881
  0
ARC
  5
1E22
330
18
100
AcDbEntity
  8
DISEGNO
100
AcDbCircle
 10
-150.6911279645614
 20
29.24974022121683
 30
0.0
 40
3.0
100
AcDbArc
 50
180.0
 51
270.0
  0
ARC
  5
1E23
330
18
100
AcDbEntity
  8
DISEGNO
100
AcDbCircle
 10
-164.1911279645615
 20
24.99974022121683
 30
0.0
 40
8.0
100
AcDbArc
 50
303.1919999999804
 51
313.951000000009
  0
LINE
  5
1E24
330
18
100
AcDbEntity
  8
DISEGNO
100
AcDbLine
 10
-159.8111279645613
 20
18.30474022121711
 30
0.0
 11
-160.4381279645608
 21
19.09074022121717
 31
0.0
  0
ARC
  5
1E25
330
18
100
AcDbEntity
  8
DISEGNO
100
AcDbCircle
 10
-164.1911279645615
 20
24.99974022121683
 30
0.0
 40
8.0
100
AcDbArc
 50
46.04899999999099
 51
56.80800000001954
  0
ARC
  5
1E26
330
18
100
AcDbEntity
  8
DISEGNO
100
AcDbCircle
 10
-164.1911279645615
 20
24.99974022121683
 30
0.0
 40
7.0
100
AcDbArc
 50
31.86499999999361
 51
45.2779999999976
  0
LINE
  5
1E27
330
18
100
AcDbEntity
  8
DISEGNO
100
AcDbLine
 10
-159.2651279645611
 20
29.97274022121678
 30
0.0
 11
-158.6381279645616
 21
30.75874022121684
 31
0.0
  0
LINE
  5
1E28
330
18
100
AcDbEntity
  8
DISEGNO
100
AcDbLine
 10
-159.8111279645613
 20
31.69374022121724
 30
0.0
 11
-160.4381279645608
 21
30.90874022121693
 31
0.0
  0
LINE
  5
1E29
330
18
100
AcDbEntity
  8
DISEGNO
100
AcDbLine
 10
-157.3401279645609
 20
29.13074022121714
 30
0.0
 11
-158.2451279645615
 21
28.69474022121699
 31
0.0
  0
ARC
  5
1E2A
330
18
100
AcDbEntity
  8
DISEGNO
100
AcDbCircle
 10
-164.1911279645615
 20
24.99974022121683
 30
0.0
 40
8.0
100
AcDbArc
 50
354.6210000000014
 51
4.382999999999265
  0
ARC
  5
1E2B
330
18
100
AcDbEntity
  8
DISEGNO
100
AcDbCircle
 10
-164.1911279645615
 20
24.99974022121683
 30
0.0
 40
7.0
100
AcDbArc
 50
314.7220000000024
 51
328.1350000000064
  0
LINE
  5
1E2C
330
18
100
AcDbEntity
  8
DISEGNO
100
AcDbLine
 10
-159.2651279645611
 20
20.02574022121712
 30
0.0
 11
-158.6381279645616
 21
19.23974022121706
 31
0.0
  0
ARC
  5
1E2D
330
18
100
AcDbEntity
  8
DISEGNO
100
AcDbCircle
 10
-164.1911279645615
 20
24.99974022121683
 30
0.0
 40
7.0
100
AcDbArc
 50
340.4369999999929
 51
353.8490000000024
  0
LINE
  5
1E2E
330
18
100
AcDbEntity
  8
DISEGNO
100
AcDbLine
 10
-157.595127964561
 20
22.65574022121677
 30
0.0
 11
-156.689127964561
 21
22.21974022121708
 31
0.0
  0
ARC
  5
1E2F
330
18
100
AcDbEntity
  8
DISEGNO
100
AcDbCircle
 10
-164.1911279645615
 20
24.99974022121683
 30
0.0
 40
8.0
100
AcDbArc
 50
328.9059999999945
 51
339.6649999999925
  0
LINE
  5
1E30
330
18
100
AcDbEntity
  8
DISEGNO
100
AcDbLine
 10
-157.3401279645609
 20
20.86774022121722
 30
0.0
 11
-158.2451279645615
 21
21.30374022121691
 31
0.0
  0
ARC
  5
1E31
330
18
100
AcDbEntity
  8
DISEGNO
100
AcDbCircle
 10
-164.1911279645615
 20
24.99974022121683
 30
0.0
 40
7.0
100
AcDbArc
 50
6.150999999997551
 51
19.56300000000703
  0
LINE
  5
1E32
330
18
100
AcDbEntity
  8
DISEGNO
100
AcDbLine
 10
-157.595127964561
 20
27.34374022121688
 30
0.0
 11
-156.689127964561
 21
27.77974022121703
 31
0.0
  0
LINE
  5
1E33
330
18
100
AcDbEntity
  8
DISEGNO
100
AcDbLine
 10
-156.2261279645613
 20
24.24974022121683
 30
0.0
 11
-157.2311279645614
 21
24.24974022121683
 31
0.0
  0
LINE
  5
1E34
330
18
100
AcDbEntity
  8
DISEGNO
100
AcDbLine
 10
-156.2261279645613
 20
25.74974022121683
 30
0.0
 11
-157.2311279645614
 21
25.74974022121683
 31
0.0
  0
ARC
  5
1E35
330
18
100
AcDbEntity
  8
DISEGNO
100
AcDbCircle
 10
-164.1911279645615
 20
24.99974022121683
 30
0.0
 40
8.0
100
AcDbArc
 50
20.33500000000748
 51
31.09400000000548
  0
LINE
  5
1E36
330
18
100
AcDbEntity
  8
DISEGNO
100
AcDbLine
 10
-167.9441279645612
 20
19.09074022121717
 30
0.0
 11
-168.5701279645614
 21
18.30474022121711
 31
0.0
  0
ARC
  5
1E37
330
18
100
AcDbEntity
  8
DISEGNO
100
AcDbCircle
 10
-164.1911279645615
 20
24.99974022121683
 30
0.0
 40
7.0
100
AcDbArc
 50
237.5790000000149
 51
250.9919999999952
  0
LINE
  5
1E38
330
18
100
AcDbEntity
  8
DISEGNO
100
AcDbLine
 10
-166.6941279645612
 20
32.59774022121678
 30
0.0
 11
-166.470127964561
 21
31.61774022121722
 31
0.0
  0
LINE
  5
1E39
330
18
100
AcDbEntity
  8
DISEGNO
100
AcDbLine
 10
-167.9441279645612
 20
30.90874022121693
 30
0.0
 11
-168.5701279645614
 21
31.69374022121724
 31
0.0
  0
ARC
  5
1E3A
330
18
100
AcDbEntity
  8
DISEGNO
100
AcDbCircle
 10
-164.1911279645615
 20
24.99974022121683
 30
0.0
 40
7.0
100
AcDbArc
 50
109.007700000024
 51
122.420900000007
  0
ARC
  5
1E3B
330
18
100
AcDbEntity
  8
DISEGNO
100
AcDbCircle
 10
-164.1911279645615
 20
24.99974022121683
 30
0.0
 40
7.0
100
AcDbArc
 50
263.2940000000161
 51
276.7059999999839
  0
LINE
  5
1E3C
330
18
100
AcDbEntity
  8
DISEGNO
100
AcDbLine
 10
-161.9111279645617
 20
31.61774022121722
 30
0.0
 11
-161.6871279645615
 21
32.59774022121678
 31
0.0
  0
ARC
  5
1E3D
330
18
100
AcDbEntity
  8
DISEGNO
100
AcDbCircle
 10
-164.1911279645615
 20
24.99974022121683
 30
0.0
 40
7.0
100
AcDbArc
 50
84.37399999998893
 51
95.62587000001284
  0
ARC
  5
1E3E
330
18
100
AcDbEntity
  8
DISEGNO
100
AcDbCircle
 10
-164.1911279645615
 20
24.99974022121683
 30
0.0
 40
7.0
100
AcDbArc
 50
289.0080000000048
 51
302.4209999999852
  0
ARC
  5
1E3F
330
18
100
AcDbEntity
  8
DISEGNO
100
AcDbCircle
 10
-164.1911279645615
 20
24.99974022121683
 30
0.0
 40
7.0
100
AcDbArc
 50
57.57900000001487
 51
70.99199999999521
  0
ARC
  5
1E40
330
18
100
AcDbEntity
  8
DISEGNO
100
AcDbCircle
 10
-114.1901279645612
 20
24.99974022121683
 30
0.0
 40
11.0
100
AcDbArc
 50
202.9930000000097
 51
223.0789999999988
  0
LINE
  5
1E41
330
18
100
AcDbEntity
  8
DISEGNO
100
AcDbLine
 10
-116.4691279645617
 20
18.38074022121714
 30
0.0
 11
-116.6931279645619
 21
17.40074022121712
 31
0.0
  0
LINE
  5
1E42
330
18
100
AcDbEntity
  8
DISEGNO
100
AcDbLine
 10
-115.2311279645614
 20
17.06774022121703
 30
0.0
 11
-115.0071279645612
 21
18.04774022121705
 31
0.0
  0
LINE
  5
1E43
330
18
100
AcDbEntity
  8
DISEGNO
100
AcDbLine
 10
-113.1481279645618
 20
17.06774022121703
 30
0.0
 11
-113.372127964561
 21
18.04774022121705
 31
0.0
  0
LINE
  5
1E44
330
18
100
AcDbEntity
  8
DISEGNO
100
AcDbLine
 10
-111.6861279645613
 20
17.40074022121712
 30
0.0
 11
-111.9101279645615
 21
18.38074022121714
 31
0.0
  0
LINE
  5
1E45
330
18
100
AcDbEntity
  8
DISEGNO
100
AcDbLine
 10
-124.6901279645612
 20
3.999740221216825
 30
0.0
 11
-118.1901279645612
 21
3.999740221216825
 31
0.0
  0
LINE
  5
1E46
330
18
100
AcDbEntity
  8
DISEGNO
100
AcDbLine
 10
-118.8971279645616
 20
13.83774022121702
 30
0.0
 11
-123.1901279645613
 21
9.544740221216898
 31
0.0
  0
LINE
  5
1E47
330
18
100
AcDbEntity
  8
DISEGNO
100
AcDbLine
 10
-124.3411279645611
 20
12.63574022121725
 30
0.0
 11
-122.2711279645614
 21
14.70574022121695
 31
0.0
  0
ARC
  5
1E48
330
18
100
AcDbEntity
  8
DISEGNO
100
AcDbCircle
 10
-126.4621279645612
 20
14.75774022121709
 30
0.0
 40
3.0
100
AcDbArc
 50
224.9999999999908
 51
315.0000000000092
  0
LINE
  5
1E49
330
18
100
AcDbEntity
  8
DISEGNO
100
AcDbLine
 10
-123.1901279645613
 20
8.499740221216825
 30
0.0
 11
-124.6901279645612
 21
8.499740221216825
 31
0.0
  0
LINE
  5
1E4A
330
18
100
AcDbEntity
  8
DISEGNO
100
AcDbLine
 10
-130.1901279645612
 20
9.999740221216825
 30
0.0
 11
-130.1901279645612
 21
8.499740221216825
 31
0.0
  0
LINE
  5
1E4B
330
18
100
AcDbEntity
  8
DISEGNO
100
AcDbLine
 10
-130.1901279645612
 20
8.499740221216825
 30
0.0
 11
-129.1901279645612
 21
8.499740221216825
 31
0.0
  0
LINE
  5
1E4C
330
18
100
AcDbEntity
  8
DISEGNO
100
AcDbLine
 10
-129.1901279645612
 20
3.999740221216825
 30
0.0
 11
-129.1901279645612
 21
8.499740221216825
 31
0.0
  0
LINE
  5
1E4D
330
18
100
AcDbEntity
  8
DISEGNO
100
AcDbLine
 10
-124.6901279645612
 20
3.999740221216825
 30
0.0
 11
-124.6901279645612
 21
8.499740221216825
 31
0.0
  0
ARC
  5
1E4E
330
18
100
AcDbEntity
  8
DISEGNO
100
AcDbCircle
 10
-135.0181279645617
 20
11.99974022121682
 30
0.0
 40
2.0
100
AcDbArc
 50
44.99999999999078
 51
90.00001072459346
  0
ARC
  5
1E4F
330
18
100
AcDbEntity
  8
DISEGNO
100
AcDbCircle
 10
-134.1901279645612
 20
13.99974022121682
 30
0.0
 40
3.0
100
AcDbArc
 50
44.99999999999078
 51
90.0
  0
LINE
  5
1E50
330
18
100
AcDbEntity
  8
DISEGNO
100
AcDbLine
 10
-129.1901279645612
 20
3.999740221216825
 30
0.0
 11
-135.1901279645612
 21
3.999740221216825
 31
0.0
  0
LINE
  5
1E51
330
18
100
AcDbEntity
  8
DISEGNO
100
AcDbLine
 10
-132.0681279645619
 20
16.12074022121692
 30
0.0
 11
-128.5841279645615
 21
12.63574022121725
 31
0.0
  0
LINE
  5
1E52
330
18
100
AcDbEntity
  8
DISEGNO
100
AcDbLine
 10
-130.1901279645612
 20
9.999740221216825
 30
0.0
 11
-133.604127964561
 21
13.41374022121704
 31
0.0
  0
LINE
  5
1E53
330
18
100
AcDbEntity
  8
DISEGNO
100
AcDbLine
 10
-123.1901279645613
 20
9.544740221216898
 30
0.0
 11
-123.1901279645613
 21
8.499740221216825
 31
0.0
  0
ARC
  5
1E54
330
18
100
AcDbEntity
  8
DISEGNO
100
AcDbCircle
 10
-106.4901279645614
 20
15.7947402212169
 30
0.0
 40
1.0
100
AcDbArc
 50
129.9123999999881
 51
224.9989999999982
  0
ARC
  5
1E55
330
18
100
AcDbEntity
  8
DISEGNO
100
AcDbCircle
 10
-123.6851279645611
 20
16.12074022121692
 30
0.0
 40
2.0
100
AcDbArc
 50
315.0000000000092
 51
43.07899999999885
  0
ARC
  5
1E56
330
18
100
AcDbEntity
  8
DISEGNO
100
AcDbCircle
 10
-117.4821279645616
 20
12.4237402212168
 30
0.0
 40
2.0
100
AcDbArc
 50
75.32799999998329
 51
135.0000000000092
  0
ARC
  5
1E57
330
18
100
AcDbEntity
  8
DISEGNO
100
AcDbCircle
 10
-114.1901279645612
 20
24.99974022121683
 30
0.0
 40
11.0
100
AcDbArc
 50
255.3279999999833
 51
284.6720000000167
  0
ARC
  5
1E58
330
18
100
AcDbEntity
  8
DISEGNO
100
AcDbCircle
 10
-114.1901279645612
 20
24.99974022121683
 30
0.0
 40
8.0
100
AcDbArc
 50
251.7639999999947
 51
262.5220000000194
  0
ARC
  5
1E59
330
18
100
AcDbEntity
  8
DISEGNO
100
AcDbCircle
 10
-114.1901279645612
 20
24.99974022121683
 30
0.0
 40
8.0
100
AcDbArc
 50
277.4779999999806
 51
288.237000000017
  0
ARC
  5
1E5A
330
18
100
AcDbEntity
  8
DISEGNO
100
AcDbCircle
 10
-110.8971279645616
 20
12.4237402212168
 30
0.0
 40
2.0
100
AcDbArc
 50
44.99999999999078
 51
104.6720999999859
  0
ARC
  5
1E5B
330
18
100
AcDbEntity
  8
DISEGNO
100
AcDbCircle
 10
-128.9181279645613
 20
18.74974022121682
 30
0.0
 40
5.0
100
AcDbArc
 50
22.99300000000968
 51
90.0
  0
ARC
  5
1E5C
330
18
100
AcDbEntity
  8
DISEGNO
100
AcDbCircle
 10
-127.6901279645612
 20
29.24974022121683
 30
0.0
 40
3.0
100
AcDbArc
 50
270.0
 51
0.0
  0
ARC
  5
1E5D
330
18
100
AcDbEntity
  8
DISEGNO
100
AcDbCircle
 10
-114.1901279645612
 20
24.99974022121683
 30
0.0
 40
8.0
100
AcDbArc
 50
46.04899999999099
 51
56.80800000001954
  0
ARC
  5
1E5E
330
18
100
AcDbEntity
  8
DISEGNO
100
AcDbCircle
 10
-114.1901279645612
 20
24.99974022121683
 30
0.0
 40
7.0
100
AcDbArc
 50
31.86499999999361
 51
45.2779999999976
  0
LINE
  5
1E5F
330
18
100
AcDbEntity
  8
DISEGNO
100
AcDbLine
 10
-108.6371279645614
 20
30.75874022121684
 30
0.0
 11
-109.2641279645618
 21
29.97274022121678
 31
0.0
  0
LINE
  5
1E60
330
18
100
AcDbEntity
  8
DISEGNO
100
AcDbLine
 10
-110.4371279645615
 20
30.90874022121693
 30
0.0
 11
-109.8101279645611
 21
31.69374022121724
 31
0.0
  0
LINE
  5
1E61
330
18
100
AcDbEntity
  8
DISEGNO
100
AcDbLine
 10
-108.2451279645615
 20
28.69474022121699
 30
0.0
 11
-107.3391279645616
 21
29.13074022121714
 31
0.0
  0
LINE
  5
1E62
330
18
100
AcDbEntity
  8
DISEGNO
100
AcDbLine
 10
-108.6371279645614
 20
19.23974022121706
 30
0.0
 11
-109.2641279645618
 21
20.02574022121712
 31
0.0
  0
ARC
  5
1E63
330
18
100
AcDbEntity
  8
DISEGNO
100
AcDbCircle
 10
-114.1901279645612
 20
24.99974022121683
 30
0.0
 40
7.0
100
AcDbArc
 50
314.7220000000024
 51
328.1350000000064
  0
LINE
  5
1E64
330
18
100
AcDbEntity
  8
DISEGNO
100
AcDbLine
 10
-108.2451279645615
 20
21.30374022121691
 30
0.0
 11
-107.3391279645616
 21
20.86774022121722
 31
0.0
  0
ARC
  5
1E65
330
18
100
AcDbEntity
  8
DISEGNO
100
AcDbCircle
 10
-114.1901279645612
 20
24.99974022121683
 30
0.0
 40
7.0
100
AcDbArc
 50
340.4359999999979
 51
353.8490000000024
  0
ARC
  5
1E66
330
18
100
AcDbEntity
  8
DISEGNO
100
AcDbCircle
 10
-114.1901279645612
 20
24.99974022121683
 30
0.0
 40
7.0
100
AcDbArc
 50
6.150999999997551
 51
19.56400000000208
  0
ARC
  5
1E67
330
18
100
AcDbEntity
  8
DISEGNO
100
AcDbCircle
 10
-114.1901279645612
 20
24.99974022121683
 30
0.0
 40
8.0
100
AcDbArc
 50
303.1919999999804
 51
313.951000000009
  0
LINE
  5
1E68
330
18
100
AcDbEntity
  8
DISEGNO
100
AcDbLine
 10
-110.4371279645615
 20
19.09074022121717
 30
0.0
 11
-109.8101279645611
 21
18.30474022121711
 31
0.0
  0
LINE
  5
1E69
330
18
100
AcDbEntity
  8
DISEGNO
100
AcDbLine
 10
-122.1541279645612
 20
25.74974022121683
 30
0.0
 11
-121.1491279645611
 21
25.74974022121683
 31
0.0
  0
LINE
  5
1E6A
330
18
100
AcDbEntity
  8
DISEGNO
100
AcDbLine
 10
-120.7861279645617
 20
27.34374022121688
 30
0.0
 11
-121.6911279645614
 21
27.77974022121703
 31
0.0
  0
ARC
  5
1E6B
330
18
100
AcDbEntity
  8
DISEGNO
100
AcDbCircle
 10
-114.1901279645612
 20
24.99974022121683
 30
0.0
 40
8.0
100
AcDbArc
 50
148.9061000000019
 51
159.6648000000052
  0
ARC
  5
1E6C
330
18
100
AcDbEntity
  8
DISEGNO
100
AcDbCircle
 10
-114.1901279645612
 20
24.99974022121683
 30
0.0
 40
8.0
100
AcDbArc
 50
175.6165999999963
 51
185.3793999999987
  0
LINE
  5
1E6D
330
18
100
AcDbEntity
  8
DISEGNO
100
AcDbLine
 10
-118.5691279645612
 20
31.69374022121724
 30
0.0
 11
-117.9431279645619
 21
30.90874022121693
 31
0.0
  0
ARC
  5
1E6E
330
18
100
AcDbEntity
  8
DISEGNO
100
AcDbCircle
 10
-114.1901279645612
 20
24.99974022121683
 30
0.0
 40
7.0
100
AcDbArc
 50
109.007700000024
 51
122.420900000007
  0
LINE
  5
1E6F
330
18
100
AcDbEntity
  8
DISEGNO
100
AcDbLine
 10
-116.4691279645617
 20
31.61774022121722
 30
0.0
 11
-116.6931279645619
 21
32.59774022121678
 31
0.0
  0
LINE
  5
1E70
330
18
100
AcDbEntity
  8
DISEGNO
100
AcDbLine
 10
-111.6861279645613
 20
32.59774022121678
 30
0.0
 11
-111.9101279645615
 21
31.61774022121722
 31
0.0
  0
ARC
  5
1E71
330
18
100
AcDbEntity
  8
DISEGNO
100
AcDbCircle
 10
-114.1901279645612
 20
24.99974022121683
 30
0.0
 40
7.0
100
AcDbArc
 50
84.37399999998893
 51
95.62600000001106
  0
ARC
  5
1E72
330
18
100
AcDbEntity
  8
DISEGNO
100
AcDbCircle
 10
-114.1901279645612
 20
24.99974022121683
 30
0.0
 40
8.0
100
AcDbArc
 50
123.1920999999902
 51
133.9509000000022
  0
LINE
  5
1E73
330
18
100
AcDbEntity
  8
DISEGNO
100
AcDbLine
 10
-121.0401279645616
 20
29.13074022121714
 30
0.0
 11
-120.135127964561
 21
28.69474022121699
 31
0.0
  0
ARC
  5
1E74
330
18
100
AcDbEntity
  8
DISEGNO
100
AcDbCircle
 10
-114.1901279645612
 20
24.99974022121683
 30
0.0
 40
7.0
100
AcDbArc
 50
134.722200000011
 51
148.1354000000049
  0
LINE
  5
1E75
330
18
100
AcDbEntity
  8
DISEGNO
100
AcDbLine
 10
-119.1151279645614
 20
29.97274022121678
 30
0.0
 11
-119.7421279645609
 21
30.75874022121684
 31
0.0
  0
ARC
  5
1E76
330
18
100
AcDbEntity
  8
DISEGNO
100
AcDbCircle
 10
-114.1901279645612
 20
24.99974022121683
 30
0.0
 40
7.0
100
AcDbArc
 50
186.1506000000028
 51
199.563000000007
  0
LINE
  5
1E77
330
18
100
AcDbEntity
  8
DISEGNO
100
AcDbLine
 10
-121.0401279645616
 20
20.86774022121722
 30
0.0
 11
-120.135127964561
 21
21.30374022121691
 31
0.0
  0
ARC
  5
1E78
330
18
100
AcDbEntity
  8
DISEGNO
100
AcDbCircle
 10
-114.1901279645612
 20
24.99974022121683
 30
0.0
 40
7.0
100
AcDbArc
 50
211.8649999999936
 51
225.2779999999976
  0
LINE
  5
1E79
330
18
100
AcDbEntity
  8
DISEGNO
100
AcDbLine
 10
-119.1151279645614
 20
20.02574022121712
 30
0.0
 11
-119.7421279645609
 21
19.23974022121706
 31
0.0
  0
ARC
  5
1E7A
330
18
100
AcDbEntity
  8
DISEGNO
100
AcDbCircle
 10
-114.1901279645612
 20
24.99974022121683
 30
0.0
 40
7.0
100
AcDbArc
 50
160.4365000000135
 51
173.8493999999971
  0
LINE
  5
1E7B
330
18
100
AcDbEntity
  8
DISEGNO
100
AcDbLine
 10
-118.5691279645612
 20
18.30474022121711
 30
0.0
 11
-117.9431279645619
 21
19.09074022121717
 31
0.0
  0
ARC
  5
1E7C
330
18
100
AcDbEntity
  8
DISEGNO
100
AcDbCircle
 10
-114.1901279645612
 20
24.99974022121683
 30
0.0
 40
7.0
100
AcDbArc
 50
237.5790000000149
 51
250.9919999999952
  0
ARC
  5
1E7D
330
18
100
AcDbEntity
  8
DISEGNO
100
AcDbCircle
 10
-114.1901279645612
 20
24.99974022121683
 30
0.0
 40
8.0
100
AcDbArc
 50
226.048999999991
 51
236.8080000000195
  0
ARC
  5
1E7E
330
18
100
AcDbEntity
  8
DISEGNO
100
AcDbCircle
 10
-114.1901279645612
 20
24.99974022121683
 30
0.0
 40
7.0
100
AcDbArc
 50
263.2940000000161
 51
276.7059999999839
  0
LINE
  5
1E7F
330
18
100
AcDbEntity
  8
DISEGNO
100
AcDbLine
 10
-122.1541279645612
 20
24.24974022121683
 30
0.0
 11
-121.1491279645611
 21
24.24974022121683
 31
0.0
  0
LINE
  5
1E80
330
18
100
AcDbEntity
  8
DISEGNO
100
AcDbLine
 10
-120.7861279645617
 20
22.65574022121677
 30
0.0
 11
-121.6911279645614
 21
22.21974022121708
 31
0.0
  0
ARC
  5
1E81
330
18
100
AcDbEntity
  8
DISEGNO
100
AcDbCircle
 10
-114.1901279645612
 20
24.99974022121683
 30
0.0
 40
8.0
100
AcDbArc
 50
200.3350000000075
 51
211.0940000000055
  0
ARC
  5
1E82
330
18
100
AcDbEntity
  8
DISEGNO
100
AcDbCircle
 10
-114.1901279645612
 20
24.99974022121683
 30
0.0
 40
7.0
100
AcDbArc
 50
57.57900000001487
 51
70.99199999999521
  0
ARC
  5
1E83
330
18
100
AcDbEntity
  8
DISEGNO
100
AcDbCircle
 10
-114.1901279645612
 20
24.99974022121683
 30
0.0
 40
7.0
100
AcDbArc
 50
289.0080000000048
 51
302.4209999999852
  0
LINE
  5
1E84
330
18
100
AcDbEntity
  8
DISEGNO
100
AcDbLine
 10
-89.19012796456128
 20
1.499740221216825
 30
0.0
 11
-89.19012796456128
 21
9.249740221216825
 31
0.0
  0
ARC
  5
1E85
330
18
100
AcDbEntity
  8
DISEGNO
100
AcDbCircle
 10
-96.69012796456128
 20
7.499740221216825
 30
0.0
 40
3.5
100
AcDbArc
 50
161.5473999999954
 51
289.7909999999941
  0
LINE
  5
1E86
330
18
100
AcDbEntity
  8
DISEGNO
100
AcDbLine
 10
-90.69012796456126
 20
-0.0002597787831746
 30
0.0
 11
-98.44012796456127
 21
-0.0002597787831746
 31
0.0
  0
LINE
  5
1E87
330
18
100
AcDbEntity
  8
DISEGNO
100
AcDbLine
 10
-100.9401279645612
 20
0.1997402212170982
 30
0.0
 11
-98.44012796456127
 21
0.1997402212170982
 31
0.0
  0
LINE
  5
1E88
330
18
100
AcDbEntity
  8
DISEGNO
100
AcDbLine
 10
-100.9401279645612
 20
0.1997402212170982
 30
0.0
 11
-100.9401279645612
 21
-0.0002597787831746
 31
0.0
  0
LINE
  5
1E89
330
18
100
AcDbEntity
  8
DISEGNO
100
AcDbLine
 10
-98.44012796456127
 20
0.1997402212170982
 30
0.0
 11
-98.44012796456127
 21
-0.0002597787831746
 31
0.0
  0
ARC
  5
1E8A
330
18
100
AcDbEntity
  8
DISEGNO
100
AcDbCircle
 10
-90.69012796456126
 20
1.499740221216825
 30
0.0
 40
1.5
100
AcDbArc
 50
270.0
 51
0.0
  0
LINE
  5
1E8B
330
18
100
AcDbEntity
  8
DISEGNO
100
AcDbLine
 10
-100.2811279645616
 20
13.82774022121725
 30
0.0
 11
-104.3611279645615
 21
17.90874022121693
 31
0.0
  0
LINE
  5
1E8C
330
18
100
AcDbEntity
  8
DISEGNO
100
AcDbLine
 10
-89.19012796456128
 20
11.74974022121682
 30
0.0
 11
-89.19012796456128
 21
20.90874022121693
 31
0.0
  0
LINE
  5
1E8D
330
18
100
AcDbEntity
  8
DISEGNO
100
AcDbLine
 10
-93.28112796456162
 20
20.90874022121693
 30
0.0
 11
-93.28112796456162
 21
14.49974022121682
 31
0.0
  0
LINE
  5
1E8E
330
18
100
AcDbEntity
  8
DISEGNO
100
AcDbLine
 10
-98.91712796456113
 20
15.99974022121682
 30
0.0
 11
-103.0661279645614
 21
20.14874022121717
 31
0.0
  0
LINE
  5
1E8F
330
18
100
AcDbEntity
  8
DISEGNO
100
AcDbLine
 10
-105.1901279645612
 20
8.499740221216825
 30
0.0
 11
-103.6901279645612
 21
8.499740221216825
 31
0.0
  0
LINE
  5
1E90
330
18
100
AcDbEntity
  8
DISEGNO
100
AcDbLine
 10
-105.1901279645612
 20
8.499740221216825
 30
0.0
 11
-105.1901279645612
 21
9.544740221216898
 31
0.0
  0
ARC
  5
1E91
330
18
100
AcDbEntity
  8
DISEGNO
100
AcDbCircle
 10
-92.45512796456159
 20
5.975740221216938
 30
0.0
 40
1.0
100
AcDbArc
 50
160.2087999999996
 51
208.3970000000029
  0
ARC
  5
1E92
330
18
100
AcDbEntity
  8
DISEGNO
100
AcDbCircle
 10
-94.2151279645609
 20
5.024740221216916
 30
0.0
 40
1.0
100
AcDbArc
 50
241.6009999999745
 51
28.397999999994
  0
ARC
  5
1E93
330
18
100
AcDbEntity
  8
DISEGNO
100
AcDbCircle
 10
-96.69012796456128
 20
7.499740221216825
 30
0.0
 40
3.5
100
AcDbArc
 50
340.2090000000023
 51
110.7823000000081
  0
LINE
  5
1E94
330
18
100
AcDbEntity
  8
DISEGNO
100
AcDbLine
 10
-97.78112796456163
 20
14.49974022121682
 30
0.0
 11
-93.28112796456162
 21
14.49974022121682
 31
0.0
  0
ARC
  5
1E95
330
18
100
AcDbEntity
  8
DISEGNO
100
AcDbCircle
 10
-95.16612796456184
 20
3.264740221217152
 30
0.0
 40
1.0
100
AcDbArc
 50
61.60099999997459
 51
109.791399999996
  0
LINE
  5
1E96
330
18
100
AcDbEntity
  8
DISEGNO
100
AcDbLine
 10
-100.2811279645616
 20
13.12074022121692
 30
0.0
 11
-97.93212796456145
 21
10.77174022121676
 31
0.0
  0
LINE
  5
1E97
330
18
100
AcDbEntity
  8
DISEGNO
100
AcDbLine
 10
-100.2811279645616
 20
13.12074022121692
 30
0.0
 11
-100.2811279645616
 21
13.82774022121725
 31
0.0
  0
LINE
  5
1E98
330
18
100
AcDbEntity
  8
DISEGNO
100
AcDbLine
 10
-98.91712796456113
 20
15.99974022121682
 30
0.0
 11
-97.78112796456163
 21
15.99974022121682
 31
0.0
  0
LINE
  5
1E99
330
18
100
AcDbEntity
  8
DISEGNO
100
AcDbLine
 10
-97.78112796456163
 20
15.99974022121682
 30
0.0
 11
-97.78112796456163
 21
14.49974022121682
 31
0.0
  0
LINE
  5
1E9A
330
18
100
AcDbEntity
  8
DISEGNO
100
AcDbLine
 10
-102.4021279645617
 20
10.99974022121682
 30
0.0
 11
-103.1091279645611
 21
10.99974022121682
 31
0.0
  0
LINE
  5
1E9B
330
18
100
AcDbEntity
  8
DISEGNO
100
AcDbLine
 10
-102.4021279645617
 20
10.99974022121682
 30
0.0
 11
-100.010127964561
 21
8.606740221216796
 31
0.0
  0
LINE
  5
1E9C
330
18
100
AcDbEntity
  8
DISEGNO
100
AcDbLine
 10
-103.6901279645612
 20
3.999740221216825
 30
0.0
 11
-103.6901279645612
 21
8.499740221216825
 31
0.0
  0
LINE
  5
1E9D
330
18
100
AcDbEntity
  8
DISEGNO
100
AcDbLine
 10
-89.39012796456109
 20
11.74974022121682
 30
0.0
 11
-89.39012796456109
 21
9.249740221216825
 31
0.0
  0
LINE
  5
1E9E
330
18
100
AcDbEntity
  8
DISEGNO
100
AcDbLine
 10
-89.39012796456109
 20
11.74974022121682
 30
0.0
 11
-89.19012796456128
 21
11.74974022121682
 31
0.0
  0
LINE
  5
1E9F
330
18
100
AcDbEntity
  8
DISEGNO
100
AcDbLine
 10
-89.39012796456109
 20
9.249740221216825
 30
0.0
 11
-89.19012796456128
 21
9.249740221216825
 31
0.0
  0
LINE
  5
1EA0
330
18
100
AcDbEntity
  8
DISEGNO
100
AcDbLine
 10
-91.28112796456163
 20
30.09074022121718
 30
0.0
 11
-90.28112796456161
 21
30.09074022121718
 31
0.0
  0
LINE
  5
1EA1
330
18
100
AcDbEntity
  8
DISEGNO
100
AcDbLine
 10
-91.28112796456163
 20
19.90874022121693
 30
0.0
 11
-90.28112796456161
 21
19.90874022121693
 31
0.0
  0
ARC
  5
1EA2
330
18
100
AcDbEntity
  8
DISEGNO
100
AcDbCircle
 10
-114.1901279645612
 20
24.99974022121683
 30
0.0
 40
8.0
100
AcDbArc
 50
354.6210000000014
 51
4.382999999999265
  0
ARC
  5
1EA3
330
18
100
AcDbEntity
  8
DISEGNO
100
AcDbCircle
 10
-105.0691279645612
 20
17.20174022121705
 30
0.0
 40
1.0
100
AcDbArc
 50
44.99899999999818
 51
139.4747000000041
  0
ARC
  5
1EA4
330
18
100
AcDbEntity
  8
DISEGNO
100
AcDbCircle
 10
-114.1901279645612
 20
24.99974022121683
 30
0.0
 40
11.0
100
AcDbArc
 50
344.673000000001
 51
15.326999999999
  0
ARC
  5
1EA5
330
18
100
AcDbEntity
  8
DISEGNO
100
AcDbCircle
 10
-101.6521279645617
 20
21.56274022121693
 30
0.0
 40
2.0
100
AcDbArc
 50
164.6730999999934
 51
224.9999999999908
  0
ARC
  5
1EA6
330
18
100
AcDbEntity
  8
DISEGNO
100
AcDbCircle
 10
-101.6521279645617
 20
28.43574022121698
 30
0.0
 40
2.0
100
AcDbArc
 50
134.9996000000196
 51
195.326999999999
  0
LINE
  5
1EA7
330
18
100
AcDbEntity
  8
DISEGNO
100
AcDbLine
 10
-93.28112796456162
 20
29.09074022121718
 30
0.0
 11
-91.28112796456163
 21
29.09074022121718
 31
0.0
  0
LINE
  5
1EA8
330
18
100
AcDbEntity
  8
DISEGNO
100
AcDbLine
 10
-91.28112796456163
 20
30.09074022121718
 30
0.0
 11
-91.28112796456163
 21
29.09074022121718
 31
0.0
  0
LINE
  5
1EA9
330
18
100
AcDbEntity
  8
DISEGNO
100
AcDbLine
 10
-93.28112796456162
 20
20.90874022121693
 30
0.0
 11
-91.28112796456163
 21
20.90874022121693
 31
0.0
  0
LINE
  5
1EAA
330
18
100
AcDbEntity
  8
DISEGNO
100
AcDbLine
 10
-91.28112796456163
 20
19.90874022121693
 30
0.0
 11
-91.28112796456163
 21
20.90874022121693
 31
0.0
  0
LINE
  5
1EAB
330
18
100
AcDbEntity
  8
DISEGNO
100
AcDbLine
 10
-90.28112796456161
 20
30.09074022121718
 30
0.0
 11
-90.28112796456161
 21
29.09074022121718
 31
0.0
  0
LINE
  5
1EAC
330
18
100
AcDbEntity
  8
DISEGNO
100
AcDbLine
 10
-90.28112796456161
 20
29.09074022121718
 30
0.0
 11
-89.19012796456128
 21
29.09074022121718
 31
0.0
  0
LINE
  5
1EAD
330
18
100
AcDbEntity
  8
DISEGNO
100
AcDbLine
 10
-90.28112796456161
 20
19.90874022121693
 30
0.0
 11
-90.28112796456161
 21
20.90874022121693
 31
0.0
  0
LINE
  5
1EAE
330
18
100
AcDbEntity
  8
DISEGNO
100
AcDbLine
 10
-90.28112796456161
 20
20.90874022121693
 30
0.0
 11
-89.19012796456128
 21
20.90874022121693
 31
0.0
  0
ARC
  5
1EAF
330
18
100
AcDbEntity
  8
DISEGNO
100
AcDbCircle
 10
-164.1911279645615
 20
74.99974022121683
 30
0.0
 40
8.0
100
AcDbArc
 50
123.1920999999902
 51
133.9509000000022
  0
LINE
  5
1EB0
330
18
100
AcDbEntity
  8
DISEGNO
100
AcDbLine
 10
-169.7431279645611
 20
80.75874022121684
 30
0.0
 11
-169.1161279645616
 21
79.97274022121678
 31
0.0
  0
ARC
  5
1EB1
330
18
100
AcDbEntity
  8
DISEGNO
100
AcDbCircle
 10
-164.1911279645615
 20
74.99974022121683
 30
0.0
 40
7.0
100
AcDbArc
 50
134.7220999999835
 51
148.1352999999974
  0
ARC
  5
1EB2
330
18
100
AcDbEntity
  8
DISEGNO
100
AcDbCircle
 10
-164.1911279645615
 20
74.99974022121683
 30
0.0
 40
7.0
100
AcDbArc
 50
211.8649999999936
 51
225.2779999999976
  0
ARC
  5
1EB3
330
18
100
AcDbEntity
  8
DISEGNO
100
AcDbCircle
 10
-172.1651279645616
 20
64.10574022121704
 30
0.0
 40
2.5
100
AcDbArc
 50
315.0010000000018
 51
63.26699999998773
  0
ARC
  5
1EB4
330
18
100
AcDbEntity
  8
DISEGNO
100
AcDbCircle
 10
-164.1911279645615
 20
74.99974022121683
 30
0.0
 40
8.0
100
AcDbArc
 50
226.048999999991
 51
236.8080000000195
  0
LINE
  5
1EB5
330
18
100
AcDbEntity
  8
DISEGNO
100
AcDbLine
 10
-169.7431279645611
 20
69.23974022121706
 30
0.0
 11
-169.1161279645616
 21
70.02574022121712
 31
0.0
  0
LINE
  5
1EB6
330
18
100
AcDbEntity
  8
DISEGNO
100
AcDbLine
 10
-177.4411279645615
 20
99.99974022121683
 30
0.0
 11
-167.6911279645614
 21
99.99974022121683
 31
0.0
  0
LINE
  5
1EB7
330
18
100
AcDbEntity
  8
DISEGNO
100
AcDbLine
 10
-168.1911279645615
 20
95.99974022121683
 30
0.0
 11
-174.6911279645614
 21
95.99974022121683
 31
0.0
  0
LINE
  5
1EB8
330
18
100
AcDbEntity
  8
DISEGNO
100
AcDbLine
 10
-168.8981279645618
 20
86.16174022121709
 30
0.0
 11
-173.1911279645615
 21
90.45474022121721
 31
0.0
  0
LINE
  5
1EB9
330
18
100
AcDbEntity
  8
DISEGNO
100
AcDbLine
 10
-173.3981279645618
 20
55.80174022121695
 30
0.0
 11
-166.1651279645616
 21
63.03474022121713
 31
0.0
  0
LINE
  5
1EBD
330
18
100
AcDbEntity
  8
DISEGNO
100
AcDbLine
 10
-189.1911279645615
 20
112.9997402212168
 30
0.0
 11
-89.19012796456128
 21
112.9997402212168
 31
0.0
  0
LINE
  5
1EBE
330
18
100
AcDbEntity
  8
ASSI
100
AcDbLine
 10
-83.71812796456152
 20
24.99974022121683
 30
0.0
 11
-194.3661279645616
 21
24.99974022121683
 31
0.0
  0
LINE
  5
1EBF
330
18
100
AcDbEntity
  8
DISEGNO
100
AcDbLine
 10
-172.9401279645612
 20
110.1997402212169
 30
0.0
 11
-105.4401279645613
 21
110.1997402212164
 31
0.0
  0
LINE
  5
1EC0
330
18
100
AcDbEntity
  8
DISEGNO
100
AcDbLine
 10
-173.3981279645618
 20
44.19674022121694
 30
0.0
 11
-166.1651279645616
 21
36.96374022121677
 31
0.0
  0
ARC
  5
1EC1
330
18
100
AcDbEntity
  8
DISEGNO
100
AcDbCircle
 10
-172.1651279645616
 20
35.89274022121685
 30
0.0
 40
2.5
100
AcDbArc
 50
296.7330000000123
 51
44.99899999999818
  0
ARC
  5
1EC2
330
18
100
AcDbEntity
  8
DISEGNO
100
AcDbCircle
 10
-181.6911279645615
 20
92.49974022121682
 30
0.0
 40
3.5
100
AcDbArc
 50
160.2086000000055
 51
290.7819999999871
  0
LINE
  5
1EC3
330
18
100
AcDbEntity
  8
DISEGNO
100
AcDbLine
 10
-195.1911279645615
 20
93.99974022121682
 30
0.0
 11
-195.1911279645615
 21
85.1407402212169
 31
0.0
  0
LINE
  5
1EC4
330
18
100
AcDbEntity
  8
DISEGNO
100
AcDbLine
 10
-174.6911279645614
 20
95.99974022121683
 30
0.0
 11
-174.6911279645614
 21
91.49974022121682
 31
0.0
  0
ARC
  5
1EC5
330
18
100
AcDbEntity
  8
DISEGNO
100
AcDbCircle
 10
-181.6911279645615
 20
92.49974022121682
 30
0.0
 40
3.5
100
AcDbArc
 50
341.5469999999893
 51
109.7911000000006
  0
LINE
  5
1EC6
330
18
100
AcDbEntity
  8
DISEGNO
100
AcDbLine
 10
-189.1911279645615
 20
98.49974022121683
 30
0.0
 11
-189.1911279645615
 21
40.74974022121682
 31
0.0
  0
LINE
  5
1EC7
330
18
100
AcDbEntity
  8
DISEGNO
100
AcDbLine
 10
-195.1911279645615
 20
55.99974022121682
 30
0.0
 11
-195.1911279645615
 21
64.857740221217
 31
0.0
  0
LINE
  5
1EC8
330
18
100
AcDbEntity
  8
DISEGNO
100
AcDbLine
 10
-174.7221279645614
 20
66.49874022121707
 30
0.0
 11
-179.635127964561
 21
61.58474022121686
 31
0.0
  0
LINE
  5
1EC9
330
18
100
AcDbEntity
  8
DISEGNO
100
AcDbLine
 10
-227.1911279645615
 20
50.99974022121705
 30
0.0
 11
-191.1911279645615
 21
50.99974022121682
 31
0.0
  0
LINE
  5
1ECA
330
18
100
AcDbEntity
  8
DISEGNO
100
AcDbLine
 10
-208.9911279645617
 20
53.99974022121682
 30
0.0
 11
-191.1911279645615
 21
53.99974022121682
 31
0.0
  0
ARC
  5
1ECB
330
18
100
AcDbEntity
  8
DISEGNO
100
AcDbCircle
 10
-177.1911279645614
 20
47.49974022121683
 30
0.0
 40
1.0
100
AcDbArc
 50
0.0
 51
90.0
  0
ARC
  5
1ECC
330
18
100
AcDbEntity
  8
DISEGNO
100
AcDbCircle
 10
-184.1001279645611
 20
47.49974022121683
 30
0.0
 40
1.0
100
AcDbArc
 50
90.0
 51
180.0
  0
LINE
  5
1ECD
330
18
100
AcDbEntity
  8
DISEGNO
100
AcDbLine
 10
-173.6911279645615
 20
44.90374022121682
 30
0.0
 11
-173.6911279645615
 21
55.09474022121708
 31
0.0
  0
LINE
  5
1ECE
330
18
100
AcDbEntity
  8
DISEGNO
100
AcDbLine
 10
-188.9911279645616
 20
38.24974022121683
 30
0.0
 11
-188.9911279645616
 21
40.74974022121682
 31
0.0
  0
LINE
  5
1ECF
330
18
100
AcDbEntity
  8
DISEGNO
100
AcDbLine
 10
-188.9911279645616
 20
38.24974022121683
 30
0.0
 11
-189.1911279645615
 21
38.24974022121683
 31
0.0
  0
LINE
  5
1ED0
330
18
100
AcDbEntity
  8
DISEGNO
100
AcDbLine
 10
-188.9911279645616
 20
40.74974022121682
 30
0.0
 11
-189.1911279645615
 21
40.74974022121682
 31
0.0
  0
LINE
  5
1ED1
330
18
100
AcDbEntity
  8
DISEGNO
100
AcDbLine
 10
-185.1001279645611
 20
39.99974022121683
 30
0.0
 11
-185.1001279645611
 21
47.49974022121683
 31
0.0
  0
LINE
  5
1ED2
330
18
100
AcDbEntity
  8
DISEGNO
100
AcDbLine
 10
-170.3971279645616
 20
37.66074022121689
 30
0.0
 11
-175.6051279645612
 21
42.86874022121696
 31
0.0
  0
LINE
  5
1ED3
330
18
100
AcDbEntity
  8
DISEGNO
100
AcDbLine
 10
-174.7221279645614
 20
33.50074022121703
 30
0.0
 11
-179.635127964561
 21
38.41374022121704
 31
0.0
  0
LINE
  5
1ED4
330
18
100
AcDbEntity
  8
DISEGNO
100
AcDbLine
 10
-180.6001279645611
 20
33.99974022121682
 30
0.0
 11
-180.6001279645611
 21
35.49974022121683
 31
0.0
  0
LINE
  5
1ED5
330
18
100
AcDbEntity
  8
DISEGNO
100
AcDbLine
 10
-179.4641279645616
 20
33.99974022121682
 30
0.0
 11
-180.6001279645611
 21
33.99974022121682
 31
0.0
  0
ARC
  5
1ED6
330
18
100
AcDbEntity
  8
DISEGNO
100
AcDbCircle
 10
-181.0491279645616
 20
36.99974022121683
 30
0.0
 40
2.0
100
AcDbArc
 50
44.99899999999818
 51
90.0
  0
ARC
  5
1ED7
330
18
100
AcDbEntity
  8
DISEGNO
100
AcDbCircle
 10
-184.1001279645611
 20
39.99974022121683
 30
0.0
 40
1.0
100
AcDbArc
 50
180.0
 51
270.0
  0
LINE
  5
1ED8
330
18
100
AcDbEntity
  8
DISEGNO
100
AcDbLine
 10
-180.6001279645611
 20
35.49974022121683
 30
0.0
 11
-185.1001279645611
 21
35.49974022121683
 31
0.0
  0
LINE
  5
1ED9
330
18
100
AcDbEntity
  8
DISEGNO
100
AcDbLine
 10
-184.1001279645611
 20
38.99974022121682
 30
0.0
 11
-181.0491279645616
 21
38.99974022121682
 31
0.0
  0
LINE
  5
1EDA
330
18
100
AcDbEntity
  8
DISEGNO
100
AcDbLine
 10
-176.1911279645614
 20
47.49974022121683
 30
0.0
 11
-176.1911279645614
 21
44.28274022121718
 31
0.0
  0
ARC
  5
1EDB
330
18
100
AcDbEntity
  8
DISEGNO
100
AcDbCircle
 10
-174.1911279645615
 20
44.28274022121718
 30
0.0
 40
2.0
100
AcDbArc
 50
180.0
 51
224.9989999999982
  0
ARC
  5
1EDC
330
18
100
AcDbEntity
  8
DISEGNO
100
AcDbCircle
 10
-172.6911279645614
 20
44.90374022121682
 30
0.0
 40
1.0
100
AcDbArc
 50
180.0
 51
224.9999999999908
  0
LINE
  5
1EDD
330
18
100
AcDbEntity
  8
DISEGNO
100
AcDbLine
 10
-191.1911279645615
 20
53.99974022121682
 30
0.0
 11
-191.1911279645615
 21
50.99974022121682
 31
0.0
  0
ARC
  5
1EDE
330
18
100
AcDbEntity
  8
DISEGNO
100
AcDbCircle
 10
-197.1911279645615
 20
55.99974022121682
 30
0.0
 40
2.0
100
AcDbArc
 50
270.0
 51
0.0
  0
ARC
  5
1EDF
330
18
100
AcDbEntity
  8
DISEGNO
100
AcDbCircle
 10
-181.0491279645616
 20
62.99974022121682
 30
0.0
 40
2.0
100
AcDbArc
 50
270.0
 51
315.0010000000018
  0
ARC
  5
1EE0
330
18
100
AcDbEntity
  8
DISEGNO
100
AcDbCircle
 10
-177.1911279645614
 20
52.49974022121683
 30
0.0
 40
1.0
100
AcDbArc
 50
270.0
 51
0.0
  0
LINE
  5
1EE1
330
18
100
AcDbEntity
  8
DISEGNO
100
AcDbLine
 10
-176.1911279645614
 20
52.49974022121683
 30
0.0
 11
-176.1911279645614
 21
55.71574022121717
 31
0.0
  0
ARC
  5
1EE2
330
18
100
AcDbEntity
  8
DISEGNO
100
AcDbCircle
 10
-174.1911279645615
 20
55.71574022121717
 30
0.0
 40
2.0
100
AcDbArc
 50
135.0007000000061
 51
180.0
  0
ARC
  5
1EE3
330
18
100
AcDbEntity
  8
DISEGNO
100
AcDbCircle
 10
-184.1001279645611
 20
59.99974022121683
 30
0.0
 40
1.0
100
AcDbArc
 50
90.0000053719892
 51
180.0
  0
ARC
  5
1EE4
330
18
100
AcDbEntity
  8
DISEGNO
100
AcDbCircle
 10
-184.1001279645611
 20
52.49974022121683
 30
0.0
 40
1.0
100
AcDbArc
 50
180.0
 51
270.0
  0
LINE
  5
1EE5
330
18
100
AcDbEntity
  8
DISEGNO
100
AcDbLine
 10
-185.1001279645611
 20
59.99974022121683
 30
0.0
 11
-185.1001279645611
 21
52.49974022121683
 31
0.0
  0
LINE
  5
1EE6
330
18
100
AcDbEntity
  8
DISEGNO
100
AcDbLine
 10
-184.1001279645611
 20
60.99974022121682
 30
0.0
 11
-181.0491279645616
 21
60.99974022121682
 31
0.0
  0
LINE
  5
1EE7
330
18
100
AcDbEntity
  8
DISEGNO
100
AcDbLine
 10
-177.1911279645614
 20
51.49974022121682
 30
0.0
 11
-184.1001279645611
 21
51.49974022121682
 31
0.0
  0
ARC
  5
1EE8
330
18
100
AcDbEntity
  8
DISEGNO
100
AcDbCircle
 10
-172.6911279645614
 20
55.09474022121708
 30
0.0
 40
1.0
100
AcDbArc
 50
135.0003999999896
 51
180.0
  0
LINE
  5
1EE9
330
18
100
AcDbEntity
  8
DISEGNO
100
AcDbLine
 10
-170.3971279645616
 20
62.33874022121677
 30
0.0
 11
-175.6051279645612
 21
57.12974022121693
 31
0.0
  0
LINE
  5
1EEA
330
18
100
AcDbEntity
  8
DISEGNO
100
AcDbLine
 10
-177.1911279645614
 20
48.49974022121682
 30
0.0
 11
-184.1001279645611
 21
48.49974022121682
 31
0.0
  0
LINE
  5
1EEB
330
18
100
AcDbEntity
  8
DISEGNO
100
AcDbLine
 10
-204.6911279645615
 20
84.99974022121682
 30
0.0
 11
-190.3711279645617
 21
84.99974022121682
 31
0.0
  0
LINE
  5
1EEC
330
18
100
AcDbEntity
  8
DISEGNO
100
AcDbLine
 10
-204.6911279645615
 20
64.99974022121683
 30
0.0
 11
-190.3711279645617
 21
64.99974022121683
 31
0.0
  0
LINE
  5
1EED
330
18
100
AcDbEntity
  8
DISEGNO
100
AcDbLine
 10
-204.6911279645615
 20
84.99974022121682
 30
0.0
 11
-204.6911279645615
 21
64.99974022121683
 31
0.0
  0
LINE
  5
1EEE
330
18
100
AcDbEntity
  8
DISEGNO
100
AcDbLine
 10
-181.1001279645611
 20
84.09974022121673
 30
0.0
 11
-181.1001279645611
 21
77.49974022121683
 31
0.0
  0
LINE
  5
1EEF
330
18
100
AcDbEntity
  8
DISEGNO
100
AcDbLine
 10
-171.6921279645617
 20
77.77974022121703
 30
0.0
 11
-170.7861279645617
 21
77.34374022121688
 31
0.0
  0
LINE
  5
1EF0
330
18
100
AcDbEntity
  8
DISEGNO
100
AcDbLine
 10
-185.1001279645611
 20
72.49974022121683
 30
0.0
 11
-185.1001279645611
 21
85.49974022121682
 31
0.0
  0
ARC
  5
1EF1
330
18
100
AcDbEntity
  8
DISEGNO
100
AcDbCircle
 10
-164.1911279645615
 20
74.99974022121683
 30
0.0
 40
11.0
100
AcDbArc
 50
164.673000000001
 51
195.326999999999
  0
LINE
  5
1EF2
330
18
100
AcDbEntity
  8
NORMALI
100
AcDbLine
 10
-185.1001279645611
 20
72.49974022121683
 30
0.0
 11
-189.1911279645615
 21
72.49974022121688
 31
0.0
  0
LINE
  5
1EF3
330
18
100
AcDbEntity
  8
NORMALI
100
AcDbLine
 10
-185.1001279645611
 20
72.99974022121682
 30
0.0
 11
-189.1911279645615
 21
72.99974022121688
 31
0.0
  0
LINE
  5
1EF4
330
18
100
AcDbEntity
  8
NORMALI
100
AcDbLine
 10
-185.1001279645611
 20
77.49974022121688
 30
0.0
 11
-189.1911279645615
 21
77.49974022121676
 31
0.0
  0
LINE
  5
1EF5
330
18
100
AcDbEntity
  8
NORMALI
100
AcDbLine
 10
-185.1001279645611
 20
76.99974022121683
 30
0.0
 11
-189.1911279645615
 21
76.99974022121688
 31
0.0
  0
LINE
  5
1EF6
330
18
100
AcDbEntity
  8
DISEGNO
100
AcDbLine
 10
-185.1001279645611
 20
70.99974022121682
 30
0.0
 11
-187.1001279645611
 21
70.99974022121705
 31
0.0
  0
LINE
  5
1EF7
330
18
100
AcDbEntity
  8
ASSI
100
AcDbLine
 10
-233.7202377547728
 20
74.99974022121683
 30
0.0
 11
-45.38137728297352
 21
74.99974022121683
 31
0.0
  0
LINE
  5
1EF8
330
18
100
AcDbEntity
  8
DISEGNO
100
AcDbLine
 10
-189.1911279645615
 20
66.17974022121711
 30
0.0
 11
-189.1911279645615
 21
71.89974022121692
 31
0.0
  0
LINE
  5
1EF9
330
18
100
AcDbEntity
  8
DISEGNO
100
AcDbLine
 10
-189.1911279645615
 20
66.17974022121711
 30
0.0
 11
-190.3711279645617
 21
64.99974022121683
 31
0.0
  0
LINE
  5
1EFA
330
18
100
AcDbEntity
  8
DISEGNO
100
AcDbLine
 10
-187.1001279645611
 20
69.90874022121693
 30
0.0
 11
-187.1001279645611
 21
70.99974022121682
 31
0.0
  0
LINE
  5
1EFB
330
18
100
AcDbEntity
  8
DISEGNO
100
AcDbLine
 10
-188.1001279645611
 20
69.90874022121693
 30
0.0
 11
-188.1001279645611
 21
70.99974022121682
 31
0.0
  0
LINE
  5
1EFC
330
18
100
AcDbEntity
  8
DISEGNO
100
AcDbLine
 10
-187.1001279645611
 20
69.90874022121693
 30
0.0
 11
-188.1001279645611
 21
69.90874022121693
 31
0.0
  0
LINE
  5
1EFD
330
18
100
AcDbEntity
  8
DISEGNO
100
AcDbLine
 10
-188.1001279645611
 20
70.99974022121705
 30
0.0
 11
-189.1911279645615
 21
70.99974022121682
 31
0.0
  0
LINE
  5
1EFE
330
18
100
AcDbEntity
  8
NORMALI
100
AcDbLine
 10
-179.8911279645613
 20
72.49974022121683
 30
0.0
 11
-181.1001279645611
 21
72.49974022121683
 31
0.0
  0
LINE
  5
1EFF
330
18
100
AcDbEntity
  8
NORMALI
100
AcDbLine
 10
-179.3911279645613
 20
72.99974022121682
 30
0.0
 11
-181.1001279645611
 21
72.99974022121682
 31
0.0
  0
LINE
  5
1F00
330
18
100
AcDbEntity
  8
NORMALI
100
AcDbLine
 10
-179.3911279645613
 20
76.99974022121683
 30
0.0
 11
-181.1001279645611
 21
76.99974022121683
 31
0.0
  0
LINE
  5
1F01
330
18
100
AcDbEntity
  8
NORMALI
100
AcDbLine
 10
-179.8911279645613
 20
77.49974022121683
 30
0.0
 11
-181.1001279645611
 21
77.49974022121683
 31
0.0
  0
LINE
  5
1F02
330
18
100
AcDbEntity
  8
DISEGNO
100
AcDbLine
 10
-181.1001279645611
 20
77.49974022121683
 30
0.0
 11
-181.1001279645611
 21
65.89974022121691
 31
0.0
  0
LINE
  5
1F03
330
18
100
AcDbEntity
  8
NORMALI
100
AcDbLine
 10
-179.3911279645613
 20
76.99974022121683
 30
0.0
 11
-179.8911279645613
 21
77.49974022121683
 31
0.0
  0
LINE
  5
1F04
330
18
100
AcDbEntity
  8
NORMALI
100
AcDbLine
 10
-179.8911279645613
 20
72.49974022121683
 30
0.0
 11
-179.8911279645613
 21
77.49974022121683
 31
0.0
  0
LINE
  5
1F05
330
18
100
AcDbEntity
  8
NORMALI
100
AcDbLine
 10
-179.8911279645613
 20
72.49974022121683
 30
0.0
 11
-179.3911279645613
 21
72.99974022121682
 31
0.0
  0
LINE
  5
1F06
330
18
100
AcDbEntity
  8
NORMALI
100
AcDbLine
 10
-179.3911279645613
 20
76.99974022121683
 30
0.0
 11
-179.3911279645613
 21
72.99974022121682
 31
0.0
  0
ARC
  5
1F07
330
18
100
AcDbEntity
  8
DISEGNO
100
AcDbCircle
 10
-164.1911279645615
 20
74.99974022121683
 30
0.0
 40
8.0
100
AcDbArc
 50
174.6206000000012
 51
184.3834000000036
  0
ARC
  5
1F08
330
18
100
AcDbEntity
  8
DISEGNO
100
AcDbCircle
 10
-164.1911279645615
 20
74.99974022121683
 30
0.0
 40
7.0
100
AcDbArc
 50
160.4365000000135
 51
173.8493999999971
  0
LINE
  5
1F09
330
18
100
AcDbEntity
  8
DISEGNO
100
AcDbLine
 10
-171.1501279645613
 20
75.74974022121683
 30
0.0
 11
-172.1551279645614
 21
75.74974022121683
 31
0.0
  0
ARC
  5
1F0A
330
18
100
AcDbEntity
  8
DISEGNO
100
AcDbCircle
 10
-164.1911279645615
 20
74.99974022121683
 30
0.0
 40
8.0
100
AcDbArc
 50
200.3350000000075
 51
211.0940000000055
  0
LINE
  5
1F0B
330
18
100
AcDbEntity
  8
DISEGNO
100
AcDbLine
 10
-170.1361279645612
 20
71.30374022121691
 30
0.0
 11
-171.0411279645618
 21
70.86774022121722
 31
0.0
  0
LINE
  5
1F0C
330
18
100
AcDbEntity
  8
DISEGNO
100
AcDbLine
 10
-171.6921279645617
 20
72.21974022121708
 30
0.0
 11
-170.7861279645617
 21
72.65574022121677
 31
0.0
  0
ARC
  5
1F0D
330
18
100
AcDbEntity
  8
DISEGNO
100
AcDbCircle
 10
-164.1911279645615
 20
74.99974022121683
 30
0.0
 40
7.0
100
AcDbArc
 50
186.1506000000028
 51
199.564000000002
  0
LINE
  5
1F0E
330
18
100
AcDbEntity
  8
DISEGNO
100
AcDbLine
 10
-171.1501279645613
 20
74.24974022121682
 30
0.0
 11
-172.1551279645614
 21
74.24974022121682
 31
0.0
  0
ARC
  5
1F0F
330
18
100
AcDbEntity
  8
DISEGNO
100
AcDbCircle
 10
-176.7281279645617
 20
71.56374022121713
 30
0.0
 40
2.0
100
AcDbArc
 50
315.0000000000092
 51
15.326999999999
  0
LINE
  5
1F10
330
18
100
AcDbEntity
  8
DISEGNO
100
AcDbLine
 10
-179.4641279645616
 20
65.99974022121682
 30
0.0
 11
-175.314127964561
 21
70.14874022121716
 31
0.0
  0
LINE
  5
1F11
330
18
100
AcDbEntity
  8
DISEGNO
100
AcDbLine
 10
-179.4641279645616
 20
65.99974022121682
 30
0.0
 11
-180.6001279645611
 21
65.99974022121682
 31
0.0
  0
LINE
  5
1F12
330
18
100
AcDbEntity
  8
DISEGNO
100
AcDbLine
 10
-180.6001279645611
 20
65.99974022121682
 30
0.0
 11
-180.6001279645611
 21
64.49974022121683
 31
0.0
  0
LINE
  5
1F13
330
18
100
AcDbEntity
  8
DISEGNO
100
AcDbLine
 10
-185.1001279645611
 20
72.49974022121683
 30
0.0
 11
-185.1001279645611
 21
64.49974022121683
 31
0.0
  0
LINE
  5
1F14
330
18
100
AcDbEntity
  8
DISEGNO
100
AcDbLine
 10
-180.6001279645611
 20
64.49974022121683
 30
0.0
 11
-185.1001279645611
 21
64.49974022121683
 31
0.0
  0
ARC
  5
1F15
330
18
100
AcDbEntity
  8
DISEGNO
100
AcDbCircle
 10
-172.9541279645614
 20
64.73074022121704
 30
0.0
 40
2.5
100
AcDbArc
 50
40.03399999998382
 51
135.0007000000061
  0
LINE
  5
1F16
330
18
100
AcDbEntity
  8
DISEGNO
100
AcDbLine
 10
-181.1001279645611
 20
65.89974022121691
 30
0.0
 11
-185.1001279645611
 21
65.89974022121691
 31
0.0
  0
LINE
  5
1F17
330
18
100
AcDbEntity
  8
DISEGNO
100
AcDbLine
 10
-185.1001279645611
 20
78.99974022121682
 30
0.0
 11
-187.1001279645611
 21
78.99974022121682
 31
0.0
  0
LINE
  5
1F18
330
18
100
AcDbEntity
  8
DISEGNO
100
AcDbLine
 10
-187.1001279645611
 20
80.09074022121717
 30
0.0
 11
-187.1001279645611
 21
78.99974022121682
 31
0.0
  0
LINE
  5
1F19
330
18
100
AcDbEntity
  8
DISEGNO
100
AcDbLine
 10
-189.1911279645615
 20
83.81974022121699
 30
0.0
 11
-190.3711279645617
 21
84.99974022121682
 31
0.0
  0
LINE
  5
1F1A
330
18
100
AcDbEntity
  8
DISEGNO
100
AcDbLine
 10
-188.1001279645611
 20
80.09074022121717
 30
0.0
 11
-188.1001279645611
 21
78.99974022121682
 31
0.0
  0
LINE
  5
1F1B
330
18
100
AcDbEntity
  8
DISEGNO
100
AcDbLine
 10
-189.1911279645615
 20
83.81974022121699
 30
0.0
 11
-189.1911279645615
 21
78.09974022121719
 31
0.0
  0
LINE
  5
1F1C
330
18
100
AcDbEntity
  8
DISEGNO
100
AcDbLine
 10
-187.1001279645611
 20
80.09074022121717
 30
0.0
 11
-188.1001279645611
 21
80.09074022121717
 31
0.0
  0
LINE
  5
1F1D
330
18
100
AcDbEntity
  8
DISEGNO
100
AcDbLine
 10
-188.1001279645611
 20
78.99974022121682
 30
0.0
 11
-189.1911279645615
 21
78.99974022121682
 31
0.0
  0
ARC
  5
1F1E
330
18
100
AcDbEntity
  8
DISEGNO
100
AcDbCircle
 10
-164.1911279645615
 20
74.99974022121683
 30
0.0
 40
11.0
100
AcDbArc
 50
129.91119999998
 51
139.4720000000065
  0
LINE
  5
1F1F
330
18
100
AcDbEntity
  8
DISEGNO
100
AcDbLine
 10
-170.1361279645612
 20
78.69474022121699
 30
0.0
 11
-171.0411279645618
 21
79.13074022121714
 31
0.0
  0
ARC
  5
1F20
330
18
100
AcDbEntity
  8
DISEGNO
100
AcDbCircle
 10
-164.1911279645615
 20
74.99974022121683
 30
0.0
 40
8.0
100
AcDbArc
 50
148.9061000000019
 51
159.6652000000123
  0
ARC
  5
1F21
330
18
100
AcDbEntity
  8
DISEGNO
100
AcDbCircle
 10
-171.8901279645611
 20
84.203740221217
 30
0.0
 40
1.0
100
AcDbArc
 50
309.9120000000009
 51
44.99899999999818
  0
LINE
  5
1F22
330
18
100
AcDbEntity
  8
DISEGNO
100
AcDbLine
 10
-173.1911279645615
 20
91.49974022121682
 30
0.0
 11
-174.6911279645614
 21
91.49974022121682
 31
0.0
  0
LINE
  5
1F23
330
18
100
AcDbEntity
  8
DISEGNO
100
AcDbLine
 10
-178.1001279645611
 20
86.17074022121711
 30
0.0
 11
-174.019127964561
 21
82.08974022121697
 31
0.0
  0
LINE
  5
1F24
330
18
100
AcDbEntity
  8
DISEGNO
100
AcDbLine
 10
-175.9781279645617
 20
88.99974022121682
 30
0.0
 11
-178.3701279645615
 21
91.39174022121711
 31
0.0
  0
LINE
  5
1F25
330
18
100
AcDbEntity
  8
DISEGNO
100
AcDbLine
 10
-175.9781279645617
 20
88.99974022121682
 30
0.0
 11
-175.2711279645614
 21
88.99974022121682
 31
0.0
  0
LINE
  5
1F26
330
18
100
AcDbEntity
  8
DISEGNO
100
AcDbLine
 10
-178.1001279645611
 20
86.87774022121699
 30
0.0
 11
-180.4491279645613
 21
89.22674022121714
 31
0.0
  0
LINE
  5
1F27
330
18
100
AcDbEntity
  8
DISEGNO
100
AcDbLine
 10
-178.1001279645611
 20
86.87774022121699
 30
0.0
 11
-178.1001279645611
 21
86.17074022121711
 31
0.0
  0
LINE
  5
1F28
330
18
100
AcDbEntity
  8
DISEGNO
100
AcDbLine
 10
-179.4641279645616
 20
83.99974022121682
 30
0.0
 11
-180.6001279645611
 21
83.99974022121682
 31
0.0
  0
LINE
  5
1F29
330
18
100
AcDbEntity
  8
DISEGNO
100
AcDbLine
 10
-180.6001279645611
 20
83.99974022121682
 30
0.0
 11
-180.6001279645611
 21
85.49974022121682
 31
0.0
  0
ARC
  5
1F2A
330
18
100
AcDbEntity
  8
DISEGNO
100
AcDbCircle
 10
-176.7281279645617
 20
78.43574022121697
 30
0.0
 40
2.0
100
AcDbArc
 50
344.673000000001
 51
44.99999999999078
  0
LINE
  5
1F2B
330
18
100
AcDbEntity
  8
DISEGNO
100
AcDbLine
 10
-179.4641279645616
 20
83.99974022121682
 30
0.0
 11
-175.314127964561
 21
79.84974022121718
 31
0.0
  0
LINE
  5
1F2C
330
18
100
AcDbEntity
  8
DISEGNO
100
AcDbLine
 10
-180.6001279645611
 20
85.49974022121682
 30
0.0
 11
-185.1001279645611
 21
85.49974022121682
 31
0.0
  0
LINE
  5
1F2D
330
18
100
AcDbEntity
  8
DISEGNO
100
AcDbLine
 10
-173.1911279645615
 20
91.49974022121682
 30
0.0
 11
-173.1911279645615
 21
90.45474022121721
 31
0.0
  0
LINE
  5
1F2E
330
18
100
AcDbEntity
  8
DISEGNO
100
AcDbLine
 10
-175.2711279645614
 20
88.99974022121682
 30
0.0
 11
-171.1831279645616
 21
84.91074022121688
 31
0.0
  0
ARC
  5
1F2F
330
18
100
AcDbEntity
  8
DISEGNO
100
AcDbCircle
 10
-173.3121279645615
 20
82.79674022121685
 30
0.0
 40
1.0
100
AcDbArc
 50
224.9989999999982
 51
319.4749999999835
  0
LINE
  5
1F30
330
18
100
AcDbEntity
  8
DISEGNO
100
AcDbLine
 10
-185.1001279645611
 20
84.09974022121673
 30
0.0
 11
-181.1001279645611
 21
84.09974022121673
 31
0.0
  0
LINE
  5
1F31
330
18
100
AcDbEntity
  8
DISEGNO
100
AcDbLine
 10
-208.9911279645617
 20
95.99974022121683
 30
0.0
 11
-197.1911279645615
 21
95.99974022121683
 31
0.0
  0
LINE
  5
1F32
330
18
100
AcDbEntity
  8
DISEGNO
100
AcDbLine
 10
-189.1911279645615
 20
99.99974022121683
 30
0.0
 11
-189.1911279645615
 21
112.999740221217
 31
0.0
  0
LINE
  5
1F33
330
18
100
AcDbEntity
  8
DISEGNO
100
AcDbLine
 10
-172.9401279645612
 20
110.1997402212166
 30
0.0
 11
-172.9401279645612
 21
104.4997402212161
 31
0.0
  0
LINE
  5
1F34
330
18
100
AcDbEntity
  8
DISEGNO
100
AcDbLine
 10
-189.1911279645615
 20
99.99974022121683
 30
0.0
 11
-179.9411279645615
 21
99.99974022121683
 31
0.0
  0
ARC
  5
1F35
330
18
100
AcDbEntity
  8
DISEGNO
100
AcDbCircle
 10
-184.1651279645616
 20
94.97474022121719
 30
0.0
 40
1.0
100
AcDbArc
 50
61.60099999997459
 51
208.397999999994
  0
ARC
  5
1F36
330
18
100
AcDbEntity
  8
DISEGNO
100
AcDbCircle
 10
-187.6911279645615
 20
98.49974022121683
 30
0.0
 40
1.5
100
AcDbArc
 50
90.0
 51
180.0
  0
ARC
  5
1F37
330
18
100
AcDbEntity
  8
DISEGNO
100
AcDbCircle
 10
-197.1911279645615
 20
93.99974022121682
 30
0.0
 40
2.0
100
AcDbArc
 50
0.0
 51
90.0
  0
LINE
  5
1F38
330
18
100
AcDbEntity
  8
DISEGNO
100
AcDbLine
 10
-175.1901279645613
 20
104.4997402212161
 30
0.0
 11
-175.1901279645613
 21
99.99974022121683
 31
0.0
  0
LINE
  5
1F39
330
18
100
AcDbEntity
  8
DISEGNO
100
AcDbLine
 10
-177.4411279645615
 20
99.79974022121702
 30
0.0
 11
-179.9411279645615
 21
99.79974022121702
 31
0.0
  0
LINE
  5
1F3A
330
18
100
AcDbEntity
  8
DISEGNO
100
AcDbLine
 10
-177.4411279645615
 20
99.79974022121702
 30
0.0
 11
-177.4411279645615
 21
99.99974022121683
 31
0.0
  0
LINE
  5
1F3B
330
18
100
AcDbEntity
  8
DISEGNO
100
AcDbLine
 10
-179.9411279645615
 20
99.79974022121702
 30
0.0
 11
-179.9411279645615
 21
99.99974022121683
 31
0.0
  0
ARC
  5
1F3C
330
18
100
AcDbEntity
  8
DISEGNO
100
AcDbCircle
 10
-185.9251279645618
 20
94.02274022121696
 30
0.0
 40
1.0
100
AcDbArc
 50
340.2090000000023
 51
28.39700000000288
  0
ARC
  5
1F3D
330
18
100
AcDbEntity
  8
DISEGNO
100
AcDbCircle
 10
-183.2141279645616
 20
96.7337402212172
 30
0.0
 40
1.0
100
AcDbArc
 50
241.6009999999745
 51
289.7909999999941
  0
ARC
  5
1F3E
330
18
100
AcDbEntity
  8
DISEGNO
100
AcDbCircle
 10
-183.9401279645612
 20
103.9997402212163
 30
0.0
 40
0.5
100
AcDbArc
 50
90.0
 51
180.0
  0
LINE
  5
1F3F
330
18
100
AcDbEntity
  8
DISEGNO
100
AcDbLine
 10
-184.4401279645613
 20
103.9997402212163
 30
0.0
 11
-184.4401279645613
 21
99.99974022121683
 31
0.0
  0
LINE
  5
1F40
330
18
100
AcDbEntity
  8
DISEGNO
100
AcDbLine
 10
-172.9401279645612
 20
104.4997402212159
 30
0.0
 11
-183.9401279645612
 21
104.4997402212163
 31
0.0
  0
LINE
  5
1F41
330
18
100
AcDbEntity
  8
DISEGNO
100
AcDbLine
 10
-61.18912796456107
 20
53.99974022121682
 30
0.0
 11
-61.18912796456197
 21
95.99974022121683
 31
0.0
  0
LINE
  5
1F42
330
18
100
AcDbEntity
  8
DISEGNO
100
AcDbLine
 10
-61.19012796456127
 20
80.29874022121679
 30
0.0
 11
-61.19012796456127
 21
94.49974022121683
 31
0.0
  0
LINE
  5
1F43
330
18
100
AcDbEntity
  8
DISEGNO
100
AcDbLine
 10
-149.6911279645614
 20
95.99974022121683
 30
0.0
 11
-149.6911279645614
 21
91.49974022121682
 31
0.0
  0
LINE
  5
1F44
330
18
100
AcDbEntity
  8
DISEGNO
100
AcDbLine
 10
-153.6911279645615
 20
95.99974022121683
 30
0.0
 11
-153.6911279645615
 21
91.49974022121682
 31
0.0
  0
LINE
  5
1F45
330
18
100
AcDbEntity
  8
DISEGNO
100
AcDbLine
 10
-128.6901279645612
 20
95.99974022121683
 30
0.0
 11
-128.6901279645612
 21
91.49974022121682
 31
0.0
  0
LINE
  5
1F46
330
18
100
AcDbEntity
  8
DISEGNO
100
AcDbLine
 10
-124.6901279645612
 20
95.99974022121683
 30
0.0
 11
-124.6901279645612
 21
91.49974022121682
 31
0.0
  0
ARC
  5
1F47
330
18
100
AcDbEntity
  8
DISEGNO
100
AcDbCircle
 10
-96.69012796456128
 20
92.49974022121682
 30
0.0
 40
3.5
100
AcDbArc
 50
249.2180000000129
 51
19.79099999999772
  0
LINE
  5
1F48
330
18
100
AcDbEntity
  8
DISEGNO
100
AcDbLine
 10
-103.6901279645612
 20
95.99974022121683
 30
0.0
 11
-103.6901279645612
 21
91.49974022121682
 31
0.0
  0
ARC
  5
1F49
330
18
100
AcDbEntity
  8
DISEGNO
100
AcDbCircle
 10
-96.69012796456128
 20
92.49974022121682
 30
0.0
 40
3.5
100
AcDbArc
 50
70.20900000000589
 51
198.4530000000106
  0
LINE
  5
1F4A
330
18
100
AcDbEntity
  8
DISEGNO
100
AcDbLine
 10
-83.19012796456126
 20
93.99974022121682
 30
0.0
 11
-83.19012796456126
 21
85.1407402212169
 31
0.0
  0
LINE
  5
1F4B
330
18
100
AcDbEntity
  8
DISEGNO
100
AcDbLine
 10
-89.19012796456128
 20
98.49974022121683
 30
0.0
 11
-89.19012796456128
 21
40.74974022121682
 31
0.0
  0
LINE
  5
1F4C
330
18
100
AcDbEntity
  8
DISEGNO
100
AcDbLine
 10
-107.9831279645609
 20
62.33874022121677
 30
0.0
 11
-102.7751279645613
 21
57.12974022121693
 31
0.0
  0
ARC
  5
1F4D
330
18
100
AcDbEntity
  8
DISEGNO
100
AcDbCircle
 10
-105.4261279645611
 20
64.73074022121704
 30
0.0
 40
2.5
100
AcDbArc
 50
44.99899999999818
 51
139.9664000000098
  0
LINE
  5
1F4E
330
18
100
AcDbEntity
  8
DISEGNO
100
AcDbLine
 10
-103.1091279645611
 20
88.99974022121682
 30
0.0
 11
-107.1971279645609
 21
84.91074022121688
 31
0.0
  0
LINE
  5
1F50
330
18
100
AcDbEntity
  8
DISEGNO
100
AcDbLine
 10
-107.2301279645612
 20
75.74974022121683
 30
0.0
 11
-106.2251279645611
 21
75.74974022121683
 31
0.0
  0
ARC
  5
1F51
330
18
100
AcDbEntity
  8
DISEGNO
100
AcDbCircle
 10
-114.1901279645612
 20
74.99974022121683
 30
0.0
 40
8.0
100
AcDbArc
 50
328.9059999999945
 51
339.6649999999925
  0
LINE
  5
1F52
330
18
100
AcDbEntity
  8
DISEGNO
100
AcDbLine
 10
-106.6881279645608
 20
72.21974022121708
 30
0.0
 11
-107.5941279645617
 21
72.65574022121677
 31
0.0
  0
LINE
  5
1F53
330
18
100
AcDbEntity
  8
DISEGNO
100
AcDbLine
 10
-107.2301279645612
 20
74.24974022121682
 30
0.0
 11
-106.2251279645611
 21
74.24974022121682
 31
0.0
  0
ARC
  5
1F54
330
18
100
AcDbEntity
  8
DISEGNO
100
AcDbCircle
 10
-114.1901279645612
 20
74.99974022121683
 30
0.0
 40
8.0
100
AcDbArc
 50
20.33500000000748
 51
31.09400000000548
  0
LINE
  5
1F55
330
18
100
AcDbEntity
  8
DISEGNO
100
AcDbLine
 10
-109.4831279645609
 20
86.16174022121709
 30
0.0
 11
-105.1901279645612
 21
90.45474022121721
 31
0.0
  0
ARC
  5
1F56
330
18
100
AcDbEntity
  8
DISEGNO
100
AcDbCircle
 10
-114.1901279645612
 20
74.99974022121683
 30
0.0
 40
11.0
100
AcDbArc
 50
40.52799999999351
 51
50.08899999998028
  0
LINE
  5
1F57
330
18
100
AcDbEntity
  8
DISEGNO
100
AcDbLine
 10
-106.6881279645608
 20
77.77974022121703
 30
0.0
 11
-107.5941279645617
 21
77.34374022121688
 31
0.0
  0
LINE
  5
1F58
330
18
100
AcDbEntity
  8
DISEGNO
100
AcDbLine
 10
-104.9821279645616
 20
55.80174022121695
 30
0.0
 11
-112.2151279645609
 21
63.03474022121713
 31
0.0
  0
LINE
  5
1F59
330
18
100
AcDbEntity
  8
DISEGNO
100
AcDbLine
 10
-104.9821279645616
 20
44.19674022121694
 30
0.0
 11
-112.2151279645609
 21
36.96374022121677
 31
0.0
  0
LINE
  5
1F5A
330
18
100
AcDbEntity
  8
DISEGNO
100
AcDbLine
 10
-107.9831279645609
 20
37.66074022121689
 30
0.0
 11
-102.7751279645613
 21
42.86874022121696
 31
0.0
  0
ARC
  5
1F5B
330
18
100
AcDbEntity
  8
DISEGNO
100
AcDbCircle
 10
-106.2161279645611
 20
64.10574022121704
 30
0.0
 40
2.5
100
AcDbArc
 50
116.7326999999872
 51
224.9989999999982
  0
ARC
  5
1F5C
330
18
100
AcDbEntity
  8
DISEGNO
100
AcDbCircle
 10
-156.1911279645614
 20
32.99974022121683
 30
0.0
 40
2.5
100
AcDbArc
 50
0.0
 51
90.0
  0
ARC
  5
1F5D
330
18
100
AcDbEntity
  8
DISEGNO
100
AcDbCircle
 10
-162.6291279645615
 20
40.49974022121682
 30
0.0
 40
5.0
100
AcDbArc
 50
224.9999999999908
 51
270.0
  0
LINE
  5
1F5E
330
18
100
AcDbEntity
  8
DISEGNO
100
AcDbLine
 10
-156.1911279645614
 20
35.49974022121683
 30
0.0
 11
-162.6291279645615
 21
35.49974022121683
 31
0.0
  0
ARC
  5
1F5F
330
18
100
AcDbEntity
  8
DISEGNO
100
AcDbCircle
 10
-122.1901279645613
 20
32.99974022121683
 30
0.0
 40
2.5
100
AcDbArc
 50
90.0
 51
180.0
  0
ARC
  5
1F60
330
18
100
AcDbEntity
  8
DISEGNO
100
AcDbCircle
 10
-106.2161279645611
 20
35.89274022121685
 30
0.0
 40
2.5
100
AcDbArc
 50
135.0007000000061
 51
243.2669999999877
  0
ARC
  5
1F61
330
18
100
AcDbEntity
  8
DISEGNO
100
AcDbCircle
 10
-115.7511279645609
 20
40.49974022121682
 30
0.0
 40
5.0
100
AcDbArc
 50
270.0
 51
315.0000000000092
  0
LINE
  5
1F62
330
18
100
AcDbEntity
  8
DISEGNO
100
AcDbLine
 10
-122.1901279645613
 20
35.49974022121683
 30
0.0
 11
-115.7511279645609
 21
35.49974022121683
 31
0.0
  0
LINE
  5
1F63
330
18
100
AcDbEntity
  8
DISEGNO
100
AcDbLine
 10
-149.4621279645612
 20
76.24974022121683
 30
0.0
 11
-128.9181279645613
 21
76.24974022121683
 31
0.0
  0
LINE
  5
1F64
330
18
100
AcDbEntity
  8
DISEGNO
100
AcDbLine
 10
-127.6901279645612
 20
73.74974022121683
 30
0.0
 11
-150.6911279645614
 21
73.74974022121683
 31
0.0
  0
LINE
  5
1F65
330
18
100
AcDbEntity
  8
DISEGNO
100
AcDbLine
 10
-134.1901279645612
 20
82.99974022121682
 30
0.0
 11
-144.1911279645615
 21
82.99974022121682
 31
0.0
  0
LINE
  5
1F66
330
18
100
AcDbEntity
  8
DISEGNO
100
AcDbLine
 10
-135.0181279645617
 20
85.99974022121683
 30
0.0
 11
-143.3621279645617
 21
85.99974022121683
 31
0.0
  0
LINE
  5
1F67
330
18
100
AcDbEntity
  8
DISEGNO
100
AcDbLine
 10
-157.595127964561
 20
77.34374022121688
 30
0.0
 11
-156.689127964561
 21
77.77974022121703
 31
0.0
  0
ARC
  5
1F68
330
18
100
AcDbEntity
  8
DISEGNO
100
AcDbCircle
 10
-149.4621279645612
 20
81.24974022121682
 30
0.0
 40
5.0
100
AcDbArc
 50
202.9930000000097
 51
270.0
  0
ARC
  5
1F69
330
18
100
AcDbEntity
  8
DISEGNO
100
AcDbCircle
 10
-156.1911279645614
 20
66.99974022121683
 30
0.0
 40
2.5
100
AcDbArc
 50
270.0
 51
0.0
  0
ARC
  5
1F6A
330
18
100
AcDbEntity
  8
DISEGNO
100
AcDbCircle
 10
-150.6911279645614
 20
70.74974022121683
 30
0.0
 40
3.0
100
AcDbArc
 50
90.0
 51
180.0
  0
ARC
  5
1F6B
330
18
100
AcDbEntity
  8
DISEGNO
100
AcDbCircle
 10
-164.1911279645615
 20
74.99974022121683
 30
0.0
 40
8.0
100
AcDbArc
 50
355.6170000000007
 51
5.378999999998551
  0
ARC
  5
1F6C
330
18
100
AcDbEntity
  8
DISEGNO
100
AcDbCircle
 10
-164.1911279645615
 20
74.99974022121683
 30
0.0
 40
7.0
100
AcDbArc
 50
6.150999999997551
 51
19.56300000000703
  0
LINE
  5
1F6D
330
18
100
AcDbEntity
  8
DISEGNO
100
AcDbLine
 10
-156.2261279645613
 20
75.74974022121683
 30
0.0
 11
-157.2311279645614
 21
75.74974022121683
 31
0.0
  0
ARC
  5
1F6E
330
18
100
AcDbEntity
  8
DISEGNO
100
AcDbCircle
 10
-164.1911279645615
 20
74.99974022121683
 30
0.0
 40
8.0
100
AcDbArc
 50
328.9059999999945
 51
339.6649999999925
  0
ARC
  5
1F6F
330
18
100
AcDbEntity
  8
DISEGNO
100
AcDbCircle
 10
-164.1911279645615
 20
74.99974022121683
 30
0.0
 40
7.0
100
AcDbArc
 50
314.7220000000024
 51
328.1350000000064
  0
LINE
  5
1F70
330
18
100
AcDbEntity
  8
DISEGNO
100
AcDbLine
 10
-157.3401279645609
 20
70.86774022121722
 30
0.0
 11
-158.2451279645615
 21
71.30374022121691
 31
0.0
  0
LINE
  5
1F71
330
18
100
AcDbEntity
  8
DISEGNO
100
AcDbLine
 10
-159.2651279645611
 20
70.02574022121712
 30
0.0
 11
-158.6381279645616
 21
69.23974022121706
 31
0.0
  0
ARC
  5
1F72
330
18
100
AcDbEntity
  8
DISEGNO
100
AcDbCircle
 10
-164.1911279645615
 20
74.99974022121683
 30
0.0
 40
8.0
100
AcDbArc
 50
303.1919999999804
 51
313.951000000009
  0
LINE
  5
1F73
330
18
100
AcDbEntity
  8
DISEGNO
100
AcDbLine
 10
-159.8111279645613
 20
68.30474022121712
 30
0.0
 11
-160.4381279645608
 21
69.09074022121718
 31
0.0
  0
ARC
  5
1F74
330
18
100
AcDbEntity
  8
DISEGNO
100
AcDbCircle
 10
-164.1911279645615
 20
74.99974022121683
 30
0.0
 40
7.0
100
AcDbArc
 50
340.4369999999929
 51
353.8490000000024
  0
LINE
  5
1F75
330
18
100
AcDbEntity
  8
DISEGNO
100
AcDbLine
 10
-157.595127964561
 20
72.65574022121677
 30
0.0
 11
-156.689127964561
 21
72.21974022121708
 31
0.0
  0
LINE
  5
1F76
330
18
100
AcDbEntity
  8
DISEGNO
100
AcDbLine
 10
-156.2261279645613
 20
74.24974022121682
 30
0.0
 11
-157.2311279645614
 21
74.24974022121682
 31
0.0
  0
ARC
  5
1F77
330
18
100
AcDbEntity
  8
DISEGNO
100
AcDbCircle
 10
-164.1911279645615
 20
74.99974022121683
 30
0.0
 40
8.0
100
AcDbArc
 50
251.7629999999831
 51
262.5220000000194
  0
ARC
  5
1F78
330
18
100
AcDbEntity
  8
DISEGNO
100
AcDbCircle
 10
-162.6291279645615
 20
59.49974022121683
 30
0.0
 40
5.0
100
AcDbArc
 50
90.0
 51
135.0003999999896
  0
LINE
  5
1F79
330
18
100
AcDbEntity
  8
DISEGNO
100
AcDbLine
 10
-166.6941279645612
 20
67.40074022121712
 30
0.0
 11
-166.470127964561
 21
68.38074022121714
 31
0.0
  0
LINE
  5
1F7A
330
18
100
AcDbEntity
  8
DISEGNO
100
AcDbLine
 10
-167.9441279645612
 20
69.09074022121718
 30
0.0
 11
-168.5701279645614
 21
68.30474022121712
 31
0.0
  0
ARC
  5
1F7B
330
18
100
AcDbEntity
  8
DISEGNO
100
AcDbCircle
 10
-164.1911279645615
 20
74.99974022121683
 30
0.0
 40
7.0
100
AcDbArc
 50
237.5790000000149
 51
250.9919999999952
  0
LINE
  5
1F7C
330
18
100
AcDbEntity
  8
DISEGNO
100
AcDbLine
 10
-161.9111279645617
 20
68.38074022121714
 30
0.0
 11
-161.6871279645615
 21
67.40074022121712
 31
0.0
  0
ARC
  5
1F7D
330
18
100
AcDbEntity
  8
DISEGNO
100
AcDbCircle
 10
-164.1911279645615
 20
74.99974022121683
 30
0.0
 40
8.0
100
AcDbArc
 50
277.4779999999806
 51
288.2360000000053
  0
LINE
  5
1F7E
330
18
100
AcDbEntity
  8
DISEGNO
100
AcDbLine
 10
-163.1491279645611
 20
67.06774022121703
 30
0.0
 11
-163.3731279645612
 21
68.04774022121705
 31
0.0
  0
LINE
  5
1F7F
330
18
100
AcDbEntity
  8
DISEGNO
100
AcDbLine
 10
-165.2321279645616
 20
67.06774022121703
 30
0.0
 11
-165.0081279645615
 21
68.04774022121705
 31
0.0
  0
ARC
  5
1F80
330
18
100
AcDbEntity
  8
DISEGNO
100
AcDbCircle
 10
-164.1911279645615
 20
74.99974022121683
 30
0.0
 40
7.0
100
AcDbArc
 50
264.373999999989
 51
275.6260000000111
  0
ARC
  5
1F81
330
18
100
AcDbEntity
  8
DISEGNO
100
AcDbCircle
 10
-164.1911279645615
 20
74.99974022121683
 30
0.0
 40
7.0
100
AcDbArc
 50
289.0080000000048
 51
302.4209999999852
  0
LINE
  5
1F82
330
18
100
AcDbEntity
  8
DISEGNO
100
AcDbLine
 10
-156.1911279645614
 20
64.49974022121683
 30
0.0
 11
-162.6291279645615
 21
64.49974022121683
 31
0.0
  0
LINE
  5
1F83
330
18
100
AcDbEntity
  8
DISEGNO
100
AcDbLine
 10
-153.6911279645615
 20
70.74974022121683
 30
0.0
 11
-153.6911279645615
 21
66.99974022121683
 31
0.0
  0
LINE
  5
1F84
330
18
100
AcDbEntity
  8
DISEGNO
100
AcDbLine
 10
-155.1901279645612
 20
91.49974022121682
 30
0.0
 11
-153.6911279645615
 21
91.49974022121682
 31
0.0
  0
ARC
  5
1F85
330
18
100
AcDbEntity
  8
DISEGNO
100
AcDbCircle
 10
-164.1911279645615
 20
74.99974022121683
 30
0.0
 40
11.0
100
AcDbArc
 50
22.99300000000968
 51
43.07899999999885
  0
ARC
  5
1F86
330
18
100
AcDbEntity
  8
DISEGNO
100
AcDbCircle
 10
-151.9181279645613
 20
85.24174022121702
 30
0.0
 40
3.0
100
AcDbArc
 50
44.99999999999078
 51
135.0000000000092
  0
LINE
  5
1F87
330
18
100
AcDbEntity
  8
DISEGNO
100
AcDbLine
 10
-154.0391279645614
 20
87.3627402212171
 30
0.0
 11
-156.1091279645611
 21
85.29274022121695
 31
0.0
  0
LINE
  5
1F88
330
18
100
AcDbEntity
  8
DISEGNO
100
AcDbLine
 10
-155.1901279645612
 20
90.45474022121721
 30
0.0
 11
-155.1901279645612
 21
91.49974022121682
 31
0.0
  0
ARC
  5
1F89
330
18
100
AcDbEntity
  8
DISEGNO
100
AcDbCircle
 10
-164.1911279645615
 20
74.99974022121683
 30
0.0
 40
7.0
100
AcDbArc
 50
31.86499999999361
 51
45.2779999999976
  0
LINE
  5
1F8A
330
18
100
AcDbEntity
  8
DISEGNO
100
AcDbLine
 10
-159.2651279645611
 20
79.97274022121678
 30
0.0
 11
-158.6381279645616
 21
80.75874022121684
 31
0.0
  0
ARC
  5
1F8B
330
18
100
AcDbEntity
  8
DISEGNO
100
AcDbCircle
 10
-164.1911279645615
 20
74.99974022121683
 30
0.0
 40
8.0
100
AcDbArc
 50
46.04899999999099
 51
56.80800000001954
  0
LINE
  5
1F8C
330
18
100
AcDbEntity
  8
DISEGNO
100
AcDbLine
 10
-159.8111279645613
 20
81.69374022121724
 30
0.0
 11
-160.4381279645608
 21
80.90874022121694
 31
0.0
  0
ARC
  5
1F8D
330
18
100
AcDbEntity
  8
DISEGNO
100
AcDbCircle
 10
-164.1911279645615
 20
74.99974022121683
 30
0.0
 40
8.0
100
AcDbArc
 50
20.33500000000748
 51
31.09400000000548
  0
LINE
  5
1F8E
330
18
100
AcDbEntity
  8
DISEGNO
100
AcDbLine
 10
-157.3401279645609
 20
79.13074022121714
 30
0.0
 11
-158.2451279645615
 21
78.69474022121699
 31
0.0
  0
LINE
  5
1F8F
330
18
100
AcDbEntity
  8
DISEGNO
100
AcDbLine
 10
-159.4841279645611
 20
86.16174022121709
 30
0.0
 11
-155.1901279645612
 21
90.45474022121721
 31
0.0
  0
ARC
  5
1F90
330
18
100
AcDbEntity
  8
DISEGNO
100
AcDbCircle
 10
-154.6951279645614
 20
83.87874022121673
 30
0.0
 40
2.0
100
AcDbArc
 50
135.0000000000092
 51
223.0789999999988
  0
ARC
  5
1F91
330
18
100
AcDbEntity
  8
DISEGNO
100
AcDbCircle
 10
-164.1911279645615
 20
74.99974022121683
 30
0.0
 40
11.0
100
AcDbArc
 50
75.32799999998329
 51
104.6720000000167
  0
ARC
  5
1F92
330
18
100
AcDbEntity
  8
DISEGNO
100
AcDbCircle
 10
-164.1911279645615
 20
74.99974022121683
 30
0.0
 40
8.0
100
AcDbArc
 50
97.47769999999686
 51
108.2364999999801
  0
ARC
  5
1F93
330
18
100
AcDbEntity
  8
DISEGNO
100
AcDbCircle
 10
-167.4831279645609
 20
87.57574022121685
 30
0.0
 40
2.0
100
AcDbArc
 50
224.9999999999908
 51
284.6720000000167
  0
LINE
  5
1F94
330
18
100
AcDbEntity
  8
DISEGNO
100
AcDbLine
 10
-166.6941279645612
 20
82.59774022121678
 30
0.0
 11
-166.470127964561
 21
81.61774022121722
 31
0.0
  0
LINE
  5
1F95
330
18
100
AcDbEntity
  8
DISEGNO
100
AcDbLine
 10
-167.9441279645612
 20
80.90874022121694
 30
0.0
 11
-168.5701279645614
 21
81.69374022121724
 31
0.0
  0
ARC
  5
1F96
330
18
100
AcDbEntity
  8
DISEGNO
100
AcDbCircle
 10
-164.1911279645615
 20
74.99974022121683
 30
0.0
 40
7.0
100
AcDbArc
 50
109.007700000024
 51
122.420900000007
  0
LINE
  5
1F97
330
18
100
AcDbEntity
  8
DISEGNO
100
AcDbLine
 10
-161.9111279645617
 20
81.61774022121722
 30
0.0
 11
-161.6871279645615
 21
82.59774022121678
 31
0.0
  0
ARC
  5
1F98
330
18
100
AcDbEntity
  8
DISEGNO
100
AcDbCircle
 10
-164.1911279645615
 20
74.99974022121683
 30
0.0
 40
8.0
100
AcDbArc
 50
71.76399999999464
 51
82.52200000001934
  0
LINE
  5
1F99
330
18
100
AcDbEntity
  8
DISEGNO
100
AcDbLine
 10
-163.1491279645611
 20
82.93174022121707
 30
0.0
 11
-163.3731279645612
 21
81.95174022121705
 31
0.0
  0
ARC
  5
1F9A
330
18
100
AcDbEntity
  8
DISEGNO
100
AcDbCircle
 10
-164.1911279645615
 20
74.99974022121683
 30
0.0
 40
7.0
100
AcDbArc
 50
83.29400000001607
 51
96.7063200000139
  0
LINE
  5
1F9B
330
18
100
AcDbEntity
  8
DISEGNO
100
AcDbLine
 10
-165.2321279645616
 20
82.93174022121707
 30
0.0
 11
-165.0081279645615
 21
81.95174022121705
 31
0.0
  0
ARC
  5
1F9C
330
18
100
AcDbEntity
  8
DISEGNO
100
AcDbCircle
 10
-160.8981279645618
 20
87.57574022121685
 30
0.0
 40
2.0
100
AcDbArc
 50
255.3279999999833
 51
315.0000000000092
  0
ARC
  5
1F9D
330
18
100
AcDbEntity
  8
DISEGNO
100
AcDbCircle
 10
-164.1911279645615
 20
74.99974022121683
 30
0.0
 40
7.0
100
AcDbArc
 50
57.57900000001487
 51
70.99199999999521
  0
LINE
  5
1F9E
330
18
100
AcDbEntity
  8
DISEGNO
100
AcDbLine
 10
-148.1911279645615
 20
89.99974022121682
 30
0.0
 11
-144.7761279645615
 21
86.58474022121685
 31
0.0
  0
ARC
  5
1F9F
330
18
100
AcDbEntity
  8
DISEGNO
100
AcDbCircle
 10
-144.1911279645615
 20
85.99974022121683
 30
0.0
 40
3.0
100
AcDbArc
 50
224.9999999999908
 51
270.0
  0
LINE
  5
1FA0
330
18
100
AcDbEntity
  8
DISEGNO
100
AcDbLine
 10
-146.3121279645615
 20
83.87774022121698
 30
0.0
 11
-149.7971279645612
 21
87.3627402212171
 31
0.0
  0
LINE
  5
1FA1
330
18
100
AcDbEntity
  8
DISEGNO
100
AcDbLine
 10
-148.1911279645615
 20
89.99974022121682
 30
0.0
 11
-148.1911279645615
 21
91.49974022121682
 31
0.0
  0
LINE
  5
1FA2
330
18
100
AcDbEntity
  8
DISEGNO
100
AcDbLine
 10
-148.1911279645615
 20
91.49974022121682
 30
0.0
 11
-149.6911279645614
 21
91.49974022121682
 31
0.0
  0
ARC
  5
1FA3
330
18
100
AcDbEntity
  8
DISEGNO
100
AcDbCircle
 10
-143.3621279645617
 20
87.99974022121682
 30
0.0
 40
2.0
100
AcDbArc
 50
224.9999999999908
 51
270.0
  0
ARC
  5
1FA4
330
18
100
AcDbEntity
  8
DISEGNO
100
AcDbCircle
 10
-128.9181279645613
 20
81.24974022121682
 30
0.0
 40
5.0
100
AcDbArc
 50
270.0
 51
337.0069999999903
  0
LINE
  5
1FA5
330
18
100
AcDbEntity
  8
DISEGNO
100
AcDbLine
 10
-120.7861279645617
 20
77.34374022121688
 30
0.0
 11
-121.6911279645614
 21
77.77974022121703
 31
0.0
  0
ARC
  5
1FA6
330
18
100
AcDbEntity
  8
DISEGNO
100
AcDbCircle
 10
-122.1901279645613
 20
66.99974022121683
 30
0.0
 40
2.5
100
AcDbArc
 50
180.0
 51
270.0
  0
ARC
  5
1FA7
330
18
100
AcDbEntity
  8
DISEGNO
100
AcDbCircle
 10
-127.6901279645612
 20
70.74974022121683
 30
0.0
 40
3.0
100
AcDbArc
 50
0.0
 51
90.00001072459346
  0
LINE
  5
1FA8
330
18
100
AcDbEntity
  8
DISEGNO
100
AcDbLine
 10
-124.6901279645612
 20
70.74974022121683
 30
0.0
 11
-124.6901279645612
 21
66.99974022121683
 31
0.0
  0
ARC
  5
1FA9
330
18
100
AcDbEntity
  8
DISEGNO
100
AcDbCircle
 10
-114.1901279645612
 20
74.99974022121683
 30
0.0
 40
7.0
100
AcDbArc
 50
6.150999999997551
 51
19.56400000000208
  0
ARC
  5
1FAA
330
18
100
AcDbEntity
  8
DISEGNO
100
AcDbCircle
 10
-114.1901279645612
 20
74.99974022121683
 30
0.0
 40
7.0
100
AcDbArc
 50
314.7220000000024
 51
328.1350000000064
  0
LINE
  5
1FAB
330
18
100
AcDbEntity
  8
DISEGNO
100
AcDbLine
 10
-108.2451279645615
 20
71.30374022121691
 30
0.0
 11
-107.3391279645616
 21
70.86774022121722
 31
0.0
  0
LINE
  5
1FAC
330
18
100
AcDbEntity
  8
DISEGNO
100
AcDbLine
 10
-108.6371279645614
 20
69.23974022121706
 30
0.0
 11
-109.2641279645618
 21
70.02574022121712
 31
0.0
  0
ARC
  5
1FAD
330
18
100
AcDbEntity
  8
DISEGNO
100
AcDbCircle
 10
-114.1901279645612
 20
74.99974022121683
 30
0.0
 40
8.0
100
AcDbArc
 50
303.1919999999804
 51
313.951000000009
  0
LINE
  5
1FAE
330
18
100
AcDbEntity
  8
DISEGNO
100
AcDbLine
 10
-110.4371279645615
 20
69.09074022121718
 30
0.0
 11
-109.8101279645611
 21
68.30474022121712
 31
0.0
  0
ARC
  5
1FAF
330
18
100
AcDbEntity
  8
DISEGNO
100
AcDbCircle
 10
-114.1901279645612
 20
74.99974022121683
 30
0.0
 40
7.0
100
AcDbArc
 50
340.4359999999979
 51
353.8490000000024
  0
LINE
  5
1FB0
330
18
100
AcDbEntity
  8
DISEGNO
100
AcDbLine
 10
-122.1541279645612
 20
75.74974022121683
 30
0.0
 11
-121.1491279645611
 21
75.74974022121683
 31
0.0
  0
ARC
  5
1FB1
330
18
100
AcDbEntity
  8
DISEGNO
100
AcDbCircle
 10
-114.1901279645612
 20
74.99974022121683
 30
0.0
 40
8.0
100
AcDbArc
 50
200.3350000000075
 51
211.0940000000055
  0
LINE
  5
1FB2
330
18
100
AcDbEntity
  8
DISEGNO
100
AcDbLine
 10
-122.1901279645613
 20
64.49974022121683
 30
0.0
 11
-115.7511279645609
 21
64.49974022121683
 31
0.0
  0
LINE
  5
1FB3
330
18
100
AcDbEntity
  8
DISEGNO
100
AcDbLine
 10
-122.1541279645612
 20
74.24974022121682
 30
0.0
 11
-121.1491279645611
 21
74.24974022121682
 31
0.0
  0
LINE
  5
1FB4
330
18
100
AcDbEntity
  8
DISEGNO
100
AcDbLine
 10
-120.7861279645617
 20
72.65574022121677
 30
0.0
 11
-121.6911279645614
 21
72.21974022121708
 31
0.0
  0
ARC
  5
1FB5
330
18
100
AcDbEntity
  8
DISEGNO
100
AcDbCircle
 10
-114.1901279645612
 20
74.99974022121683
 30
0.0
 40
8.0
100
AcDbArc
 50
174.6206000000012
 51
184.3834000000036
  0
ARC
  5
1FB6
330
18
100
AcDbEntity
  8
DISEGNO
100
AcDbCircle
 10
-114.1901279645612
 20
74.99974022121683
 30
0.0
 40
7.0
100
AcDbArc
 50
160.4365000000135
 51
173.8493999999971
  0
LINE
  5
1FB7
330
18
100
AcDbEntity
  8
DISEGNO
100
AcDbLine
 10
-121.0401279645616
 20
70.86774022121722
 30
0.0
 11
-120.135127964561
 21
71.30374022121691
 31
0.0
  0
ARC
  5
1FB8
330
18
100
AcDbEntity
  8
DISEGNO
100
AcDbCircle
 10
-114.1901279645612
 20
74.99974022121683
 30
0.0
 40
7.0
100
AcDbArc
 50
211.8649999999936
 51
225.2779999999976
  0
LINE
  5
1FB9
330
18
100
AcDbEntity
  8
DISEGNO
100
AcDbLine
 10
-116.4691279645617
 20
68.38074022121714
 30
0.0
 11
-116.6931279645619
 21
67.40074022121712
 31
0.0
  0
LINE
  5
1FBA
330
18
100
AcDbEntity
  8
DISEGNO
100
AcDbLine
 10
-111.6861279645613
 20
67.40074022121712
 30
0.0
 11
-111.9101279645615
 21
68.38074022121714
 31
0.0
  0
ARC
  5
1FBB
330
18
100
AcDbEntity
  8
DISEGNO
100
AcDbCircle
 10
-114.1901279645612
 20
74.99974022121683
 30
0.0
 40
8.0
100
AcDbArc
 50
251.7639999999947
 51
262.5220000000194
  0
LINE
  5
1FBC
330
18
100
AcDbEntity
  8
DISEGNO
100
AcDbLine
 10
-115.2311279645614
 20
67.06774022121703
 30
0.0
 11
-115.0071279645612
 21
68.04774022121705
 31
0.0
  0
LINE
  5
1FBD
330
18
100
AcDbEntity
  8
DISEGNO
100
AcDbLine
 10
-113.1481279645618
 20
67.06774022121703
 30
0.0
 11
-113.372127964561
 21
68.04774022121705
 31
0.0
  0
ARC
  5
1FBE
330
18
100
AcDbEntity
  8
DISEGNO
100
AcDbCircle
 10
-114.1901279645612
 20
74.99974022121683
 30
0.0
 40
8.0
100
AcDbArc
 50
277.4779999999806
 51
288.237000000017
  0
ARC
  5
1FBF
330
18
100
AcDbEntity
  8
DISEGNO
100
AcDbCircle
 10
-114.1901279645612
 20
74.99974022121683
 30
0.0
 40
7.0
100
AcDbArc
 50
264.373999999989
 51
275.6260000000111
  0
ARC
  5
1FC0
330
18
100
AcDbEntity
  8
DISEGNO
100
AcDbCircle
 10
-115.7511279645609
 20
59.49974022121683
 30
0.0
 40
5.0
100
AcDbArc
 50
44.99999999999078
 51
90.0
  0
LINE
  5
1FC1
330
18
100
AcDbEntity
  8
DISEGNO
100
AcDbLine
 10
-118.5691279645612
 20
68.30474022121712
 30
0.0
 11
-117.9431279645619
 21
69.09074022121718
 31
0.0
  0
ARC
  5
1FC2
330
18
100
AcDbEntity
  8
DISEGNO
100
AcDbCircle
 10
-114.1901279645612
 20
74.99974022121683
 30
0.0
 40
7.0
100
AcDbArc
 50
237.5790000000149
 51
250.9919999999952
  0
LINE
  5
1FC3
330
18
100
AcDbEntity
  8
DISEGNO
100
AcDbLine
 10
-119.1151279645614
 20
70.02574022121712
 30
0.0
 11
-119.7421279645609
 21
69.23974022121706
 31
0.0
  0
ARC
  5
1FC4
330
18
100
AcDbEntity
  8
DISEGNO
100
AcDbCircle
 10
-114.1901279645612
 20
74.99974022121683
 30
0.0
 40
8.0
100
AcDbArc
 50
226.048999999991
 51
236.8080000000195
  0
ARC
  5
1FC5
330
18
100
AcDbEntity
  8
DISEGNO
100
AcDbCircle
 10
-114.1901279645612
 20
74.99974022121683
 30
0.0
 40
7.0
100
AcDbArc
 50
186.1506000000028
 51
199.563000000007
  0
ARC
  5
1FC6
330
18
100
AcDbEntity
  8
DISEGNO
100
AcDbCircle
 10
-114.1901279645612
 20
74.99974022121683
 30
0.0
 40
7.0
100
AcDbArc
 50
289.0080000000048
 51
302.4209999999852
  0
ARC
  5
1FC7
330
18
100
AcDbEntity
  8
DISEGNO
100
AcDbCircle
 10
-114.1901279645612
 20
74.99974022121683
 30
0.0
 40
11.0
100
AcDbArc
 50
136.9208999999942
 51
157.0065999999881
  0
LINE
  5
1FC8
330
18
100
AcDbEntity
  8
DISEGNO
100
AcDbLine
 10
-118.8971279645616
 20
86.16174022121709
 30
0.0
 11
-123.1901279645613
 21
90.45474022121721
 31
0.0
  0
LINE
  5
1FC9
330
18
100
AcDbEntity
  8
DISEGNO
100
AcDbLine
 10
-124.3411279645611
 20
87.3627402212171
 30
0.0
 11
-122.2711279645614
 21
85.29274022121695
 31
0.0
  0
ARC
  5
1FCA
330
18
100
AcDbEntity
  8
DISEGNO
100
AcDbCircle
 10
-126.4621279645612
 20
85.24174022121702
 30
0.0
 40
3.0
100
AcDbArc
 50
44.99999999999078
 51
135.0001000000204
  0
LINE
  5
1FCB
330
18
100
AcDbEntity
  8
DISEGNO
100
AcDbLine
 10
-123.1901279645613
 20
91.49974022121682
 30
0.0
 11
-124.6901279645612
 21
91.49974022121682
 31
0.0
  0
LINE
  5
1FCC
330
18
100
AcDbEntity
  8
DISEGNO
100
AcDbLine
 10
-130.1901279645612
 20
89.99974022121682
 30
0.0
 11
-130.1901279645612
 21
91.49974022121682
 31
0.0
  0
LINE
  5
1FCD
330
18
100
AcDbEntity
  8
DISEGNO
100
AcDbLine
 10
-130.1901279645612
 20
91.49974022121682
 30
0.0
 11
-128.6901279645612
 21
91.49974022121682
 31
0.0
  0
ARC
  5
1FCE
330
18
100
AcDbEntity
  8
DISEGNO
100
AcDbCircle
 10
-135.0181279645617
 20
87.99974022121682
 30
0.0
 40
2.0
100
AcDbArc
 50
270.0
 51
315.0000000000092
  0
ARC
  5
1FCF
330
18
100
AcDbEntity
  8
DISEGNO
100
AcDbCircle
 10
-134.1901279645612
 20
85.99974022121683
 30
0.0
 40
3.0
100
AcDbArc
 50
270.0
 51
315.0000000000092
  0
LINE
  5
1FD0
330
18
100
AcDbEntity
  8
DISEGNO
100
AcDbLine
 10
-132.0681279645619
 20
83.87774022121698
 30
0.0
 11
-128.5841279645615
 21
87.3627402212171
 31
0.0
  0
LINE
  5
1FD1
330
18
100
AcDbEntity
  8
DISEGNO
100
AcDbLine
 10
-130.1901279645612
 20
89.99974022121682
 30
0.0
 11
-133.604127964561
 21
86.58474022121685
 31
0.0
  0
LINE
  5
1FD2
330
18
100
AcDbEntity
  8
DISEGNO
100
AcDbLine
 10
-123.1901279645613
 20
90.45474022121721
 30
0.0
 11
-123.1901279645613
 21
91.49974022121682
 31
0.0
  0
LINE
  5
1FD3
330
18
100
AcDbEntity
  8
DISEGNO
100
AcDbLine
 10
-108.6371279645614
 20
80.75874022121684
 30
0.0
 11
-109.2641279645618
 21
79.97274022121678
 31
0.0
  0
ARC
  5
1FD4
330
18
100
AcDbEntity
  8
DISEGNO
100
AcDbCircle
 10
-114.1901279645612
 20
74.99974022121683
 30
0.0
 40
7.0
100
AcDbArc
 50
31.86499999999361
 51
45.2779999999976
  0
ARC
  5
1FD5
330
18
100
AcDbEntity
  8
DISEGNO
100
AcDbCircle
 10
-114.1901279645612
 20
74.99974022121683
 30
0.0
 40
8.0
100
AcDbArc
 50
46.04899999999099
 51
56.80800000001954
  0
LINE
  5
1FD6
330
18
100
AcDbEntity
  8
DISEGNO
100
AcDbLine
 10
-110.4371279645615
 20
80.90874022121694
 30
0.0
 11
-109.8101279645611
 21
81.69374022121724
 31
0.0
  0
LINE
  5
1FD7
330
18
100
AcDbEntity
  8
DISEGNO
100
AcDbLine
 10
-108.2451279645615
 20
78.69474022121699
 30
0.0
 11
-107.3391279645616
 21
79.13074022121714
 31
0.0
  0
ARC
  5
1FD8
330
18
100
AcDbEntity
  8
DISEGNO
100
AcDbCircle
 10
-106.4901279645614
 20
84.203740221217
 30
0.0
 40
1.0
100
AcDbArc
 50
135.0013000000079
 51
230.0879999999991
  0
ARC
  5
1FD9
330
18
100
AcDbEntity
  8
DISEGNO
100
AcDbCircle
 10
-114.1901279645612
 20
74.99974022121683
 30
0.0
 40
8.0
100
AcDbArc
 50
148.9061000000019
 51
159.6648000000052
  0
ARC
  5
1FDA
330
18
100
AcDbEntity
  8
DISEGNO
100
AcDbCircle
 10
-123.6851279645611
 20
83.87874022121673
 30
0.0
 40
2.0
100
AcDbArc
 50
316.9210000000011
 51
44.99999999999078
  0
ARC
  5
1FDB
330
18
100
AcDbEntity
  8
DISEGNO
100
AcDbCircle
 10
-117.4821279645616
 20
87.57574022121685
 30
0.0
 40
2.0
100
AcDbArc
 50
224.9999999999908
 51
284.6720000000167
  0
ARC
  5
1FDC
330
18
100
AcDbEntity
  8
DISEGNO
100
AcDbCircle
 10
-114.1901279645612
 20
74.99974022121683
 30
0.0
 40
11.0
100
AcDbArc
 50
75.32799999998329
 51
104.6723999999963
  0
LINE
  5
1FDD
330
18
100
AcDbEntity
  8
DISEGNO
100
AcDbLine
 10
-118.5691279645612
 20
81.69374022121724
 30
0.0
 11
-117.9431279645619
 21
80.90874022121694
 31
0.0
  0
ARC
  5
1FDE
330
18
100
AcDbEntity
  8
DISEGNO
100
AcDbCircle
 10
-114.1901279645612
 20
74.99974022121683
 30
0.0
 40
7.0
100
AcDbArc
 50
109.007700000024
 51
122.420900000007
  0
LINE
  5
1FDF
330
18
100
AcDbEntity
  8
DISEGNO
100
AcDbLine
 10
-116.4691279645617
 20
81.61774022121722
 30
0.0
 11
-116.6931279645619
 21
82.59774022121678
 31
0.0
  0
ARC
  5
1FE0
330
18
100
AcDbEntity
  8
DISEGNO
100
AcDbCircle
 10
-114.1901279645612
 20
74.99974022121683
 30
0.0
 40
8.0
100
AcDbArc
 50
97.47776000000866
 51
108.2363999999804
  0
LINE
  5
1FE1
330
18
100
AcDbEntity
  8
DISEGNO
100
AcDbLine
 10
-115.2311279645614
 20
82.93174022121707
 30
0.0
 11
-115.0071279645612
 21
81.95174022121705
 31
0.0
  0
ARC
  5
1FE2
330
18
100
AcDbEntity
  8
DISEGNO
100
AcDbCircle
 10
-114.1901279645612
 20
74.99974022121683
 30
0.0
 40
7.0
100
AcDbArc
 50
83.29400000001607
 51
96.70631000001137
  0
LINE
  5
1FE3
330
18
100
AcDbEntity
  8
DISEGNO
100
AcDbLine
 10
-113.1481279645618
 20
82.93174022121707
 30
0.0
 11
-113.372127964561
 21
81.95174022121705
 31
0.0
  0
ARC
  5
1FE4
330
18
100
AcDbEntity
  8
DISEGNO
100
AcDbCircle
 10
-114.1901279645612
 20
74.99974022121683
 30
0.0
 40
8.0
100
AcDbArc
 50
71.76299999998303
 51
82.52200000001934
  0
LINE
  5
1FE5
330
18
100
AcDbEntity
  8
DISEGNO
100
AcDbLine
 10
-111.6861279645613
 20
82.59774022121678
 30
0.0
 11
-111.9101279645615
 21
81.61774022121722
 31
0.0
  0
LINE
  5
1FE6
330
18
100
AcDbEntity
  8
DISEGNO
100
AcDbLine
 10
-121.0401279645616
 20
79.13074022121714
 30
0.0
 11
-120.135127964561
 21
78.69474022121699
 31
0.0
  0
ARC
  5
1FE7
330
18
100
AcDbEntity
  8
DISEGNO
100
AcDbCircle
 10
-114.1901279645612
 20
74.99974022121683
 30
0.0
 40
7.0
100
AcDbArc
 50
134.722200000011
 51
148.1354000000049
  0
LINE
  5
1FE8
330
18
100
AcDbEntity
  8
DISEGNO
100
AcDbLine
 10
-119.1151279645614
 20
79.97274022121678
 30
0.0
 11
-119.7421279645609
 21
80.75874022121684
 31
0.0
  0
ARC
  5
1FE9
330
18
100
AcDbEntity
  8
DISEGNO
100
AcDbCircle
 10
-114.1901279645612
 20
74.99974022121683
 30
0.0
 40
8.0
100
AcDbArc
 50
123.1920999999902
 51
133.9509000000022
  0
ARC
  5
1FEA
330
18
100
AcDbEntity
  8
DISEGNO
100
AcDbCircle
 10
-110.8971279645616
 20
87.57574022121685
 30
0.0
 40
2.0
100
AcDbArc
 50
255.3279999999833
 51
315.0000000000092
  0
ARC
  5
1FEB
330
18
100
AcDbEntity
  8
DISEGNO
100
AcDbCircle
 10
-114.1901279645612
 20
74.99974022121683
 30
0.0
 40
7.0
100
AcDbArc
 50
57.57900000001487
 51
70.99199999999521
  0
LINE
  5
1FEC
330
18
100
AcDbEntity
  8
DISEGNO
100
AcDbLine
 10
-61.19012796456127
 20
69.6997402212171
 30
0.0
 11
-61.19012796456127
 21
55.49974022121682
 31
0.0
  0
LINE
  5
1FED
330
18
100
AcDbEntity
  8
DISEGNO
100
AcDbLine
 10
-103.6581279645611
 20
66.49874022121707
 30
0.0
 11
-98.74512796456157
 21
61.58474022121686
 31
0.0
  0
LINE
  5
1FEE
330
18
100
AcDbEntity
  8
DISEGNO
100
AcDbLine
 10
-83.19012796456126
 20
55.99974022121682
 30
0.0
 11
-83.19012796456126
 21
64.857740221217
 31
0.0
  0
LINE
  5
1FEF
330
18
100
AcDbEntity
  8
DISEGNO
100
AcDbLine
 10
-51.18912796456107
 20
50.99974022121682
 30
0.0
 11
-87.19012796456127
 21
50.99974022121682
 31
0.0
  0
LINE
  5
1FF0
330
18
100
AcDbEntity
  8
DISEGNO
100
AcDbLine
 10
-69.39012796456109
 20
53.99974022121682
 30
0.0
 11
-87.19012796456127
 21
53.99974022121682
 31
0.0
  0
ARC
  5
1FF1
330
18
100
AcDbEntity
  8
DISEGNO
100
AcDbCircle
 10
-94.28112796456161
 20
47.49974022121683
 30
0.0
 40
1.0
100
AcDbArc
 50
0.0
 51
90.0
  0
ARC
  5
1FF2
330
18
100
AcDbEntity
  8
DISEGNO
100
AcDbCircle
 10
-101.1901279645613
 20
47.49974022121683
 30
0.0
 40
1.0
100
AcDbArc
 50
90.0
 51
180.0
  0
LINE
  5
1FF3
330
18
100
AcDbEntity
  8
DISEGNO
100
AcDbLine
 10
-104.6901279645612
 20
44.90374022121682
 30
0.0
 11
-104.6901279645612
 21
55.09474022121708
 31
0.0
  0
LINE
  5
1FF4
330
18
100
AcDbEntity
  8
DISEGNO
100
AcDbLine
 10
-93.28112796456162
 20
39.99974022121683
 30
0.0
 11
-93.28112796456162
 21
47.49974022121683
 31
0.0
  0
LINE
  5
1FF5
330
18
100
AcDbEntity
  8
DISEGNO
100
AcDbLine
 10
-103.6581279645611
 20
33.50074022121703
 30
0.0
 11
-98.74512796456157
 21
38.41374022121704
 31
0.0
  0
LINE
  5
1FF6
330
18
100
AcDbEntity
  8
DISEGNO
100
AcDbLine
 10
-97.78112796456163
 20
33.99974022121682
 30
0.0
 11
-97.78112796456163
 21
35.49974022121683
 31
0.0
  0
LINE
  5
1FF7
330
18
100
AcDbEntity
  8
DISEGNO
100
AcDbLine
 10
-98.91712796456113
 20
33.99974022121682
 30
0.0
 11
-97.78112796456163
 21
33.99974022121682
 31
0.0
  0
ARC
  5
1FF8
330
18
100
AcDbEntity
  8
DISEGNO
100
AcDbCircle
 10
-97.33112796456181
 20
36.99974022121683
 30
0.0
 40
2.0
100
AcDbArc
 50
90.0
 51
135.0007000000061
  0
ARC
  5
1FF9
330
18
100
AcDbEntity
  8
DISEGNO
100
AcDbCircle
 10
-94.28112796456161
 20
39.99974022121683
 30
0.0
 40
1.0
100
AcDbArc
 50
270.0
 51
0.0
  0
LINE
  5
1FFA
330
18
100
AcDbEntity
  8
DISEGNO
100
AcDbLine
 10
-94.28112796456161
 20
38.99974022121682
 30
0.0
 11
-97.3311279645609
 21
38.99974022121682
 31
0.0
  0
LINE
  5
1FFB
330
18
100
AcDbEntity
  8
DISEGNO
100
AcDbLine
 10
-97.78112796456163
 20
35.49974022121683
 30
0.0
 11
-93.28112796456162
 21
35.49974022121683
 31
0.0
  0
ARC
  5
1FFC
330
18
100
AcDbEntity
  8
DISEGNO
100
AcDbCircle
 10
-105.6901279645612
 20
44.90374022121682
 30
0.0
 40
1.0
100
AcDbArc
 50
315.0000000000092
 51
0.0
  0
LINE
  5
1FFD
330
18
100
AcDbEntity
  8
DISEGNO
100
AcDbLine
 10
-102.1901279645612
 20
47.49974022121683
 30
0.0
 11
-102.1901279645612
 21
44.28274022121718
 31
0.0
  0
ARC
  5
1FFE
330
18
100
AcDbEntity
  8
DISEGNO
100
AcDbCircle
 10
-104.1901279645612
 20
44.28274022121718
 30
0.0
 40
2.0
100
AcDbArc
 50
315.0010000000018
 51
0.0
  0
LINE
  5
1FFF
330
18
100
AcDbEntity
  8
DISEGNO
100
AcDbLine
 10
-89.39012796456109
 20
38.24974022121683
 30
0.0
 11
-89.39012796456109
 21
40.74974022121682
 31
0.0
  0
LINE
  5
2000
330
18
100
AcDbEntity
  8
DISEGNO
100
AcDbLine
 10
-89.39012796456109
 20
38.24974022121683
 30
0.0
 11
-89.19012796456128
 21
38.24974022121683
 31
0.0
  0
LINE
  5
2001
330
18
100
AcDbEntity
  8
DISEGNO
100
AcDbLine
 10
-89.39012796456109
 20
40.74974022121682
 30
0.0
 11
-89.19012796456128
 21
40.74974022121682
 31
0.0
  0
ARC
  5
2002
330
18
100
AcDbEntity
  8
DISEGNO
100
AcDbCircle
 10
-105.6901279645612
 20
55.09474022121708
 30
0.0
 40
1.0
100
AcDbArc
 50
0.0
 51
44.99999999999078
  0
ARC
  5
2003
330
18
100
AcDbEntity
  8
DISEGNO
100
AcDbCircle
 10
-97.33112796456181
 20
62.99974022121682
 30
0.0
 40
2.0
100
AcDbArc
 50
224.9989999999982
 51
270.0
  0
ARC
  5
2004
330
18
100
AcDbEntity
  8
DISEGNO
100
AcDbCircle
 10
-101.1901279645613
 20
52.49974022121683
 30
0.0
 40
1.0
100
AcDbArc
 50
180.0
 51
270.0
  0
LINE
  5
2005
330
18
100
AcDbEntity
  8
DISEGNO
100
AcDbLine
 10
-102.1901279645612
 20
52.49974022121683
 30
0.0
 11
-102.1901279645612
 21
55.71574022121717
 31
0.0
  0
ARC
  5
2006
330
18
100
AcDbEntity
  8
DISEGNO
100
AcDbCircle
 10
-104.1901279645612
 20
55.71574022121717
 30
0.0
 40
2.0
100
AcDbArc
 50
0.0
 51
44.99899999999818
  0
ARC
  5
2007
330
18
100
AcDbEntity
  8
DISEGNO
100
AcDbCircle
 10
-94.28112796456161
 20
59.99974022121683
 30
0.0
 40
1.0
100
AcDbArc
 50
0.0
 51
90.0
  0
ARC
  5
2008
330
18
100
AcDbEntity
  8
DISEGNO
100
AcDbCircle
 10
-94.28112796456161
 20
52.49974022121683
 30
0.0
 40
1.0
100
AcDbArc
 50
270.0
 51
0.0
  0
LINE
  5
2009
330
18
100
AcDbEntity
  8
DISEGNO
100
AcDbLine
 10
-93.28112796456162
 20
59.99974022121683
 30
0.0
 11
-93.28112796456162
 21
52.49974022121683
 31
0.0
  0
LINE
  5
200A
330
18
100
AcDbEntity
  8
DISEGNO
100
AcDbLine
 10
-94.28112796456161
 20
60.99974022121682
 30
0.0
 11
-97.3311279645609
 21
60.99974022121682
 31
0.0
  0
LINE
  5
200B
330
18
100
AcDbEntity
  8
DISEGNO
100
AcDbLine
 10
-101.1901279645613
 20
51.49974022121682
 30
0.0
 11
-94.28112796456161
 21
51.49974022121682
 31
0.0
  0
LINE
  5
200C
330
18
100
AcDbEntity
  8
DISEGNO
100
AcDbLine
 10
-101.1901279645613
 20
48.49974022121682
 30
0.0
 11
-94.28112796456161
 21
48.49974022121682
 31
0.0
  0
ARC
  5
200D
330
18
100
AcDbEntity
  8
DISEGNO
100
AcDbCircle
 10
-81.19012796456127
 20
55.99974022121682
 30
0.0
 40
2.0
100
AcDbArc
 50
180.0
 51
270.0
  0
LINE
  5
200E
330
18
100
AcDbEntity
  8
DISEGNO
100
AcDbLine
 10
-87.19012796456127
 20
53.99974022121682
 30
0.0
 11
-87.19012796456127
 21
50.99974022121682
 31
0.0
  0
LINE
  5
200F
330
18
100
AcDbEntity
  8
DISEGNO
100
AcDbLine
 10
-51.18912796456107
 20
53.99974022121682
 30
0.0
 11
-69.39012796456109
 21
53.99974022121682
 31
0.0
  0
LINE
  5
2010
330
18
100
AcDbEntity
  8
DISEGNO
100
AcDbLine
 10
-61.19012796456127
 20
55.49974022121682
 30
0.0
 11
-62.69012796456127
 21
53.99974022121682
 31
0.0
  0
LINE
  5
2011
330
18
100
AcDbEntity
  8
DISEGNO
100
AcDbLine
 10
-73.69012796456127
 20
64.99974022121683
 30
0.0
 11
-88.01012796456097
 21
64.99974022121683
 31
0.0
  0
LINE
  5
2012
330
18
100
AcDbEntity
  8
DISEGNO
100
AcDbLine
 10
-73.69012796456127
 20
84.99974022121682
 30
0.0
 11
-88.01012796456097
 21
84.99974022121682
 31
0.0
  0
LINE
  5
2013
330
18
100
AcDbEntity
  8
DISEGNO
100
AcDbLine
 10
-93.28112796456162
 20
72.49974022121683
 30
0.0
 11
-93.28112796456162
 21
85.49974022121682
 31
0.0
  0
LINE
  5
2014
330
18
100
AcDbEntity
  8
DISEGNO
100
AcDbLine
 10
-97.28112796456162
 20
84.09974022121673
 30
0.0
 11
-97.28112796456162
 21
72.49974022121683
 31
0.0
  0
ARC
  5
2015
330
18
100
AcDbEntity
  8
DISEGNO
100
AcDbCircle
 10
-114.1901279645612
 20
74.99974022121683
 30
0.0
 40
11.0
100
AcDbArc
 50
344.673000000001
 51
15.326999999999
  0
LINE
  5
2016
330
18
100
AcDbEntity
  8
NORMALI
100
AcDbLine
 10
-93.28112796456162
 20
72.99974022121682
 30
0.0
 11
-89.19012796456128
 21
72.99974022121688
 31
0.0
  0
LINE
  5
2017
330
18
100
AcDbEntity
  8
NORMALI
100
AcDbLine
 10
-93.28112796456162
 20
72.49974022121683
 30
0.0
 11
-89.19012796456128
 21
72.49974022121688
 31
0.0
  0
LINE
  5
2018
330
18
100
AcDbEntity
  8
NORMALI
100
AcDbLine
 10
-93.28112796456162
 20
77.49974022121688
 30
0.0
 11
-89.19012796456128
 21
77.49974022121688
 31
0.0
  0
LINE
  5
2019
330
18
100
AcDbEntity
  8
NORMALI
100
AcDbLine
 10
-93.28112796456162
 20
76.99974022121683
 30
0.0
 11
-89.19012796456128
 21
76.99974022121688
 31
0.0
  0
LINE
  5
201A
330
18
100
AcDbEntity
  8
DISEGNO
100
AcDbLine
 10
-91.28112796456163
 20
69.90874022121693
 30
0.0
 11
-90.28112796456161
 21
69.90874022121693
 31
0.0
  0
LINE
  5
201B
330
18
100
AcDbEntity
  8
NORMALI
100
AcDbLine
 10
-98.99012796456146
 20
72.99974022121682
 30
0.0
 11
-97.28112796456162
 21
72.99974022121682
 31
0.0
  0
LINE
  5
201C
330
18
100
AcDbEntity
  8
NORMALI
100
AcDbLine
 10
-98.49012796456145
 20
72.49974022121683
 30
0.0
 11
-97.28112796456162
 21
72.49974022121688
 31
0.0
  0
LINE
  5
201D
330
18
100
AcDbEntity
  8
NORMALI
100
AcDbLine
 10
-98.49012796456145
 20
77.49974022121683
 30
0.0
 11
-97.28112796456162
 21
77.49974022121683
 31
0.0
  0
LINE
  5
201E
330
18
100
AcDbEntity
  8
NORMALI
100
AcDbLine
 10
-98.99012796456146
 20
76.99974022121683
 30
0.0
 11
-97.28112796456162
 21
76.99974022121683
 31
0.0
  0
ARC
  5
201F
330
18
100
AcDbEntity
  8
DISEGNO
100
AcDbCircle
 10
-114.1901279645612
 20
74.99974022121683
 30
0.0
 40
8.0
100
AcDbArc
 50
355.6170000000007
 51
5.378999999998551
  0
ARC
  5
2020
330
18
100
AcDbEntity
  8
DISEGNO
100
AcDbCircle
 10
-101.6521279645617
 20
71.56374022121713
 30
0.0
 40
2.0
100
AcDbArc
 50
164.673499999999
 51
224.9999999999908
  0
LINE
  5
2021
330
18
100
AcDbEntity
  8
DISEGNO
100
AcDbLine
 10
-98.91712796456113
 20
65.99974022121682
 30
0.0
 11
-103.0661279645614
 21
70.14874022121716
 31
0.0
  0
LINE
  5
2022
330
18
100
AcDbEntity
  8
DISEGNO
100
AcDbLine
 10
-98.91712796456113
 20
65.99974022121682
 30
0.0
 11
-97.78112796456163
 21
65.99974022121682
 31
0.0
  0
LINE
  5
2023
330
18
100
AcDbEntity
  8
DISEGNO
100
AcDbLine
 10
-97.78112796456163
 20
65.99974022121682
 30
0.0
 11
-97.78112796456163
 21
64.49974022121683
 31
0.0
  0
LINE
  5
2024
330
18
100
AcDbEntity
  8
NORMALI
100
AcDbLine
 10
-98.49012796456145
 20
72.49974022121683
 30
0.0
 11
-98.99012796456146
 21
72.99974022121682
 31
0.0
  0
LINE
  5
2025
330
18
100
AcDbEntity
  8
NORMALI
100
AcDbLine
 10
-98.99012796456146
 20
76.99974022121683
 30
0.0
 11
-98.99012796456146
 21
72.99974022121682
 31
0.0
  0
LINE
  5
2026
330
18
100
AcDbEntity
  8
DISEGNO
100
AcDbLine
 10
-93.28112796456162
 20
72.49974022121683
 30
0.0
 11
-93.28112796456162
 21
64.49974022121683
 31
0.0
  0
LINE
  5
2027
330
18
100
AcDbEntity
  8
DISEGNO
100
AcDbLine
 10
-93.28112796456162
 20
70.99974022121682
 30
0.0
 11
-91.28112796456163
 21
70.99974022121705
 31
0.0
  0
LINE
  5
2028
330
18
100
AcDbEntity
  8
DISEGNO
100
AcDbLine
 10
-91.28112796456163
 20
69.90874022121693
 30
0.0
 11
-91.28112796456163
 21
70.99974022121682
 31
0.0
  0
LINE
  5
2029
330
18
100
AcDbEntity
  8
NORMALI
100
AcDbLine
 10
-98.99012796456146
 20
76.99974022121683
 30
0.0
 11
-98.49012796456145
 21
77.49974022121683
 31
0.0
  0
LINE
  5
202A
330
18
100
AcDbEntity
  8
NORMALI
100
AcDbLine
 10
-98.49012796456145
 20
72.49974022121683
 30
0.0
 11
-98.49012796456145
 21
77.49974022121683
 31
0.0
  0
LINE
  5
202B
330
18
100
AcDbEntity
  8
DISEGNO
100
AcDbLine
 10
-97.78112796456163
 20
64.49974022121683
 30
0.0
 11
-93.28112796456162
 21
64.49974022121683
 31
0.0
  0
LINE
  5
202C
330
18
100
AcDbEntity
  8
DISEGNO
100
AcDbLine
 10
-97.28112796456162
 20
72.49974022121683
 30
0.0
 11
-97.28112796456162
 21
65.89974022121691
 31
0.0
  0
LINE
  5
202D
330
18
100
AcDbEntity
  8
DISEGNO
100
AcDbLine
 10
-97.28112796456162
 20
65.89974022121691
 30
0.0
 11
-93.28112796456162
 21
65.89974022121691
 31
0.0
  0
LINE
  5
202E
330
18
100
AcDbEntity
  8
DISEGNO
100
AcDbLine
 10
-89.19012796456128
 20
66.17974022121711
 30
0.0
 11
-89.19012796456128
 21
71.89974022121692
 31
0.0
  0
LINE
  5
202F
330
18
100
AcDbEntity
  8
DISEGNO
100
AcDbLine
 10
-89.19012796456128
 20
66.17974022121711
 30
0.0
 11
-88.01012796456097
 21
64.99974022121683
 31
0.0
  0
LINE
  5
2030
330
18
100
AcDbEntity
  8
DISEGNO
100
AcDbLine
 10
-90.28112796456161
 20
69.90874022121693
 30
0.0
 11
-90.28112796456161
 21
70.99974022121682
 31
0.0
  0
LINE
  5
2031
330
18
100
AcDbEntity
  8
DISEGNO
100
AcDbLine
 10
-90.28112796456161
 20
70.99974022121705
 30
0.0
 11
-89.19012796456128
 21
70.99974022121682
 31
0.0
  0
LINE
  5
2032
330
18
100
AcDbEntity
  8
DISEGNO
100
AcDbLine
 10
-91.28112796456163
 20
80.09074022121717
 30
0.0
 11
-90.28112796456161
 21
80.09074022121717
 31
0.0
  0
LINE
  5
2033
330
18
100
AcDbEntity
  8
DISEGNO
100
AcDbLine
 10
-105.1901279645612
 20
91.49974022121682
 30
0.0
 11
-103.6901279645612
 21
91.49974022121682
 31
0.0
  0
LINE
  5
2034
330
18
100
AcDbEntity
  8
DISEGNO
100
AcDbLine
 10
-100.2811279645616
 20
86.17074022121711
 30
0.0
 11
-104.3611279645615
 21
82.08974022121697
 31
0.0
  0
LINE
  5
2035
330
18
100
AcDbEntity
  8
DISEGNO
100
AcDbLine
 10
-105.1901279645612
 20
91.49974022121682
 30
0.0
 11
-105.1901279645612
 21
90.45474022121721
 31
0.0
  0
ARC
  5
2036
330
18
100
AcDbEntity
  8
DISEGNO
100
AcDbCircle
 10
-105.0691279645612
 20
82.79674022121685
 30
0.0
 40
1.0
100
AcDbArc
 50
220.5250000000166
 51
315.0010000000018
  0
LINE
  5
2037
330
18
100
AcDbEntity
  8
DISEGNO
100
AcDbLine
 10
-97.78112796456163
 20
85.49974022121682
 30
0.0
 11
-93.28112796456162
 21
85.49974022121682
 31
0.0
  0
LINE
  5
2038
330
18
100
AcDbEntity
  8
DISEGNO
100
AcDbLine
 10
-100.2811279645616
 20
86.87774022121699
 30
0.0
 11
-97.93212796456145
 21
89.22674022121714
 31
0.0
  0
LINE
  5
2039
330
18
100
AcDbEntity
  8
DISEGNO
100
AcDbLine
 10
-100.2811279645616
 20
86.87774022121699
 30
0.0
 11
-100.2811279645616
 21
86.17074022121711
 31
0.0
  0
LINE
  5
203A
330
18
100
AcDbEntity
  8
DISEGNO
100
AcDbLine
 10
-98.91712796456113
 20
83.99974022121682
 30
0.0
 11
-97.78112796456163
 21
83.99974022121682
 31
0.0
  0
LINE
  5
203B
330
18
100
AcDbEntity
  8
DISEGNO
100
AcDbLine
 10
-97.78112796456163
 20
83.99974022121682
 30
0.0
 11
-97.78112796456163
 21
85.49974022121682
 31
0.0
  0
LINE
  5
203C
330
18
100
AcDbEntity
  8
DISEGNO
100
AcDbLine
 10
-102.4021279645617
 20
88.99974022121682
 30
0.0
 11
-103.1091279645611
 21
88.99974022121682
 31
0.0
  0
ARC
  5
203D
330
18
100
AcDbEntity
  8
DISEGNO
100
AcDbCircle
 10
-101.6521279645617
 20
78.43574022121697
 30
0.0
 40
2.0
100
AcDbArc
 50
135.0000000000092
 51
195.326999999999
  0
LINE
  5
203E
330
18
100
AcDbEntity
  8
DISEGNO
100
AcDbLine
 10
-102.4021279645617
 20
88.99974022121682
 30
0.0
 11
-100.010127964561
 21
91.39174022121711
 31
0.0
  0
LINE
  5
203F
330
18
100
AcDbEntity
  8
DISEGNO
100
AcDbLine
 10
-98.91712796456113
 20
83.99974022121682
 30
0.0
 11
-103.0661279645614
 21
79.84974022121718
 31
0.0
  0
LINE
  5
2040
330
18
100
AcDbEntity
  8
DISEGNO
100
AcDbLine
 10
-93.28112796456162
 20
78.99974022121682
 30
0.0
 11
-91.28112796456163
 21
78.99974022121682
 31
0.0
  0
LINE
  5
2041
330
18
100
AcDbEntity
  8
DISEGNO
100
AcDbLine
 10
-91.28112796456163
 20
80.09074022121717
 30
0.0
 11
-91.28112796456163
 21
78.99974022121682
 31
0.0
  0
LINE
  5
2042
330
18
100
AcDbEntity
  8
DISEGNO
100
AcDbLine
 10
-93.28112796456162
 20
84.09974022121673
 30
0.0
 11
-97.28112796456162
 21
84.09974022121673
 31
0.0
  0
LINE
  5
2043
330
18
100
AcDbEntity
  8
DISEGNO
100
AcDbLine
 10
-89.19012796456128
 20
83.81974022121699
 30
0.0
 11
-88.01012796456097
 21
84.99974022121682
 31
0.0
  0
LINE
  5
2044
330
18
100
AcDbEntity
  8
DISEGNO
100
AcDbLine
 10
-90.28112796456161
 20
80.09074022121717
 30
0.0
 11
-90.28112796456161
 21
78.99974022121682
 31
0.0
  0
LINE
  5
2045
330
18
100
AcDbEntity
  8
DISEGNO
100
AcDbLine
 10
-89.19012796456128
 20
83.81974022121699
 30
0.0
 11
-89.19012796456128
 21
78.09974022121719
 31
0.0
  0
LINE
  5
2046
330
18
100
AcDbEntity
  8
DISEGNO
100
AcDbLine
 10
-90.28112796456161
 20
78.99974022121682
 30
0.0
 11
-89.19012796456128
 21
78.99974022121682
 31
0.0
  0
LINE
  5
2047
330
18
100
AcDbEntity
  8
DISEGNO
100
AcDbLine
 10
-73.69012796456127
 20
84.99974022121682
 30
0.0
 11
-73.69012796456127
 21
64.99974022121683
 31
0.0
  0
LINE
  5
2048
330
18
100
AcDbEntity
  8
DISEGNO
100
AcDbLine
 10
-100.9401279645612
 20
99.99974022121683
 30
0.0
 11
-110.1901279645612
 21
99.99974022121683
 31
0.0
  0
LINE
  5
2049
330
18
100
AcDbEntity
  8
DISEGNO
100
AcDbLine
 10
-110.1901279645612
 20
95.99974022121683
 30
0.0
 11
-103.6901279645612
 21
95.99974022121683
 31
0.0
  0
LINE
  5
204A
330
18
100
AcDbEntity
  8
DISEGNO
100
AcDbLine
 10
-110.6901279645613
 20
99.9997402212166
 30
0.0
 11
-102.1901279645612
 21
99.99974022121683
 31
0.0
  0
LINE
  5
204C
330
18
100
AcDbEntity
  8
DISEGNO
100
AcDbLine
 10
-160.6911279645615
 20
99.99974022121683
 30
0.0
 11
-117.6901279645612
 21
99.9997402212166
 31
0.0
  0
LINE
  5
204E
330
18
100
AcDbEntity
  8
DISEGNO
100
AcDbLine
 10
-152.9411279645614
 20
99.99974022121683
 30
0.0
 11
-160.1911279645614
 21
99.99974022121683
 31
0.0
  0
LINE
  5
204F
330
18
100
AcDbEntity
  8
DISEGNO
100
AcDbLine
 10
-153.6911279645615
 20
95.99974022121683
 30
0.0
 11
-160.1911279645614
 21
95.99974022121683
 31
0.0
  0
LINE
  5
2050
330
18
100
AcDbEntity
  8
DISEGNO
100
AcDbLine
 10
-159.1911279645614
 20
98.99974022121682
 30
0.0
 11
-160.1911279645614
 21
98.99974022121682
 31
0.0
  0
LINE
  5
2051
330
18
100
AcDbEntity
  8
DISEGNO
100
AcDbLine
 10
-159.1911279645614
 20
97.99974022121682
 30
0.0
 11
-160.1911279645614
 21
97.99974022121682
 31
0.0
  0
LINE
  5
2052
330
18
100
AcDbEntity
  8
DISEGNO
100
AcDbLine
 10
-160.1911279645614
 20
98.99974022121682
 30
0.0
 11
-160.1911279645614
 21
99.99974022121683
 31
0.0
  0
LINE
  5
2053
330
18
100
AcDbEntity
  8
DISEGNO
100
AcDbLine
 10
-159.1911279645614
 20
97.99974022121682
 30
0.0
 11
-159.1911279645614
 21
98.99974022121682
 31
0.0
  0
LINE
  5
2054
330
18
100
AcDbEntity
  8
DISEGNO
100
AcDbLine
 10
-160.1911279645614
 20
95.99974022121683
 30
0.0
 11
-160.1911279645614
 21
97.99974022121682
 31
0.0
  0
LINE
  5
2055
330
18
100
AcDbEntity
  8
DISEGNO
100
AcDbLine
 10
-169.1911279645615
 20
98.99974022121682
 30
0.0
 11
-168.1911279645615
 21
98.99974022121682
 31
0.0
  0
LINE
  5
2056
330
18
100
AcDbEntity
  8
DISEGNO
100
AcDbLine
 10
-169.1911279645615
 20
97.99974022121682
 30
0.0
 11
-168.1911279645615
 21
97.99974022121682
 31
0.0
  0
LINE
  5
2057
330
18
100
AcDbEntity
  8
DISEGNO
100
AcDbLine
 10
-168.1911279645615
 20
98.99974022121682
 30
0.0
 11
-168.1911279645615
 21
99.99974022121683
 31
0.0
  0
LINE
  5
2058
330
18
100
AcDbEntity
  8
DISEGNO
100
AcDbLine
 10
-169.1911279645615
 20
97.99974022121682
 30
0.0
 11
-169.1911279645615
 21
98.99974022121682
 31
0.0
  0
LINE
  5
2059
330
18
100
AcDbEntity
  8
DISEGNO
100
AcDbLine
 10
-168.1911279645615
 20
95.99974022121683
 30
0.0
 11
-168.1911279645615
 21
97.99974022121682
 31
0.0
  0
LINE
  5
205A
330
18
100
AcDbEntity
  8
DISEGNO
100
AcDbLine
 10
-167.6911279645614
 20
96.99974022121683
 30
0.0
 11
-160.6911279645615
 21
96.99974022121683
 31
0.0
  0
LINE
  5
205B
330
18
100
AcDbEntity
  8
DISEGNO
100
AcDbLine
 10
-167.6911279645614
 20
96.99974022121683
 30
0.0
 11
-167.6911279645614
 21
99.99974022121683
 31
0.0
  0
LINE
  5
205C
330
18
100
AcDbEntity
  8
DISEGNO
100
AcDbLine
 10
-160.6911279645615
 20
96.99974022121683
 30
0.0
 11
-160.6911279645615
 21
99.99974022121683
 31
0.0
  0
LINE
  5
205D
330
18
100
AcDbEntity
  8
DISEGNO
100
AcDbLine
 10
-150.4411279645615
 20
99.99974022121683
 30
0.0
 11
-143.1911279645615
 21
99.99974022121683
 31
0.0
  0
LINE
  5
205E
330
18
100
AcDbEntity
  8
DISEGNO
100
AcDbLine
 10
-149.6911279645614
 20
95.99974022121683
 30
0.0
 11
-143.1911279645615
 21
95.99974022121683
 31
0.0
  0
LINE
  5
205F
330
18
100
AcDbEntity
  8
DISEGNO
100
AcDbLine
 10
-150.4411279645615
 20
99.79974022121702
 30
0.0
 11
-150.4411279645615
 21
99.99974022121683
 31
0.0
  0
LINE
  5
2060
330
18
100
AcDbEntity
  8
DISEGNO
100
AcDbLine
 10
-152.9411279645614
 20
99.79974022121702
 30
0.0
 11
-152.9411279645614
 21
99.99974022121683
 31
0.0
  0
LINE
  5
2061
330
18
100
AcDbEntity
  8
DISEGNO
100
AcDbLine
 10
-152.9411279645614
 20
99.79974022121702
 30
0.0
 11
-150.4411279645615
 21
99.79974022121702
 31
0.0
  0
LINE
  5
2062
330
18
100
AcDbEntity
  8
DISEGNO
100
AcDbLine
 10
-144.1911279645615
 20
98.99974022121682
 30
0.0
 11
-143.1911279645615
 21
98.99974022121682
 31
0.0
  0
LINE
  5
2063
330
18
100
AcDbEntity
  8
DISEGNO
100
AcDbLine
 10
-144.1911279645615
 20
97.99974022121682
 30
0.0
 11
-143.1911279645615
 21
97.99974022121682
 31
0.0
  0
LINE
  5
2064
330
18
100
AcDbEntity
  8
DISEGNO
100
AcDbLine
 10
-143.1911279645615
 20
98.99974022121682
 30
0.0
 11
-143.1911279645615
 21
99.99974022121683
 31
0.0
  0
LINE
  5
2065
330
18
100
AcDbEntity
  8
DISEGNO
100
AcDbLine
 10
-144.1911279645615
 20
97.99974022121682
 30
0.0
 11
-144.1911279645615
 21
98.99974022121682
 31
0.0
  0
LINE
  5
2066
330
18
100
AcDbEntity
  8
DISEGNO
100
AcDbLine
 10
-143.1911279645615
 20
95.99974022121683
 30
0.0
 11
-143.1911279645615
 21
97.99974022121682
 31
0.0
  0
LINE
  5
2069
330
18
100
AcDbEntity
  8
DISEGNO
100
AcDbLine
 10
-125.4401279645612
 20
99.99974022121683
 30
0.0
 11
-118.1901279645612
 21
99.99974022121683
 31
0.0
  0
LINE
  5
206A
330
18
100
AcDbEntity
  8
DISEGNO
100
AcDbLine
 10
-124.6901279645612
 20
95.99974022121683
 30
0.0
 11
-118.1901279645612
 21
95.99974022121683
 31
0.0
  0
LINE
  5
206B
330
18
100
AcDbEntity
  8
DISEGNO
100
AcDbLine
 10
-125.4401279645612
 20
99.79974022121702
 30
0.0
 11
-127.9401279645612
 21
99.79974022121702
 31
0.0
  0
LINE
  5
206C
330
18
100
AcDbEntity
  8
DISEGNO
100
AcDbLine
 10
-125.4401279645612
 20
99.79974022121702
 30
0.0
 11
-125.4401279645612
 21
99.99974022121683
 31
0.0
  0
LINE
  5
206D
330
18
100
AcDbEntity
  8
DISEGNO
100
AcDbLine
 10
-127.9401279645612
 20
99.79974022121702
 30
0.0
 11
-127.9401279645612
 21
99.99974022121683
 31
0.0
  0
LINE
  5
206E
330
18
100
AcDbEntity
  8
DISEGNO
100
AcDbLine
 10
-134.1901279645612
 20
98.99974022121682
 30
0.0
 11
-135.1901279645612
 21
98.99974022121682
 31
0.0
  0
LINE
  5
206F
330
18
100
AcDbEntity
  8
DISEGNO
100
AcDbLine
 10
-134.1901279645612
 20
97.99974022121682
 30
0.0
 11
-135.1901279645612
 21
97.99974022121682
 31
0.0
  0
LINE
  5
2070
330
18
100
AcDbEntity
  8
DISEGNO
100
AcDbLine
 10
-135.1901279645612
 20
98.99974022121682
 30
0.0
 11
-135.1901279645612
 21
99.99974022121683
 31
0.0
  0
LINE
  5
2071
330
18
100
AcDbEntity
  8
DISEGNO
100
AcDbLine
 10
-134.1901279645612
 20
97.99974022121682
 30
0.0
 11
-134.1901279645612
 21
98.99974022121682
 31
0.0
  0
LINE
  5
2072
330
18
100
AcDbEntity
  8
DISEGNO
100
AcDbLine
 10
-135.1901279645612
 20
95.99974022121683
 30
0.0
 11
-135.1901279645612
 21
97.99974022121682
 31
0.0
  0
LINE
  5
2073
330
18
100
AcDbEntity
  8
DISEGNO
100
AcDbLine
 10
-128.6901279645612
 20
95.99974022121683
 30
0.0
 11
-135.1901279645612
 21
95.99974022121683
 31
0.0
  0
LINE
  5
2074
330
18
100
AcDbEntity
  8
DISEGNO
100
AcDbLine
 10
-127.9401279645612
 20
99.99974022121683
 30
0.0
 11
-135.1901279645612
 21
99.99974022121683
 31
0.0
  0
LINE
  5
2075
330
18
100
AcDbEntity
  8
DISEGNO
100
AcDbLine
 10
-109.1901279645612
 20
97.99974022121682
 30
0.0
 11
-109.1901279645612
 21
98.99974022121682
 31
0.0
  0
LINE
  5
2076
330
18
100
AcDbEntity
  8
DISEGNO
100
AcDbLine
 10
-110.1901279645612
 20
98.99974022121682
 30
0.0
 11
-110.1901279645612
 21
99.99974022121683
 31
0.0
  0
LINE
  5
2077
330
18
100
AcDbEntity
  8
DISEGNO
100
AcDbLine
 10
-109.1901279645612
 20
98.99974022121682
 30
0.0
 11
-110.1901279645612
 21
98.99974022121682
 31
0.0
  0
LINE
  5
2078
330
18
100
AcDbEntity
  8
DISEGNO
100
AcDbLine
 10
-109.1901279645612
 20
97.99974022121682
 30
0.0
 11
-110.1901279645612
 21
97.99974022121682
 31
0.0
  0
LINE
  5
2079
330
18
100
AcDbEntity
  8
DISEGNO
100
AcDbLine
 10
-110.1901279645612
 20
95.99974022121683
 30
0.0
 11
-110.1901279645612
 21
97.99974022121682
 31
0.0
  0
LINE
  5
207A
330
18
100
AcDbEntity
  8
DISEGNO
100
AcDbLine
 10
-110.1901279645612
 20
97.99974022121729
 30
0.0
 11
-110.1901279645612
 21
95.99974022121728
 31
0.0
  0
LINE
  5
207B
330
18
100
AcDbEntity
  8
DISEGNO
100
AcDbLine
 10
-119.1901279645612
 20
98.99974022121682
 30
0.0
 11
-118.1901279645612
 21
98.99974022121682
 31
0.0
  0
LINE
  5
207C
330
18
100
AcDbEntity
  8
DISEGNO
100
AcDbLine
 10
-119.1901279645612
 20
97.99974022121682
 30
0.0
 11
-118.1901279645612
 21
97.99974022121682
 31
0.0
  0
LINE
  5
207D
330
18
100
AcDbEntity
  8
DISEGNO
100
AcDbLine
 10
-118.1901279645612
 20
98.99974022121682
 30
0.0
 11
-118.1901279645612
 21
99.99974022121683
 31
0.0
  0
LINE
  5
207E
330
18
100
AcDbEntity
  8
DISEGNO
100
AcDbLine
 10
-119.1901279645612
 20
97.99974022121682
 30
0.0
 11
-119.1901279645612
 21
98.99974022121682
 31
0.0
  0
LINE
  5
207F
330
18
100
AcDbEntity
  8
DISEGNO
100
AcDbLine
 10
-118.1901279645612
 20
95.99974022121683
 30
0.0
 11
-118.1901279645612
 21
97.99974022121682
 31
0.0
  0
LINE
  5
2082
330
18
100
AcDbEntity
  8
DISEGNO
100
AcDbLine
 10
-110.6901279645613
 20
96.99974022121683
 30
0.0
 11
-110.6901279645613
 21
99.99974022121683
 31
0.0
  0
LINE
  5
2083
330
18
100
AcDbEntity
  8
DISEGNO
100
AcDbLine
 10
-117.6901279645612
 20
96.99974022121683
 30
0.0
 11
-110.6901279645613
 21
96.99974022121683
 31
0.0
  0
LINE
  5
2084
330
18
100
AcDbEntity
  8
DISEGNO
100
AcDbLine
 10
-117.6901279645612
 20
96.99974022121683
 30
0.0
 11
-117.6901279645612
 21
99.99974022121683
 31
0.0
  0
LINE
  5
2085
330
18
100
AcDbEntity
  8
DISEGNO
100
AcDbLine
 10
-71.31212796456157
 20
95.99974022121683
 30
0.0
 11
-81.19012796456127
 21
95.99974022121683
 31
0.0
  0
LINE
  5
2086
330
18
100
AcDbEntity
  8
DISEGNO
100
AcDbLine
 10
-89.19012796456128
 20
99.99974022121683
 30
0.0
 11
-89.19012796456128
 21
112.999740221217
 31
0.0
  0
LINE
  5
2087
330
18
100
AcDbEntity
  8
DISEGNO
100
AcDbLine
 10
-105.4401279645613
 20
110.1997402212166
 30
0.0
 11
-105.4401279645613
 21
104.4997402212168
 31
0.0
  0
LINE
  5
2088
330
18
100
AcDbEntity
  8
DISEGNO
100
AcDbLine
 10
-89.19012796456128
 20
99.99974022121683
 30
0.0
 11
-98.44012796456127
 21
99.99974022121683
 31
0.0
  0
LINE
  5
2089
330
18
100
AcDbEntity
  8
DISEGNO
100
AcDbLine
 10
-103.1901279645621
 20
104.499740221217
 30
0.0
 11
-103.1901279645612
 21
99.99974022121683
 31
0.0
  0
ARC
  5
208A
330
18
100
AcDbEntity
  8
DISEGNO
100
AcDbCircle
 10
-95.16612796456184
 20
96.7337402212172
 30
0.0
 40
1.0
100
AcDbArc
 50
250.2090000000059
 51
298.3990000000254
  0
LINE
  5
208B
330
18
100
AcDbEntity
  8
DISEGNO
100
AcDbLine
 10
-100.9401279645612
 20
99.79974022121702
 30
0.0
 11
-98.44012796456127
 21
99.79974022121702
 31
0.0
  0
LINE
  5
208C
330
18
100
AcDbEntity
  8
DISEGNO
100
AcDbLine
 10
-100.9401279645612
 20
99.79974022121702
 30
0.0
 11
-100.9401279645612
 21
99.99974022121683
 31
0.0
  0
LINE
  5
208D
330
18
100
AcDbEntity
  8
DISEGNO
100
AcDbLine
 10
-98.44012796456127
 20
99.79974022121702
 30
0.0
 11
-98.44012796456127
 21
99.99974022121683
 31
0.0
  0
ARC
  5
208E
330
18
100
AcDbEntity
  8
DISEGNO
100
AcDbCircle
 10
-92.45512796456159
 20
94.02274022121696
 30
0.0
 40
1.0
100
AcDbArc
 50
151.6025000000072
 51
199.7909999999977
  0
ARC
  5
208F
330
18
100
AcDbEntity
  8
DISEGNO
100
AcDbCircle
 10
-94.2151279645609
 20
94.97474022121719
 30
0.0
 40
1.0
100
AcDbArc
 50
331.602000000006
 51
118.3991000000073
  0
LINE
  5
2090
330
18
100
AcDbEntity
  8
DISEGNO
100
AcDbLine
 10
-94.44012796456126
 20
104.4997402212163
 30
0.0
 11
-105.4401279645613
 21
104.4997402212163
 31
0.0
  0
LINE
  5
2091
330
18
100
AcDbEntity
  8
DISEGNO
100
AcDbLine
 10
-93.94012796456127
 20
103.9997402212168
 30
0.0
 11
-93.94012796456127
 21
99.99974022121683
 31
0.0
  0
ARC
  5
2092
330
18
100
AcDbEntity
  8
DISEGNO
100
AcDbCircle
 10
-94.44012796456126
 20
103.9997402212168
 30
0.0
 40
0.5
100
AcDbArc
 50
0.0
 51
90.0
  0
ARC
  5
2093
330
18
100
AcDbEntity
  8
DISEGNO
100
AcDbCircle
 10
-81.19012796456127
 20
93.99974022121682
 30
0.0
 40
2.0
100
AcDbArc
 50
90.00003072459547
 51
180.0
  0
ARC
  5
2094
330
18
100
AcDbEntity
  8
DISEGNO
100
AcDbCircle
 10
-90.69012796456126
 20
98.49974022121683
 30
0.0
 40
1.5
100
AcDbArc
 50
0.0
 51
90.00001072459346
  0
LINE
  5
2095
330
18
100
AcDbEntity
  8
DISEGNO
100
AcDbLine
 10
-61.18912796456197
 20
95.99974022121683
 30
0.0
 11
-71.31212796456157
 21
95.99974022121683
 31
0.0
  0
LINE
  5
2096
330
18
100
AcDbEntity
  8
DISEGNO
100
AcDbLine
 10
-62.69012796456127
 20
95.99974022121683
 30
0.0
 11
-69.39012796456109
 21
95.99974022121683
 31
0.0
  0
LINE
  5
2097
330
18
100
AcDbEntity
  8
DISEGNO
100
AcDbLine
 10
-51.18912796456107
 20
50.99974022121682
 30
0.0
 11
-51.18912796456107
 21
114.9997402212168
 31
0.0
  0
LINE
  5
2098
330
18
100
AcDbEntity
  8
DISEGNO
100
AcDbLine
 10
-66.18912796456107
 20
95.99974022121704
 30
0.0
 11
-66.18912796456107
 21
114.9997402212168
 31
0.0
  0
LINE
  5
20C3
330
18
100
AcDbEntity
  8
ASSI
100
AcDbLine
 10
-907.4460805368797
 20
-267.5044008663879
 30
0.0
 11
-907.4460805368797
 21
-244.7025554794716
 31
0.0
  0
LINE
  5
2102
330
18
100
AcDbEntity
  8
ASSI
100
AcDbLine
 10
-677.4460805368824
 20
-267.5044008663879
 30
0.0
 11
-677.4460805368824
 21
-244.7025554794716
 31
0.0
  0
LINE
  5
2104
330
18
100
AcDbEntity
  8
ASSI
100
AcDbLine
 10
-907.4460805368797
 20
-405.7025308719984
 30
0.0
 11
-907.4460805368797
 21
-428.5043762589147
 31
0.0
  0
LINE
  5
2106
330
18
100
AcDbEntity
  8
ASSI
100
AcDbLine
 10
-677.4460805368824
 20
-405.7025308719984
 30
0.0
 11
-677.4460805368824
 21
-428.5043762589147
 31
0.0
  0
LINE
  5
215E
330
18
100
AcDbEntity
  8
ASSI
100
AcDbLine
 10
-1117.446080536878
 20
-267.6415904150488
 30
0.0
 11
-1117.446080536878
 21
-244.8397450281325
 31
0.0
  0
LINE
  5
2184
330
18
100
AcDbEntity
  8
ASSI
100
AcDbLine
 10
-642.0515611877115
 20
121.6502327648693
 30
0.0
 11
-642.0515611877106
 21
150.4813447982967
 31
0.0
  0
LINE
  5
2192
330
18
100
AcDbEntity
  8
ASSI
100
AcDbLine
 10
-712.0515611877106
 20
121.6502327648693
 30
0.0
 11
-712.0515611877096
 21
150.4813447982967
 31
0.0
  0
LINE
  5
21A0
330
18
100
AcDbEntity
  8
ASSI
100
AcDbLine
 10
-872.051561187712
 20
121.6502327648693
 30
0.0
 11
-872.0515611877111
 21
150.4813447982967
 31
0.0
  0
LINE
  5
21AE
330
18
100
AcDbEntity
  8
ASSI
100
AcDbLine
 10
-942.0515611877124
 20
121.6502327648693
 30
0.0
 11
-942.0515611877116
 21
150.4813447982967
 31
0.0
  0
LINE
  5
21B0
330
18
100
AcDbEntity
  8
ASSI
100
AcDbLine
 10
-320.9679464661813
 20
74.99974022121683
 30
0.0
 11
-1351.445815225107
 21
74.99974022121683
 31
0.0
  0
LINE
  5
21B1
330
18
100
AcDbEntity
  8
ASSI
100
AcDbLine
 10
-1452.664643031822
 20
74.99974022121683
 30
0.0
 11
-1658.123760937737
 21
74.99974022121683
 31
0.0
  0
LINE
  5
21B2
330
18
100
AcDbEntity
  8
ASSI
100
AcDbLine
 10
-321.7233130207314
 20
24.99974022121683
 30
0.0
 11
-1351.445815225107
 21
24.99974022121683
 31
0.0
  0
LINE
  5
21F4
330
18
100
AcDbEntity
  8
ASSI
100
AcDbLine
 10
-792.9460406108039
 20
134.1581851972825
 30
0.0
 11
-792.9460406108039
 21
251.8418148027163
 31
0.0
  0
LINE
  5
21F5
330
18
100
AcDbEntity
  8
ASSI
100
AcDbLine
 10
-762.8940024103756
 20
173.4672665551234
 30
0.0
 11
-762.8940024103756
 21
152.4286570440176
 31
0.0
  0
CIRCLE
  5
21F6
330
18
100
AcDbEntity
  8
TRATTEGGI
100
AcDbCircle
 10
-762.8940024103756
 20
162.9479617995711
 30
0.0
 40
7.0
  0
LINE
  5
21F7
330
18
100
AcDbEntity
  8
ASSI
100
AcDbLine
 10
-737.9460406108039
 20
175.6788727468045
 30
0.0
 11
-737.9460406108039
 21
152.3349710690752
 31
0.0
  0
LINE
  5
21F8
330
18
100
AcDbEntity
  8
ASSI
100
AcDbLine
 10
-822.9980788112323
 20
173.4672665551234
 30
0.0
 11
-822.9980788112323
 21
152.4286570440176
 31
0.0
  0
CIRCLE
  5
21F9
330
18
100
AcDbEntity
  8
TRATTEGGI
100
AcDbCircle
 10
-822.9980788112323
 20
162.9479617995711
 30
0.0
 40
7.0
  0
LINE
  5
21FA
330
18
100
AcDbEntity
  8
ASSI
100
AcDbLine
 10
-847.9460406108039
 20
175.6788727468045
 30
0.0
 11
-847.9460406108039
 21
152.3349710690752
 31
0.0
  0
LINE
  5
21FB
330
18
100
AcDbEntity
  8
ASSI
100
AcDbLine
 10
-734.1042258080872
 20
192.9999999999994
 30
0.0
 11
-851.7878554135211
 21
192.9999999999992
 31
0.0
  0
CIRCLE
  5
21FC
330
18
100
AcDbEntity
  8
DISEGNO
100
AcDbCircle
 10
-792.9460406108039
 20
192.9999999999994
 30
0.0
 40
28.25000000000841
  0
CIRCLE
  5
21FD
330
18
100
AcDbEntity
  8
DISEGNO
100
AcDbCircle
 10
-792.9460406108039
 20
192.9999999999994
 30
0.0
 40
35.0
  0
CIRCLE
  5
21FE
330
18
100
AcDbEntity
  8
TRATTEGGI
100
AcDbCircle
 10
-822.9980788112323
 20
223.0520382004279
 30
0.0
 40
7.0
  0
LINE
  5
21FF
330
18
100
AcDbEntity
  8
ASSI
100
AcDbLine
 10
-822.9980788112323
 20
212.532733444875
 30
0.0
 11
-822.9980788112323
 21
233.5713429559807
 31
0.0
  0
LINE
  5
2200
330
18
100
AcDbEntity
  8
ASSI
100
AcDbLine
 10
-847.9460406108039
 20
210.3211272531942
 30
0.0
 11
-847.9460406108039
 21
233.6650289309235
 31
0.0
  0
LINE
  5
2201
330
18
100
AcDbEntity
  8
ASSI
100
AcDbLine
 10
-812.4787740556795
 20
162.9479617995705
 30
0.0
 11
-833.5173835667854
 21
162.9479617995705
 31
0.0
  0
CIRCLE
  5
2202
330
18
100
AcDbEntity
  8
DISEGNO
100
AcDbCircle
 10
-822.9980788112355
 20
162.9479617995711
 30
0.0
 40
4.5
  0
LINE
  5
2203
330
18
100
AcDbEntity
  8
ASSI
100
AcDbLine
 10
-856.8515305340108
 20
162.9999999999993
 30
0.0
 11
-839.0731776408241
 21
162.9999999999993
 31
0.0
  0
CIRCLE
  5
2204
330
18
100
AcDbEntity
  8
DISEGNO
100
AcDbCircle
 10
-822.9980788112355
 20
223.0520382004279
 30
0.0
 40
4.5
  0
LINE
  5
2205
330
18
100
AcDbEntity
  8
ASSI
100
AcDbLine
 10
-812.4787740556795
 20
223.0520382004279
 30
0.0
 11
-833.5173835667854
 21
223.0520382004279
 31
0.0
  0
LINE
  5
2206
330
18
100
AcDbEntity
  8
ASSI
100
AcDbLine
 10
-856.8515305340108
 20
222.9999999999994
 30
0.0
 11
-839.0731776408241
 21
222.9999999999994
 31
0.0
  0
CIRCLE
  5
2207
330
18
100
AcDbEntity
  8
TRATTEGGI
100
AcDbCircle
 10
-762.8940024103756
 20
223.0520382004279
 30
0.0
 40
7.0
  0
LINE
  5
2208
330
18
100
AcDbEntity
  8
ASSI
100
AcDbLine
 10
-762.8940024103756
 20
212.532733444875
 30
0.0
 11
-762.8940024103756
 21
233.5713429559807
 31
0.0
  0
LINE
  5
2209
330
18
100
AcDbEntity
  8
ASSI
100
AcDbLine
 10
-737.9460406108039
 20
210.3211272531942
 30
0.0
 11
-737.9460406108039
 21
233.6650289309235
 31
0.0
  0
LINE
  5
220A
330
18
100
AcDbEntity
  8
ASSI
100
AcDbLine
 10
-729.040550687597
 20
162.9999999999993
 30
0.0
 11
-746.8189035807839
 21
162.9999999999993
 31
0.0
  0
LINE
  5
220B
330
18
100
AcDbEntity
  8
ASSI
100
AcDbLine
 10
-773.4133071659287
 20
162.9479617995705
 30
0.0
 11
-752.3746976548229
 21
162.9479617995705
 31
0.0
  0
CIRCLE
  5
220C
330
18
100
AcDbEntity
  8
DISEGNO
100
AcDbCircle
 10
-762.8940024103756
 20
162.9479617995711
 30
0.0
 40
4.5
  0
LINE
  5
220D
330
18
100
AcDbEntity
  8
ASSI
100
AcDbLine
 10
-729.040550687597
 20
222.9999999999994
 30
0.0
 11
-746.8189035807839
 21
222.9999999999994
 31
0.0
  0
CIRCLE
  5
220E
330
18
100
AcDbEntity
  8
DISEGNO
100
AcDbCircle
 10
-762.8940024103756
 20
223.0520382004279
 30
0.0
 40
4.5
  0
LINE
  5
220F
330
18
100
AcDbEntity
  8
ASSI
100
AcDbLine
 10
-773.4133071659287
 20
223.0520382004279
 30
0.0
 11
-752.3746976548229
 21
223.0520382004279
 31
0.0
  0
LINE
  5
2224
330
18
100
AcDbEntity
  8
DISEGNO
100
AcDbLine
 10
-858.4460406108041
 20
128.9999999999993
 30
0.0
 11
-858.4460406108041
 21
153.9999999999943
 31
0.0
  0
LINE
  5
2225
330
18
100
AcDbEntity
  8
DISEGNO
100
AcDbLine
 10
-727.4460406108042
 20
128.9999999999993
 30
0.0
 11
-727.4460406108042
 21
153.9999999999943
 31
0.0
  0
LINE
  5
2226
330
18
100
AcDbEntity
  8
DISEGNO
100
AcDbLine
 10
-858.4460406108041
 20
139.0000000000002
 30
0.0
 11
-967.9460406108042
 21
139.0000000000002
 31
0.0
  0
LINE
  5
2228
330
18
100
AcDbEntity
  8
DISEGNO
100
AcDbLine
 10
-858.4460406108041
 20
-291.6034658691928
 30
0.0
 11
-858.4460406108043
 21
-246.6034658691931
 31
0.0
  0
LINE
  5
2229
330
18
100
AcDbEntity
  8
DISEGNO
100
AcDbLine
 10
-727.4460406108041
 20
-291.6034658691928
 30
0.0
 11
-727.4460406108044
 21
-246.6034658691931
 31
0.0
  0
LINE
  5
222A
330
18
100
AcDbEntity
  8
DISEGNO
100
AcDbLine
 10
-863.4460406108043
 20
-241.6034658691931
 30
0.0
 11
-962.9460406108043
 21
-241.6034658691932
 31
0.0
  0
LINE
  5
222B
330
18
100
AcDbEntity
  8
DISEGNO
100
AcDbLine
 10
-863.4460406108043
 20
-241.6034658691931
 30
0.0
 11
-858.4460406108043
 21
-246.6034658691931
 31
0.0
  0
LINE
  5
222C
330
18
100
AcDbEntity
  8
DISEGNO
100
AcDbLine
 10
-722.4460406108043
 20
-241.6034658691931
 30
0.0
 11
-727.4460406108044
 21
-246.6034658691931
 31
0.0
  0
LINE
  5
222D
330
18
100
AcDbEntity
  8
DISEGNO
100
AcDbLine
 10
-962.9460406108043
 20
-241.6034658691932
 30
0.0
 11
-967.9460406108043
 21
-246.6034658691932
 31
0.0
  0
LINE
  5
222E
330
18
100
AcDbEntity
  8
DISEGNO
100
AcDbLine
 10
-967.9460406108043
 20
-426.6034658691931
 30
0.0
 11
-962.9460406108043
 21
-431.6034658691931
 31
0.0
  0
LINE
  5
222F
330
18
100
AcDbEntity
  8
DISEGNO
100
AcDbLine
 10
-622.9460406108041
 20
-431.6034658691931
 30
0.0
 11
-617.9460406108042
 21
-426.6034658691931
 31
0.0
  0
LINE
  5
2230
330
18
100
AcDbEntity
  8
DISEGNO
100
AcDbLine
 10
-622.946040610804
 20
-241.6034658691931
 30
0.0
 11
-617.9460406108041
 21
-246.6034658691931
 31
0.0
  0
LINE
  5
2231
330
18
100
AcDbEntity
  8
DISEGNO
100
AcDbLine
 10
-858.4460406108041
 20
-381.6034658691944
 30
0.0
 11
-858.4460406108043
 21
-426.603465869194
 31
0.0
  0
LINE
  5
2232
330
18
100
AcDbEntity
  8
DISEGNO
100
AcDbLine
 10
-863.4460406108043
 20
-431.603465869194
 30
0.0
 11
-858.4460406108043
 21
-426.603465869194
 31
0.0
  0
LINE
  5
2233
330
18
100
AcDbEntity
  8
DISEGNO
100
AcDbLine
 10
-727.4460406108041
 20
-381.6034658691944
 30
0.0
 11
-727.4460406108044
 21
-426.603465869194
 31
0.0
  0
LINE
  5
2234
330
18
100
AcDbEntity
  8
DISEGNO
100
AcDbLine
 10
-722.4460406108043
 20
-431.603465869194
 30
0.0
 11
-727.4460406108044
 21
-426.603465869194
 31
0.0
  0
LINE
  5
2235
330
18
100
AcDbEntity
  8
DISEGNO
100
AcDbLine
 10
-863.4460406108033
 20
-431.6034658691932
 30
0.0
 11
-962.9460406108043
 21
-431.6034658691931
 31
0.0
  0
ENDSEC
  0
SECTION
  2
OBJECTS
  0
DICTIONARY
  5
C
330
0
100
AcDbDictionary
281
     1
  3
ACAD_COLOR
350
2262
  3
ACAD_GROUP
350
D
  3
ACAD_LAYOUT
350
A23
  3
ACAD_MATERIAL
350
2238
  3
ACAD_MLEADERSTYLE
350
2287
  3
ACAD_MLINESTYLE
350
1B
  3
ACAD_PLOTSETTINGS
350
A24
  3
ACAD_PLOTSTYLENAME
350
A21
  3
ACAD_SCALELIST
350
2265
  3
ACAD_TABLESTYLE
350
2263
  3
ACAD_VISUALSTYLE
350
2251
  3
ACDB_RECOMPOSE_DATA
350
2296
  3
AcDbVariableDictionary
350
20A5
  3
ACGREF_MASTER
350
A3E
  3
ACGREFACAD_MASTER
350
A42
  3
AcmDictionary
350
A44
  3
ACME_BOM_MANAGER_NAME
350
A37
  3
ACME_COMMAND_HISTORY
350
A32
  3
ACME_SCOPE_NAME
350
A31
  3
ACMESTATEMGR
350
A3C
  3
AcmeSysVarManager
350
A33
  3
AcmSystemVariableManager
350
A48
  3
AMG
350
A2A
  3
AMGSNAPSETTINGS
350
A77
  3
AMI_MASTER
350
A43
  0
DICTIONARY
  5
209A
330
18
100
AcDbDictionary
280
     1
281
     1
  3
ACAD_INDEX
360
209B
  0
DICTIONARY
  5
2262
102
{ACAD_REACTORS
330
C
102
}
330
C
100
AcDbDictionary
281
     1
  0
DICTIONARY
  5
D
102
{ACAD_REACTORS
330
C
102
}
330
C
100
AcDbDictionary
281
     1
  0
DICTIONARY
  5
A23
102
{ACAD_REACTORS
330
C
102
}
330
C
100
AcDbDictionary
281
     1
  3
Layout1
350
A26
  3
Model
350
A25
  0
DICTIONARY
  5
2238
102
{ACAD_REACTORS
330
C
102
}
330
C
100
AcDbDictionary
281
     1
  3
ByBlock
350
2241
  3
ByLayer
350
2239
  3
Global
350
2249
  0
DICTIONARY
  5
2287
102
{ACAD_REACTORS
330
C
102
}
330
C
100
AcDbDictionary
281
     1
  3
Standard
350
2288
  0
DICTIONARY
  5
1B
102
{ACAD_REACTORS
330
C
102
}
330
C
100
AcDbDictionary
281
     1
  3
STANDARD
350
1C
  0
DICTIONARY
  5
A24
102
{ACAD_REACTORS
330
C
102
}
330
C
100
AcDbDictionary
281
     1
  0
ACDBDICTIONARYWDFLT
  5
A21
102
{ACAD_REACTORS
330
C
102
}
330
C
100
AcDbDictionary
281
     1
  3
Normal
350
A22
100
AcDbDictionaryWithDefault
340
A22
  0
DICTIONARY
  5
2265
102
{ACAD_REACTORS
330
C
102
}
330
C
100
AcDbDictionary
281
     1
  3
A0
350
2266
  3
A1
350
2267
  3
A2
350
2268
  3
A3
350
2269
  3
A4
350
226A
  3
A5
350
226B
  3
A6
350
226C
  3
A7
350
226D
  3
A8
350
226E
  3
A9
350
226F
  3
B0
350
2270
  3
B1
350
2271
  3
B2
350
2272
  3
B3
350
2273
  3
B4
350
2274
  3
B5
350
2275
  3
B6
350
2276
  3
B7
350
2277
  3
B8
350
2278
  3
B9
350
2279
  3
C0
350
227A
  3
C1
350
227B
  3
C2
350
227C
  3
C3
350
227D
  3
C4
350
227E
  3
C5
350
227F
  3
C6
350
2280
  3
C7
350
2281
  3
C8
350
2282
  3
C9
350
2283
  3
D0
350
2284
  3
D1
350
2285
  3
D2
350
2286
  0
DICTIONARY
  5
2263
102
{ACAD_REACTORS
330
C
102
}
330
C
100
AcDbDictionary
281
     1
  3
Standard
350
2264
  0
DICTIONARY
  5
2251
102
{ACAD_REACTORS
330
C
102
}
330
C
100
AcDbDictionary
281
     1
  3
2dWireframe
350
2257
  3
3D Hidden
350
2259
  3
3dWireframe
350
2258
  3
Basic
350
2256
  3
Brighten
350
225D
  3
ColorChange
350
2261
  3
Conceptual
350
225A
  3
Dim
350
225C
  3
Facepattern
350
2260
  3
Flat
350
2252
  3
FlatWithEdges
350
2253
  3
Gouraud
350
2254
  3
GouraudWithEdges
350
2255
  3
Linepattern
350
225F
  3
Realistic
350
225B
  3
Thicken
350
225E
  0
XRECORD
  5
2296
102
{ACAD_REACTORS
330
C
102
}
330
C
100
AcDbXrecord
280
     1
 90
        1
330
2264
  0
DICTIONARY
  5
20A5
102
{ACAD_REACTORS
330
C
102
}
330
C
100
AcDbDictionary
281
     1
  3
CANNOSCALE
350
2293
  3
CMLEADERSTYLE
350
2292
  3
CTABLESTYLE
350
2291
  3
DIMASSOC
350
20A7
  3
INDEXCTL
350
20A6
  0
ACAD_PROXY_OBJECT
  5
A3E
102
{ACAD_REACTORS
330
C
102
}
330
C
100
AcDbProxyObject
 90
      499
 91
      517
 95
   851991
 70
     0
 93
       34
310
040000428C
 94
        0
  0
ACAD_PROXY_OBJECT
  5
A42
102
{ACAD_REACTORS
330
C
102
}
330
C
100
AcDbProxyObject
 90
      499
 91
      520
 95
   851991
 70
     0
 93
      114
310
04000041C00000000000000000000C
 94
        0
  0
DICTIONARY
  5
A44
102
{ACAD_REACTORS
330
C
102
}
330
C
100
AcDbDictionary
281
     1
  3
AcmBOMDATA
350
A45
  3
AcmStdDictionary
350
A4A
  0
ACAD_PROXY_OBJECT
  5
A37
102
{ACAD_REACTORS
330
C
102
}
330
C
100
AcDbProxyObject
 90
      499
 91
      511
 95
   851991
 70
     0
 93
       50
310
0001004040000C
330
0
330
0
330
A38
 94
        0
  0
ACAD_PROXY_OBJECT
  5
A32
102
{ACAD_REACTORS
330
C
102
}
330
C
100
AcDbProxyObject
 90
      499
 91
      507
 95
   851991
 70
     0
 93
     3826
310
47805045452494D40405184D5347202D20436F6D6D616E642043414E43454C4C45442E01411312539150101461354D1C80B4810DBDB5B585B990810D05390D1531311510B8050350414E805045452494D40405184D5347202D20436F6D6D616E642043414E43454C4C45442E014151549054D160140D41053A014110D3D416
310
60140D41053A01411514925350101461354D1C80B4810DBDB5B585B990810D05390D1531311510B80506455854454E4440405184D5347202D20436F6D6D616E642043414E43454C4C45442E014191561511539110101461354D1C80B4810DBDB5B585B990810D05390D1531311510B80505425245414B805074348414D4645
310
52805074348414D464552805074348414D464552805074348414D464552805074348414D464552805074348414D4645528050C475249505F535452455443488050C475249505F535452455443488050C475249505F535452455443488050C475249505F535452455443488050C475249505F535452455443488050350414E8
310
05064D4952524F5240405184D5347202D20436F6D6D616E642043414E43454C4C45442E01419352549493D4A01411514925350101461354D1C80B4810DBDB5B585B990810D05390D1531311510B8050350414E805045A4F4F4D8050551534156458C
 94
        0
  0
ACAD_PROXY_OBJECT
  5
A31
102
{ACAD_REACTORS
330
C
102
}
330
C
100
AcDbProxyObject
 90
      499
 91
      506
 95
   851991
 70
     0
 93
      218
310
060000444000000000000000000010641E000000000000AAA406AA8C
360
A34
360
A35
360
A36
360
A38
360
A49
360
1CD5
 94
        0
  0
ACAD_PROXY_OBJECT
  5
A3C
102
{ACAD_REACTORS
330
C
102
}
330
C
100
AcDbProxyObject
 90
      499
 91
      516
 95
   851991
 70
     0
 93
       50
310
0600004164128C
 94
        0
  0
ACAD_PROXY_OBJECT
  5
A33
102
{ACAD_REACTORS
330
C
102
}
330
C
100
AcDbProxyObject
 90
      499
 91
      508
 95
   851991
 70
     0
 93
       48
310
90341200000034
330
A34
330
A35
330
A36
 94
        0
  0
ACAD_PROXY_OBJECT
  5
A48
102
{ACAD_REACTORS
330
C
102
}
330
C
100
AcDbProxyObject
 90
      499
 91
      508
 95
   851991
 70
     0
 93
       32
310
90140A00DB
330
A49
 94
        0
  0
DICTIONARY
  5
A2A
102
{ACAD_REACTORS
330
C
102
}
330
C
100
AcDbDictionary
281
     1
  3
AcMgSettings
350
A2B
  3
AMGLAYCFG
350
A4C
  0
DICTIONARY
  5
A77
102
{ACAD_REACTORS
330
C
102
}
330
C
100
AcDbDictionary
281
     1
  3
DIMENSION
350
A7C
  3
FEA
350
A7B
  3
HATCH (1)
350
A78
  3
HATCH (2)
350
A79
  3
SIMPLE WELD
350
A7D
  3
SYMBOLS
350
A7A
  0
ACAD_PROXY_OBJECT
  5
A43
102
{ACAD_REACTORS
330
C
102
}
330
C
100
AcDbProxyObject
 90
      499
 91
      521
 95
   851991
 70
     0
 93
       34
310
050000428C
 94
        0
  0
DICTIONARY
  5
209B
102
{ACAD_REACTORS
330
209A
102
}
330
209A
100
AcDbDictionary
281
     1
  3
*A1
350
209C
  0
LAYOUT
  5
A26
102
{ACAD_REACTORS
330
A23
102
}
330
A23
100
AcDbPlotSettings
  1

  2
C:\Programmi\Acadm 6\plotters\Cadjet 2.pc3
  4

  6

 40
0.0
 41
0.0
 42
0.0
 43
0.0
 44
0.0
 45
0.0
 46
0.0
 47
0.0
 48
0.0
 49
0.0
140
0.0
141
0.0
142
1.0
143
1.0
 70
   688
 72
     0
 73
     0
 74
     5
  7

 75
    16
147
1.0
 76
     0
 77
     2
 78
   300
148
0.0
149
0.0
100
AcDbLayout
  1
Layout1
 70
     1
 71
     1
 10
0.0
 20
0.0
 11
420.0
 21
297.0
 12
0.0
 22
0.0
 32
0.0
 14
1.000000000000000E+20
 24
1.000000000000000E+20
 34
1.000000000000000E+20
 15
-1.000000000000000E+20
 25
-1.000000000000000E+20
 35
-1.000000000000000E+20
146
0.0
 13
0.0
 23
0.0
 33
0.0
 16
1.0
 26
0.0
 36
0.0
 17
0.0
 27
1.0
 37
0.0
 76
     0
330
15
  0
LAYOUT
  5
A25
102
{ACAD_REACTORS
330
A23
102
}
330
A23
100
AcDbPlotSettings
  1

  2
C:\Programmi\Acadm 6\plotters\Cadjet 2.pc3
  4

  6

 40
0.0
 41
0.0
 42
0.0
 43
0.0
 44
0.0
 45
0.0
 46
0.0
 47
0.0
 48
0.0
 49
0.0
140
0.0
141
0.0
142
1.0
143
1.0
 70
  1712
 72
     0
 73
     0
 74
     0
  7

 75
     0
147
1.0
 76
     0
 77
     2
 78
   300
148
0.0
149
0.0
100
AcDbLayout
  1
Model
 70
     1
 71
     0
 10
0.0
 20
0.0
 11
12.0
 21
9.0
 12
0.0
 22
0.0
 32
0.0
 14
0.0
 24
0.0
 34
0.0
 15
0.0
 25
0.0
 35
0.0
146
0.0
 13
0.0
 23
0.0
 33
0.0
 16
1.0
 26
0.0
 36
0.0
 17
0.0
 27
1.0
 37
0.0
 76
     0
330
18
331
2236
  0
MATERIAL
  5
2241
102
{ACAD_XDICTIONARY
360
2242
102
}
102
{ACAD_REACTORS
330
2238
102
}
330
2238
100
AcDbMaterial
  1
ByBlock
 72
     0
 43
0.0208333333333333
 43
0.0
 43
0.0
 43
0.0
 43
0.0
 43
0.0208333333333333
 43
0.0
 43
0.0
 43
0.0
 43
0.0
 43
1.0
 43
0.0
 43
0.0
 43
0.0
 43
0.0
 43
1.0
 77
     0
 47
0.0208333333333333
 47
0.0
 47
0.0
 47
0.0
 47
0.0
 47
0.0208333333333333
 47
0.0
 47
0.0
 47
0.0
 47
0.0
 47
1.0
 47
0.0
 47
0.0
 47
0.0
 47
0.0
 47
1.0
171
     0
 49
0.0208333333333333
 49
0.0
 49
0.0
 49
0.0
 49
0.0
 49
0.0208333333333333
 49
0.0
 49
0.0
 49
0.0
 49
0.0
 49
1.0
 49
0.0
 49
0.0
 49
0.0
 49
0.0
 49
1.0
175
     0
142
0.0208333333333333
142
0.0
142
0.0
142
0.0
142
0.0
142
0.0208333333333333
142
0.0
142
0.0
142
0.0
142
0.0
142
1.0
142
0.0
142
0.0
142
0.0
142
0.0
142
1.0
179
     0
144
0.0208333333333333
144
0.0
144
0.0
144
0.0
144
0.0
144
0.0208333333333333
144
0.0
144
0.0
144
0.0
144
0.0
144
1.0
144
0.0
144
0.0
144
0.0
144
0.0
144
1.0
147
0.0208333333333333
147
0.0
147
0.0
147
0.0
147
0.0
147
0.0208333333333333
147
0.0
147
0.0
147
0.0
147
0.0
147
1.0
147
0.0
147
0.0
147
0.0
147
0.0
147
1.0
  0
MATERIAL
  5
2239
102
{ACAD_XDICTIONARY
360
223A
102
}
102
{ACAD_REACTORS
330
2238
102
}
330
2238
100
AcDbMaterial
  1
ByLayer
 72
     0
 43
0.0208333333333333
 43
0.0
 43
0.0
 43
0.0
 43
0.0
 43
0.0208333333333333
 43
0.0
 43
0.0
 43
0.0
 43
0.0
 43
1.0
 43
0.0
 43
0.0
 43
0.0
 43
0.0
 43
1.0
 77
     0
 47
0.0208333333333333
 47
0.0
 47
0.0
 47
0.0
 47
0.0
 47
0.0208333333333333
 47
0.0
 47
0.0
 47
0.0
 47
0.0
 47
1.0
 47
0.0
 47
0.0
 47
0.0
 47
0.0
 47
1.0
171
     0
 49
0.0208333333333333
 49
0.0
 49
0.0
 49
0.0
 49
0.0
 49
0.0208333333333333
 49
0.0
 49
0.0
 49
0.0
 49
0.0
 49
1.0
 49
0.0
 49
0.0
 49
0.0
 49
0.0
 49
1.0
175
     0
142
0.0208333333333333
142
0.0
142
0.0
142
0.0
142
0.0
142
0.0208333333333333
142
0.0
142
0.0
142
0.0
142
0.0
142
1.0
142
0.0
142
0.0
142
0.0
142
0.0
142
1.0
179
     0
144
0.0208333333333333
144
0.0
144
0.0
144
0.0
144
0.0
144
0.0208333333333333
144
0.0
144
0.0
144
0.0
144
0.0
144
1.0
144
0.0
144
0.0
144
0.0
144
0.0
144
1.0
147
0.0208333333333333
147
0.0
147
0.0
147
0.0
147
0.0
147
0.0208333333333333
147
0.0
147
0.0
147
0.0
147
0.0
147
1.0
147
0.0
147
0.0
147
0.0
147
0.0
147
1.0
  0
MATERIAL
  5
2249
102
{ACAD_XDICTIONARY
360
224A
102
}
102
{ACAD_REACTORS
330
2238
102
}
330
2238
100
AcDbMaterial
  1
Global
 72
     0
 43
0.0208333333333333
 43
0.0
 43
0.0
 43
0.0
 43
0.0
 43
0.0208333333333333
 43
0.0
 43
0.0
 43
0.0
 43
0.0
 43
1.0
 43
0.0
 43
0.0
 43
0.0
 43
0.0
 43
1.0
 77
     0
 47
0.0208333333333333
 47
0.0
 47
0.0
 47
0.0
 47
0.0
 47
0.0208333333333333
 47
0.0
 47
0.0
 47
0.0
 47
0.0
 47
1.0
 47
0.0
 47
0.0
 47
0.0
 47
0.0
 47
1.0
171
     0
 49
0.0208333333333333
 49
0.0
 49
0.0
 49
0.0
 49
0.0
 49
0.0208333333333333
 49
0.0
 49
0.0
 49
0.0
 49
0.0
 49
1.0
 49
0.0
 49
0.0
 49
0.0
 49
0.0
 49
1.0
175
     0
142
0.0208333333333333
142
0.0
142
0.0
142
0.0
142
0.0
142
0.0208333333333333
142
0.0
142
0.0
142
0.0
142
0.0
142
1.0
142
0.0
142
0.0
142
0.0
142
0.0
142
1.0
179
     0
144
0.0208333333333333
144
0.0
144
0.0
144
0.0
144
0.0
144
0.0208333333333333
144
0.0
144
0.0
144
0.0
144
0.0
144
1.0
144
0.0
144
0.0
144
0.0
144
0.0
144
1.0
147
0.0208333333333333
147
0.0
147
0.0
147
0.0
147
0.0
147
0.0208333333333333
147
0.0
147
0.0
147
0.0
147
0.0
147
1.0
147
0.0
147
0.0
147
0.0
147
0.0
147
1.0
  0
MLEADERSTYLE
  5
2288
102
{ACAD_REACTORS
330
2287
102
}
330
2287
100
AcDbMLeaderStyle
170
     2
171
     1
172
     0
 90
        2
 40
0.0
 41
0.0
173
     1
 91
-1056964608
340
12
 92
       -2
290
     1
 42
2.0
291
     1
 43
0.36
  3
Standard
 44
4.0
300

342
F
174
     1
178
     6
175
     1
176
     0
 93
-1056964608
 45
4.0
292
     0
297
     0
 46
4.0
 94
-1056964608
 47
1.0
 49
1.0
140
1.0
293
     1
141
0.0
294
     1
177
     0
142
1.0
295
     0
296
     0
143
0.125
1001
ACAD_MLEADERVER
1070
     2
  0
MLINESTYLE
  5
1C
102
{ACAD_REACTORS
330
1B
102
}
330
1B
100
AcDbMlineStyle
  2
STANDARD
 70
     0
  3

 62
   256
 51
90.0
 52
90.0
 71
     2
 49
0.5
 62
   256
  6
BYLAYER
 49
-0.5
 62
   256
  6
BYLAYER
  0
ACDBPLACEHOLDER
  5
A22
102
{ACAD_REACTORS
330
A21
102
}
330
A21
  0
SCALE
  5
2266
102
{ACAD_REACTORS
330
2265
102
}
330
2265
100
AcDbScale
 70
     0
300
1:1
140
1.0
141
1.0
290
     1
  0
SCALE
  5
2267
102
{ACAD_REACTORS
330
2265
102
}
330
2265
100
AcDbScale
 70
     0
300
1:2
140
1.0
141
2.0
290
     0
  0
SCALE
  5
2268
102
{ACAD_REACTORS
330
2265
102
}
330
2265
100
AcDbScale
 70
     0
300
1:4
140
1.0
141
4.0
290
     0
  0
SCALE
  5
2269
102
{ACAD_REACTORS
330
2265
102
}
330
2265
100
AcDbScale
 70
     0
300
1:5
140
1.0
141
5.0
290
     0
  0
SCALE
  5
226A
102
{ACAD_REACTORS
330
2265
102
}
330
2265
100
AcDbScale
 70
     0
300
1:8
140
1.0
141
8.0
290
     0
  0
SCALE
  5
226B
102
{ACAD_REACTORS
330
2265
102
}
330
2265
100
AcDbScale
 70
     0
300
1:10
140
1.0
141
10.0
290
     0
  0
SCALE
  5
226C
102
{ACAD_REACTORS
330
2265
102
}
330
2265
100
AcDbScale
 70
     0
300
1:16
140
1.0
141
16.0
290
     0
  0
SCALE
  5
226D
102
{ACAD_REACTORS
330
2265
102
}
330
2265
100
AcDbScale
 70
     0
300
1:20
140
1.0
141
20.0
290
     0
  0
SCALE
  5
226E
102
{ACAD_REACTORS
330
2265
102
}
330
2265
100
AcDbScale
 70
     0
300
1:30
140
1.0
141
30.0
290
     0
  0
SCALE
  5
226F
102
{ACAD_REACTORS
330
2265
102
}
330
2265
100
AcDbScale
 70
     0
300
1:40
140
1.0
141
40.0
290
     0
  0
SCALE
  5
2270
102
{ACAD_REACTORS
330
2265
102
}
330
2265
100
AcDbScale
 70
     0
300
1:50
140
1.0
141
50.0
290
     0
  0
SCALE
  5
2271
102
{ACAD_REACTORS
330
2265
102
}
330
2265
100
AcDbScale
 70
     0
300
1:100
140
1.0
141
100.0
290
     0
  0
SCALE
  5
2272
102
{ACAD_REACTORS
330
2265
102
}
330
2265
100
AcDbScale
 70
     0
300
2:1
140
2.0
141
1.0
290
     0
  0
SCALE
  5
2273
102
{ACAD_REACTORS
330
2265
102
}
330
2265
100
AcDbScale
 70
     0
300
4:1
140
4.0
141
1.0
290
     0
  0
SCALE
  5
2274
102
{ACAD_REACTORS
330
2265
102
}
330
2265
100
AcDbScale
 70
     0
300
8:1
140
8.0
141
1.0
290
     0
  0
SCALE
  5
2275
102
{ACAD_REACTORS
330
2265
102
}
330
2265
100
AcDbScale
 70
     0
300
10:1
140
10.0
141
1.0
290
     0
  0
SCALE
  5
2276
102
{ACAD_REACTORS
330
2265
102
}
330
2265
100
AcDbScale
 70
     0
300
100:1
140
100.0
141
1.0
290
     0
  0
SCALE
  5
2277
102
{ACAD_REACTORS
330
2265
102
}
330
2265
100
AcDbScale
 70
     0
300
1/128" = 1'-0"
140
0.0078125
141
12.0
290
     0
  0
SCALE
  5
2278
102
{ACAD_REACTORS
330
2265
102
}
330
2265
100
AcDbScale
 70
     0
300
1/64" = 1'-0"
140
0.015625
141
12.0
290
     0
  0
SCALE
  5
2279
102
{ACAD_REACTORS
330
2265
102
}
330
2265
100
AcDbScale
 70
     0
300
1/32" = 1'-0"
140
0.03125
141
12.0
290
     0
  0
SCALE
  5
227A
102
{ACAD_REACTORS
330
2265
102
}
330
2265
100
AcDbScale
 70
     0
300
1/16" = 1'-0"
140
0.0625
141
12.0
290
     0
  0
SCALE
  5
227B
102
{ACAD_REACTORS
330
2265
102
}
330
2265
100
AcDbScale
 70
     0
300
3/32" = 1'-0"
140
0.09375
141
12.0
290
     0
  0
SCALE
  5
227C
102
{ACAD_REACTORS
330
2265
102
}
330
2265
100
AcDbScale
 70
     0
300
1/8" = 1'-0"
140
0.125
141
12.0
290
     0
  0
SCALE
  5
227D
102
{ACAD_REACTORS
330
2265
102
}
330
2265
100
AcDbScale
 70
     0
300
3/16" = 1'-0"
140
0.1875
141
12.0
290
     0
  0
SCALE
  5
227E
102
{ACAD_REACTORS
330
2265
102
}
330
2265
100
AcDbScale
 70
     0
300
1/4" = 1'-0"
140
0.25
141
12.0
290
     0
  0
SCALE
  5
227F
102
{ACAD_REACTORS
330
2265
102
}
330
2265
100
AcDbScale
 70
     0
300
3/8" = 1'-0"
140
0.375
141
12.0
290
     0
  0
SCALE
  5
2280
102
{ACAD_REACTORS
330
2265
102
}
330
2265
100
AcDbScale
 70
     0
300
1/2" = 1'-0"
140
0.5
141
12.0
290
     0
  0
SCALE
  5
2281
102
{ACAD_REACTORS
330
2265
102
}
330
2265
100
AcDbScale
 70
     0
300
3/4" = 1'-0"
140
0.75
141
12.0
290
     0
  0
SCALE
  5
2282
102
{ACAD_REACTORS
330
2265
102
}
330
2265
100
AcDbScale
 70
     0
300
1" = 1'-0"
140
1.0
141
12.0
290
     0
  0
SCALE
  5
2283
102
{ACAD_REACTORS
330
2265
102
}
330
2265
100
AcDbScale
 70
     0
300
1-1/2" = 1'-0"
140
1.5
141
12.0
290
     0
  0
SCALE
  5
2284
102
{ACAD_REACTORS
330
2265
102
}
330
2265
100
AcDbScale
 70
     0
300
3" = 1'-0"
140
3.0
141
12.0
290
     0
  0
SCALE
  5
2285
102
{ACAD_REACTORS
330
2265
102
}
330
2265
100
AcDbScale
 70
     0
300
6" = 1'-0"
140
6.0
141
12.0
290
     0
  0
SCALE
  5
2286
102
{ACAD_REACTORS
330
2265
102
}
330
2265
100
AcDbScale
 70
     0
300
1'-0" = 1'-0"
140
12.0
141
12.0
290
     0
  0
TABLESTYLE
  5
2264
102
{ACAD_XDICTIONARY
360
2294
102
}
102
{ACAD_REACTORS
330
2263
102
}
330
2263
100
AcDbTableStyle
  3
Standard
 70
     0
 71
     0
 40
1.5
 41
1.5
280
     0
281
     0
  7
STANDARD
140
4.5
170
     2
 62
     0
 63
     7
283
     0
274
    -2
284
     1
 64
     0
275
    -2
285
     1
 65
     0
276
    -2
286
     1
 66
     0
277
    -2
287
     1
 67
     0
278
    -2
288
     1
 68
     0
279
    -2
289
     1
 69
     0
  7
STANDARD
140
6.0
170
     5
 62
     0
 63
     7
283
     0
274
    -2
284
     1
 64
     0
275
    -2
285
     1
 65
     0
276
    -2
286
     1
 66
     0
277
    -2
287
     1
 67
     0
278
    -2
288
     1
 68
     0
279
    -2
289
     1
 69
     0
  7
STANDARD
140
4.5
170
     5
 62
     0
 63
     7
283
     0
274
    -2
284
     1
 64
     0
275
    -2
285
     1
 65
     0
276
    -2
286
     1
 66
     0
277
    -2
287
     1
 67
     0
278
    -2
288
     1
 68
     0
279
    -2
289
     1
 69
     0
  0
VISUALSTYLE
  5
2257
102
{ACAD_REACTORS
330
2251
102
}
330
2251
100
AcDbVisualStyle
  2
2dWireframe
 70
     4
 71
     0
 72
     2
 73
     0
 90
        0
 40
-0.6
 41
-30.0
 62
     5
 63
     7
421
 16777215
 74
     1
 91
        4
 64
     7
 65
   257
 75
     1
175
     1
 42
1.0
 92
        0
 66
   257
 43
1.0
 76
     1
 77
     6
 78
     2
 67
     7
 79
     5
170
     0
171
     0
290
     0
174
     0
 93
        1
 44
0.0
173
     0
291
     0
 45
0.0
1001
ACAD
1000
AcDbSavedByObjectVersion
1070
     0
  0
VISUALSTYLE
  5
2259
102
{ACAD_REACTORS
330
2251
102
}
330
2251
100
AcDbVisualStyle
  2
3D Hidden
 70
     6
 71
     1
 72
     2
 73
     2
 90
        0
 40
-0.6
 41
-30.0
 62
     5
 63
     7
421
 16777215
 74
     2
 91
        2
 64
     7
 65
   257
 75
     2
175
     1
 42
40.0
 92
        0
 66
   257
 43
1.0
 76
     1
 77
     6
 78
     2
 67
     7
 79
     3
170
     0
171
     0
290
     0
174
     0
 93
        1
 44
0.0
173
     0
291
     0
 45
0.0
1001
ACAD
1000
AcDbSavedByObjectVersion
1070
     0
  0
VISUALSTYLE
  5
2258
102
{ACAD_REACTORS
330
2251
102
}
330
2251
100
AcDbVisualStyle
  2
3dWireframe
 70
     5
 71
     0
 72
     2
 73
     0
 90
        0
 40
-0.6
 41
-30.0
 62
     5
 63
     7
421
 16777215
 74
     1
 91
        4
 64
     7
 65
   257
 75
     1
175
     1
 42
1.0
 92
        0
 66
   257
 43
1.0
 76
     1
 77
     6
 78
     2
 67
     7
 79
     5
170
     0
171
     0
290
     0
174
     0
 93
        1
 44
0.0
173
     0
291
     0
 45
0.0
1001
ACAD
1000
AcDbSavedByObjectVersion
1070
     0
  0
VISUALSTYLE
  5
2256
102
{ACAD_REACTORS
330
2251
102
}
330
2251
100
AcDbVisualStyle
  2
Basic
 70
     7
 71
     1
 72
     0
 73
     1
 90
        0
 40
-0.6
 41
-30.0
 62
     5
 63
     7
421
 16777215
 74
     0
 91
        4
 64
     7
 65
   257
 75
     1
175
     1
 42
1.0
 92
        8
 66
     7
 43
1.0
 76
     1
 77
     6
 78
     2
 67
     7
 79
     5
170
     0
171
     0
290
     0
174
     0
 93
        1
 44
0.0
173
     0
291
     1
 45
0.0
1001
ACAD
1000
AcDbSavedByObjectVersion
1070
     0
  0
VISUALSTYLE
  5
225D
102
{ACAD_REACTORS
330
2251
102
}
330
2251
100
AcDbVisualStyle
  2
Brighten
 70
    12
 71
     2
 72
     2
 73
     0
 90
        0
 40
-0.6
 41
-30.0
 62
     5
 63
     7
421
 16777215
 74
     1
 91
        4
 64
     7
 65
   257
 75
     1
175
     1
 42
1.0
 92
        8
 66
     7
 43
1.0
 76
     1
 77
     6
 78
     2
 67
     7
 79
     5
170
     0
171
     0
290
     0
174
     0
 93
        1
 44
50.0
173
     0
291
     1
 45
0.0
1001
ACAD
1000
AcDbSavedByObjectVersion
1070
     0
  0
VISUALSTYLE
  5
2261
102
{ACAD_REACTORS
330
2251
102
}
330
2251
100
AcDbVisualStyle
  2
ColorChange
 70
    16
 71
     2
 72
     2
 73
     3
 90
        0
 40
-0.6
 41
-30.0
 62
     5
 63
     8
421
  8421504
 74
     1
 91
        4
 64
     7
 65
   257
 75
     1
175
     1
 42
1.0
 92
        8
 66
     8
424
  8421504
 43
1.0
 76
     1
 77
     6
 78
     2
 67
     7
 79
     5
170
     0
171
     0
290
     0
174
     0
 93
        1
 44
0.0
173
     0
291
     1
 45
0.0
1001
ACAD
1000
AcDbSavedByObjectVersion
1070
     0
  0
VISUALSTYLE
  5
225A
102
{ACAD_REACTORS
330
2251
102
}
330
2251
100
AcDbVisualStyle
  2
Conceptual
 70
     9
 71
     3
 72
     2
 73
     0
 90
        0
 40
-0.6
 41
-30.0
 62
     5
 63
     7
421
 16777215
 74
     2
 91
        2
 64
     7
 65
   257
 75
     1
175
     1
 42
40.0
 92
        8
 66
     7
 43
1.0
 76
     1
 77
     6
 78
     2
 67
     7
 79
     3
170
     0
171
     0
290
     0
174
     0
 93
        1
 44
0.0
173
     0
291
     0
 45
0.0
1001
ACAD
1000
AcDbSavedByObjectVersion
1070
     0
  0
VISUALSTYLE
  5
225C
102
{ACAD_REACTORS
330
2251
102
}
330
2251
100
AcDbVisualStyle
  2
Dim
 70
    11
 71
     2
 72
     2
 73
     0
 90
        0
 40
-0.6
 41
-30.0
 62
     5
 63
     7
421
 16777215
 74
     1
 91
        4
 64
     7
 65
   257
 75
     1
175
     1
 42
1.0
 92
        8
 66
     7
 43
1.0
 76
     1
 77
     6
 78
     2
 67
     7
 79
     5
170
     0
171
     0
290
     0
174
     0
 93
        1
 44
-50.0
173
     0
291
     1
 45
0.0
1001
ACAD
1000
AcDbSavedByObjectVersion
1070
     0
  0
VISUALSTYLE
  5
2260
102
{ACAD_REACTORS
330
2251
102
}
330
2251
100
AcDbVisualStyle
  2
Facepattern
 70
    15
 71
     2
 72
     2
 73
     0
 90
        0
 40
-0.6
 41
-30.0
 62
     5
 63
     7
421
 16777215
 74
     1
 91
        4
 64
     7
 65
   257
 75
     1
175
     1
 42
1.0
 92
        8
 66
     7
 43
1.0
 76
     1
 77
     6
 78
     2
 67
     7
 79
     5
170
     0
171
     0
290
     0
174
     0
 93
        1
 44
0.0
173
     0
291
     1
 45
0.0
1001
ACAD
1000
AcDbSavedByObjectVersion
1070
     0
  0
VISUALSTYLE
  5
2252
102
{ACAD_REACTORS
330
2251
102
}
330
2251
100
AcDbVisualStyle
  2
Flat
 70
     0
 71
     2
 72
     1
 73
     1
 90
        2
 40
-0.6
 41
30.0
 62
     5
 63
     7
421
 16777215
 74
     0
 91
        4
 64
     7
 65
   257
 75
     1
175
     1
 42
1.0
 92
        8
 66
     7
 43
1.0
 76
     1
 77
     6
 78
     2
 67
     7
 79
     5
170
     0
171
     0
290
     0
174
     0
 93
       13
 44
0.0
173
     0
291
     1
 45
0.0
1001
ACAD
1000
AcDbSavedByObjectVersion
1070
     0
  0
VISUALSTYLE
  5
2253
102
{ACAD_REACTORS
330
2251
102
}
330
2251
100
AcDbVisualStyle
  2
FlatWithEdges
 70
     1
 71
     2
 72
     1
 73
     1
 90
        2
 40
-0.6
 41
30.0
 62
     5
 63
     7
421
 16777215
 74
     1
 91
        4
 64
     7
 65
   257
 75
     1
175
     1
 42
1.0
 92
        0
 66
   257
 43
1.0
 76
     1
 77
     6
 78
     2
 67
     7
 79
     5
170
     0
171
     0
290
     0
174
     0
 93
       13
 44
0.0
173
     0
291
     1
 45
0.0
1001
ACAD
1000
AcDbSavedByObjectVersion
1070
     0
  0
VISUALSTYLE
  5
2254
102
{ACAD_REACTORS
330
2251
102
}
330
2251
100
AcDbVisualStyle
  2
Gouraud
 70
     2
 71
     2
 72
     2
 73
     1
 90
        2
 40
-0.6
 41
30.0
 62
     5
 63
     7
421
 16777215
 74
     0
 91
        4
 64
     7
 65
   257
 75
     1
175
     1
 42
1.0
 92
        0
 66
     7
 43
1.0
 76
     1
 77
     6
 78
     2
 67
     7
 79
     5
170
     0
171
     0
290
     0
174
     0
 93
       13
 44
0.0
173
     0
291
     1
 45
0.0
1001
ACAD
1000
AcDbSavedByObjectVersion
1070
     0
  0
VISUALSTYLE
  5
2255
102
{ACAD_REACTORS
330
2251
102
}
330
2251
100
AcDbVisualStyle
  2
GouraudWithEdges
 70
     3
 71
     2
 72
     2
 73
     1
 90
        2
 40
-0.6
 41
30.0
 62
     5
 63
     7
421
 16777215
 74
     1
 91
        4
 64
     7
 65
   257
 75
     1
175
     1
 42
1.0
 92
        0
 66
   257
 43
1.0
 76
     1
 77
     6
 78
     2
 67
     7
 79
     5
170
     0
171
     0
290
     0
174
     0
 93
       13
 44
0.0
173
     0
291
     1
 45
0.0
1001
ACAD
1000
AcDbSavedByObjectVersion
1070
     0
  0
VISUALSTYLE
  5
225F
102
{ACAD_REACTORS
330
2251
102
}
330
2251
100
AcDbVisualStyle
  2
Linepattern
 70
    14
 71
     2
 72
     2
 73
     0
 90
        0
 40
-0.6
 41
-30.0
 62
     5
 63
     7
421
 16777215
 74
     1
 91
        4
 64
     7
 65
   257
 75
     7
175
     7
 42
1.0
 92
        8
 66
     7
 43
1.0
 76
     1
 77
     6
 78
     2
 67
     7
 79
     5
170
     0
171
     0
290
     0
174
     0
 93
        1
 44
0.0
173
     0
291
     1
 45
0.0
1001
ACAD
1000
AcDbSavedByObjectVersion
1070
     0
  0
VISUALSTYLE
  5
225B
102
{ACAD_REACTORS
330
2251
102
}
330
2251
100
AcDbVisualStyle
  2
Realistic
 70
     8
 71
     2
 72
     2
 73
     0
 90
        0
 40
-0.6
 41
-30.0
 62
     5
 63
     7
421
 16777215
 74
     1
 91
        0
 64
     7
 65
   257
 75
     1
175
     1
 42
1.0
 92
        8
 66
     8
424
  7895160
 43
1.0
 76
     1
 77
     6
 78
     2
 67
     7
 79
     5
170
     0
171
     0
290
     0
174
     0
 93
       13
 44
0.0
173
     0
291
     0
 45
0.0
1001
ACAD
1000
AcDbSavedByObjectVersion
1070
     0
  0
VISUALSTYLE
  5
225E
102
{ACAD_REACTORS
330
2251
102
}
330
2251
100
AcDbVisualStyle
  2
Thicken
 70
    13
 71
     2
 72
     2
 73
     0
 90
        0
 40
-0.6
 41
-30.0
 62
     5
 63
     7
421
 16777215
 74
     1
 91
        4
 64
     7
 65
   257
 75
     1
175
     1
 42
1.0
 92
       12
 66
     7
 43
1.0
 76
     1
 77
     6
 78
     2
 67
     7
 79
     5
170
     0
171
     0
290
     0
174
     0
 93
        1
 44
0.0
173
     0
291
     1
 45
0.0
1001
ACAD
1000
AcDbSavedByObjectVersion
1070
     0
  0
DICTIONARYVAR
  5
2293
102
{ACAD_REACTORS
330
20A5
102
}
330
20A5
100
DictionaryVariables
280
     0
  1
1:1
  0
DICTIONARYVAR
  5
2292
102
{ACAD_REACTORS
330
20A5
102
}
330
20A5
100
DictionaryVariables
280
     0
  1
STANDARD
  0
DICTIONARYVAR
  5
2291
102
{ACAD_REACTORS
330
20A5
102
}
330
20A5
100
DictionaryVariables
280
     0
  1
STANDARD
  0
DICTIONARYVAR
  5
20A7
102
{ACAD_REACTORS
330
20A5
102
}
330
20A5
100
DictionaryVariables
280
     0
  1
1
  0
DICTIONARYVAR
  5
20A6
102
{ACAD_REACTORS
330
20A5
102
}
330
20A5
100
DictionaryVariables
280
     0
  1
1
  0
ACAD_PROXY_OBJECT
  5
A45
102
{ACAD_REACTORS
330
A44
102
}
330
A44
100
AcDbProxyObject
 90
      499
 91
      522
 95
   851991
 70
     0
 93
      118
310
405010040CA904C415CD5B07571068
350
A46
 94
        0
  0
DICTIONARY
  5
A4A
102
{ACAD_REACTORS
330
A44
102
}
330
A44
100
AcDbDictionary
281
     1
  3
ANSI
350
1363
  3
ISO
350
A4B
  0
ACAD_PROXY_OBJECT
  5
A34
330
0
100
AcDbProxyObject
 90
      499
 91
      509
 95
   851991
 70
     0
 93
      156
310
00010143D050D351505391D5531054925390D49C
330
A31
 94
        0
  0
ACAD_PROXY_OBJECT
  5
A35
330
0
100
AcDbProxyObject
 90
      499
 91
      509
 95
   851991
 70
     0
 93
      148
310
000101439050D351531253915054925390D49C
330
A31
 94
        0
  0
ACAD_PROXY_OBJECT
  5
A36
330
0
100
AcDbProxyObject
 90
      499
 91
      510
 95
   851991
 70
     0
 93
      156
310
000101439050D35154D6535093D314D25691508C
330
A31
 94
        0
  0
ACAD_PROXY_OBJECT
  5
A38
330
0
100
AcDbProxyObject
 90
      499
 91
      512
 95
   851991
 70
     0
 93
      216
310
00010145111A5CDD1A5B9D184818DBDB5C1BDB995B9D1A4C402B001B
330
A31
330
0
330
0
 94
        0
  0
ACAD_PROXY_OBJECT
  5
A49
330
0
100
AcDbProxyObject
 90
      499
 91
      524
 95
   851991
 70
     0
 93
      140
310
00010142105350D55494D5110050349534FC
330
A31
 94
        0
  0
ACAD_PROXY_OBJECT
  5
1CD5
330
0
100
AcDbProxyObject
 90
      499
 91
      555
 95
   851991
 70
     0
 93
       28
310
0001406C
330
A31
 94
        0
  0
DICTIONARY
  5
A2B
102
{ACAD_REACTORS
330
A2A
102
}
330
A2A
100
AcDbDictionary
281
     1
  3
DWGSETTINGS
350
A2C
  3
TRANSSETTINGS
350
A2D
  0
ACAD_PROXY_OBJECT
  5
A4C
102
{ACAD_REACTORS
330
A2A
102
}
330
A2A
100
AcDbProxyObject
 90
      499
 91
      526
 95
   851991
 70
     0
 93
    12938
310
41102491013041105357CC1074CA404C504414D5F31439329013241105357CC9054CA404CD04414D5F33419199013441105357CD103466404D504414D5F3540D199013641105357CD90248E404DD04414D5F37411199013841105357CE101466404E504414D5F397F641102324141505357CC4C1074CA408D10505414D5F31
310
3140D19902495041505357CC4C9074C902408C13905414D5F304E41D32902314E41505357CC5390E4CA408C93905414D5F324E41532902334E41505357CCD3906466408D13905414D5F344E40D19902354E41505357CD53903466408D93905414D5F364E40923902374E41505357CDD3904466408E13905414D5F384E40519
310
902394E41505357CE539FD90440CC9053906414D5F31304E41D3290334414E41905357CC4C5390346640D25413906414D5F31324E41D32409044B4C494E41505357D0D3101465094112539193D08414D5F50415245464111942D055241484D3541905357D093D49074C9094115925155D08414D5F56494557534051942D064
310
24548494E4441905357D253959FD90D415514905253105414D5F545240D194250348494441905357D212511074650940D59254D06414D5F56495341D324250650415244494D42505357D410549112535034650941949151911253509414D5F52454644494D4111942553411092139590139CFFFFFFFF415092139594D06424
310
548494E44CFFFFFFFF411093D48C9055241484D3540519411093D48CD055241484D3540923411093D48D5055241484D35CFFFFFFFF4110D0530C90134CFFFFFFFF4110D0530CD0134409234110D0530D5013441D324110D0530DD0134479464110D1539390137CFFFFFFFF4110D15395D0137CFFFFFFFF4110D312539044B4
310
C494ECFFFFFFFF4110D3D38C50130CFFFFFFFF4110D3D38C90131CFFFFFFFF4110D3D38CD0132CFFFFFFFF4110D3D38D10132CFFFFFFFF411111551050134CFFFFFFFF4111125051D0135CFFFFFFFF411112531250135CFFFFFFFF411112535410650415244494DCFFFFFFFF411112535490652454644494DCFFFFFFFF4111
310
91535390138CFFFFFFFF4151915354139013840CFFFFFFFF4151915354D41023441CFFFFFFFF4151915354D5102344140D1941519153559390132CFFFFFFFF4151915355951013240D194112105510D0138CFFFFFFFF411212511390133CFFFFFFFF4112125115D0133CFFFFFFFF411213125390134CFFFFFFFF411213D0D3
310
90137CFFFFFFFF411213D0D5D0137CFFFFFFFF4112539193D04494E464FCFFFFFFFF411311505110135CFFFFFFFF419397D0921395902394ECFFFFFFFF419397D0D3D38C502304ECFFFFFFFF419397D0D3D38C902314ECFFFFFFFF419397D0D3D38CD02324ECFFFFFFFF419397D0D3D38D102324ECFFFFFFFF419397D0D153
310
93902374ECFFFFFFFF419397D0D15395D02374ECFFFFFFFF419397D1125312502354ECFFFFFFFF419397D2105510D02384ECFFFFFFFF419397D2125113902334ECFFFFFFFF419397D2125115D02334ECFFFFFFFF419397D3115051102354ECFFFFFFFF419397D391D25410349504ECFFFFFFFF419397D412105390334414EC
310
FFFFFFFF419397D510D3D3902304ECFFFFFFFF419397D5121312502344ECFFFFFFFF419397D5131153902304ECFFFFFFFF419397D594131250332414ECFFFFFFFF411391D2541024950CFFFFFFFF411410530C9055241484D3540519411410530CD055241484D3540923411410530D5055241484D35CFFFFFFFF4114121053
310
9023441CFFFFFFFF411413D4D390135CFFFFFFFF411490D1D390137CFFFFFFFF411490D1D5D0137CFFFFFFFF4114D09492D0134CFFFFFFFF4114D150D510134CFFFFFFFF4114D6508CD013540923411354D6535013540923411510D3D390130CFFFFFFFF411512131250134CFFFFFFFF411512550C9055241484D354051941
310
1512550CD055241484D3540923411512550D5055241484D35CFFFFFFFF411513115390130CFFFFFFFF415514905253105545241494CCFFFFFFFF411514931250134CFFFFFFFF411516150C5013640D19411516150C9013640D19411516150CD0136CFFFFFFFF411516150D5013641D32411516150DD0136479464115925155
310
D0456494557CFFFFFFFF4115915112103484944CFFFFFFFF4115915115903564953CFFFFFFFF41159413125023241CFFFFFFFF411692569050134CFFFFFFFFAA9FD404FE4290E4C9074C906465054C904465034650248D014651E519FD8C
340
14
340
14
340
14
340
A4D
340
14
340
14
340
14
340
A4E
340
14
340
14
340
A4E
340
A4F
340
14
340
14
340
14
340
14
340
A4D
340
14
340
14
340
14
340
A4E
340
14
340
14
340
A4E
340
A4F
340
14
340
A50
340
14
340
14
340
14
340
14
340
14
340
A4D
340
14
340
14
340
14
340
13
340
13
340
13
340
13
340
13
340
13
340
13
340
13
340
13
340
A51
340
13
340
13
340
13
340
13
340
13
340
13
340
13
340
13
340
13
340
13
340
13
340
13
340
13
340
14
340
13
340
13
340
13
340
13
340
A52
340
13
340
13
340
A51
340
13
340
13
340
13
340
13
340
13
340
13
340
13
340
13
340
A51
340
13
340
13
340
13
340
A52
340
13
340
13
340
13
340
13
340
13
340
13
340
13
340
13
340
13
340
13
340
13
340
13
340
13
340
13
340
A51
340
13
340
13
340
13
340
13
340
13
340
13
340
13
340
13
340
13
340
13
340
13
340
13
340
13
340
13
340
13
340
13
340
13
340
13
340
13
340
13
340
13
340
13
340
A55
 94
        0
  0
ACAD_PROXY_OBJECT
  5
A7C
102
{ACAD_REACTORS
330
A77
102
}
330
A77
100
AcDbProxyObject
 90
      499
 91
      542
 95
   851991
 70
     0
 93
      253
310
43D1444494D454E53494F4E2C414D44545F2A5F44494D404A9012A404A9012AC
 94
        0
  0
ACAD_PROXY_OBJECT
  5
A7B
102
{ACAD_REACTORS
330
A77
102
}
330
A77
100
AcDbProxyObject
 90
      499
 91
      542
 95
   851991
 70
     0
 93
      181
310
43D012A42D05357D191504B505357CA9012A404A9012AC
 94
        0
  0
ACAD_PROXY_OBJECT
  5
A78
102
{ACAD_REACTORS
330
A77
102
}
330
A77
100
AcDbProxyObject
 90
      499
 91
      542
 95
   851991
 70
     0
 93
      133
310
43D054841544348404A9012A404A9012AC
 94
        0
  0
ACAD_PROXY_OBJECT
  5
A79
102
{ACAD_REACTORS
330
A77
102
}
330
A77
100
AcDbProxyObject
 90
      499
 91
      542
 95
   851991
 70
     0
 93
      549
310
43D044C494E4549CE0B0E138B0A8B4E0B0A8B4E138B105357CE0B105357CE138B0A8B505357CE0B0A8B505357CE139012A404A910494E534552542C535444504152543244C
 94
        0
  0
ACAD_PROXY_OBJECT
  5
A7D
102
{ACAD_REACTORS
330
A77
102
}
330
A77
100
AcDbProxyObject
 90
      499
 91
      542
 95
   851991
 70
     0
 93
      181
310
43D0341524341105357CD5012A404C906494E534552544
 94
        0
  0
ACAD_PROXY_OBJECT
  5
A7A
102
{ACAD_REACTORS
330
A77
102
}
330
A77
100
AcDbProxyObject
 90
      499
 91
      542
 95
   851991
 70
     0
 93
     1053
310
43D7841434D46434652414D452C41434D444154554D5441524745542C41434D444154554D49442C41434D57454C4453594D2C41434D5355524653594D2C41434D4645415449442C41434D504152545245462C41434D42414C4C4F4F4E2C414D44544544474553594D2C414D47534352455743414C435441424C45404A9012A
310
404A9012AC
 94
        0
  0
LAYER_INDEX
  5
209C
102
{ACAD_REACTORS
330
209B
102
}
330
209B
100
AcDbIndex
 40
2455405.39115353
100
AcDbLayerIndex
  8
0
360
209D
 90
        1
  8
DISEGNO
360
209E
 90
     1008
  8
ASSI
360
209F
 90
       85
  8
NORMALI
360
20A0
 90
      113
  8
TRATTEGGI
360
20A2
 90
       18
  8
Defpoints
360
20A3
 90
        0
  0
DICTIONARY
  5
2242
330
2241
100
AcDbDictionary
280
     1
281
     1
  3
ACAD_XREC_ROUNDTRIP
360
2298
  3
BUMPTILE
360
2244
  3
DIFFUSETILE
360
2243
  3
OPACITYTILE
360
2247
  3
REFLECTIONTILE
360
2246
  3
REFRACTIONTILE
360
2248
  3
SPECULARTILE
360
2245
  0
DICTIONARY
  5
223A
330
2239
100
AcDbDictionary
280
     1
281
     1
  3
ACAD_XREC_ROUNDTRIP
360
2297
  3
BUMPTILE
360
223C
  3
DIFFUSETILE
360
223B
  3
OPACITYTILE
360
223F
  3
REFLECTIONTILE
360
223E
  3
REFRACTIONTILE
360
2240
  3
SPECULARTILE
360
223D
  0
DICTIONARY
  5
224A
330
2249
100
AcDbDictionary
280
     1
281
     1
  3
ACAD_XREC_ROUNDTRIP
360
2299
  3
BUMPTILE
360
224C
  3
DIFFUSETILE
360
224B
  3
OPACITYTILE
360
224F
  3
REFLECTIONTILE
360
224E
  3
REFRACTIONTILE
360
2250
  3
SPECULARTILE
360
224D
  0
DICTIONARY
  5
2294
330
2264
100
AcDbDictionary
280
     1
281
     1
  3
ACAD_ROUNDTRIP_2008_TABLESTYLE_CELLSTYLEMAP
360
2295
  3
ACAD_XREC_ROUNDTRIP
360
229A
  0
ACAD_PROXY_OBJECT
  5
A46
102
{ACAD_REACTORS
330
A45
102
}
330
A45
100
AcDbProxyObject
 90
      499
 91
      523
 95
   851991
 70
     0
 93
      139
310
057356C1D5C406406AA8FFFFFFFF0AE2404C
330
18
330
0
330
0
 94
        0
  0
ACAD_PROXY_OBJECT
  5
1363
102
{ACAD_REACTORS
330
A4A
102
}
330
A4A
100
AcDbProxyObject
 90
      499
 91
      543
 95
   851991
 70
     0
 93
     2109
310
570B81E85EB51B8BE3FD04414E5349405901409022E07A17AD46E2F8FD2208721C82C6DAA6EAE4CCA8CAF0E8A6E8C88120284A0B1B6A321A329BA3220480A1A82C6DAAECAD8C8D2DCCEA6E8C8812028420B1B6A4B229BA3220480A1682C6DA88C2E8EADAA6E8C88120284A0B1B6A127A6A9BA3220480A2082DAC8E888CAE8C
310
2D2D8A6F2DAA6E8C88120288A0B6B23A29B2B1BA34B7B729BCB6A9BA3220480A2282DAC8E886CADCE8CAE498D2DCCAA6E8C88120285A0B6B23A2737BA32A9BA3220480A1682C682DACE98C2F2A6E8C88120285A0B1A0B6B3A234B6A9BA3220480A2282C682DACE90DED8CA86D0C2E4E8A6E8C88120286A0B1A0B6B3AA34BA3
310
632A9BA3220480A02814
340
BF4
360
1364
360
1365
360
1366
360
1367
360
1368
360
1369
360
136A
360
136B
360
136C
360
136D
360
136E
360
136F
360
1370
360
1371
 94
        0
  0
ACAD_PROXY_OBJECT
  5
A4B
102
{ACAD_REACTORS
330
A4A
102
}
330
A4A
100
AcDbProxyObject
 90
      499
 91
      525
 95
   851991
 70
     0
 93
     2211
310
5700000000000000C40D0349534F405901409020000000000000310322287A1682DAC8E88AC8CECAA6E8C8812028720B1B6A9BAB9332A32BC3A29BA3220480A1282C6DA8C868CA6E8C88120286A0B1B6ABB2B63234B733A9BA3220480A1082C6DA92C8A6E8C88120285A0B1B6A230BA3AB6A9BA3220480A1282C6DA849E9AA
310
6E8C8812028820B6B23A2232BA30B4B629BCB6A9BA3220480A2282DAC8E8A6CAC6E8D2DEDCA6F2DAA6E8C88120288A0B6B23A21B2B73A32B92634B732A9BA3220480A1682DAC8E89CDEE8CAA6E8C88120285A0B1A0B6B3A630BCA9BA3220480A1682C682DACE88D2DAA6E8C88120288A0B1A0B6B3A437B632A1B430B93A29B
310
A3220480A1A82C682DACEA8D2E8D8CAA6E8C881203204C
340
A56
360
A57
360
A58
360
A59
360
A5A
360
A5B
360
A5C
360
A5D
360
A5E
360
A5F
360
A60
360
A61
360
A67
360
A68
360
A74
360
A75
 94
        0
  0
ACAD_PROXY_OBJECT
  5
A2C
102
{ACAD_REACTORS
330
A2B
102
}
330
A2B
100
AcDbProxyObject
 90
      499
 91
      505
 95
   851991
 70
     0
 93
     2396
310
4050B44574753455454494E4753A1286829C8E82A4A482B282A106660F8686AF86C608321A2A720A723A0A849A1ABE1C983E18999AA0C868A9C889282940000000000000488083A1A2A72224A0A9A0A8418983E19183E199820E868A9C8892A6A894000000000000010808321A2A72622A7250000000000000122020C868A9
310
C9E8C8C940000000000000488084A1A624A720A92920ACA0A8418983E19183E19982108698929C8AA8B2A082A0AB098929C8A84A22BA3AAA9A1A0A622A50A0E9882A6A89E849482A02608426A0A5A2AB24A2ABA7E8120CA0A68682988A0C00800010652455649534941501304154D0D0531150540CC4E8C50954494D455354
310
414D504A036635921F817734141D5915494D253D3905414C4D4B8C0C1107B44574753455454494E4753454E447DC
 94
        0
  0
ACAD_PROXY_OBJECT
  5
A2D
102
{ACAD_REACTORS
330
A2B
102
}
330
A2B
100
AcDbProxyObject
 90
      499
 91
      505
 95
   851991
 70
     0
 93
      852
310
4050D5452414E5353455454494E4753A2488A482AE929C8EA8A4829CA69882A8929E9C0C00800050D4F524947494E414C4C595F4F4E0600400008529A7AAA921A2A620A723A0A81A4AA20A12AAA0A48AA68AA4AC8A0C0080001107B44574753455454494E4753454E447DC
 94
        0
  0
IDBUFFER
  5
209D
330
0
100
AcDbIdBuffer
330
88B
  0
IDBUFFER
  5
209E
330
0
100
AcDbIdBuffer
330
40B
330
40E
330
40F
330
414
330
415
330
416
330
417
330
418
330
419
330
41C
330
41D
330
422
330
423
330
430
330
431
330
435
330
436
330
437
330
438
330
450
330
451
330
45F
330
4C3
330
4FB
330
4FC
330
4FD
330
4FE
330
504
330
505
330
512
330
516
330
517
330
54E
330
54F
330
550
330
564
330
565
330
56F
330
572
330
57A
330
57B
330
586
330
589
330
58B
330
599
330
59A
330
5A3
330
5AA
330
5BB
330
5BC
330
5BD
330
5BE
330
5BF
330
5C0
330
5C3
330
5CF
330
5D7
330
5DE
330
5DF
330
5E0
330
5E1
330
5E2
330
5E5
330
5E8
330
5E9
330
5EA
330
5EB
330
5F2
330
5F5
330
5F6
330
5FB
330
608
330
609
330
60B
330
60C
330
60D
330
610
330
612
330
613
330
623
330
626
330
629
330
62A
330
62B
330
62C
330
67A
330
67B
330
67D
330
682
330
684
330
686
330
690
330
691
330
6C9
330
6CA
330
6CB
330
6CD
330
6D4
330
6DA
330
6DB
330
6DC
330
6DD
330
6E0
330
6F0
330
6F1
330
6F3
330
6F8
330
6F9
330
70E
330
70F
330
723
330
724
330
725
330
726
330
729
330
72A
330
72F
330
734
330
736
330
74B
330
752
330
754
330
758
330
763
330
768
330
769
330
77F
330
792
330
793
330
861
330
8D5
330
8D6
330
8D7
330
8D8
330
994
330
995
330
997
330
998
330
99E
330
99F
330
9A0
330
9A2
330
9A3
330
9A6
330
9A7
330
9A8
330
9B1
330
9B2
330
9BC
330
9C0
330
9CF
330
9D0
330
9DD
330
9DE
330
A07
330
AA9
330
1CE1
330
1CE2
330
1CE3
330
1CE4
330
1CE5
330
1CE6
330
1CF6
330
1CF7
330
1CF8
330
1CF9
330
1CFA
330
1CFB
330
1CFC
330
1CFD
330
1CFE
330
1CFF
330
1D00
330
1D02
330
1D03
330
1D04
330
1D05
330
1D06
330
1D07
330
1D08
330
1D10
330
1D11
330
1D13
330
1D21
330
1D26
330
1D34
330
1D37
330
1D38
330
1D39
330
1D3F
330
1D40
330
1D42
330
1D43
330
1D54
330
1D55
330
1D56
330
1D58
330
1D59
330
1D5A
330
1D5B
330
1D5F
330
1D60
330
1D61
330
1D62
330
1D64
330
1D65
330
1D66
330
1D69
330
1D6A
330
1D6B
330
1D6C
330
1D6D
330
1D6E
330
1D6F
330
1D70
330
1D71
330
1D72
330
1D73
330
1D74
330
1D75
330
1D76
330
1D77
330
1D78
330
1D79
330
1D7A
330
1D7B
330
1D7C
330
1D7D
330
1D7E
330
1D7F
330
1D80
330
1D81
330
1D82
330
1D83
330
1D84
330
1D85
330
1D86
330
1D87
330
1D88
330
1D89
330
1D8A
330
1D8B
330
1D8C
330
1D8F
330
1D90
330
1D91
330
1D92
330
1D93
330
1D94
330
1D95
330
1D96
330
1D97
330
1D98
330
1D99
330
1D9A
330
1D9B
330
1D9C
330
1D9D
330
1D9E
330
1D9F
330
1DA0
330
1DA1
330
1DA2
330
1DA3
330
1DA4
330
1DA5
330
1DA6
330
1DA7
330
1DA8
330
1DA9
330
1DAA
330
1DAB
330
1DAC
330
1DAD
330
1DAE
330
1DAF
330
1DB0
330
1DB1
330
1DB2
330
1DB3
330
1DB4
330
1DB5
330
1DB6
330
1DB7
330
1DB8
330
1DB9
330
1DBA
330
1DBB
330
1DBC
330
1DBD
330
1DBE
330
1DBF
330
1DC0
330
1DC1
330
1DC2
330
1DC3
330
1DC4
330
1DC5
330
1DC6
330
1DC7
330
1DC8
330
1DC9
330
1DCA
330
1DCB
330
1DCC
330
1DCD
330
1DCE
330
1DCF
330
1DD0
330
1DD1
330
1DD2
330
1DD3
330
1DD4
330
1DD5
330
1DD6
330
1DD7
330
1DD8
330
1DD9
330
1DDA
330
1DDB
330
1DDC
330
1DDD
330
1DDE
330
1DDF
330
1DE0
330
1DE1
330
1DE2
330
1DE3
330
1DE4
330
1DE5
330
1DE6
330
1DE7
330
1DE8
330
1DE9
330
1DEA
330
1DEB
330
1DEC
330
1DED
330
1DEE
330
1DEF
330
1DF0
330
1DF1
330
1DF2
330
1DF3
330
1DF4
330
1DF5
330
1DF6
330
1DF7
330
1DF8
330
1DF9
330
1DFA
330
1DFB
330
1DFC
330
1DFD
330
1DFE
330
1DFF
330
1E00
330
1E01
330
1E02
330
1E03
330
1E04
330
1E05
330
1E06
330
1E07
330
1E08
330
1E09
330
1E0A
330
1E0B
330
1E0C
330
1E0D
330
1E0E
330
1E0F
330
1E10
330
1E11
330
1E12
330
1E13
330
1E14
330
1E15
330
1E16
330
1E17
330
1E18
330
1E19
330
1E1A
330
1E1B
330
1E1C
330
1E1D
330
1E1E
330
1E1F
330
1E20
330
1E21
330
1E22
330
1E23
330
1E24
330
1E25
330
1E26
330
1E27
330
1E28
330
1E29
330
1E2A
330
1E2B
330
1E2C
330
1E2D
330
1E2E
330
1E2F
330
1E30
330
1E31
330
1E32
330
1E33
330
1E34
330
1E35
330
1E36
330
1E37
330
1E38
330
1E39
330
1E3A
330
1E3B
330
1E3C
330
1E3D
330
1E3E
330
1E3F
330
1E40
330
1E41
330
1E42
330
1E43
330
1E44
330
1E45
330
1E46
330
1E47
330
1E48
330
1E49
330
1E4A
330
1E4B
330
1E4C
330
1E4D
330
1E4E
330
1E4F
330
1E50
330
1E51
330
1E52
330
1E53
330
1E54
330
1E55
330
1E56
330
1E57
330
1E58
330
1E59
330
1E5A
330
1E5B
330
1E5C
330
1E5D
330
1E5E
330
1E5F
330
1E60
330
1E61
330
1E62
330
1E63
330
1E64
330
1E65
330
1E66
330
1E67
330
1E68
330
1E69
330
1E6A
330
1E6B
330
1E6C
330
1E6D
330
1E6E
330
1E6F
330
1E70
330
1E71
330
1E72
330
1E73
330
1E74
330
1E75
330
1E76
330
1E77
330
1E78
330
1E79
330
1E7A
330
1E7B
330
1E7C
330
1E7D
330
1E7E
330
1E7F
330
1E80
330
1E81
330
1E82
330
1E83
330
1E84
330
1E85
330
1E86
330
1E87
330
1E88
330
1E89
330
1E8A
330
1E8B
330
1E8C
330
1E8D
330
1E8E
330
1E8F
330
1E90
330
1E91
330
1E92
330
1E93
330
1E94
330
1E95
330
1E96
330
1E97
330
1E98
330
1E99
330
1E9A
330
1E9B
330
1E9C
330
1E9D
330
1E9E
330
1E9F
330
1EA0
330
1EA1
330
1EA2
330
1EA3
330
1EA4
330
1EA5
330
1EA6
330
1EA7
330
1EA8
330
1EA9
330
1EAA
330
1EAB
330
1EAC
330
1EAD
330
1EAE
330
1EAF
330
1EB0
330
1EB1
330
1EB2
330
1EB3
330
1EB4
330
1EB5
330
1EB6
330
1EB7
330
1EB8
330
1EB9
330
1EBD
330
1EBF
330
1EC0
330
1EC1
330
1EC2
330
1EC3
330
1EC4
330
1EC5
330
1EC6
330
1EC7
330
1EC8
330
1EC9
330
1ECA
330
1ECB
330
1ECC
330
1ECD
330
1ECE
330
1ECF
330
1ED0
330
1ED1
330
1ED2
330
1ED3
330
1ED4
330
1ED5
330
1ED6
330
1ED7
330
1ED8
330
1ED9
330
1EDA
330
1EDB
330
1EDC
330
1EDD
330
1EDE
330
1EDF
330
1EE0
330
1EE1
330
1EE2
330
1EE3
330
1EE4
330
1EE5
330
1EE6
330
1EE7
330
1EE8
330
1EE9
330
1EEA
330
1EEB
330
1EEC
330
1EED
330
1EEE
330
1EEF
330
1EF0
330
1EF1
330
1EF6
330
1EF8
330
1EF9
330
1EFA
330
1EFB
330
1EFC
330
1EFD
330
1F02
330
1F07
330
1F08
330
1F09
330
1F0A
330
1F0B
330
1F0C
330
1F0D
330
1F0E
330
1F0F
330
1F10
330
1F11
330
1F12
330
1F13
330
1F14
330
1F15
330
1F16
330
1F17
330
1F18
330
1F19
330
1F1A
330
1F1B
330
1F1C
330
1F1D
330
1F1E
330
1F1F
330
1F20
330
1F21
330
1F22
330
1F23
330
1F24
330
1F25
330
1F26
330
1F27
330
1F28
330
1F29
330
1F2A
330
1F2B
330
1F2C
330
1F2D
330
1F2E
330
1F2F
330
1F30
330
1F31
330
1F32
330
1F33
330
1F34
330
1F35
330
1F36
330
1F37
330
1F38
330
1F39
330
1F3A
330
1F3B
330
1F3C
330
1F3D
330
1F3E
330
1F3F
330
1F40
330
1F41
330
1F42
330
1F43
330
1F44
330
1F45
330
1F46
330
1F47
330
1F48
330
1F49
330
1F4A
330
1F4B
330
1F4C
330
1F4D
330
1F4E
330
1F50
330
1F51
330
1F52
330
1F53
330
1F54
330
1F55
330
1F56
330
1F57
330
1F58
330
1F59
330
1F5A
330
1F5B
330
1F5C
330
1F5D
330
1F5E
330
1F5F
330
1F60
330
1F61
330
1F62
330
1F63
330
1F64
330
1F65
330
1F66
330
1F67
330
1F68
330
1F69
330
1F6A
330
1F6B
330
1F6C
330
1F6D
330
1F6E
330
1F6F
330
1F70
330
1F71
330
1F72
330
1F73
330
1F74
330
1F75
330
1F76
330
1F77
330
1F78
330
1F79
330
1F7A
330
1F7B
330
1F7C
330
1F7D
330
1F7E
330
1F7F
330
1F80
330
1F81
330
1F82
330
1F83
330
1F84
330
1F85
330
1F86
330
1F87
330
1F88
330
1F89
330
1F8A
330
1F8B
330
1F8C
330
1F8D
330
1F8E
330
1F8F
330
1F90
330
1F91
330
1F92
330
1F93
330
1F94
330
1F95
330
1F96
330
1F97
330
1F98
330
1F99
330
1F9A
330
1F9B
330
1F9C
330
1F9D
330
1F9E
330
1F9F
330
1FA0
330
1FA1
330
1FA2
330
1FA3
330
1FA4
330
1FA5
330
1FA6
330
1FA7
330
1FA8
330
1FA9
330
1FAA
330
1FAB
330
1FAC
330
1FAD
330
1FAE
330
1FAF
330
1FB0
330
1FB1
330
1FB2
330
1FB3
330
1FB4
330
1FB5
330
1FB6
330
1FB7
330
1FB8
330
1FB9
330
1FBA
330
1FBB
330
1FBC
330
1FBD
330
1FBE
330
1FBF
330
1FC0
330
1FC1
330
1FC2
330
1FC3
330
1FC4
330
1FC5
330
1FC6
330
1FC7
330
1FC8
330
1FC9
330
1FCA
330
1FCB
330
1FCC
330
1FCD
330
1FCE
330
1FCF
330
1FD0
330
1FD1
330
1FD2
330
1FD3
330
1FD4
330
1FD5
330
1FD6
330
1FD7
330
1FD8
330
1FD9
330
1FDA
330
1FDB
330
1FDC
330
1FDD
330
1FDE
330
1FDF
330
1FE0
330
1FE1
330
1FE2
330
1FE3
330
1FE4
330
1FE5
330
1FE6
330
1FE7
330
1FE8
330
1FE9
330
1FEA
330
1FEB
330
1FEC
330
1FED
330
1FEE
330
1FEF
330
1FF0
330
1FF1
330
1FF2
330
1FF3
330
1FF4
330
1FF5
330
1FF6
330
1FF7
330
1FF8
330
1FF9
330
1FFA
330
1FFB
330
1FFC
330
1FFD
330
1FFE
330
1FFF
330
2000
330
2001
330
2002
330
2003
330
2004
330
2005
330
2006
330
2007
330
2008
330
2009
330
200A
330
200B
330
200C
330
200D
330
200E
330
200F
330
2010
330
2011
330
2012
330
2013
330
2014
330
2015
330
201A
330
201F
330
2020
330
2021
330
2022
330
2023
330
2026
330
2027
330
2028
330
202B
330
202C
330
202D
330
202E
330
202F
330
2030
330
2031
330
2032
330
2033
330
2034
330
2035
330
2036
330
2037
330
2038
330
2039
330
203A
330
203B
330
203C
330
203D
330
203E
330
203F
330
2040
330
2041
330
2042
330
2043
330
2044
330
2045
330
2046
330
2047
330
2048
330
2049
330
204A
330
204C
330
204E
330
204F
330
2050
330
2051
330
2052
330
2053
330
2054
330
2055
330
2056
330
2057
330
2058
330
2059
330
205A
330
205B
330
205C
330
205D
330
205E
330
205F
330
2060
330
2061
330
2062
330
2063
330
2064
330
2065
330
2066
330
2069
330
206A
330
206B
330
206C
330
206D
330
206E
330
206F
330
2070
330
2071
330
2072
330
2073
330
2074
330
2075
330
2076
330
2077
330
2078
330
2079
330
207A
330
207B
330
207C
330
207D
330
207E
330
207F
330
2082
330
2083
330
2084
330
2085
330
2086
330
2087
330
2088
330
2089
330
208A
330
208B
330
208C
330
208D
330
208E
330
208F
330
2090
330
2091
330
2092
330
2093
330
2094
330
2095
330
2096
330
2097
330
2098
330
21FC
330
21FD
330
2202
330
2204
330
220C
330
220E
330
2224
330
2225
330
2226
330
2228
330
2229
330
222A
330
222B
330
222C
330
222D
330
222E
330
222F
330
2230
330
2231
330
2232
330
2233
330
2234
330
2235
  0
IDBUFFER
  5
209F
330
0
100
AcDbIdBuffer
330
402
330
40C
330
40D
330
412
330
45A
330
45B
330
45C
330
45E
330
462
330
469
330
46B
330
46C
330
46D
330
470
330
471
330
472
330
485
330
48F
330
4B5
330
4B6
330
4BA
330
4BC
330
4BD
330
4CB
330
4CD
330
4CE
330
4CF
330
4D0
330
4D1
330
4DD
330
4E6
330
4F1
330
554
330
557
330
578
330
596
330
5B4
330
5E4
330
627
330
628
330
62D
330
6CC
330
99C
330
9DF
330
9E0
330
A05
330
A06
330
1CE0
330
1D12
330
1D41
330
1D63
330
1D8D
330
1D8E
330
1EBE
330
1EF7
330
20C3
330
2102
330
2104
330
2106
330
215E
330
2184
330
2192
330
21A0
330
21AE
330
21B0
330
21B1
330
21B2
330
21F4
330
21F5
330
21F7
330
21F8
330
21FA
330
21FB
330
21FF
330
2200
330
2201
330
2203
330
2205
330
2206
330
2208
330
2209
330
220A
330
220B
330
220D
330
220F
  0
IDBUFFER
  5
20A0
330
0
100
AcDbIdBuffer
330
43B
330
43C
330
43D
330
43E
330
43F
330
440
330
441
330
445
330
446
330
447
330
448
330
449
330
44A
330
44B
330
571
330
59B
330
59C
330
59D
330
59E
330
5A2
330
5A4
330
5A9
330
5AB
330
5C2
330
5C6
330
5C7
330
5C8
330
5C9
330
5CA
330
5CB
330
5D1
330
5D2
330
5D3
330
5D4
330
5D5
330
5D6
330
5D8
330
5E6
330
5E7
330
5EC
330
5ED
330
5EE
330
5EF
330
5FC
330
5FD
330
5FE
330
5FF
330
60E
330
60F
330
611
330
624
330
625
330
697
330
698
330
69C
330
69D
330
6A0
330
772
330
773
330
77A
330
77B
330
781
330
8CE
330
8CF
330
8D0
330
8D1
330
8D2
330
8D3
330
9E1
330
9ED
330
AAA
330
AAB
330
AAC
330
AAD
330
AAE
330
AAF
330
AB0
330
AB1
330
AB2
330
1D0B
330
1D0C
330
1D0D
330
1D0E
330
1D0F
330
1D3A
330
1D3B
330
1D3C
330
1D3D
330
1D3E
330
1EF2
330
1EF3
330
1EF4
330
1EF5
330
1EFE
330
1EFF
330
1F00
330
1F01
330
1F03
330
1F04
330
1F05
330
1F06
330
2016
330
2017
330
2018
330
2019
330
201B
330
201C
330
201D
330
201E
330
2024
330
2025
330
2029
330
202A
  0
IDBUFFER
  5
20A2
330
0
100
AcDbIdBuffer
330
996
330
999
330
99A
330
99B
330
99D
330
9A1
330
9A4
330
9A5
330
A7E
330
A7F
330
A80
330
A81
330
1D67
330
1D68
330
21F6
330
21F9
330
21FE
330
2207
  0
IDBUFFER
  5
20A3
330
0
100
AcDbIdBuffer
  0
XRECORD
  5
2298
102
{ACAD_REACTORS
330
2242
102
}
330
2242
100
AcDbXrecord
280
     1
102
MATERIAL
148
0.0
149
0.0
149
0.0
 93
        0
 94
      127
282
     0
 72
     0
 77
     0
171
     0
175
     0
179
     0
273
     0
  0
XRECORD
  5
2244
102
{ACAD_REACTORS
330
2242
102
}
330
2242
100
AcDbXrecord
280
     1
270
     1
271
     1
  0
XRECORD
  5
2243
102
{ACAD_REACTORS
330
2242
102
}
330
2242
100
AcDbXrecord
280
     1
270
     1
271
     1
  0
XRECORD
  5
2247
102
{ACAD_REACTORS
330
2242
102
}
330
2242
100
AcDbXrecord
280
     1
270
     1
271
     1
  0
XRECORD
  5
2246
102
{ACAD_REACTORS
330
2242
102
}
330
2242
100
AcDbXrecord
280
     1
270
     1
271
     1
  0
XRECORD
  5
2248
102
{ACAD_REACTORS
330
2242
102
}
330
2242
100
AcDbXrecord
280
     1
270
     1
271
     1
  0
XRECORD
  5
2245
102
{ACAD_REACTORS
330
2242
102
}
330
2242
100
AcDbXrecord
280
     1
270
     1
271
     1
  0
XRECORD
  5
2297
102
{ACAD_REACTORS
330
223A
102
}
330
223A
100
AcDbXrecord
280
     1
102
MATERIAL
148
0.0
149
0.0
149
0.0
 93
        0
 94
      127
282
     0
 72
     0
 77
     0
171
     0
175
     0
179
     0
273
     0
  0
XRECORD
  5
223C
102
{ACAD_REACTORS
330
223A
102
}
330
223A
100
AcDbXrecord
280
     1
270
     1
271
     1
  0
XRECORD
  5
223B
102
{ACAD_REACTORS
330
223A
102
}
330
223A
100
AcDbXrecord
280
     1
270
     1
271
     1
  0
XRECORD
  5
223F
102
{ACAD_REACTORS
330
223A
102
}
330
223A
100
AcDbXrecord
280
     1
270
     1
271
     1
  0
XRECORD
  5
223E
102
{ACAD_REACTORS
330
223A
102
}
330
223A
100
AcDbXrecord
280
     1
270
     1
271
     1
  0
XRECORD
  5
2240
102
{ACAD_REACTORS
330
223A
102
}
330
223A
100
AcDbXrecord
280
     1
270
     1
271
     1
  0
XRECORD
  5
223D
102
{ACAD_REACTORS
330
223A
102
}
330
223A
100
AcDbXrecord
280
     1
270
     1
271
     1
  0
XRECORD
  5
2299
102
{ACAD_REACTORS
330
224A
102
}
330
224A
100
AcDbXrecord
280
     1
102
MATERIAL
148
0.0
149
0.0
149
0.0
 93
        0
 94
      127
282
     0
 72
     0
 77
     0
171
     0
175
     0
179
     0
273
     0
  0
XRECORD
  5
224C
102
{ACAD_REACTORS
330
224A
102
}
330
224A
100
AcDbXrecord
280
     1
270
     1
271
     1
  0
XRECORD
  5
224B
102
{ACAD_REACTORS
330
224A
102
}
330
224A
100
AcDbXrecord
280
     1
270
     1
271
     1
  0
XRECORD
  5
224F
102
{ACAD_REACTORS
330
224A
102
}
330
224A
100
AcDbXrecord
280
     1
270
     1
271
     1
  0
XRECORD
  5
224E
102
{ACAD_REACTORS
330
224A
102
}
330
224A
100
AcDbXrecord
280
     1
270
     1
271
     1
  0
XRECORD
  5
2250
102
{ACAD_REACTORS
330
224A
102
}
330
224A
100
AcDbXrecord
280
     1
270
     1
271
     1
  0
XRECORD
  5
224D
102
{ACAD_REACTORS
330
224A
102
}
330
224A
100
AcDbXrecord
280
     1
270
     1
271
     1
  0
CELLSTYLEMAP
  5
2295
102
{ACAD_REACTORS
330
2294
102
}
330
2294
100
AcDbCellStyleMap
 90
        3
300
CELLSTYLE
  1
TABLEFORMAT_BEGIN
 90
        5
170
     1
 91
        0
 92
    32768
 62
   257
 93
        1
300
CONTENTFORMAT
  1
CONTENTFORMAT_BEGIN
 90
        0
 91
        0
 92
      512
 93
        0
300

 40
0.0
140
1.0
 94
        5
 62
     0
340
F
144
6.0
309
CONTENTFORMAT_END
171
     1
301
MARGIN
  1
CELLMARGIN_BEGIN
 40
1.5
 40
1.5
 40
1.5
 40
1.5
 40
4.5
 40
4.5
309
CELLMARGIN_END
 94
        6
 95
        1
302
GRIDFORMAT
  1
GRIDFORMAT_BEGIN
 90
        0
 91
        1
 62
     0
 92
       -2
340
0
 93
        0
 40
1.125
309
GRIDFORMAT_END
 95
        2
302
GRIDFORMAT
  1
GRIDFORMAT_BEGIN
 90
        0
 91
        1
 62
     0
 92
       -2
340
0
 93
        0
 40
1.125
309
GRIDFORMAT_END
 95
        4
302
GRIDFORMAT
  1
GRIDFORMAT_BEGIN
 90
        0
 91
        1
 62
     0
 92
       -2
340
0
 93
        0
 40
1.125
309
GRIDFORMAT_END
 95
        8
302
GRIDFORMAT
  1
GRIDFORMAT_BEGIN
 90
        0
 91
        1
 62
     0
 92
       -2
340
0
 93
        0
 40
1.125
309
GRIDFORMAT_END
 95
       16
302
GRIDFORMAT
  1
GRIDFORMAT_BEGIN
 90
        0
 91
        1
 62
     0
 92
       -2
340
0
 93
        0
 40
1.125
309
GRIDFORMAT_END
 95
       32
302
GRIDFORMAT
  1
GRIDFORMAT_BEGIN
 90
        0
 91
        1
 62
     0
 92
       -2
340
0
 93
        0
 40
1.125
309
GRIDFORMAT_END
309
TABLEFORMAT_END
  1
CELLSTYLE_BEGIN
 90
        1
 91
        1
300
_TITLE
309
CELLSTYLE_END
300
CELLSTYLE
  1
TABLEFORMAT_BEGIN
 90
        5
170
     1
 91
        0
 92
        0
 62
   257
 93
        1
300
CONTENTFORMAT
  1
CONTENTFORMAT_BEGIN
 90
        0
 91
        0
 92
      512
 93
        0
300

 40
0.0
140
1.0
 94
        5
 62
     0
340
F
144
4.5
309
CONTENTFORMAT_END
171
     1
301
MARGIN
  1
CELLMARGIN_BEGIN
 40
1.5
 40
1.5
 40
1.5
 40
1.5
 40
4.5
 40
4.5
309
CELLMARGIN_END
 94
        6
 95
        1
302
GRIDFORMAT
  1
GRIDFORMAT_BEGIN
 90
        0
 91
        1
 62
     0
 92
       -2
340
0
 93
        0
 40
1.125
309
GRIDFORMAT_END
 95
        2
302
GRIDFORMAT
  1
GRIDFORMAT_BEGIN
 90
        0
 91
        1
 62
     0
 92
       -2
340
0
 93
        0
 40
1.125
309
GRIDFORMAT_END
 95
        4
302
GRIDFORMAT
  1
GRIDFORMAT_BEGIN
 90
        0
 91
        1
 62
     0
 92
       -2
340
0
 93
        0
 40
1.125
309
GRIDFORMAT_END
 95
        8
302
GRIDFORMAT
  1
GRIDFORMAT_BEGIN
 90
        0
 91
        1
 62
     0
 92
       -2
340
0
 93
        0
 40
1.125
309
GRIDFORMAT_END
 95
       16
302
GRIDFORMAT
  1
GRIDFORMAT_BEGIN
 90
        0
 91
        1
 62
     0
 92
       -2
340
0
 93
        0
 40
1.125
309
GRIDFORMAT_END
 95
       32
302
GRIDFORMAT
  1
GRIDFORMAT_BEGIN
 90
        0
 91
        1
 62
     0
 92
       -2
340
0
 93
        0
 40
1.125
309
GRIDFORMAT_END
309
TABLEFORMAT_END
  1
CELLSTYLE_BEGIN
 90
        2
 91
        1
300
_HEADER
309
CELLSTYLE_END
300
CELLSTYLE
  1
TABLEFORMAT_BEGIN
 90
        5
170
     1
 91
        0
 92
        0
 62
   257
 93
        1
300
CONTENTFORMAT
  1
CONTENTFORMAT_BEGIN
 90
        0
 91
        0
 92
      512
 93
        0
300

 40
0.0
140
1.0
 94
        2
 62
     0
340
F
144
4.5
309
CONTENTFORMAT_END
171
     1
301
MARGIN
  1
CELLMARGIN_BEGIN
 40
1.5
 40
1.5
 40
1.5
 40
1.5
 40
4.5
 40
4.5
309
CELLMARGIN_END
 94
        6
 95
        1
302
GRIDFORMAT
  1
GRIDFORMAT_BEGIN
 90
        0
 91
        1
 62
     0
 92
       -2
340
0
 93
        0
 40
1.125
309
GRIDFORMAT_END
 95
        2
302
GRIDFORMAT
  1
GRIDFORMAT_BEGIN
 90
        0
 91
        1
 62
     0
 92
       -2
340
0
 93
        0
 40
1.125
309
GRIDFORMAT_END
 95
        4
302
GRIDFORMAT
  1
GRIDFORMAT_BEGIN
 90
        0
 91
        1
 62
     0
 92
       -2
340
0
 93
        0
 40
1.125
309
GRIDFORMAT_END
 95
        8
302
GRIDFORMAT
  1
GRIDFORMAT_BEGIN
 90
        0
 91
        1
 62
     0
 92
       -2
340
0
 93
        0
 40
1.125
309
GRIDFORMAT_END
 95
       16
302
GRIDFORMAT
  1
GRIDFORMAT_BEGIN
 90
        0
 91
        1
 62
     0
 92
       -2
340
0
 93
        0
 40
1.125
309
GRIDFORMAT_END
 95
       32
302
GRIDFORMAT
  1
GRIDFORMAT_BEGIN
 90
        0
 91
        1
 62
     0
 92
       -2
340
0
 93
        0
 40
1.125
309
GRIDFORMAT_END
309
TABLEFORMAT_END
  1
CELLSTYLE_BEGIN
 90
        3
 91
        2
300
_DATA
309
CELLSTYLE_END
  0
XRECORD
  5
229A
102
{ACAD_REACTORS
330
2294
102
}
330
2294
100
AcDbXrecord
280
     1
102
ACAD_ROUNDTRIP_PRE2007_TABLESTYLE
 90
      512
 91
        0
  1

 92
      512
 93
        0
  2

 94
      512
 95
        0
  3

  0
ACAD_PROXY_OBJECT
  5
1364
330
1363
100
AcDbProxyObject
 90
      499
 91
      544
 95
   851991
 70
     0
 93
       96
310
57020E80A0280A0280A0280800
 94
        0
  0
ACAD_PROXY_OBJECT
  5
1365
330
1363
100
AcDbProxyObject
 90
      499
 91
      545
 95
   851991
 70
     0
 93
      332
310
5710E405014050140501405014050140501405014250140501405014050140501200000000000000040C
340
BF5
 94
        0
  0
ACAD_PROXY_OBJECT
  5
1366
330
1363
100
AcDbProxyObject
 90
      499
 91
      546
 95
   851991
 70
     0
 93
      402
310
570C199999999999E99F91F405014050140501405014050140501405014050140501405014050140501405014050140501404C
340
0
 94
        0
  0
ACAD_PROXY_OBJECT
  5
1367
330
1363
100
AcDbProxyObject
 90
      499
 91
      547
 95
   851991
 70
     0
 93
       10
310
570C
 94
        0
  0
ACAD_PROXY_OBJECT
  5
1368
330
1363
100
AcDbProxyObject
 90
      499
 91
      548
 95
   851991
 70
     0
 93
      223
310
572290EA22A7D90F49F9353333333333727F44D4CCCCCCCCCDC9FA04
340
BE9
340
BEA
 94
        0
  0
ACAD_PROXY_OBJECT
  5
1369
330
1363
100
AcDbProxyObject
 90
      499
 91
      549
 95
   851991
 70
     0
 93
    12881
310
5710E4112551153501411413D4CB901405014069011349A4F2590CB64FD3347454E545241434F2C4954412C302C504F532E2C47454E54524154582C25732C2847454E4D53472067656E647767203232322940690120281A8AA2CA0281A8AA602028120280A03202269349E4B2196C9FA648E8A9CA8A482869E5892A8825860
310
58A2A980588E8A9CA8A482A8B0584AE658508E8A9C9AA68E40CECADCC8EECE406464665280D202405044E414D45405044E4F4D454051C40640A8BA5C2E97CBE502404CD1D15395149050D3CB1255104B0C0B1393D3514B11D15395149055160B095CCB0A11D1539354D1C819D95B991DD9C80C8C8D8A50190B3D424C4F434B
310
3A4E414D4540480A0A888AA686A480A16888AA686A492B4929E9C8A80A3A80C81D10782C06030180C809D23A2A72A2920A1A79624AA209618162222A9A1A924AD24A7A7229623A2A72A2920AA2C1612B9961423A2A726A9A39033B2B7323BB39019189B94A024809014214D51053911054911014214D510539110549110147
310
501904A383BFDFEFF5FBFCFD3747454E545241434F2C4954412C302C5354414E444152442C47454E54524154582C25732C2847454E4D53472067656E64776720323138294049012028426A0AA22A924A0A620284A6A0AA22A924A0A622A028EA0320B41416D838E9017D9FA708E8A9CA8A482869E5892A8825860589A82A88
310
AA49282988A588E8A9CA8A482A8B0584AE658508E8A9C9AA68E40CECADCC8EECE406464625280D202405044E4F5445405044E4F54414051D40641A8BA5C2E97CBE5F23F4CD1D15395149050D3CB1255104B0C0B1393D5104B11D15395149055160B095CCB0A11D1539354D1C819D95B991DD9C80C8C8D4A501A40480A0CAC8
310
A9C889EA480A128C9EA49C92A89EA48A80A3A80C83D174B85D2F97CBE47E9C23A2A72A2920A1A79624AA209618162327A92724AA27A9229623A2A72A2920AA2C1612B9961423A2A726A9A39033B2B7323BB39019191A14A0348090141911154D0D48C90143511154D0D492569253D391480C90147501908A20F0580C060301
310
9013B47454E545241434F2C4954412C302C4445534352495A494F4E4520322C47454E54524154582C25732C2847454E4D53472067656E6477672033362940490120284A9AA20A72220A922192028529AA20A72220A92210192028EA0321347077FBFDFEBF7F9FA728E8A9CA8A482869E5892A882586058A6A8829C8882A488
310
4064588E8A9CA8A482A8B0584AE658508E8A9C9AA68E40CECADCC8EECE4064646052809202405094D4154455249414C324050B4D4154455249414C4520324051D40642A8282DB071D202FB3F4E51D15395149050D3CB1255104B0C0B135055115492505311480C8B11D15395149055160B095CCB0A11D1539354D1C819D95B
310
991DD9C80D0C0A501240480A089A82A6A680A0A9A82A6A68280A3A80A0485A0681174B85D2F97CBE47E99A3A2A72A2920A1A79624AA2096181626A0A9A9A09623A2A72A2920AA2C1612B9961423A2A726A9A39033B2B7323BB3901A1914A024809014154149250D150141941491569693D01475014090C409022E970BA5F2F
310
97C8FD3447454E545241434F2C4954412C302C5052455A5A4F2C47454E54524154582C25732C2847454E4D53472067656E6477672034332940490120281A224A6A028326A4A9AAA920A028EA028121A81A045D2E174BE5F2F91FA688E8A9CA8A482869E5892A8825860589A92A6AAA482588E8A9CA8A482A8B0584AE658508
310
E8A9C9AA68E40CECADCC8EECE406868528092024050E441022E07A17AD46E338FD1E004062B355AAD56AB7D8FCACD56AB55AADF63F41CF4F125511534F9014062B355AAD56AB7D8FCACD56AB55AADF63F41CF4F125511534F9014062431F8FC5E0F3B8FC90C7E3F1783CEE3F41CF4F125511534F9014062431F8FC5E0F3B8F
310
C90C7E3F1783CEE3F41CF4F125511534F90140A404ACD56AB55AADF63F2B355AAD56AB7D8FD073D3C4954454D3E405063D3C5154593E405018ACD56AB55AADF63F2B355AAD56AB7D8FD073D3C4954454D3E40640400ACD56AB55AADF63F2B355AAD56AB7D8FE8800000000000002081A0881A068120480A032208521122080
310
D21480D211480A1485214852050000000000003C2FC000000000000F0BF4050241C3BDF4F8D976EA23F0EF7D3E365DBA88FCB81E85EB51B8BE3FC80D069014090541D06901A5C0F42F5A8DC5F1FA0483A048098A0280CC
340
0
340
0
 94
        0
  0
ACAD_PROXY_OBJECT
  5
136A
330
1363
100
AcDbProxyObject
 90
      499
 91
      550
 95
   851991
 70
     0
 93
      960
310
5700B81E85EB51B8CE3F4BCF511155105253080F11115510525317D3105091530F971414D0D05311480F11115510525317D05094D4D0D053114F92341C9A9999999999B93F26A666666666724FC000000000000E03F40000000000000040000000000000051000000000000002440478B81E85EB51B8CE3F00
340
BE5
340
BF4
 94
        0
  0
ACAD_PROXY_OBJECT
  5
136B
330
1363
100
AcDbProxyObject
 90
      499
 91
      551
 95
   851991
 70
     0
 93
      745
310
570031703D0BD6A3719C7E999EA9A2A1AA24A7A7101E29A2A1AA24A7A72FA620A122A62FA324A929AA1F169E29A2A1AA24A7A72FA620A122A62FA620A9AA1F1353333333333B27EFF41C8823C4D4CCCCCCCCCEC9FC5C0F42F5A8DC671FCC
340
BE5
340
BF4
 94
        0
  0
ACAD_PROXY_OBJECT
  5
136C
330
1363
100
AcDbProxyObject
 90
      499
 91
      552
 95
   851991
 70
     0
 93
      279
310
5702B8716D9CEF7C33F0A5723F0BD4A2F0FC295C8FC2F528BC3FA199999999999F99FC
 94
        0
  0
ACAD_PROXY_OBJECT
  5
136D
330
1363
100
AcDbProxyObject
 90
      499
 91
      553
 95
   851991
 70
     0
 93
     5890
310
571084050B90142A40502405094D6F64656C6C6F2031405EA3D3C696628657175616C28486F6C653A7461707065642C223022292C222525632220486F6C653A6469612C20486F6C653A6E6F6D696E616C2022202220696628657175616C28486F6C653A756E6974732C223122292C2278222C222D22292022202220486F6C6
310
53A706974636864657363293E207B5C46414D4744543B787D203C696628657175616C28486F6C653A7465726D696E6174696F6E2C223022292C486F6C653A64657074682C225448525522293E5C507B5C46414D4744543B767D2525633C486F6C653A63746469613E207B5C46414D4744543B787D203C486F6C653A6374646
310
57074683E40640503405094D6F64656C6C6F2031405E33D3C696628657175616C28486F6C653A7461707065642C223022292C222525632220486F6C653A6469612C20486F6C653A6E6F6D696E616C2022202220696628657175616C28486F6C653A756E6974732C223122292C2278222C222D22292022202220486F6C653A7
310
06974636864657363293E207B5C46414D4744543B787D203C696628657175616C28486F6C653A7465726D696E6174696F6E2C223022292C486F6C653A64657074682C225448525522293E5C507B5C46414D4744543B777D2525633C486F6C653A63746469613E2058203C486F6C653A6374616E676C653E252564406405014
310
05094D6F64656C6C6F2031405B43D3C696628657175616C28486F6C653A7461707065642C223022292C222525632220486F6C653A6469612C20486F6C653A6E6F6D696E616C2022202220696628657175616C28486F6C653A756E6974732C223122292C2278222C222D22292022202220486F6C653A7069746368646573632
310
93E5C507B5C46414D4744543B787D203C696628657175616C28486F6C653A7465726D696E6174696F6E2C223022292C486F6C653A64657074682C225448525522293E4064051E405094D6F64656C6C6F20314050C3D3C535444503A444553433E40640515A8C
 94
        0
  0
ACAD_PROXY_OBJECT
  5
136E
330
1363
100
AcDbProxyObject
 90
      499
 91
      538
 95
   851991
 70
     0
 93
       20
310
57101C
340
0
 94
        0
  0
ACAD_PROXY_OBJECT
  5
136F
330
1363
100
AcDbProxyObject
 90
      499
 91
      539
 95
   851991
 70
     0
 93
      258
310
57102000000000000380FC000000000000E03F408F0F9023C3E40DB18CCCFFFF8C
340
BF7
340
0
340
0
340
BF8
340
BF9
340
0
340
BFA
340
BFB
340
BFC
340
0
 94
        0
  0
ACAD_PROXY_OBJECT
  5
1370
330
1363
100
AcDbProxyObject
 90
      499
 91
      554
 95
   851991
 70
     0
 93
    13409
310
5711A023FFFFFFFD010300002E07A17AD46E2F8FC09010300002E07A17AD46E2F8FC080511454C454E434F20434F4F5244494E415445015011D15395149050D3CB1255104B0C0B1153115390D3C810D3D3D49112539055114B11D15395149055160B095CCB0A11D1539354D1C819D95B991A5B5E880CCC0A78000C00000000
310
0000000000000000000000007B14AE47E17AA43F2E07A17AD46E2F8FD021EC52B91F85EA90FCB81E85EB51B8BE3F40A014315105091531310481193D4924053B47454E545241434F2C4954412C302C544142454C4C4120464F52492C47454E54524154582C25732C2847454E4D53472067656E64696D7A20333129E0003000
310
000000000000000000000000000001EC52B91F85EA90FCB81E85EB51B8BE3F4087B14AE47E17AA43F2E07A17AD46E2F8FD0290B4410F4450240D04415014391244D05449074510C4350F000141D3D49251D253914053547454E545241434F2C4954412C302C4F524947494E452C47454E54524154582C25732C2847454E4D5
310
3472067656E64696D7A20312900010105002214000283A7A924A3A4A72280A6A8E8A9CA8A482869E5892A8825860589EA4928E929C8A588E8A9CA8A482A8B0584AE658508E8A9C9AA68E40CECADCC8D2DAF4406252000202080043E8000504464F524F014C91D15395149050D3CB1255104B0C0B1193D493CB11D153951490
310
55160B095CCB0A11D1539354D1C819D95B991A5B5E880C8A405163D3C486F6C654974656D3E3C486F6C65496E6465783E010104002234000280AC00A5E8E8A9CA8A482869E5892A882586058B0588E8A9CA8A482A8B0584AE658508E8A9C9AA68E40CECADCC8D2DAF4406652000202000040A800050159014BD1D153951490
310
50D3CB1255104B0C0B164B11D15395149055160B095CCB0A11D1539354D1C819D95B991A5B5E880D0A4000404000081D0000A02A40297A3A2A72A2920A1A79624AA20961816291623A2A72A2920AA2C1612B9961423A2A726A9A39033B2B73234B6BD101B148000808000104A000141954ACC0D0D0D0053447454E54524143
310
4F2C4954412C302C552B303434342C47454E54524154582C25732C2847454E4D53472067656E64696D7A203729000101030020B40002822827A99700A668E8A9CA8A482869E5892A882586058A09EA65C588E8A9CA8A482A8B0584AE658508E8A9C9AA68E40CECADCC8D2DAF4406268520002020A004068000506494E44494
310
345014D51D15395149050D3CB1255104B0C0B1253911250D14B11D15395149055160B095CCB0A11D1539354D1C819D95B991A5B5E880C4D4A400040414008750000A088C9EA49E0299A3A2A72A2920A1A79624AA209618162327A9279623A2A72A2920AA2C1612B9961423A2A726A9A39033B2B73234B6BD10189B14800080
310
8200112A000142D253911250D1481193D493C053A47454E545241434F2C4954412C302C494E4449434520464F524F2C47454E54524154582C25732C2847454E4D53472067656E64696D7A20313729000101050022740002819292A180A628E8A9CA8A482869E5892A8825860584A4A86588E8A9CA8A482A8B0584AE658508E
310
8A9C9AA68E40CECADCC8D2DAF4407052000202020041E80005035154C0014C91D15395149050D3CB1255104B0C0B1455300B11D15395149055160B095CCB0A11D1539354D1C819D95B991A5B5E880C4E4A400040418008A50000A16888AA686A492B4929E9C8A029D23A2A72A2920A1A79624AA209618162222A9A1A924AD2
310
4A7A7229623A2A72A2920AA2C1612B9961423A2A726A9A39033B2B73234B6BD10191814800080020010CA00014214D51053911054910053747454E545241434F2C4954412C302C5354414E444152442C47454E54524154582C25732C2847454E4D53472067656E64696D7A20323129000100040021B4878030026A66666666
310
67A4FE064D4CCCCCCCCCF49FC049A9999999999E93F809353333333333D27F0226A6666666667A4FE044D4CCCCCCCCCF49FC009A9999999999D93F801353333333333D27F0026A6666666667A4FE004D4CCCCCCCCCF49FC0D819703D0BD6A371BC7F03000000000000001020633B333333333032050F006004D4CCCCCCCCCF
310
49FC0C9A9999999999E93F819353333333333D27F0326A6666666667A4FE064D4CCCCCCCCCF49FC0C9A9999999999E93F801353333333333B27F0026A6666666667A4FE064D4CCCCCCCCCF49FC009A9999999999E93F81B032E07A17AD46E378FE06000000000000002040C6766666666660640A088800000021E000000890
310
000002260000008220E00020089000000206000200810000804C
340
0
340
0
340
0
340
0
 94
        0
  0
ACAD_PROXY_OBJECT
  5
1371
330
1363
100
AcDbProxyObject
 90
      499
 91
      541
 95
   851991
 70
     0
 93
     5766
310
5719741105394D2506414E53495F4342905394D257D512551554D15414E53495F54525F5265766973696F6E6C697374614191243202831372E307832322E30706F6C6C2E2941905394D257D0D1246202832382E307834302E30706F6C6C2E2941905394D257D1911412028382E357831312E30706F6C6C2E2941905394D257
310
D051242202831312E307831372E30706F6C6C2E2941905394D257D091244202832322E307833342E30706F6C6C2E2941905394D257D111245202833342E307834342E30706F6C6C2E2941905394D257D150544505394D24810D85C9D1A59DB1A5BC81050D0C414E53495F5449544C4541434310D85C9D1A59DB1A5BC81554D
310
0A414E53495F544954555344105394D24810D85C9D1A59DB1A5BC81050B414E53495F5449544C454144105394D24810D85C9D1A59DB1A5BC81110B414E53495F5449544C454444505394D24810D85C9D1A59DB1A5BC81110D0C414E53495F5449544C45444342116456C656E636F207265766973696F6E6920445F54525F45
310
505394D257D51497D4995D9A5CDA5BDB9B1A5CDD19116456C656E636F207265766973696F6E6920415F424C5F45505394D257D09317D4995D9A5CDA5BDB9B1A5CDD18516456C656E636F207265766973696F6E6920415F544C5F45505394D257D51317D4995D9A5CDA5BDB9B1A5CDD18516456C656E636F207265766973696
310
F6E6920445F424C5F45505394D257D09317D4995D9A5CDA5BDB9B1A5CDD19116456C656E636F207265766973696F6E6920445F544C5F45505394D257D51317D4995D9A5CDA5BDB9B1A5CDD19116456C656E636F207265766973696F6E6920415F42525F45505394D257D09497D4995D9A5CDA5BDB9B1A5CDD18516456C656E
310
636F207265766973696F6E6920415F54525F45505394D257D51497D4995D9A5CDA5BDB9B1A5CDD18516456C656E636F207265766973696F6E6920445F42525F45505394D257D09497D4995D9A5CDA5BDB9B1A5CDD190
 94
        0
  0
ACAD_PROXY_OBJECT
  5
A57
330
A4B
100
AcDbProxyObject
 90
      499
 91
      527
 95
   851991
 70
     0
 93
       12
310
571C
 94
        0
  0
ACAD_PROXY_OBJECT
  5
A58
330
A4B
100
AcDbProxyObject
 90
      499
 91
      528
 95
   851991
 70
     0
 93
       96
310
572A0E80A0280A0280A0280FF0
 94
        0
  0
ACAD_PROXY_OBJECT
  5
A59
330
A4B
100
AcDbProxyObject
 90
      499
 91
      529
 95
   851991
 70
     0
 93
      272
310
5710E4050140501405014050140501405014050140D01405012C00000000000000406C
340
A62
 94
        0
  0
ACAD_PROXY_OBJECT
  5
A5A
330
A4B
100
AcDbProxyObject
 90
      499
 91
      530
 95
   851991
 70
     0
 93
      496
310
5728666666666667A67E199999999999E99FD22405014050140501405014050140501405014050140501405014050140501405014050140501405014050140
340
A63
 94
        0
  0
ACAD_PROXY_OBJECT
  5
A5B
330
A4B
100
AcDbProxyObject
 90
      499
 91
      531
 95
   851991
 70
     0
 93
       10
310
570C
 94
        0
  0
ACAD_PROXY_OBJECT
  5
A5C
330
A4B
100
AcDbProxyObject
 90
      499
 91
      532
 95
   851991
 70
     0
 93
      223
310
572290EA22A7D90F49F8000000000000108140000000000000420204
340
A64
340
A65
 94
        0
  0
ACAD_PROXY_OBJECT
  5
A5D
330
A4B
100
AcDbProxyObject
 90
      499
 91
      533
 95
   851991
 70
     0
 93
    12879
310
5710E411255115350141141BDCCB90140501406901000000000000091013347454E545241434F2C4954412C302C506F732E2C47454E54524154582C25732C2847454E4D53472067656E647767203232322940690120281A8AA2CA0281A8BA702028120280A0320200000000000012202648E8A9CA8A482869E5892A8825860
310
58A2E9C0588E8A9CA8A482A8B0584AE658508E8A9C9AA68E40CECADCC8EECE406464665280D202405044E414D45405044E6F6D654051C40640A80000000000004E404CD1D15395149050D3CB1255104B0C0B139BDB594B11D15395149055160B095CCB0A11D1539354D1C819D95B991DD9C80C8C8D8A50190B3D424C4F434B
310
3A4E414D4540480A0A888AA686A480A1688CAE6C6E4D2F4D2DEDCCA80A3A80C81D0000000000100A2809D23A2A72A2920A1A79624AA209618162232B9B1B934BD34B7B7329623A2A72A2920AA2C1612B9961423A2A726A9A39033B2B7323BB39019189B94A034809014214D51053911054911014214DD185B99185C9910147
310
501904A000000000000125013747454E545241434F2C4954412C302C5374616E646172642C47454E54524154582C25732C2847454E4D53472067656E64776720323138294069012028426A0AA22A924A0A620284A6B0BA32B934B0B632A028EA0320B40000000000001CA02708E8A9CA8A482869E5892A8825860589AC2E8C
310
AE4D2C2D8CA588E8A9CA8A482A8B0584AE658508E8A9C9AA68E40CECADCC8EECE406464625280D202405044E4F5445405044E6F74614051D40641A80000000000003E404CD1D15395149050D3CB1255104B0C0B139BDD184B11D15395149055160B095CCB0A11D1539354D1C819D95B991DD9C80C8C8D4A501240480A0CAC8
310
A9C889EA480A128CDEE4DCD2E8DEE4CA80A3A80C83D00000000000007C809C23A2A72A2920A1A79624AA209618162337B93734BA37B9329623A2A72A2920AA2C1612B9961423A2A726A9A39033B2B7323BB39019191A14A0248090141911154D0D48C9014351195CD8DC9A5E9A5BDB99480C90147501908A00000000002014
310
5013B47454E545241434F2C4954412C302C4465736372697A696F6E6520322C47454E54524154582C25732C2847454E4D53472067656E6477672033362940490120284A9AA20A72220A922192028529BA30B73230B93210192028EA03213400000000000024A02728E8A9CA8A482869E5892A882586058A6E8C2DCC8C2E4C8
310
4064588E8A9CA8A482A8B0584AE658508E8A9C9AA68E40CECADCC8EECE4064646052809202405094D4154455249414C324050B4D6174657269616C6520324051D40642A8713D0AD7A37045404E51D15395149050D3CB1255104B0C0B13585D195C9A585B19480C8B11D15395149055160B095CCB0A11D1539354D1C819D95B
310
991DD9C80D0C0A501240480A089A82A6A680A0A9AC2E6E6C280A3A80A0485A068100000000000007C8099A3A2A72A2920A1A79624AA2096181626B0B9B9B09623A2A72A2920AA2C1612B9961423A2A726A9A39033B2B7323BB3901A1914A024809014154149250D150141941C995E9E9BD01475014090C4090200000000000
310
00F9013447454E545241434F2C4954412C302C5072657A7A6F2C47454E54524154582C25732C2847454E4D53472067656E6477672034332940490120281A224A6A028326B4B9BAB930A028EA028121A81A040000000000001F202688E8A9CA8A482869E5892A8825860589AD2E6EAE4C2588E8A9CA8A482A8B0584AE658508
310
E8A9C9AA68E40CECADCC8EECE406868528092024050E445020000000000000510107004060000000000000F9000000000000003E4041CF4F125511534F9014060000000000000F9000000000000003E4041CF4F125511534F9014060000000000000D100000000000000344041CF4F125511534F9014060000000000000D10
310
0000000000000344041CF4F125511534F90140A4040000000000003E400000000000000F901073D3C4954454D3E405063D3C5154593E4050180000000000003E400000000000000F901073D3C4954454D3E406404000000000000003E400000000000000F902888000000000000208081A0881A068120480A0322085211220
310
80D21480D211480A1485214852050000000000003C2FC000000000000F0BF4050241CCDCCCCCCCCCCEC3F3373333333333B0FC0000000000000C40480D0590140D04416406800000000000018808120480A026280A02
340
0
340
0
 94
        0
  0
ACAD_PROXY_OBJECT
  5
A5E
330
A4B
100
AcDbProxyObject
 90
      499
 91
      534
 95
   851991
 70
     0
 93
      864
310
5704000000000000144048CF4F11115510525317D3105091530F880A0F11115510525317D05094D4D0D053114F8A51141C9A9999999999B93F26A666666666724FC000000000000E03F4000000000000004000000000000005100000000000000244041C000000000000144000
340
14
340
A56
 94
        0
  0
ACAD_PROXY_OBJECT
  5
A5F
330
A4B
100
AcDbProxyObject
 90
      499
 91
      535
 95
   851991
 70
     0
 93
      745
310
5700B00000000000002880959E9E29A2A1AA24A7A72FA620A122A62FA324A929AA1F169E29A2A1AA24A7A72FA620A122A62FA620A9AA1F00000000000004880FF41C88A0E0000000000001220000000000000028800000000000000A204C
340
97
340
A56
 94
        0
  0
ACAD_PROXY_OBJECT
  5
A60
330
A4B
100
AcDbProxyObject
 90
      499
 91
      536
 95
   851991
 70
     0
 93
      151
310
57280000000000000840A3D0A5723F0BD1F200
 94
        0
  0
ACAD_PROXY_OBJECT
  5
A61
330
A4B
100
AcDbProxyObject
 90
      499
 91
      537
 95
   851991
 70
     0
 93
     5762
310
571084050B90142A40502405094D6F64656C6C6F2031405DC3D2525633C486F6C653A63746469613E2078203C486F6C653A637464657074683E20555C503C696628657175616C28486F6C653A7461707065642C223022292C222525632220486F6C653A6469612C20486F6C653A6E6F6D696E616C20222078202220486F6C6
310
53A70697463686465736320696628657175616C28486F6C653A7461707065642C223122292C222078202220486F6C653A74617064657074682C222229293E203C696628657175616C28486F6C653A7465726D696E6174696F6E2C223022292C22202F202220486F6C653A64657074682C222022293E40640503405094D6F64
310
656C6C6F2031405DD3D2525633C486F6C653A63746469613E2078203C486F6C653A6374616E676C653E2525645C503C696628657175616C28486F6C653A7461707065642C223022292C222525632220486F6C653A6469612C20486F6C653A6E6F6D696E616C20222078202220486F6C653A706974636864657363206966286
310
57175616C28486F6C653A7461707065642C223122292C222078202220486F6C653A74617064657074682C222229293E203C696628657175616C28486F6C653A7465726D696E6174696F6E2C223022292C22202F202220486F6C653A64657074682C222022293E40640501405094D6F64656C6C6F2031405B83D3C696628657
310
175616C28486F6C653A7461707065642C223022292C222525632220486F6C653A6469612C20486F6C653A6E6F6D696E616C20222078202220486F6C653A70697463686465736320696628657175616C28486F6C653A7461707065642C223122292C222078202220486F6C653A74617064657074682C222229293E203C69662
310
8657175616C28486F6C653A7465726D696E6174696F6E2C223022292C22202F202220486F6C653A64657074682C222022293E4064051E405094D6F64656C6C6F20314050C3D3C535444503A444553433E40640515A8C
 94
        0
  0
ACAD_PROXY_OBJECT
  5
A67
330
A4B
100
AcDbProxyObject
 90
      499
 91
      538
 95
   851991
 70
     0
 93
       20
310
57101C
340
A4C
 94
        0
  0
ACAD_PROXY_OBJECT
  5
A68
330
A4B
100
AcDbProxyObject
 90
      499
 91
      539
 95
   851991
 70
     0
 93
      250
310
571020000000000000A1000000000000002440408F0F9023C3E409A0DCFFFF8C
340
A69
340
0
340
0
340
A6A
340
A6B
340
A6C
340
A6D
340
A6E
340
A73
340
0
 94
        0
  0
ACAD_PROXY_OBJECT
  5
A74
330
A4B
100
AcDbProxyObject
 90
      499
 91
      540
 95
   851991
 70
     0
 93
    13755
310
5711A003FFFFFFFD0303000300000000000003100090303000300000000000003100080511456C656E636F20636F6F7264696E617465015011D15395149050D3CB1255104B0C0B115B195B98DBC818DBDBDC991A5B985D194B11D15395149055160B095CCB0A11D1539354D1C819D95B991A5B5E880CCC0A78000C00000000
310
000000000000000000000001000000000000031010240000000000000C4040A0143151858995B1B1848199BDC9A4053B47454E545241434F2C4954412C302C546162656C6C6120666F72692C47454E54524154582C25732C2847454E4D53472067656E64696D7A20333129E000300000000000000000000000000000000400
310
00000000000C40409000000000000031010290D44111409034110541D0C4350F4050E44D03449074510F000141D3DC9A59DA5B994053547454E545241434F2C4954412C302C4F726967696E652C47454E54524154582C25732C2847454E4D53472067656E64696D7A203129000101050022140002822337B93780A648E8A9C
310
A8A482869E5892A8825860588CDEE4DE588E8A9CA8A482A8B0584AE658508E8A9C9AA68E40CECADCC8D2DAF4406452029F9E9E27B934B3B4B71F1E24A31427A91424A9A12620A7259427B934B3B4B7149624A9A12620A7259424B73232BC149496111116111711149F1E24B73232BC1F00808200111A000140560052F47454
310
E545241434F2C4954412C302C582C47454E54524154582C25732C2847454E4D53472067656E64696D7A20332900010100002054000280AC80A5E8E8A9CA8A482869E5892A882586058B2588E8A9CA8A482A8B0584AE658508E8A9C9AA68E40CECADCC8D2DAF4406852000202000040E800050172014BD1D15395149050D3CB
310
1255104B0C0B1C8B11D15395149055160B095CCB0A11D1539354D1C819D95B991A5B5E880D8A400040400008250000A0CAA5660686868029A23A2A72A2920A1A79624AA209618162A95981A1A1A1623A2A72A2920AA2C1612B9961423A2A726A9A39033B2B73234B6BD101B948000808180105A000140C94958C053147454E
310
545241434F2C4954412C302C2525632C47454E54524154582C25732C2847454E4D53472067656E64696D7A203829000101010020F4000285A232B9B1B934BD34B7B73280A748E8A9CA8A482869E5892A88258605888CAE6C6E4D2F4D2DEDCCA588E8A9CA8A482A8B0584AE658508E8A9C9AA68E40CECADCC8D2DAF44064605
310
2000200080043280005085374616E64617264014DD1D15395149050D3CB1255104B0C0B14DD185B99185C990B11D15395149055160B095CCB0A11D1539354D1C819D95B991A5B5E880C8C4A4000400100086D0000A0E9EE4D2CED2DCCA029AA3A2A72A2920A1A79624AA2096181627B934B3B4B7329623A2A72A2920AA2C16
310
12B9961423A2A726A9A39033B2B73234B6BD10189480A026202020A0043E8000504506F732E014CD1D15395149050D3CB1255104B0C0B141BDCCB8B11D15395149055160B095CCB0A11D1539354D1C819D95B991A5B5E880C4D0A4000404140080D0000A0C92DCC8D2C6CA029AA3A2A72A2920A1A79624AA2096181624B732
310
34B1B29623A2A72A2920AA2C1612B9961423A2A726A9A39033B2B73234B6BD10189A94800080828010EA000142D25B991A58D948199BDC9BC053A47454E545241434F2C4954412C302C496E6469636520666F726F2C47454E54524154582C25732C2847454E4D53472067656E64696D7A20313729000101050022740002822
310
337B93780A668E8A9CA8A482869E5892A8825860588CDEE4DE588E8A9CA8A482A8B0584AE658508E8A9C9AA68E40CECADCC8D2DAF440626C52000202080044A80005035174E0014C91D15395149050D3CB1255104B0C0B145D380B11D15395149055160B095CCB0A11D1539354D1C819D95B991A5B5E880C4E4A4000404180
310
08A521E000000000000001CA040C00000000000034408080000000000006881010000000000000D102040000000000001A204080000000000003440818000000000000728103000000000000125020600000000004028A040000000000000034408000000000000004881000000000000000D102000000000000001A204000
310
000000000003440818000000000000508143C0000000000000039408180000000000006881030000000000000D102060000000000001A2040C00000000000034408180000000000006881030000000000000E5020600000000000024A040C00000000008051408000000000000006881000000000000000910200000000000
310
0001A2040000000000000034408180000000000006881030000000000000A10283A2000000087800000204000000818000002080000008280000020E00000080A24000000C
340
0
340
0
340
0
340
0
 94
        0
  0
ACAD_PROXY_OBJECT
  5
A75
330
A4B
100
AcDbProxyObject
 90
      499
 91
      541
 95
   851991
 70
     0
 93
     7258
310
5719740D254D3D0649534F5F4133429254D3D7D5125513115051349534F5F42525F5265766973696F6E6C69737446111413478342028323937783834316D6D2920421254D3D7D04D1E0D11141327835202835393478323130326D6D29421254D3D7D04C9E0D51141347839202832393778313839326D6D29421254D3D7D04D
310
1E0E51141337837202834323078323038306D6D29421254D3D7D04CDE0DD1141347838202832393778313638326D6D29421254D3D7D04D1E0E11141327834202835393478313638326D6D29421254D3D7D04C9E0D10E41312028353934783834316D6D29419254D3D7D04C51141347837202832393778313437316D6D29421
310
254D3D7D04D1E0DD1141347836202832393778313236316D6D29421254D3D7D04D1E0D91141347835202832393778313035316D6D29421254D3D7D04D1E0D5104130202838343078313138396D6D2920419254D3D7D04C10E41332028323937783432306D6D29419254D3D7D04CD1141327833202835393478313236316D6D
310
29421254D3D7D04C9E0CD10413478332028323937783633306D6D29421254D3D7D04D1E0CD1141337834202834323078313138396D6D29421254D3D7D04CDE0D11141337836202834323078313738336D6D29421254D3D7D04CDE0D91141337835202834323078313438366D6D29421254D3D7D04CDE0D50E4132202834323
310
0783539346D6D29419254D3D7D04C910413378332028343230783839316D6D29421254D3D7D04CDE0CD0E41342028323937783231306D6D29419254D3D7D04D1124130783220283131383978313638326D6D29421254D3D7D04C1E0C9124130783320283131383978323532336D6D29421254D3D7D04C1E0CD114131783420
310
2838343178323337386D6D29421254D3D7D04C5E0D11141317833202838343178313738336D6D29421254D3D7D04C5E0CD0243D254D3C810D85C9D1A59DB1A5BC81050A49534F5F5449544C454143D254D3C810D85C9D1A59DB1A5BC81090A49534F5F5449544C454241114456C656E636F207265766973696F6E695F54525
310
F44D254D3D7D51497D4995D9A5CDA5BDB9B1A5CDD114456C656E636F207265766973696F6E695F424C5F44D254D3D7D09317D4995D9A5CDA5BDB9B1A5CDD114456C656E636F207265766973696F6E695F544C5F44D254D3D7D51317D4995D9A5CDA5BDB9B1A5CDD114456C656E636F207265766973696F6E695F42525F44D2
310
54D3D7D09497D4995D9A5CDA5BDB9B1A5CDD0C
 94
        0
  0
ENDSEC
  0
EOF
