  0
SECTION
  2
HEADER
  9
$ACADVER
  1
AC1014
  9
$ACADMAINTVER
 70
     9
  9
$DWGCODEPAGE
  3
ANSI_1252
  9
$INSBASE
 10
0.0
 20
0.0
 30
0.0
  9
$EXTMIN
 10
-1060.260427153793
 20
675.7418683037546
 30
0.0
  9
$EXTMAX
 10
740.7482721088249
 20
1546.535392629698
 30
0.0
  9
$LIMMIN
 10
0.0
 20
0.0
  9
$LIMMAX
 10
420.0
 20
297.0
  9
$ORTHOMODE
 70
     0
  9
$REGENMODE
 70
     1
  9
$FILLMODE
 70
     1
  9
$QTEXTMODE
 70
     0
  9
$MIRRTEXT
 70
     1
  9
$DRAGMODE
 70
     2
  9
$LTSCALE
 40
20.0
  9
$OSMODE
 70
    37
  9
$ATTMODE
 70
     1
  9
$TEXTSIZE
 40
2.5
  9
$TRACEWID
 40
1.0
  9
$TEXTSTYLE
  7
STANDARD
  9
$CLAYER
  8
DISEGNO
  9
$CELTYPE
  6
BYLAYER
  9
$CECOLOR
 62
   256
  9
$CELTSCALE
 40
1.0
  9
$DELOBJ
 70
     1
  9
$DISPSILH
 70
     0
  9
$DIMSCALE
 40
1.0
  9
$DIMASZ
 40
2.5
  9
$DIMEXO
 40
0.625
  9
$DIMDLI
 40
3.75
  9
$DIMRND
 40
0.0
  9
$DIMDLE
 40
0.0
  9
$DIMEXE
 40
1.25
  9
$DIMTP
 40
0.0
  9
$DIMTM
 40
0.0
  9
$DIMTXT
 40
2.5
  9
$DIMCEN
 40
2.5
  9
$DIMTSZ
 40
0.0
  9
$DIMTOL
 70
     0
  9
$DIMLIM
 70
     0
  9
$DIMTIH
 70
     0
  9
$DIMTOH
 70
     0
  9
$DIMSE1
 70
     0
  9
$DIMSE2
 70
     0
  9
$DIMTAD
 70
     1
  9
$DIMZIN
 70
     8
  9
$DIMBLK
  1

  9
$DIMASO
 70
     1
  9
$DIMSHO
 70
     1
  9
$DIMPOST
  1

  9
$DIMAPOST
  1

  9
$DIMALT
 70
     0
  9
$DIMALTD
 70
     4
  9
$DIMALTF
 40
0.0394
  9
$DIMLFAC
 40
1.0
  9
$DIMTOFL
 70
     1
  9
$DIMTVP
 40
0.0
  9
$DIMTIX
 70
     0
  9
$DIMSOXD
 70
     0
  9
$DIMSAH
 70
     0
  9
$DIMBLK1
  1

  9
$DIMBLK2
  1

  9
$DIMSTYLE
  2
STANDARD
  9
$DIMCLRD
 70
     0
  9
$DIMCLRE
 70
     0
  9
$DIMCLRT
 70
     0
  9
$DIMTFAC
 40
1.0
  9
$DIMGAP
 40
0.625
  9
$DIMJUST
 70
     0
  9
$DIMSD1
 70
     0
  9
$DIMSD2
 70
     0
  9
$DIMTOLJ
 70
     1
  9
$DIMTZIN
 70
     0
  9
$DIMALTZ
 70
     0
  9
$DIMALTTZ
 70
     0
  9
$DIMFIT
 70
     3
  9
$DIMUPT
 70
     0
  9
$DIMUNIT
 70
     8
  9
$DIMDEC
 70
     4
  9
$DIMTDEC
 70
     4
  9
$DIMALTU
 70
     8
  9
$DIMALTTD
 70
     4
  9
$DIMTXSTY
  7
STANDARD
  9
$DIMAUNIT
 70
     0
  9
$LUNITS
 70
     2
  9
$LUPREC
 70
     4
  9
$SKETCHINC
 40
1.0
  9
$FILLETRAD
 40
10.0
  9
$AUNITS
 70
     0
  9
$AUPREC
 70
     0
  9
$MENU
  1
.
  9
$ELEVATION
 40
0.0
  9
$PELEVATION
 40
0.0
  9
$THICKNESS
 40
0.0
  9
$LIMCHECK
 70
     0
  9
$BLIPMODE
 70
     0
  9
$CHAMFERA
 40
5.0
  9
$CHAMFERB
 40
5.0
  9
$CHAMFERC
 40
20.0
  9
$CHAMFERD
 40
0.0
  9
$SKPOLY
 70
     0
  9
$TDCREATE
 40
2452088.782487164
  9
$TDUPDATE
 40
2453142.657702719
  9
$TDINDWG
 40
0.1614416782
  9
$TDUSRTIMER
 40
0.1614416782
  9
$USRTIMER
 70
     1
  9
$ANGBASE
 50
0.0
  9
$ANGDIR
 70
     0
  9
$PDMODE
 70
     0
  9
$PDSIZE
 40
0.0
  9
$PLINEWID
 40
0.0
  9
$COORDS
 70
     1
  9
$SPLFRAME
 70
     0
  9
$SPLINETYPE
 70
     6
  9
$SPLINESEGS
 70
     8
  9
$ATTDIA
 70
     0
  9
$ATTREQ
 70
     1
  9
$HANDLING
 70
  4097
  9
$HANDSEED
  5
52CE
  9
$SURFTAB1
 70
     6
  9
$SURFTAB2
 70
     6
  9
$SURFTYPE
 70
     6
  9
$SURFU
 70
     6
  9
$SURFV
 70
     6
  9
$UCSNAME
  2

  9
$UCSORG
 10
0.0
 20
0.0
 30
0.0
  9
$UCSXDIR
 10
1.0
 20
0.0
 30
0.0
  9
$UCSYDIR
 10
0.0
 20
1.0
 30
0.0
  9
$PUCSNAME
  2

  9
$PUCSORG
 10
0.0
 20
0.0
 30
0.0
  9
$PUCSXDIR
 10
1.0
 20
0.0
 30
0.0
  9
$PUCSYDIR
 10
0.0
 20
1.0
 30
0.0
  9
$USERI1
 70
     0
  9
$USERI2
 70
     0
  9
$USERI3
 70
     0
  9
$USERI4
 70
     0
  9
$USERI5
 70
     0
  9
$USERR1
 40
0.0
  9
$USERR2
 40
0.0
  9
$USERR3
 40
0.0
  9
$USERR4
 40
0.0
  9
$USERR5
 40
0.0
  9
$WORLDVIEW
 70
     1
  9
$SHADEDGE
 70
     3
  9
$SHADEDIF
 70
    70
  9
$TILEMODE
 70
     1
  9
$MAXACTVP
 70
    48
  9
$PINSBASE
 10
0.0
 20
0.0
 30
0.0
  9
$PLIMCHECK
 70
     0
  9
$PEXTMIN
 10
1.000000000000000E+20
 20
1.000000000000000E+20
 30
1.000000000000000E+20
  9
$PEXTMAX
 10
-1.000000000000000E+20
 20
-1.000000000000000E+20
 30
-1.000000000000000E+20
  9
$PLIMMIN
 10
0.0
 20
0.0
  9
$PLIMMAX
 10
420.0
 20
297.0
  9
$UNITMODE
 70
     0
  9
$VISRETAIN
 70
     1
  9
$PLINEGEN
 70
     0
  9
$PSLTSCALE
 70
     1
  9
$TREEDEPTH
 70
  3020
  9
$PICKSTYLE
 70
     1
  9
$CMLSTYLE
  2
STANDARD
  9
$CMLJUST
 70
     0
  9
$CMLSCALE
 40
20.0
  9
$PROXYGRAPHICS
 70
     1
  9
$MEASUREMENT
 70
     1
  0
ENDSEC
  0
SECTION
  2
CLASSES
  0
CLASS
  1
ACDBDICTIONARYWDFLT
  2
AcDbDictionaryWithDefault
  3
AutoCAD 2000
 90
        0
280
     0
281
     0
  0
CLASS
  1
ACDBPLACEHOLDER
  2
AcDbPlaceHolder
  3
AutoCAD 2000
 90
        0
280
     0
281
     0
  0
CLASS
  1
LAYOUT
  2
AcDbLayout
  3
AutoCAD 2000
 90
        0
280
     0
281
     0
  0
CLASS
  1
ACME_DOCUMENT
  2
AcMeDbDoc
  3
AcMeServices
 90
        0
280
     0
281
     0
  0
CLASS
  1
AMGSETTINGSOBJ
  2
AmgSettingsObj
  3
"AcadM|Product Description: AutoCAD Mechanical 2000|Company: Autodesk"
 90
        0
280
     0
281
     0
  0
CLASS
  1
ACMESCOPE
  2
AcMeScope
  3
AcMeServices
 90
        0
280
     0
281
     0
  0
CLASS
  1
ACMECOMMANDHISTORY
  2
AcMeCommandHistory
  3
AcMeServices
 90
        0
280
     0
281
     0
  0
CLASS
  1
ACIMSYSVARMAN
  2
AcImSysVarManager
  3
AcMeServices
 90
        0
280
     0
281
     0
  0
CLASS
  1
ACIMREALSYSVAR
  2
AcImRealSysVar
  3
AcMeServices
 90
        0
280
     0
281
     0
  0
CLASS
  1
ACIMINTSYSVAR
  2
AcImIntSysVar
  3
AcMeServices
 90
        0
280
     0
281
     0
  0
CLASS
  1
ACMEDRAWINGMAN
  2
AcMeDrawingMan
  3
AcMeServices
 90
        0
280
     0
281
     0
  0
CLASS
  1
ACMEVIEW
  2
AcMeView
  3
AcMeServices
 90
        0
280
     0
281
     0
  0
CLASS
  1
ACDBENTITYCACHE
  2
AcMeEntityCache
  3
AcMeServices
 90
        0
280
     0
281
     0
  0
CLASS
  1
GSMANAGER
  2
AcMeGSManager
  3
AcMeServices
 90
        0
280
     0
281
     0
  0
CLASS
  1
AMDTINTERNALREACTOR
  2
AmdtInternalReactor
  3
AcMeServices
 90
        0
280
     0
281
     0
  0
CLASS
  1
ACMESTATEMGR
  2
AcMeStateMgr
  3
AcMeServices
 90
        0
280
     0
281
     0
  0
CLASS
  1
ACGREFMASTER
  2
AcGrefMaster
  3
AcAttribServices
 90
        0
280
     0
281
     0
  0
CLASS
  1
ACME_DATABASE
  2
AcMeDbDatabase
  3
AcMeServices
 90
        0
280
     0
281
     0
  0
CLASS
  1
ACRFINSADJUSTERMGR
  2
AcRfInsAdjusterMgr
  3
AcMeServices
 90
        0
280
     0
281
     0
  0
CLASS
  1
ACGREFACADMASTER
  2
AcGrefacadMaster
  3
AcGrefServices
 90
        0
280
     0
281
     0
  0
CLASS
  1
AMIMASTER
  2
AmiMaster
  3
AmiServices
 90
        0
280
     0
281
     0
  0
CLASS
  1
ACMDATADICTIONARY
  2
AcmDataDictionary
  3
"AcmSymBB|Product Description: AutoCAD Mechanical 2000|Company: Autodesk"
 90
        0
280
     0
281
     0
  0
CLASS
  1
ACMDATAENTRYBLOCK
  2
AcmDataEntryBlock
  3
"AcmSymBB|Product Description: AutoCAD Mechanical 2000|Company: Autodesk"
 90
        0
280
     0
281
     0
  0
CLASS
  1
ACIMSTRSYSVAR
  2
AcImStrSysVar
  3
AcMeServices
 90
        0
280
     0
281
     0
  0
CLASS
  1
ACMSTANDARDISO
  2
AcmStandardISO
  3
"Amdt_StdImp|Product Description: AutoCAD Mechanical 2000|Company: Autodesk"
 90
        0
280
     0
281
     0
  0
CLASS
  1
AMGOBJPROPCFG
  2
AmgObjPropCfg
  3
"AmgLay|Product Description: AutoCAD Mechanical 2000|Company: Autodesk"
 90
        1
280
     0
281
     0
  0
CLASS
  1
AMDTEDGESTANDARDISO
  2
AmdtEdgeStdISO
  3
"Amdt_StdImp|Product Description: AutoCAD Mechanical 2000|Company: Autodesk"
 90
        0
280
     0
281
     0
  0
CLASS
  1
ACMSURFSTANDARDISO
  2
AcmSurfTextStdISO
  3
"Amdt_StdImp|Product Description: AutoCAD Mechanical 2000|Company: Autodesk"
 90
        0
280
     0
281
     0
  0
CLASS
  1
ACMFCFSTANDARDISO
  2
AcmFCFStdISO
  3
"Amdt_StdImp|Product Description: AutoCAD Mechanical 2000|Company: Autodesk"
 90
        0
280
     0
281
     0
  0
CLASS
  1
ACMWELDSTANDARDISO
  2
AcmWeldingStdISO
  3
"Amdt_StdImp|Product Description: AutoCAD Mechanical 2000|Company: Autodesk"
 90
        0
280
     0
281
     0
  0
CLASS
  1
ACMIDSTANDARDISO
  2
AcmIdStdISO
  3
"Amdt_StdImp|Product Description: AutoCAD Mechanical 2000|Company: Autodesk"
 90
        0
280
     0
281
     0
  0
CLASS
  1
ACMDATUMSTANDARDISO
  2
AcmDatumStdISO
  3
"Amdt_StdImp|Product Description: AutoCAD Mechanical 2000|Company: Autodesk"
 90
        0
280
     0
281
     0
  0
CLASS
  1
ACMBOMSTANDARDISO
  2
AcmBOMStdISO
  3
"Amdt_StdImp|Product Description: AutoCAD Mechanical 2000|Company: Autodesk"
 90
        0
280
     0
281
     0
  0
CLASS
  1
ACMDETAILSTANDARDISO
  2
AmdtDetailSymStdISO
  3
"Amdt_StdImp|Product Description: AutoCAD Mechanical 2000|Company: Autodesk"
 90
        0
280
     0
281
     0
  0
CLASS
  1
ACMSECTIONSTANDARDISO
  2
AmdtSectionSymStdISO
  3
"Amdt_StdImp|Product Description: AutoCAD Mechanical 2000|Company: Autodesk"
 90
        0
280
     0
281
     0
  0
CLASS
  1
ACMCENTERLINESTANDARDISO
  2
AmdtCenterLineStdISO
  3
"Amdt_StdImp|Product Description: AutoCAD Mechanical 2000|Company: Autodesk"
 90
        0
280
     0
281
     0
  0
CLASS
  1
ACMNOTESTANDARDISO
  2
AmdtNoteStdISO
  3
"Amdt_StdImp|Product Description: AutoCAD Mechanical 2000|Company: Autodesk"
 90
        0
280
     0
281
     0
  0
CLASS
  1
ACAMGLAYSTD
  2
AcAmgLayStd
  3
"AcAmgLayStd|Product Description: AutoCAD Mechanical 2000|Company: Autodesk"
 90
        0
280
     0
281
     0
  0
CLASS
  1
ACAMGDIMSTD
  2
AcAmgDimStd
  3
"AcAmgDimStd|Product Description: AutoCAD Mechanical 2000|Company: Autodesk"
 90
        0
280
     0
281
     0
  0
CLASS
  1
ACAMGHOLECHARTSTDISO
  2
AcAmgHoleChartStdISO
  3
ACMSYMBB_MODULE_NAME
 90
        0
280
     0
281
     0
  0
CLASS
  1
ACAMGTITLESTD
  2
AcAmgTitleStd
  3
"TITLEAPP"
 90
        0
280
     0
281
     0
  0
CLASS
  1
ACAMGFILTERDAT
  2
AcAmgFilterDat
  3
"AcadM|Product Description: AutoCAD Mechanical 2000|Company: Autodesk"
 90
        0
280
     0
281
     0
  0
CLASS
  1
ACMSTANDARDANSI
  2
AcmStandardANSI
  3
"Amdt_StdImp|Product Description: AutoCAD Mechanical 2000|Company: Autodesk"
 90
        0
280
     0
281
     0
  0
CLASS
  1
ACMSURFSTANDARDANSI
  2
AcmSurfTextStdANSI
  3
"Amdt_StdImp|Product Description: AutoCAD Mechanical 2000|Company: Autodesk"
 90
        0
280
     0
281
     0
  0
CLASS
  1
ACMFCFSTANDARDANSI
  2
AcmFCFStdANSI
  3
"Amdt_StdImp|Product Description: AutoCAD Mechanical 2000|Company: Autodesk"
 90
        0
280
     0
281
     0
  0
CLASS
  1
ACMWELDSTANDARDANSI
  2
AcmWeldingStdANSI
  3
"Amdt_StdImp|Product Description: AutoCAD Mechanical 2000|Company: Autodesk"
 90
        0
280
     0
281
     0
  0
CLASS
  1
ACMIDSTANDARDANSI
  2
AcmIdStdANSI
  3
"Amdt_StdImp|Product Description: AutoCAD Mechanical 2000|Company: Autodesk"
 90
        0
280
     0
281
     0
  0
CLASS
  1
ACMDATUMSTANDARDANSI
  2
AcmDatumStdANSI
  3
"Amdt_StdImp|Product Description: AutoCAD Mechanical 2000|Company: Autodesk"
 90
        0
280
     0
281
     0
  0
CLASS
  1
ACMBOMSTANDARDANSI
  2
AcmBOMStdANSI
  3
"Amdt_StdImp|Product Description: AutoCAD Mechanical 2000|Company: Autodesk"
 90
        0
280
     0
281
     0
  0
CLASS
  1
ACMDETAILSTANDARDANSI
  2
AmdtDetailSymStdANSI
  3
"Amdt_StdImp|Product Description: AutoCAD Mechanical 2000|Company: Autodesk"
 90
        0
280
     0
281
     0
  0
CLASS
  1
ACMSECTIONSTANDARDANSI
  2
AmdtSectionSymStdANSI
  3
"Amdt_StdImp|Product Description: AutoCAD Mechanical 2000|Company: Autodesk"
 90
        0
280
     0
281
     0
  0
CLASS
  1
ACMCENTERLINESTANDARDANSI
  2
AmdtCenterLineStdANSI
  3
"Amdt_StdImp|Product Description: AutoCAD Mechanical 2000|Company: Autodesk"
 90
        0
280
     0
281
     0
  0
CLASS
  1
ACMNOTESTANDARDANSI
  2
AmdtNoteStdANSI
  3
"Amdt_StdImp|Product Description: AutoCAD Mechanical 2000|Company: Autodesk"
 90
        0
280
     0
281
     0
  0
CLASS
  1
ACAMGHOLECHARTSTDANSI
  2
AcAmgHoleChartStdANSI
  3
ACMSYMBB_MODULE_NAME
 90
        0
280
     0
281
     0
  0
CLASS
  1
AMDTFORMULAUPDATEDISPATCHER
  2
AmdtFormulaUpdateDispatcher
  3
AcMeServices
 90
        0
280
     0
281
     0
  0
CLASS
  1
LAYER_INDEX
  2
AcDbLayerIndex
  3
AutoCAD 2000
 90
        0
280
     0
281
     0
  0
CLASS
  1
IDBUFFER
  2
AcDbIdBuffer
  3
AutoCAD 2000
 90
        0
280
     0
281
     0
  0
CLASS
  1
DICTIONARYVAR
  2
AcDbDictionaryVar
  3
AutoCAD 2000
 90
        0
280
     0
281
     0
  0
CLASS
  1
AM_DRAWING_MGR
  2
AcDmDwgMgr
  3
AcMechDwgViewMgmt
 90
        0
280
     0
281
     0
  0
CLASS
  1
AM_DWG_DOCUMENT
  2
AcDmDwgDocument
  3
AcMechDwgViewMgmt
 90
        0
280
     0
281
     0
  0
CLASS
  1
AM_DWG_SHEET
  2
AcDmSheet
  3
AcMechDwgViewMgmt
 90
        0
280
     0
281
     0
  0
CLASS
  1
AM_VIEWDIMPARMAP
  2
AcDmViewDimParMap
  3
AcMechDwgViewMgmt
 90
        0
280
     0
281
     0
  0
CLASS
  1
AM_DWGMGR_NAME
  2
AcDmDwgMgrName
  3
AcMechDwgViewMgmt
 90
        0
280
     0
281
     0
  0
CLASS
  1
AMDTMENUSTATEMGR
  2
AmdtMenuStateMgr
  3
McadcomServices
 90
        0
280
     0
281
     0
  0
CLASS
  1
AMDTMCOMMENUSTATE
  2
AmdtMcomMenuState
  3
McadcomServices
 90
        0
280
     0
281
     0
  0
CLASS
  1
ASAPP
  2
AcAsAppObject
  3
AutoSurfServices
 90
        0
280
     0
281
     0
  0
CLASS
  1
IM_STATIC_MAN
  2
AcImStaticVarManager
  3
AcMeServices
 90
        0
280
     0
281
     0
  0
CLASS
  1
ACIMDBLSTATICVAR
  2
AcImDblStaticVar
  3
AcMeServices
 90
        0
280
     0
281
     0
  0
CLASS
  1
ACIMSTRSTATICVAR
  2
AcImStrStaticVar
  3
AcMeServices
 90
        0
280
     0
281
     0
  0
CLASS
  1
ACIMINTSTATICVAR
  2
AcImIntStaticVar
  3
AcMeServices
 90
        0
280
     0
281
     0
  0
CLASS
  1
ACASGREFMASTER
  2
AcAsGrefMaster
  3
AutoSurfResolverServices
 90
        0
280
     0
281
     0
  0
CLASS
  1
ACADGREFMODULE
  2
AcAdGrefModule
  3
AdGrefServices
 90
        0
280
     0
281
     0
  0
CLASS
  1
AMDTMAPISURFMOUDULE
  2
AmdtMApiSurfModule
  3
MApiSurfServices
 90
        0
280
     0
281
     0
  0
CLASS
  1
MAPIAMMOUDLE
  2
MApiAmModule
  3
MApiAmServices
 90
        0
280
     0
281
     0
  0
CLASS
  1
AMDTADMENUSTATE
  2
AmdtAdMenuState
  3
DesignerServices
 90
        0
280
     0
281
     0
  0
CLASS
  1
ADAPPL
  2
AcAdAppl
  3
DesignerServices
 90
        0
280
     0
281
     0
  0
CLASS
  1
DEPMGR
  2
AcAdDepMgr
  3
DesignerServices
 90
        0
280
     0
281
     0
  0
CLASS
  1
PARAMMGR
  2
AcAdParamMgr
  3
DesignerServices
 90
        0
280
     0
281
     0
  0
CLASS
  1
PARAMSCOPE
  2
AcAdParamScope
  3
DesignerServices
 90
        0
280
     0
281
     0
  0
CLASS
  1
NAMEDAPPL
  2
AcAdNamedAppl
  3
DesignerServices
 90
        0
280
     0
281
     0
  0
CLASS
  1
AMDTDMMENUSTATE
  2
AmdtDmMenuState
  3
AcMechDwgViewMgmt
 90
        0
280
     0
281
     0
  0
CLASS
  1
MAPIADMODULE
  2
MApiAdModule
  3
MApiAdServices
 90
        0
280
     0
281
     0
  0
CLASS
  1
AMDTAMMENUSTATE
  2
AmdtAmMenuState
  3
DesignerAssemblies
 90
        0
280
     0
281
     0
  0
CLASS
  1
ACAMPROJECT
  2
AcAmProject
  3
DesignerAssemblies
 90
        0
280
     0
281
     0
  0
CLASS
  1
ACAMGRCOMPDEF
  2
AcAmGrCompDef
  3
DesignerAssemblies
 90
        0
280
     0
281
     0
  0
CLASS
  1
ACCMCONTEXT
  2
AcCmContext
  3
DesignerAssemblies
 90
        0
280
     0
281
     0
  0
CLASS
  1
ACAMCOMPDEF
  2
AcAmCompDef
  3
DesignerAssemblies
 90
        0
280
     0
281
     0
  0
CLASS
  1
ACAMCOMPDEFMGR
  2
AcAmCompDefMgr
  3
DesignerAssemblies
 90
        0
280
     0
281
     0
  0
CLASS
  1
AMCONTEXTMGR
  2
AcAmContextMgr
  3
DesignerAssemblies
 90
        0
280
     0
281
     0
  0
CLASS
  1
ACAMCONTEXTMODELER
  2
AcAmContextModeler
  3
DesignerAssemblies
 90
        0
280
     0
281
     0
  0
CLASS
  1
CATALOGSTATE
  2
AcAmCatalogState
  3
DesignerAssemblies
 90
        0
280
     0
281
     0
  0
CLASS
  1
ACAMGRCOMPDEFSET
  2
AcAmGrCompDefSet
  3
DesignerAssemblies
 90
        0
280
     0
281
     0
  0
CLASS
  1
AMDTBROWSERDBTAB
  2
AmdtBrowserDbTab
  3
McadcomServices
 90
        0
280
     0
281
     0
  0
CLASS
  1
CBROWSERAPPOBJECT
  2
CBrowserAppObject
  3
McadcomServices
 90
        0
280
     0
281
     0
  0
CLASS
  1
DM_PLACEHOLDER
  2
AcDmSelsetPlaceholder
  3
AcMechDwgViewMgmt
 90
        0
280
     0
281
     0
  0
CLASS
  1
ACAD_PROXY_OBJECT_WRAPPER
  2
AcDbProxyObjectWrapper
  3
AutoCAD 2000
 90
        0
280
     0
281
     0
  0
CLASS
  1
LONG_TRANSACTION
  2
AcDbLongTransaction
  3
AutoCAD 2000
 90
        0
280
     0
281
     0
  0
CLASS
  1
LWPOLYLINE
  2
AcDbPolyline
  3
AutoCAD 2000
 90
        0
280
     0
281
     1
  0
CLASS
  1
HATCH
  2
AcDbHatch
  3
AutoCAD 2000
 90
        0
280
     0
281
     1
  0
CLASS
  1
XRECORD
  2
AcDbXrecord
  3
AutoCAD 2000
 90
        0
280
     0
281
     0
  0
ENDSEC
  0
SECTION
  2
TABLES
  0
TABLE
  2
VPORT
  5
8
330
0
100
AcDbSymbolTable
 70
     3
  0
VPORT
  5
52A9
330
8
100
AcDbSymbolTableRecord
100
AcDbViewportTableRecord
  2
*ACTIVE
 70
     0
 10
0.0
 20
0.0
 11
1.0
 21
1.0
 12
443.333896089647
 22
1131.980980961117
 13
0.0
 23
0.0
 14
10.0
 24
10.0
 15
10.0
 25
10.0
 16
0.0
 26
0.0
 36
1.0
 17
-511.8795368336697
 27
-20.82562094813897
 37
0.0
 40
1144.055262396557
 41
1.741635687732341
 42
50.0
 43
0.0
 44
0.0
 50
0.0
 51
0.0
 71
     0
 72
  1234
 73
     1
 74
     1
 75
     0
 76
     0
 77
     0
 78
     0
  0
ENDTAB
  0
TABLE
  2
LTYPE
  5
5
330
0
100
AcDbSymbolTable
 70
    19
  0
LTYPE
  5
12
330
5
100
AcDbSymbolTableRecord
100
AcDbLinetypeTableRecord
  2
BYBLOCK
 70
     0
  3

 72
    65
 73
     0
 40
0.0
  0
LTYPE
  5
13
330
5
100
AcDbSymbolTableRecord
100
AcDbLinetypeTableRecord
  2
BYLAYER
 70
     0
  3

 72
    65
 73
     0
 40
0.0
  0
LTYPE
  5
14
330
5
100
AcDbSymbolTableRecord
100
AcDbLinetypeTableRecord
  2
CONTINUOUS
 70
     0
  3
Solid line
 72
    65
 73
     0
 40
0.0
  0
LTYPE
  5
163
330
5
100
AcDbSymbolTableRecord
100
AcDbLinetypeTableRecord
  2
CENTER
 70
     0
  3
____ _ ____ _ ____ _ ____ _ ____ _ ____ _ ____ 
 72
    65
 73
     4
 40
2.0
 49
1.25
 74
     0
 49
-0.25
 74
     0
 49
0.25
 74
     0
 49
-0.25
 74
     0
  0
LTYPE
  5
166
330
5
100
AcDbSymbolTableRecord
100
AcDbLinetypeTableRecord
  2
DASHED
 70
     0
  3
__ __ __ __ __ __ __ __ __ __ __ __ __ __ __ __
 72
    65
 73
     2
 40
0.75
 49
0.5
 74
     0
 49
-0.25
 74
     0
  0
LTYPE
  5
D25
330
5
100
AcDbSymbolTableRecord
100
AcDbLinetypeTableRecord
  2
AM_ISO02W050
 70
     0
  3
__ __ __ __ __ __ __ __ __ __ __ __ __ __ __
 72
    65
 73
     2
 40
7.5
 49
6.0
 74
     0
 49
-1.5
 74
     0
  0
LTYPE
  5
D26
330
5
100
AcDbSymbolTableRecord
100
AcDbLinetypeTableRecord
  2
AM_ISO08W050
 70
     0
  3
____ . ____ . ____ . ____ . ____ . ____ . ____
 72
    65
 73
     4
 40
18.0
 49
12.0
 74
     0
 49
-1.5
 74
     0
 49
3.0
 74
     0
 49
-1.5
 74
     0
  0
LTYPE
  5
D27
330
5
100
AcDbSymbolTableRecord
100
AcDbLinetypeTableRecord
  2
AM_ISO09W050
 70
     0
  3
_____ . . _____ . . _____ . . ____ .. ____
 72
    65
 73
     6
 40
22.5
 49
12.0
 74
     0
 49
-1.5
 74
     0
 49
3.0
 74
     0
 49
-1.5
 74
     0
 49
3.0
 74
     0
 49
-1.5
 74
     0
  0
LTYPE
  5
D28
330
5
100
AcDbSymbolTableRecord
100
AcDbLinetypeTableRecord
  2
AMCONSTR
 70
     0
  3
_______________________
 72
    65
 73
     2
 40
9999.0
 49
9999.0
 74
     0
 49
0.0
 74
     0
  0
LTYPE
  5
D29
330
5
100
AcDbSymbolTableRecord
100
AcDbLinetypeTableRecord
  2
AM_ISO08W050X2
 70
     0
  3
__ . __ . __ . __ . __ . __
 72
    65
 73
     4
 40
9.0
 49
6.0
 74
     0
 49
-0.75
 74
     0
 49
1.5
 74
     0
 49
-0.75
 74
     0
  0
LTYPE
  5
D2A
330
5
100
AcDbSymbolTableRecord
100
AcDbLinetypeTableRecord
  2
AM_ISO02W050X2
 70
     0
  3
 _ _ _ _ _ _ _ _ _ _ _ _
 72
    65
 73
     2
 40
3.75
 49
3.0
 74
     0
 49
-0.75
 74
     0
  0
LTYPE
  5
D2D
330
5
100
AcDbSymbolTableRecord
100
AcDbLinetypeTableRecord
  2
AMZIGZAG
 70
     0
  3
/\/-/\/-/\/-/\/-/\/-/\/
 72
    65
 73
     2
 40
11.00009999999999
 49
0.0001
 74
     4
 75
   135
340
D2C
 46
0.04
 50
0.0
 44
0.0
 45
0.0
 49
-11.0
 74
     0
  0
LTYPE
  5
D3B
330
5
100
AcDbSymbolTableRecord
100
AcDbLinetypeTableRecord
  2
ACISOWELD
 70
     0
  3
_ _ _ _ _
 72
    65
 73
     2
 40
2.0
 49
2.0
 74
     0
 49
-1.0
 74
     0
  0
LTYPE
  5
D3C
330
5
100
AcDbSymbolTableRecord
100
AcDbLinetypeTableRecord
  2
ACISOTGB
 70
     0
  3
__ . . __ . .
 72
    65
 73
     6
 40
9.0
 49
4.0
 74
     0
 49
-1.0
 74
     0
 49
1.0
 74
     0
 49
-1.0
 74
     0
 49
1.0
 74
     0
 49
-1.0
 74
     0
  0
LTYPE
  5
D3D
330
5
100
AcDbSymbolTableRecord
100
AcDbLinetypeTableRecord
  2
ACISOTGL
 70
     0
  3
_ _ _ _ _
 72
    65
 73
     2
 40
3.0
 49
2.0
 74
     0
 49
-1.0
 74
     0
  0
LTYPE
  5
E47
330
5
100
AcDbSymbolTableRecord
100
AcDbLinetypeTableRecord
  2
PHANTOM2
 70
     0
  3
Phantom (.5x) ___ _ _ ___ _ _ ___ _ _ ___ _ _
 72
    65
 73
     6
 40
1.25
 49
0.625
 74
     0
 49
-0.125
 74
     0
 49
0.125
 74
     0
 49
-0.125
 74
     0
 49
0.125
 74
     0
 49
-0.125
 74
     0
  0
LTYPE
  5
E4B
330
5
100
AcDbSymbolTableRecord
100
AcDbLinetypeTableRecord
  2
ACANSTGB
 70
     0
  3
__ . . __ . .
 72
    65
 73
     6
 40
0.35433070866
 49
0.15748031496
 74
     0
 49
-0.03937007874
 74
     0
 49
0.03937007874
 74
     0
 49
-0.03937007874
 74
     0
 49
0.03937007874
 74
     0
 49
-0.03937007874
 74
     0
  0
LTYPE
  5
E4C
330
5
100
AcDbSymbolTableRecord
100
AcDbLinetypeTableRecord
  2
ACANSTGL
 70
     0
  3
_ _ _ _ _
 72
    65
 73
     2
 40
0.11811023622
 49
0.07874015748
 74
     0
 49
-0.03937007874
 74
     0
  0
LTYPE
  5
4A02
330
5
100
AcDbSymbolTableRecord
100
AcDbLinetypeTableRecord
  2
HIDDEN
 70
     0
  3
Nascosta __ __ __ __ __ __ __ __ __ __ __ __ __ __
 72
    65
 73
     2
 40
9.525
 49
6.349999999999999
 74
     0
 49
-3.174999999999999
 74
     0
  0
LTYPE
  5
523D
330
5
100
AcDbSymbolTableRecord
100
AcDbLinetypeTableRecord
  2
ASULTYPE
 70
     0
  3
Linea piena
 72
    65
 73
     2
 40
3.0
 49
2.5
 74
     0
 49
0.5
 74
     0
  0
LTYPE
  5
523E
330
5
100
AcDbSymbolTableRecord
100
AcDbLinetypeTableRecord
  2
ASVLTYPE
 70
     0
  3
__ __ __ __ __ __ __ __ __ __ __ __ __ __ __ __ __ __ __ __ __
 72
    65
 73
     2
 40
0.75
 49
0.5
 74
     0
 49
-0.25
 74
     0
  0
ENDTAB
  0
TABLE
  2
LAYER
  5
2
330
0
100
AcDbSymbolTable
 70
     7
  0
LAYER
  5
E
330
2
100
AcDbSymbolTableRecord
100
AcDbLayerTableRecord
  2
0
 70
     0
 62
     7
  6
CONTINUOUS
  0
LAYER
  5
169
330
2
100
AcDbSymbolTableRecord
100
AcDbLayerTableRecord
  2
DISEGNO
 70
     0
 62
     7
  6
CONTINUOUS
  0
LAYER
  5
16A
330
2
100
AcDbSymbolTableRecord
100
AcDbLayerTableRecord
  2
ASSI
 70
     0
 62
     2
  6
CENTER
  0
LAYER
  5
16B
330
2
100
AcDbSymbolTableRecord
100
AcDbLayerTableRecord
  2
NORMALI
 70
     0
 62
     6
  6
CONTINUOUS
  0
LAYER
  5
16E
330
2
100
AcDbSymbolTableRecord
100
AcDbLayerTableRecord
  2
COMPONENTI
 70
     0
 62
     6
  6
CONTINUOUS
  0
LAYER
  5
171
330
2
100
AcDbSymbolTableRecord
100
AcDbLayerTableRecord
  2
BASE
 70
     0
 62
     7
  6
CONTINUOUS
  0
LAYER
  5
172
330
2
100
AcDbSymbolTableRecord
100
AcDbLayerTableRecord
  2
AX
 70
     0
 62
     2
  6
CENTER
  0
ENDTAB
  0
TABLE
  2
STYLE
  5
3
330
0
100
AcDbSymbolTable
 70
     6
  0
STYLE
  5
F
330
3
100
AcDbSymbolTableRecord
100
AcDbTextStyleTableRecord
  2
STANDARD
 70
     0
 40
0.0
 41
1.0
 50
0.0
 71
     0
 42
2.5
  3
txt
  4

  0
STYLE
  5
D2C
330
3
100
AcDbSymbolTableRecord
100
AcDbTextStyleTableRecord
  2

 70
     1
 40
0.0
 41
1.0
 50
0.0
 71
     0
 42
2.5
  3
ltypeshp.shx
  4

  0
STYLE
  5
D2E
330
3
100
AcDbSymbolTableRecord
100
AcDbTextStyleTableRecord
  2
ACISOTS
 70
     0
 40
1.0
 41
1.0
 50
0.0
 71
     0
 42
2.5
  3
isocp.shx
  4

  0
STYLE
  5
D3A
330
3
100
AcDbSymbolTableRecord
100
AcDbTextStyleTableRecord
  2
ACISOGDT
 70
     0
 40
0.0
 41
1.0
 50
0.0
 71
     0
 42
2.5
  3
amgdt.shx
  4

  0
STYLE
  5
E55
330
3
100
AcDbSymbolTableRecord
100
AcDbTextStyleTableRecord
  2
ACANSTS
 70
     0
 40
1.0
 41
1.0
 50
0.0
 71
     0
 42
2.5
  3
romans.shx
  4

  0
STYLE
  5
E56
330
3
100
AcDbSymbolTableRecord
100
AcDbTextStyleTableRecord
  2
ACANSGDT
 70
     0
 40
0.0
 41
1.0
 50
0.0
 71
     0
 42
2.5
  3
amgdtans.shx
  4

  0
ENDTAB
  0
TABLE
  2
VIEW
  5
6
330
0
100
AcDbSymbolTable
 70
     0
  0
ENDTAB
  0
TABLE
  2
UCS
  5
7
330
0
100
AcDbSymbolTable
 70
     0
  0
ENDTAB
  0
TABLE
  2
APPID
  5
9
330
0
100
AcDbSymbolTable
 70
    15
  0
APPID
  5
10
330
9
100
AcDbSymbolTableRecord
100
AcDbRegAppTableRecord
  2
ACAD
 70
     0
  0
APPID
  5
20
330
9
100
AcDbSymbolTableRecord
100
AcDbRegAppTableRecord
  2
ZIMM
 70
     0
  0
APPID
  5
177
330
9
100
AcDbSymbolTableRecord
100
AcDbRegAppTableRecord
  2
COMAU_ACADLIB
 70
     0
  0
APPID
  5
D07
330
9
100
AcDbSymbolTableRecord
100
AcDbRegAppTableRecord
  2
MCAD_NO_VIS
 70
     0
  0
APPID
  5
D08
330
9
100
AcDbSymbolTableRecord
100
AcDbRegAppTableRecord
  2
ACAD_TEMP_GRAPHIC
 70
     0
  0
APPID
  5
D19
330
9
100
AcDbSymbolTableRecord
100
AcDbRegAppTableRecord
  2
ACATTRIBSERVICES
 70
     0
  0
APPID
  5
49EE
330
9
100
AcDbSymbolTableRecord
100
AcDbRegAppTableRecord
  2
GENIUS_GENDIM_13
 70
     0
  0
APPID
  5
49EF
330
9
100
AcDbSymbolTableRecord
100
AcDbRegAppTableRecord
  2
GENIUS_GENDTOL_13
 70
     0
  0
APPID
  5
49F0
330
9
100
AcDbSymbolTableRecord
100
AcDbRegAppTableRecord
  2
GENIUS_GE3DTOL_13
 70
     0
  0
APPID
  5
4A17
330
9
100
AcDbSymbolTableRecord
100
AcDbRegAppTableRecord
  2
AD_DRAW
 70
     0
  0
APPID
  5
4A63
330
9
100
AcDbSymbolTableRecord
100
AcDbRegAppTableRecord
  2
ASURF_PCURVE_APPNAME
 70
     0
  0
APPID
  5
4A68
330
9
100
AcDbSymbolTableRecord
100
AcDbRegAppTableRecord
  2
AMG_3D2D_5_0
 70
     0
  0
APPID
  5
4A93
330
9
100
AcDbSymbolTableRecord
100
AcDbRegAppTableRecord
  2
DESIGNERASSEMBLIES
 70
     0
  0
APPID
  5
4A98
330
9
100
AcDbSymbolTableRecord
100
AcDbRegAppTableRecord
  2
ACADM_DIM_EDIT
 70
     0
  0
APPID
  5
4A99
330
9
100
AcDbSymbolTableRecord
100
AcDbRegAppTableRecord
  2
AMDT_DM_ADJ
 70
     0
  0
ENDTAB
  0
TABLE
  2
DIMSTYLE
  5
A
330
0
100
AcDbSymbolTable
 70
    14
  0
DIMSTYLE
105
1D
330
A
100
AcDbSymbolTableRecord
100
AcDbDimStyleTableRecord
  2
STANDARD
 70
     0
  3

  4

  5

  6

  7

 40
1.0
 41
0.18
 42
0.0625
 43
0.38
 44
0.18
 45
0.0
 46
0.0
 47
0.0
 48
0.0
140
0.18
141
0.09
142
0.0
143
25.4
144
1.0
145
0.0
146
1.0
147
0.09
 71
     0
 72
     0
 73
     1
 74
     1
 75
     0
 76
     0
 77
     0
 78
     0
170
     0
171
     2
172
     0
173
     0
174
     0
175
     0
176
     0
177
     0
178
     0
270
     2
271
     4
272
     4
273
     2
274
     2
340
F
275
     0
280
     0
281
     0
282
     0
283
     1
284
     0
285
     0
286
     0
287
     3
288
     0
  0
DIMSTYLE
105
D41
330
A
100
AcDbSymbolTableRecord
100
AcDbDimStyleTableRecord
  2
AM_ISO
 70
     0
  3

  4
"
  5

  6

  7

 40
1.0
 41
2.5
 42
1.0
 43
10.0
 44
1.0
 45
0.0
 46
0.0
 47
0.1
 48
0.1
140
3.5
141
0.0
142
0.0
143
0.0393701
144
1.0
145
0.0
146
0.71
147
1.5
 71
     0
 72
     0
 73
     0
 74
     0
 75
     0
 76
     0
 77
     1
 78
     8
170
     0
171
     2
172
     1
173
     0
174
     0
175
     0
176
   256
177
   256
178
     2
270
     2
271
     2
272
     3
273
     2
274
     4
340
F
275
     0
280
     0
281
     0
282
     0
283
     0
284
     8
285
     0
286
     0
287
     3
288
     0
  0
DIMSTYLE
105
D42
330
A
100
AcDbSymbolTableRecord
100
AcDbDimStyleTableRecord
  2
AM_ISO$3
 70
     0
  3

  4
"
  5

  6

  7

 40
1.0
 41
2.5
 42
1.0
 43
10.0
 44
1.0
 45
0.0
 46
0.0
 47
0.1
 48
0.1
140
3.5
141
0.0
142
0.0
143
0.0393701
144
1.0
145
0.0
146
0.71
147
1.5
 71
     0
 72
     0
 73
     0
 74
     1
 75
     0
 76
     0
 77
     1
 78
     8
170
     0
171
     2
172
     0
173
     0
174
     0
175
     0
176
   256
177
   256
178
     2
270
     2
271
     2
272
     3
273
     2
274
     4
340
F
275
     0
280
     0
281
     0
282
     0
283
     0
284
     8
285
     0
286
     0
287
     0
288
     1
  0
DIMSTYLE
105
D43
330
A
100
AcDbSymbolTableRecord
100
AcDbDimStyleTableRecord
  2
AM_ISO$4
 70
     0
  3

  4
"
  5

  6

  7

 40
1.0
 41
2.5
 42
1.0
 43
10.0
 44
1.0
 45
0.0
 46
0.0
 47
0.1
 48
0.1
140
3.5
141
0.0
142
0.0
143
0.0393701
144
1.0
145
0.0
146
0.71
147
1.5
 71
     0
 72
     0
 73
     0
 74
     1
 75
     0
 76
     0
 77
     1
 78
     8
170
     0
171
     2
172
     0
173
     0
174
     0
175
     0
176
   256
177
   256
178
     2
270
     2
271
     2
272
     3
273
     2
274
     4
340
F
275
     0
280
     0
281
     0
282
     0
283
     0
284
     8
285
     0
286
     0
287
     0
288
     1
  0
DIMSTYLE
105
D44
330
A
100
AcDbSymbolTableRecord
100
AcDbDimStyleTableRecord
  2
AM_ISO$6
 70
     0
  3

  4
"
  5

  6

  7

 40
1.0
 41
2.5
 42
1.0
 43
10.0
 44
1.0
 45
0.0
 46
0.0
 47
0.1
 48
0.1
140
3.5
141
0.0
142
0.0
143
0.0393701
144
1.0
145
0.0
146
0.71
147
1.5
 71
     0
 72
     0
 73
     0
 74
     0
 75
     0
 76
     0
 77
     0
 78
     8
170
     0
171
     2
172
     1
173
     0
174
     0
175
     0
176
   256
177
   256
178
     2
270
     2
271
     2
272
     3
273
     2
274
     4
340
F
275
     0
280
     0
281
     0
282
     0
283
     0
284
     8
285
     0
286
     0
287
     3
288
     0
  0
DIMSTYLE
105
D45
330
A
100
AcDbSymbolTableRecord
100
AcDbDimStyleTableRecord
  2
AM_ISO$7
 70
     0
  3

  4
"
  5

  6

  7

 40
1.0
 41
2.5
 42
1.0
 43
10.0
 44
1.0
 45
0.0
 46
0.0
 47
0.1
 48
0.1
140
5.0
141
0.0
142
0.0
143
0.0393701
144
1.0
145
0.0
146
0.71
147
1.5
 71
     0
 72
     0
 73
     0
 74
     0
 75
     0
 76
     0
 77
     1
 78
     8
170
     0
171
     2
172
     1
173
     0
174
     0
175
     0
176
   256
177
   256
178
     2
270
     2
271
     2
272
     3
273
     2
274
     4
340
F
275
     0
280
     0
281
     0
282
     0
283
     0
284
     8
285
     0
286
     0
287
     3
288
     0
  0
DIMSTYLE
105
D46
330
A
100
AcDbSymbolTableRecord
100
AcDbDimStyleTableRecord
  2
AM_ISO$SF
 70
     0
  3

  4
"
  5

  6

  7

 40
1.0
 41
2.5
 42
1.0
 43
10.0
 44
1.0
 45
0.0
 46
0.0
 47
0.1
 48
0.1
140
3.5
141
0.0
142
0.0
143
0.0393701
144
1.0
145
0.0
146
0.71
147
1.5
 71
     0
 72
     0
 73
     0
 74
     0
 75
     1
 76
     1
 77
     1
 78
     8
170
     0
171
     2
172
     1
173
     0
174
     0
175
     0
176
   256
177
   256
178
     2
270
     2
271
     2
272
     3
273
     2
274
     4
340
F
275
     0
280
     0
281
     0
282
     0
283
     0
284
     8
285
     0
286
     0
287
     3
288
     0
  0
DIMSTYLE
105
D4B
330
A
100
AcDbSymbolTableRecord
100
AcDbDimStyleTableRecord
  2
AM_ISO$SH
 70
     0
  3

  4
"
  5

  6
GENAXEH
  7

 40
1.0
 41
2.5
 42
1.0
 43
10.0
 44
1.0
 45
0.0
 46
0.0
 47
0.1
 48
0.1
140
3.5
141
0.0
142
0.0
143
0.0393701
144
2.0
145
0.0
146
0.71
147
1.5
 71
     0
 72
     0
 73
     0
 74
     0
 75
     1
 76
     1
 77
     1
 78
     8
170
     0
171
     2
172
     1
173
     1
174
     0
175
     0
176
   256
177
   256
178
     2
270
     2
271
     2
272
     3
273
     2
274
     4
340
F
275
     0
280
     0
281
     0
282
     0
283
     0
284
     8
285
     0
286
     0
287
     3
288
     0
  0
DIMSTYLE
105
E58
330
A
100
AcDbSymbolTableRecord
100
AcDbDimStyleTableRecord
  2
AM_ANSI
 70
     0
  3

  4
mm
  5

  6

  7

 40
1.0
 41
0.1
 42
0.05
 43
0.5
 44
0.1
 45
0.0
 46
0.0
 47
0.1
 48
0.1
140
0.12
141
0.0
142
0.0
143
25.4
144
1.0
145
0.0
146
0.71
147
0.06
 71
     0
 72
     0
 73
     1
 74
     1
 75
     0
 76
     0
 77
     0
 78
     7
170
     0
171
     2
172
     0
173
     0
174
     0
175
     0
176
   256
177
   256
178
     2
270
     2
271
     4
272
     4
273
     2
274
     4
340
F
275
     0
280
     0
281
     0
282
     0
283
     1
284
     7
285
     0
286
     0
287
     3
288
     0
  0
DIMSTYLE
105
E59
330
A
100
AcDbSymbolTableRecord
100
AcDbDimStyleTableRecord
  2
AM_ANSI$3
 70
     0
  3

  4
mm
  5

  6

  7

 40
1.0
 41
0.1
 42
0.05
 43
0.5
 44
0.1
 45
0.0
 46
0.0
 47
0.1
 48
0.1
140
0.12
141
0.0
142
0.0
143
25.4
144
1.0
145
0.0
146
0.71
147
0.06
 71
     0
 72
     0
 73
     1
 74
     1
 75
     0
 76
     0
 77
     0
 78
     7
170
     0
171
     2
172
     0
173
     0
174
     0
175
     0
176
   256
177
   256
178
     2
270
     2
271
     4
272
     4
273
     2
274
     4
340
F
275
     0
280
     0
281
     0
282
     0
283
     1
284
     7
285
     0
286
     0
287
     0
288
     1
  0
DIMSTYLE
105
E5A
330
A
100
AcDbSymbolTableRecord
100
AcDbDimStyleTableRecord
  2
AM_ANSI$4
 70
     0
  3

  4
mm
  5

  6

  7

 40
1.0
 41
0.1
 42
0.05
 43
0.5
 44
0.1
 45
0.0
 46
0.0
 47
0.1
 48
0.1
140
0.12
141
0.0
142
0.0
143
25.4
144
1.0
145
0.0
146
0.71
147
0.06
 71
     0
 72
     0
 73
     1
 74
     1
 75
     0
 76
     0
 77
     0
 78
     7
170
     0
171
     2
172
     0
173
     0
174
     0
175
     0
176
   256
177
   256
178
     2
270
     2
271
     4
272
     4
273
     2
274
     4
340
F
275
     0
280
     0
281
     0
282
     0
283
     1
284
     7
285
     0
286
     0
287
     0
288
     1
  0
DIMSTYLE
105
E5B
330
A
100
AcDbSymbolTableRecord
100
AcDbDimStyleTableRecord
  2
AM_ANSI$7
 70
     0
  3

  4
mm
  5

  6

  7

 40
1.0
 41
0.1
 42
0.05
 43
0.5
 44
0.1
 45
0.0
 46
0.0
 47
0.1
 48
0.1
140
0.24
141
0.0
142
0.0
143
25.4
144
1.0
145
0.0
146
0.71
147
0.06
 71
     0
 72
     0
 73
     1
 74
     1
 75
     0
 76
     0
 77
     0
 78
     7
170
     0
171
     2
172
     0
173
     0
174
     0
175
     0
176
   256
177
   256
178
     2
270
     2
271
     4
272
     4
273
     2
274
     4
340
F
275
     0
280
     0
281
     0
282
     0
283
     1
284
     7
285
     0
286
     0
287
     3
288
     0
  0
DIMSTYLE
105
E5C
330
A
100
AcDbSymbolTableRecord
100
AcDbDimStyleTableRecord
  2
AM_ANSI$SF
 70
     0
  3

  4
mm
  5

  6

  7

 40
1.0
 41
0.1
 42
0.05
 43
0.5
 44
0.1
 45
0.0
 46
0.0
 47
0.1
 48
0.1
140
0.12
141
0.0
142
0.0
143
25.4
144
1.0
145
0.0
146
0.71
147
0.06
 71
     0
 72
     0
 73
     1
 74
     1
 75
     1
 76
     1
 77
     0
 78
     7
170
     0
171
     2
172
     0
173
     0
174
     0
175
     0
176
   256
177
   256
178
     2
270
     2
271
     4
272
     4
273
     2
274
     4
340
F
275
     0
280
     0
281
     0
282
     0
283
     1
284
     7
285
     0
286
     0
287
     3
288
     0
  0
DIMSTYLE
105
E5D
330
A
100
AcDbSymbolTableRecord
100
AcDbDimStyleTableRecord
  2
AM_ANSI$SH
 70
     0
  3

  4
mm
  5

  6
GENAXEH
  7

 40
1.0
 41
0.1
 42
0.05
 43
0.5
 44
0.1
 45
0.0
 46
0.0
 47
0.1
 48
0.1
140
0.12
141
0.0
142
0.0
143
25.4
144
1.0
145
0.0
146
0.71
147
0.06
 71
     0
 72
     0
 73
     1
 74
     1
 75
     1
 76
     1
 77
     0
 78
     7
170
     0
171
     2
172
     0
173
     1
174
     0
175
     0
176
   256
177
   256
178
     2
270
     2
271
     4
272
     4
273
     2
274
     4
340
F
275
     0
280
     0
281
     0
282
     0
283
     1
284
     7
285
     0
286
     0
287
     3
288
     0
  0
ENDTAB
  0
TABLE
  2
BLOCK_RECORD
  5
1
330
0
100
AcDbSymbolTable
 70
     3
  0
BLOCK_RECORD
  5
18
102
{ACAD_XDICTIONARY
360
2CA9
102
}
330
1
100
AcDbSymbolTableRecord
100
AcDbBlockTableRecord
  2
*MODEL_SPACE
  0
BLOCK_RECORD
  5
15
102
{ACAD_XDICTIONARY
360
52CB
102
}
330
1
100
AcDbSymbolTableRecord
100
AcDbBlockTableRecord
  2
*PAPER_SPACE
  0
BLOCK_RECORD
  5
C96
330
1
100
AcDbSymbolTableRecord
100
AcDbBlockTableRecord
  2

  0
BLOCK_RECORD
  5
D47
330
1
100
AcDbSymbolTableRecord
100
AcDbBlockTableRecord
  2
GENAXEH
  0
BLOCK_RECORD
  5
4A8A
330
1
100
AcDbSymbolTableRecord
100
AcDbBlockTableRecord
  2
*U2
  0
ENDTAB
  0
ENDSEC
  0
SECTION
  2
BLOCKS
  0
BLOCK
  5
19
330
18
100
AcDbEntity
  8
0
100
AcDbBlockBegin
  2
*MODEL_SPACE
 70
     0
 10
0.0
 20
0.0
 30
0.0
  3
*MODEL_SPACE
  1

  0
ENDBLK
  5
1A
330
18
100
AcDbEntity
  8
0
100
AcDbBlockEnd
  0
BLOCK
  5
16
330
15
100
AcDbEntity
 67
     1
  8
0
100
AcDbBlockBegin
  2
*PAPER_SPACE
 70
     0
 10
0.0
 20
0.0
 30
0.0
  3
*PAPER_SPACE
  1

  0
ENDBLK
  5
17
330
15
100
AcDbEntity
 67
     1
  8
0
100
AcDbBlockEnd
  0
BLOCK
  5
C97
330
C96
100
AcDbEntity
  8
0
100
AcDbBlockBegin
  2

 70
     0
 10
0.0
 20
0.0
 30
0.0
  3

  1

  0
ENDBLK
  5
C98
330
C96
100
AcDbEntity
  8
0
100
AcDbBlockEnd
  0
BLOCK
  5
D49
330
D47
100
AcDbEntity
  8
0
100
AcDbBlockBegin
  2
GENAXEH
 70
     0
 10
0.0
 20
0.0
 30
0.0
  3
GENAXEH
  1

  0
LINE
  5
D48
330
D47
100
AcDbEntity
  8
0
100
AcDbLine
 10
-1.0
 20
0.0
 30
0.0
 11
1.0
 21
0.0
 31
0.0
  0
ENDBLK
  5
D4A
330
D47
100
AcDbEntity
  8
0
100
AcDbBlockEnd
  0
BLOCK
  5
4A8B
330
4A8A
100
AcDbEntity
  8
0
100
AcDbBlockBegin
  2
*U2
 70
     1
 10
0.0
 20
0.0
 30
0.0
  3
*U2
  1

  0
ENDBLK
  5
4A8C
330
4A8A
100
AcDbEntity
  8
0
100
AcDbBlockEnd
  0
ENDSEC
  0
SECTION
  2
ENTITIES
  0
LINE
  5
3407
330
18
100
AcDbEntity
  8
ASSI
100
AcDbLine
 10
669.9488896573389
 20
1119.556888874212
 30
0.0
 11
530.2088841706018
 21
1119.556888874212
 31
0.0
  0
LINE
  5
3408
330
18
100
AcDbEntity
  8
ASSI
100
AcDbLine
 10
670.1709519032792
 20
1169.556888874212
 30
0.0
 11
531.9449896742694
 21
1169.556888874212
 31
0.0
  0
ARC
  5
3409
330
18
100
AcDbEntity
  8
DISEGNO
100
AcDbCircle
 10
575.748772108825
 20
1298.336888874212
 30
0.0
 40
15.0
100
AcDbArc
 50
227.2680000000041
 51
312.7319999999958
  0
ARC
  5
340A
330
18
100
AcDbEntity
  8
DISEGNO
100
AcDbCircle
 10
575.748772108825
 20
1269.556888874212
 30
0.0
 40
8.75
100
AcDbArc
 50
301.5409999999995
 51
326.4590000000046
  0
LINE
  5
340B
330
18
100
AcDbEntity
  8
DISEGNO
100
AcDbLine
 10
580.4787721088246
 20
1277.216888874212
 30
0.0
 11
580.7787721088256
 21
1277.886888874212
 31
0.0
  0
ARC
  5
340C
330
18
100
AcDbEntity
  8
DISEGNO
100
AcDbCircle
 10
580.4987721088251
 20
1278.016888874212
 30
0.0
 40
0.3
100
AcDbArc
 50
335.9999999999971
 51
60.67599999999906
  0
ARC
  5
340D
330
18
100
AcDbEntity
  8
DISEGNO
100
AcDbCircle
 10
575.748772108825
 20
1269.556888874212
 30
0.0
 40
8.75
100
AcDbArc
 50
30.54099999999754
 51
56.45900000000031
  0
ARC
  5
340E
330
18
100
AcDbEntity
  8
DISEGNO
100
AcDbCircle
 10
575.748772108825
 20
1269.556888874212
 30
0.0
 40
13.5
100
AcDbArc
 50
270.0
 51
0.0
  0
ARC
  5
340F
330
18
100
AcDbEntity
  8
DISEGNO
100
AcDbCircle
 10
575.748772108825
 20
1119.556888874212
 30
0.0
 40
8.75
100
AcDbArc
 50
303.5409999999996
 51
329.4590000000024
  0
ARC
  5
3410
330
18
100
AcDbEntity
  8
DISEGNO
100
AcDbCircle
 10
580.4987721088251
 20
1111.096888874212
 30
0.0
 40
0.3
100
AcDbArc
 50
299.3240000000009
 51
24.00000000000283
  0
LINE
  5
3411
330
18
100
AcDbEntity
  8
DISEGNO
100
AcDbLine
 10
580.4787721088246
 20
1111.896888874211
 30
0.0
 11
580.7787721088256
 21
1111.226888874212
 31
0.0
  0
ARC
  5
3412
330
18
100
AcDbEntity
  8
DISEGNO
100
AcDbCircle
 10
575.748772108825
 20
1119.556888874212
 30
0.0
 40
8.75
100
AcDbArc
 50
33.54099999999539
 51
58.45900000000043
  0
ARC
  5
3413
330
18
100
AcDbEntity
  8
DISEGNO
100
AcDbCircle
 10
575.748772108825
 20
1119.556888874212
 30
0.0
 40
13.5
100
AcDbArc
 50
0.0
 51
90.0
  0
LINE
  5
3414
330
18
100
AcDbEntity
  8
DISEGNO
100
AcDbLine
 10
569.248772108825
 20
1233.806888874212
 30
0.0
 11
632.2487721088251
 21
1233.806888874212
 31
0.0
  0
LINE
  5
3415
330
18
100
AcDbEntity
  8
DISEGNO
100
AcDbLine
 10
552.248772108825
 20
1237.306888874212
 30
0.0
 11
649.2517721088248
 21
1237.306888874212
 31
0.0
  0
LINE
  5
3416
330
18
100
AcDbEntity
  8
DISEGNO
100
AcDbLine
 10
569.248772108825
 20
1155.306888874212
 30
0.0
 11
632.2487721088251
 21
1155.306888874212
 31
0.0
  0
LINE
  5
3417
330
18
100
AcDbEntity
  8
DISEGNO
100
AcDbLine
 10
552.248772108825
 20
1151.806888874212
 30
0.0
 11
649.2517721088248
 21
1151.806888874212
 31
0.0
  0
ARC
  5
3418
330
18
100
AcDbEntity
  8
DISEGNO
100
AcDbCircle
 10
575.748772108825
 20
1090.776888874211
 30
0.0
 40
15.0
100
AcDbArc
 50
47.26800000000416
 51
132.7319999999958
  0
LINE
  5
341A
330
18
100
AcDbEntity
  8
DISEGNO
100
AcDbLine
 10
579.2477721088248
 20
1304.556888804547
 30
0.0
 11
622.248772108825
 21
1304.556888804547
 31
0.0
  0
LINE
  5
3447
330
18
100
AcDbEntity
  8
ASSI
100
AcDbLine
 10
575.748772108825
 20
1072.471048749054
 30
0.0
 11
575.748772108825
 21
1306.808007973696
 31
0.0
  0
LINE
  5
3448
330
18
100
AcDbEntity
  8
DISEGNO
100
AcDbLine
 10
546.748772108825
 20
1175.806888874212
 30
0.0
 11
546.748772108825
 21
1179.806888874212
 31
0.0
  0
LINE
  5
3449
330
18
100
AcDbEntity
  8
DISEGNO
100
AcDbLine
 10
540.7487721088251
 20
1175.806888874212
 30
0.0
 11
540.7487721088251
 21
1213.306888874211
 31
0.0
  0
LINE
  5
344A
330
18
100
AcDbEntity
  8
DISEGNO
100
AcDbLine
 10
557.748772108825
 20
1160.306888874212
 30
0.0
 11
557.748772108825
 21
1178.806888874212
 31
0.0
  0
LINE
  5
344B
330
18
100
AcDbEntity
  8
DISEGNO
100
AcDbLine
 10
565.248772108825
 20
1159.306888874212
 30
0.0
 11
565.248772108825
 21
1187.336888874211
 31
0.0
  0
LINE
  5
3450
330
18
100
AcDbEntity
  8
DISEGNO
100
AcDbLine
 10
559.8906422655723
 20
1100.868759030958
 30
0.0
 11
564.3132670454374
 21
1105.291383810823
 31
0.0
  0
ARC
  5
3451
330
18
100
AcDbEntity
  8
DISEGNO
100
AcDbCircle
 10
547.998772108825
 20
1101.806888874212
 30
0.0
 40
2.0
100
AcDbArc
 50
51.76799999999945
 51
218.2321999999992
  0
LINE
  5
3452
330
18
100
AcDbEntity
  8
DISEGNO
100
AcDbLine
 10
540.7487721088251
 20
1086.056888874212
 30
0.0
 11
540.7487721088251
 21
1113.306888874212
 31
0.0
  0
ARC
  5
3453
330
18
100
AcDbEntity
  8
DISEGNO
100
AcDbCircle
 10
552.998772108825
 20
1096.806888874212
 30
0.0
 40
7.0
100
AcDbArc
 50
246.8630000000015
 51
293.1369999999981
  0
LINE
  5
3454
330
18
100
AcDbEntity
  8
DISEGNO
100
AcDbLine
 10
542.248772108825
 20
1084.556888874212
 30
0.0
 11
569.498772108825
 21
1084.556888874212
 31
0.0
  0
ARC
  5
3455
330
18
100
AcDbEntity
  8
DISEGNO
100
AcDbCircle
 10
552.998772108825
 20
1096.806888874212
 30
0.0
 40
7.0
100
AcDbArc
 50
156.863
 51
203.1370999999984
  0
ARC
  5
3456
330
18
100
AcDbEntity
  8
DISEGNO
100
AcDbCircle
 10
545.6487721088246
 20
1093.666888874211
 30
0.0
 40
1.0
100
AcDbArc
 50
321.7680000000026
 51
23.13699999999991
  0
ARC
  5
3457
330
18
100
AcDbEntity
  8
DISEGNO
100
AcDbCircle
 10
547.998772108825
 20
1091.806888874212
 30
0.0
 40
2.0
100
AcDbArc
 50
141.7680000000026
 51
308.2320000000005
  0
ARC
  5
3458
330
18
100
AcDbEntity
  8
DISEGNO
100
AcDbCircle
 10
545.6487721088246
 20
1099.956888874211
 30
0.0
 40
1.0
100
AcDbArc
 50
336.863
 51
38.23199999999735
  0
ARC
  5
3459
330
18
100
AcDbEntity
  8
DISEGNO
100
AcDbCircle
 10
542.248772108825
 20
1086.056888874212
 30
0.0
 40
1.5
100
AcDbArc
 50
180.0000000048332
 51
270.0
  0
ARC
  5
345A
330
18
100
AcDbEntity
  8
DISEGNO
100
AcDbCircle
 10
549.8587721088256
 20
1089.456888874211
 30
0.0
 40
1.0
100
AcDbArc
 50
66.86300000000148
 51
128.2320000000005
  0
ARC
  5
345B
330
18
100
AcDbEntity
  8
DISEGNO
100
AcDbCircle
 10
552.998772108825
 20
1096.806888874212
 30
0.0
 40
7.0
100
AcDbArc
 50
336.863
 51
20.67603384999767
  0
ARC
  5
345C
330
18
100
AcDbEntity
  8
DISEGNO
100
AcDbCircle
 10
560.3587721088256
 20
1093.666888874211
 30
0.0
 40
1.0
100
AcDbArc
 50
156.863
 51
218.2321999999992
  0
ARC
  5
345D
330
18
100
AcDbEntity
  8
DISEGNO
100
AcDbCircle
 10
556.1487721088247
 20
1089.456888874211
 30
0.0
 40
1.0
100
AcDbArc
 50
51.76799999999945
 51
113.1369999999985
  0
ARC
  5
345E
330
18
100
AcDbEntity
  8
DISEGNO
100
AcDbCircle
 10
557.998772108825
 20
1091.806888874212
 30
0.0
 40
2.0
100
AcDbArc
 50
231.7679999999994
 51
38.23199999999735
  0
ARC
  5
345F
330
18
100
AcDbEntity
  8
DISEGNO
100
AcDbCircle
 10
560.9513024373513
 20
1099.808098859178
 30
0.0
 40
1.5
100
AcDbArc
 50
135.0000000000022
 51
200.6760338499976
  0
LINE
  5
3460
330
18
100
AcDbEntity
  8
DISEGNO
100
AcDbLine
 10
565.248772108825
 20
1101.056888874212
 30
0.0
 11
565.248772108825
 21
1091.556888874211
 31
0.0
  0
LINE
  5
3461
330
18
100
AcDbEntity
  8
DISEGNO
100
AcDbLine
 10
569.498772108825
 20
1084.556888874212
 30
0.0
 11
569.498772108825
 21
1091.556888874211
 31
0.0
  0
LINE
  5
3462
330
18
100
AcDbEntity
  8
DISEGNO
100
AcDbLine
 10
565.248772108825
 20
1091.556888874211
 30
0.0
 11
569.498772108825
 21
1091.556888874211
 31
0.0
  0
ARC
  5
3463
330
18
100
AcDbEntity
  8
DISEGNO
100
AcDbCircle
 10
566.248772108825
 20
1101.056888874212
 30
0.0
 40
1.0
100
AcDbArc
 50
132.7319999999958
 51
180.0
  0
ARC
  5
3464
330
18
100
AcDbEntity
  8
DISEGNO
100
AcDbCircle
 10
552.248772108825
 20
1147.806888874212
 30
0.0
 40
4.0
100
AcDbArc
 50
90.0
 51
180.0
  0
LINE
  5
3465
330
18
100
AcDbEntity
  8
DISEGNO
100
AcDbLine
 10
546.748772108825
 20
1159.306888874212
 30
0.0
 11
556.748772108825
 21
1159.306888874212
 31
0.0
  0
LINE
  5
3466
330
18
100
AcDbEntity
  8
DISEGNO
100
AcDbLine
 10
557.9510447293873
 20
1130.056888874211
 30
0.0
 11
547.748772108825
 21
1130.056888874211
 31
0.0
  0
ARC
  5
3467
330
18
100
AcDbEntity
  8
DISEGNO
100
AcDbCircle
 10
552.248772108825
 20
1141.556888874212
 30
0.0
 40
4.0
100
AcDbArc
 50
180.0
 51
270.0
  0
ARC
  5
3468
330
18
100
AcDbEntity
  8
DISEGNO
100
AcDbCircle
 10
552.998772108825
 20
1096.806888874212
 30
0.0
 40
7.0
100
AcDbArc
 50
69.32396615000165
 51
113.1369999999985
  0
LINE
  5
3469
330
18
100
AcDbEntity
  8
DISEGNO
100
AcDbLine
 10
557.9510447293873
 20
1109.056888874212
 30
0.0
 11
547.748772108825
 21
1109.056888874212
 31
0.0
  0
LINE
  5
346A
330
18
100
AcDbEntity
  8
DISEGNO
100
AcDbLine
 10
546.748772108825
 20
1175.806888874212
 30
0.0
 11
540.7487721088251
 21
1175.806888874212
 31
0.0
  0
LINE
  5
346B
330
18
100
AcDbEntity
  8
DISEGNO
100
AcDbLine
 10
548.248772108825
 20
1147.806888874212
 30
0.0
 11
548.248772108825
 21
1141.556888874212
 31
0.0
  0
LINE
  5
346C
330
18
100
AcDbEntity
  8
DISEGNO
100
AcDbLine
 10
540.7487721088251
 20
1163.306888874212
 30
0.0
 11
546.748772108825
 21
1163.306888874212
 31
0.0
  0
LINE
  5
346D
330
18
100
AcDbEntity
  8
DISEGNO
100
AcDbLine
 10
546.748772108825
 20
1159.306888874212
 30
0.0
 11
546.748772108825
 21
1163.306888874212
 31
0.0
  0
LINE
  5
346E
330
18
100
AcDbEntity
  8
DISEGNO
100
AcDbLine
 10
547.748772108825
 20
1113.306888874212
 30
0.0
 11
540.7487721088251
 21
1113.306888874212
 31
0.0
  0
LINE
  5
346F
330
18
100
AcDbEntity
  8
DISEGNO
100
AcDbLine
 10
540.7487721088251
 20
1125.806888874212
 30
0.0
 11
547.748772108825
 21
1125.806888874212
 31
0.0
  0
LINE
  5
3470
330
18
100
AcDbEntity
  8
DISEGNO
100
AcDbLine
 10
547.748772108825
 20
1130.056888874211
 30
0.0
 11
547.7487721088277
 21
1125.806888874212
 31
0.0
  0
LINE
  5
3471
330
18
100
AcDbEntity
  8
DISEGNO
100
AcDbLine
 10
540.7487721088251
 20
1125.806888874212
 30
0.0
 11
540.7487721088251
 21
1163.306888874212
 31
0.0
  0
ARC
  5
3472
330
18
100
AcDbEntity
  8
DISEGNO
100
AcDbCircle
 10
549.8587721088256
 20
1104.166888874211
 30
0.0
 40
1.0
100
AcDbArc
 50
231.7679999999994
 51
293.1369999999981
  0
LINE
  5
3473
330
18
100
AcDbEntity
  8
DISEGNO
100
AcDbLine
 10
547.7487721088277
 20
1113.306888874212
 30
0.0
 11
547.748772108825
 21
1109.056888874212
 31
0.0
  0
ARC
  5
3474
330
18
100
AcDbEntity
  8
DISEGNO
100
AcDbCircle
 10
571.1487721088246
 20
1111.766888874212
 30
0.0
 40
0.3
100
AcDbArc
 50
339.0000000000024
 51
59.45899999999753
  0
LINE
  5
3475
330
18
100
AcDbEntity
  8
DISEGNO
100
AcDbLine
 10
571.1687721088251
 20
1110.976888874212
 30
0.0
 11
571.4287721088253
 21
1111.656888874212
 31
0.0
  0
ARC
  5
3476
330
18
100
AcDbEntity
  8
DISEGNO
100
AcDbCircle
 10
571.4487721088257
 20
1110.866888874211
 30
0.0
 40
0.3
100
AcDbArc
 50
159.0000000000024
 51
243.6762000000036
  0
ARC
  5
3477
330
18
100
AcDbEntity
  8
DISEGNO
100
AcDbCircle
 10
573.1287721088251
 20
1110.216888874211
 30
0.0
 40
0.3
100
AcDbArc
 50
254.3237999999976
 51
339.0000000000024
  0
LINE
  5
3478
330
18
100
AcDbEntity
  8
DISEGNO
100
AcDbLine
 10
573.4087721088249
 20
1110.116888874212
 30
0.0
 11
573.6687721088251
 21
1110.796888874211
 31
0.0
  0
ARC
  5
3479
330
18
100
AcDbEntity
  8
DISEGNO
100
AcDbCircle
 10
573.9487721088257
 20
1110.686888874211
 30
0.0
 40
0.3
100
AcDbArc
 50
78.54100000000038
 51
159.0000000000024
  0
ARC
  5
347A
330
18
100
AcDbEntity
  8
DISEGNO
100
AcDbCircle
 10
575.748772108825
 20
1119.556888874212
 30
0.0
 40
8.75
100
AcDbArc
 50
258.5405999999976
 51
284.4589999999982
  0
ARC
  5
347B
330
18
100
AcDbEntity
  8
DISEGNO
100
AcDbCircle
 10
578.0087721088253
 20
1110.796888874211
 30
0.0
 40
0.3
100
AcDbArc
 50
24.00000000000283
 51
104.4589999999981
  0
LINE
  5
347C
330
18
100
AcDbEntity
  8
DISEGNO
100
AcDbLine
 10
578.2887721088258
 20
1110.916888874211
 30
0.0
 11
578.5887721088252
 21
1110.246888874212
 31
0.0
  0
ARC
  5
347D
330
18
100
AcDbEntity
  8
DISEGNO
100
AcDbCircle
 10
578.8587721088256
 20
1110.366888874212
 30
0.0
 40
0.3
100
AcDbArc
 50
204.0000000000028
 51
288.6759999999994
  0
ARC
  5
347E
330
18
100
AcDbEntity
  8
DISEGNO
100
AcDbCircle
 10
575.748772108825
 20
1119.556888874212
 30
0.0
 40
10.0
100
AcDbArc
 50
288.6759999999994
 51
299.3240000000009
  0
ARC
  5
347F
330
18
100
AcDbEntity
  8
DISEGNO
100
AcDbCircle
 10
580.748772108825
 20
1112.016888874212
 30
0.0
 40
0.3
100
AcDbArc
 50
123.5409999999996
 51
204.0000000000028
  0
ARC
  5
3480
330
18
100
AcDbEntity
  8
DISEGNO
100
AcDbCircle
 10
575.748772108825
 20
1119.556888874212
 30
0.0
 40
10.0
100
AcDbArc
 50
243.6762000000036
 51
254.3237999999976
  0
ARC
  5
3481
330
18
100
AcDbEntity
  8
DISEGNO
100
AcDbCircle
 10
575.748772108825
 20
1119.556888874212
 30
0.0
 40
10.0
100
AcDbArc
 50
107.6759999999968
 51
118.3239999999971
  0
ARC
  5
3482
330
18
100
AcDbEntity
  8
DISEGNO
100
AcDbCircle
 10
571.1487721088246
 20
1128.096888874212
 30
0.0
 40
0.3
100
AcDbArc
 50
118.3239999999971
 51
202.9999999999992
  0
LINE
  5
3483
330
18
100
AcDbEntity
  8
DISEGNO
100
AcDbLine
 10
571.1587721088249
 20
1127.306888874212
 30
0.0
 11
570.8687721088258
 21
1127.976888874212
 31
0.0
  0
ARC
  5
3484
330
18
100
AcDbEntity
  8
DISEGNO
100
AcDbCircle
 10
570.8787721088251
 20
1127.186888874211
 30
0.0
 40
0.3
100
AcDbArc
 50
302.540999999997
 51
22.99999999999925
  0
ARC
  5
3485
330
18
100
AcDbEntity
  8
DISEGNO
100
AcDbCircle
 10
580.4887721088248
 20
1127.266888874212
 30
0.0
 40
0.3
100
AcDbArc
 50
158.0000000000045
 51
238.4593999999971
  0
LINE
  5
3486
330
18
100
AcDbEntity
  8
DISEGNO
100
AcDbLine
 10
580.208772108825
 20
1127.386888874212
 30
0.0
 11
580.4787721088246
 21
1128.066888874211
 31
0.0
  0
ARC
  5
3487
330
18
100
AcDbEntity
  8
DISEGNO
100
AcDbCircle
 10
580.208772108825
 20
1128.176888874212
 30
0.0
 40
0.3
100
AcDbArc
 50
338.0000000000045
 51
62.67600000000283
  0
ARC
  5
3488
330
18
100
AcDbEntity
  8
DISEGNO
100
AcDbCircle
 10
575.748772108825
 20
1119.556888874212
 30
0.0
 40
10.0
100
AcDbArc
 50
62.67600000000283
 51
73.32400000000129
  0
ARC
  5
3489
330
18
100
AcDbEntity
  8
DISEGNO
100
AcDbCircle
 10
578.5387721088259
 20
1128.846888874212
 30
0.0
 40
0.3
100
AcDbArc
 50
73.32400000000129
 51
158.0000000000045
  0
LINE
  5
348A
330
18
100
AcDbEntity
  8
DISEGNO
100
AcDbLine
 10
577.9787721088246
 20
1128.286888874212
 30
0.0
 11
578.2587721088252
 21
1128.966888874211
 31
0.0
  0
ARC
  5
348B
330
18
100
AcDbEntity
  8
DISEGNO
100
AcDbCircle
 10
577.7087721088251
 20
1128.396888874211
 30
0.0
 40
0.3
100
AcDbArc
 50
257.5405999999974
 51
338.0000000000045
  0
ARC
  5
348C
330
18
100
AcDbEntity
  8
DISEGNO
100
AcDbCircle
 10
575.748772108825
 20
1119.556888874212
 30
0.0
 40
8.75
100
AcDbArc
 50
77.54099999999768
 51
103.4589999999985
  0
ARC
  5
348D
330
18
100
AcDbEntity
  8
DISEGNO
100
AcDbCircle
 10
573.6487721088247
 20
1128.356888874211
 30
0.0
 40
0.3
100
AcDbArc
 50
202.9999999999992
 51
283.4589999999985
  0
LINE
  5
348E
330
18
100
AcDbEntity
  8
DISEGNO
100
AcDbLine
 10
573.3687721088258
 20
1128.246888874212
 30
0.0
 11
573.0787721088249
 21
1128.916888874211
 31
0.0
  0
ARC
  5
348F
330
18
100
AcDbEntity
  8
DISEGNO
100
AcDbCircle
 10
572.8087721088245
 20
1128.796888874211
 30
0.0
 40
0.3
100
AcDbArc
 50
22.99999999999925
 51
107.6759999999968
  0
ARC
  5
3490
330
18
100
AcDbEntity
  8
DISEGNO
100
AcDbCircle
 10
569.248772108825
 20
1159.306888874212
 30
0.0
 40
4.0
100
AcDbArc
 50
180.0000000048462
 51
270.0
  0
ARC
  5
3491
330
18
100
AcDbEntity
  8
DISEGNO
100
AcDbCircle
 10
556.748772108825
 20
1160.306888874212
 30
0.0
 40
1.0
100
AcDbArc
 50
270.0
 51
0.0
  0
ARC
  5
3492
330
18
100
AcDbEntity
  8
DISEGNO
100
AcDbCircle
 10
533.748772108825
 20
1119.556888874212
 30
0.0
 40
27.0
100
AcDbArc
 50
338.5687454961772
 51
21.43125450382284
  0
ARC
  5
3493
330
18
100
AcDbEntity
  8
DISEGNO
100
AcDbCircle
 10
575.748772108825
 20
1119.556888874212
 30
0.0
 40
8.75
100
AcDbArc
 50
167.5409999999976
 51
193.4594000000031
  0
ARC
  5
3494
330
18
100
AcDbEntity
  8
DISEGNO
100
AcDbCircle
 10
575.748772108825
 20
1119.556888874212
 30
0.0
 40
10.0
100
AcDbArc
 50
197.6761999999972
 51
208.3238000000043
  0
LINE
  5
3495
330
18
100
AcDbEntity
  8
DISEGNO
100
AcDbLine
 10
567.3287721088249
 20
1114.676888874212
 30
0.0
 11
568.0087721088252
 21
1114.966888874212
 31
0.0
  0
ARC
  5
3496
330
18
100
AcDbEntity
  8
DISEGNO
100
AcDbCircle
 10
568.1187721088258
 20
1114.686888874211
 30
0.0
 40
0.3
100
AcDbArc
 50
32.54099999999951
 51
113.0000000000002
  0
ARC
  5
3497
330
18
100
AcDbEntity
  8
DISEGNO
100
AcDbCircle
 10
566.9487721088257
 20
1117.456888874211
 30
0.0
 40
0.3
100
AcDbArc
 50
293.0000000000001
 51
13.45900000000542
  0
LINE
  5
3498
330
18
100
AcDbEntity
  8
DISEGNO
100
AcDbLine
 10
566.3887721088245
 20
1116.886888874212
 30
0.0
 11
567.0687721088247
 21
1117.176888874211
 31
0.0
  0
ARC
  5
3499
330
18
100
AcDbEntity
  8
DISEGNO
100
AcDbCircle
 10
566.5087721088252
 20
1116.616888874212
 30
0.0
 40
0.3
100
AcDbArc
 50
113.0000000000002
 51
197.6761999999972
  0
ARC
  5
349A
330
18
100
AcDbEntity
  8
DISEGNO
100
AcDbCircle
 10
567.208772108825
 20
1114.956888874211
 30
0.0
 40
0.3
100
AcDbArc
 50
208.3238000000043
 51
293.0000000000001
  0
ARC
  5
349B
330
18
100
AcDbEntity
  8
DISEGNO
100
AcDbCircle
 10
565.8656160786318
 20
1135.056888874212
 30
0.0
 40
2.0
100
AcDbArc
 50
214.8499045790505
 51
270.0
  0
ARC
  5
349C
330
18
100
AcDbEntity
  8
DISEGNO
100
AcDbCircle
 10
557.9510447293873
 20
1129.056888874212
 30
0.0
 40
1.0
100
AcDbArc
 50
21.43125450382284
 51
90.0
  0
LINE
  5
349D
330
18
100
AcDbEntity
  8
DISEGNO
100
AcDbLine
 10
557.248772108825
 20
1137.556888874212
 30
0.0
 11
552.248772108825
 21
1137.556888874212
 31
0.0
  0
ARC
  5
349E
330
18
100
AcDbEntity
  8
DISEGNO
100
AcDbCircle
 10
575.748772108825
 20
1119.556888874212
 30
0.0
 40
10.0
100
AcDbArc
 50
152.6759999999966
 51
163.3240000000022
  0
ARC
  5
349F
330
18
100
AcDbEntity
  8
DISEGNO
100
AcDbCircle
 10
566.4587721088251
 20
1122.346888874212
 30
0.0
 40
0.3
100
AcDbArc
 50
163.3240000000022
 51
247.9999999999986
  0
LINE
  5
34A0
330
18
100
AcDbEntity
  8
DISEGNO
100
AcDbLine
 10
567.0287721088256
 20
1121.786888874212
 30
0.0
 11
566.3487721088253
 21
1122.066888874211
 31
0.0
  0
ARC
  5
34A1
330
18
100
AcDbEntity
  8
DISEGNO
100
AcDbCircle
 10
566.9187721088251
 20
1121.506888874211
 30
0.0
 40
0.3
100
AcDbArc
 50
347.5409999999976
 51
67.99999999999866
  0
ARC
  5
34A2
330
18
100
AcDbEntity
  8
DISEGNO
100
AcDbCircle
 10
568.0387721088258
 20
1124.296888874211
 30
0.0
 40
0.3
100
AcDbArc
 50
247.9999999999986
 51
328.4589999999953
  0
LINE
  5
34A3
330
18
100
AcDbEntity
  8
DISEGNO
100
AcDbLine
 10
567.9287721088253
 20
1124.016888874212
 30
0.0
 11
567.248772108825
 21
1124.286888874212
 31
0.0
  0
ARC
  5
34A4
330
18
100
AcDbEntity
  8
DISEGNO
100
AcDbCircle
 10
567.1387721088244
 20
1124.006888874211
 30
0.0
 40
0.3
100
AcDbArc
 50
67.99999999999866
 51
152.6759999999966
  0
ARC
  5
34A5
330
18
100
AcDbEntity
  8
DISEGNO
100
AcDbCircle
 10
557.248772108825
 20
1129.056888874212
 30
0.0
 40
8.5
100
AcDbArc
 50
34.84990457905059
 51
90.0
  0
ARC
  5
34A6
330
18
100
AcDbEntity
  8
DISEGNO
100
AcDbCircle
 10
575.748772108825
 20
1119.556888874212
 30
0.0
 40
8.75
100
AcDbArc
 50
212.5405999999997
 51
239.4593999999989
  0
ARC
  5
34A7
330
18
100
AcDbEntity
  8
DISEGNO
100
AcDbCircle
 10
575.748772108825
 20
1119.556888874212
 30
0.0
 40
8.75
100
AcDbArc
 50
122.540999999997
 51
148.4589999999954
  0
LINE
  5
34A8
330
18
100
AcDbEntity
  8
DISEGNO
100
AcDbLine
 10
575.748772108825
 20
1133.056888874212
 30
0.0
 11
565.8656160786318
 21
1133.056888874212
 31
0.0
  0
LINE
  5
34A9
330
18
100
AcDbEntity
  8
DISEGNO
100
AcDbLine
 10
562.8974806078099
 20
1108.121383810823
 30
0.0
 11
564.3132670454374
 21
1106.705597373196
 31
0.0
  0
ARC
  5
34AA
330
18
100
AcDbEntity
  8
DISEGNO
100
AcDbCircle
 10
562.1903738266232
 20
1107.414277029636
 30
0.0
 40
1.0
100
AcDbArc
 50
44.99999999999769
 51
135.0000000000022
  0
ARC
  5
34AB
330
18
100
AcDbEntity
  8
DISEGNO
100
AcDbCircle
 10
555.9999820937914
 20
1104.759419202738
 30
0.0
 40
1.5
100
AcDbArc
 50
249.3239661500016
 51
314.9999999999924
  0
LINE
  5
34AC
330
18
100
AcDbEntity
  8
DISEGNO
100
AcDbLine
 10
557.0606422655723
 20
1103.698759030959
 30
0.0
 11
561.4832670454375
 21
1108.121383810823
 31
0.0
  0
ARC
  5
34AD
330
18
100
AcDbEntity
  8
DISEGNO
100
AcDbCircle
 10
563.6061602642508
 20
1105.99849059201
 30
0.0
 40
1.0
100
AcDbArc
 50
315.0000000000023
 51
44.99999999999769
  0
ARC
  5
34AE
330
18
100
AcDbEntity
  8
DISEGNO
100
AcDbCircle
 10
557.9510447293873
 20
1110.056888874212
 30
0.0
 40
1.0
100
AcDbArc
 50
270.0
 51
338.5687454961772
  0
ARC
  5
3597
330
18
100
AcDbEntity
  8
DISEGNO
100
AcDbCircle
 10
552.248772108825
 20
1247.556888874212
 30
0.0
 40
4.0
100
AcDbArc
 50
90.0
 51
180.0
  0
LINE
  5
3598
330
18
100
AcDbEntity
  8
DISEGNO
100
AcDbLine
 10
540.7487721088251
 20
1263.306888874212
 30
0.0
 11
540.7487721088245
 21
1225.806888874212
 31
0.0
  0
ARC
  5
3599
330
18
100
AcDbEntity
  8
DISEGNO
100
AcDbCircle
 10
557.248772108825
 20
1260.056888874212
 30
0.0
 40
8.5
100
AcDbArc
 50
270.0
 51
325.1500954209494
  0
ARC
  5
35A4
330
18
100
AcDbEntity
  8
DISEGNO
100
AcDbCircle
 10
552.248772108825
 20
1241.306888874212
 30
0.0
 40
4.0
100
AcDbArc
 50
180.0
 51
270.0
  0
LINE
  5
35A5
330
18
100
AcDbEntity
  8
DISEGNO
100
AcDbLine
 10
546.748772108825
 20
1229.806888874212
 30
0.0
 11
556.748772108825
 21
1229.806888874212
 31
0.0
  0
LINE
  5
35A6
330
18
100
AcDbEntity
  8
DISEGNO
100
AcDbLine
 10
556.748772108825
 20
1209.306888874212
 30
0.0
 11
546.748772108825
 21
1209.306888874212
 31
0.0
  0
LINE
  5
35A7
330
18
100
AcDbEntity
  8
DISEGNO
100
AcDbLine
 10
556.748772108825
 20
1179.806888874212
 30
0.0
 11
546.748772108825
 21
1179.806888874212
 31
0.0
  0
ARC
  5
35A8
330
18
100
AcDbEntity
  8
DISEGNO
100
AcDbCircle
 10
555.748772108825
 20
1194.556888874212
 30
0.0
 40
7.0
100
AcDbArc
 50
37.18006585821087
 51
322.8199341417891
  0
LINE
  5
35AF
330
18
100
AcDbEntity
  8
DISEGNO
100
AcDbLine
 10
546.748772108825
 20
1225.556788289021
 30
0.0
 11
546.748772108825
 21
1228.55678828902
 31
0.0
  0
LINE
  5
35B4
330
18
100
AcDbEntity
  8
DISEGNO
100
AcDbLine
 10
546.748772108825
 20
1213.556788289021
 30
0.0
 11
546.748772108825
 21
1210.556788289021
 31
0.0
  0
LINE
  5
35CA
330
18
100
AcDbEntity
  8
DISEGNO
100
AcDbLine
 10
540.7487721088251
 20
1225.806888874212
 30
0.0
 11
546.748772108825
 21
1225.806888874212
 31
0.0
  0
LINE
  5
35CB
330
18
100
AcDbEntity
  8
DISEGNO
100
AcDbLine
 10
546.748772108825
 20
1229.806888874212
 30
0.0
 11
546.748772108825
 21
1225.806888874212
 31
0.0
  0
LINE
  5
35CC
330
18
100
AcDbEntity
  8
DISEGNO
100
AcDbLine
 10
548.248772108825
 20
1241.306888874212
 30
0.0
 11
548.248772108825
 21
1247.556888874212
 31
0.0
  0
LINE
  5
35CD
330
18
100
AcDbEntity
  8
DISEGNO
100
AcDbLine
 10
546.748772108825
 20
1213.306888874212
 30
0.0
 11
540.7487721088251
 21
1213.306888874212
 31
0.0
  0
LINE
  5
35CE
330
18
100
AcDbEntity
  8
DISEGNO
100
AcDbLine
 10
546.748772108825
 20
1213.306888874212
 30
0.0
 11
546.748772108825
 21
1209.306888874212
 31
0.0
  0
ARC
  5
35D7
330
18
100
AcDbEntity
  8
DISEGNO
100
AcDbCircle
 10
569.248772108825
 20
1229.806888874212
 30
0.0
 40
4.0
100
AcDbArc
 50
90.0
 51
179.9999999951537
  0
ARC
  5
35D8
330
18
100
AcDbEntity
  8
DISEGNO
100
AcDbCircle
 10
556.748772108825
 20
1228.806888874212
 30
0.0
 40
1.0
100
AcDbArc
 50
0.0
 51
90.0
  0
LINE
  5
35D9
330
18
100
AcDbEntity
  8
DISEGNO
100
AcDbLine
 10
557.248772108825
 20
1251.556888874212
 30
0.0
 11
552.248772108825
 21
1251.556888874212
 31
0.0
  0
ARC
  5
35DA
330
18
100
AcDbEntity
  8
DISEGNO
100
AcDbCircle
 10
562.248772108825
 20
1201.776888874212
 30
0.0
 40
3.0
100
AcDbArc
 50
299.9799999999995
 51
0.0
  0
ARC
  5
35DB
330
18
100
AcDbEntity
  8
DISEGNO
100
AcDbCircle
 10
562.1226938669365
 20
1199.391464493796
 30
0.0
 40
1.0
100
AcDbArc
 50
217.1800658582108
 51
300.0499136209863
  0
LINE
  5
35DC
330
18
100
AcDbEntity
  8
DISEGNO
100
AcDbLine
 10
563.748772108825
 20
1199.176888874212
 30
0.0
 11
562.6234481212291
 21
1198.52587499709
 31
0.0
  0
ARC
  5
35DD
330
18
100
AcDbEntity
  8
DISEGNO
100
AcDbCircle
 10
556.748772108825
 20
1210.306888874212
 30
0.0
 40
1.0
100
AcDbArc
 50
270.0
 51
0.0
  0
ARC
  5
35DE
330
18
100
AcDbEntity
  8
DISEGNO
100
AcDbCircle
 10
562.248772108825
 20
1187.336888874211
 30
0.0
 40
3.0
100
AcDbArc
 50
0.0
 51
60.02000000000043
  0
ARC
  5
35DF
330
18
100
AcDbEntity
  8
DISEGNO
100
AcDbCircle
 10
556.748772108825
 20
1178.806888874212
 30
0.0
 40
1.0
100
AcDbArc
 50
0.0
 51
90.0
  0
LINE
  5
35E0
330
18
100
AcDbEntity
  8
DISEGNO
100
AcDbLine
 10
563.748772108825
 20
1189.936888874211
 30
0.0
 11
562.6234481212291
 21
1190.587902751333
 31
0.0
  0
ARC
  5
35E1
330
18
100
AcDbEntity
  8
DISEGNO
100
AcDbCircle
 10
562.1226938669365
 20
1189.722313254627
 30
0.0
 40
1.0
100
AcDbArc
 50
59.95008637901365
 51
142.8199341417891
  0
LINE
  5
35E2
330
18
100
AcDbEntity
  8
DISEGNO
100
AcDbLine
 10
557.748772108825
 20
1228.806888874212
 30
0.0
 11
557.748772108825
 21
1210.306888874212
 31
0.0
  0
LINE
  5
35E3
330
18
100
AcDbEntity
  8
DISEGNO
100
AcDbLine
 10
565.248772108825
 20
1229.806888874212
 30
0.0
 11
565.248772108825
 21
1201.776888874212
 31
0.0
  0
LINE
  5
35E4
330
18
100
AcDbEntity
  8
DISEGNO
100
AcDbLine
 10
550.8560321088248
 20
1304.556688289023
 30
0.0
 11
560.1060321088247
 21
1304.556688289023
 31
0.0
  0
ARC
  5
35E5
330
18
100
AcDbEntity
  8
DISEGNO
100
AcDbCircle
 10
552.998772108825
 20
1292.306888874212
 30
0.0
 40
7.0
100
AcDbArc
 50
66.86300000000148
 51
113.1369999999985
  0
ARC
  5
35E6
330
18
100
AcDbEntity
  8
DISEGNO
100
AcDbCircle
 10
552.998772108825
 20
1292.306888874212
 30
0.0
 40
7.0
100
AcDbArc
 50
246.8630000000015
 51
290.6760338499983
  0
LINE
  5
35E7
330
18
100
AcDbEntity
  8
DISEGNO
100
AcDbLine
 10
540.8560321088248
 20
1304.556888874212
 30
0.0
 11
569.498772108825
 21
1304.556888874212
 31
0.0
  0
LINE
  5
35FB
330
18
100
AcDbEntity
  8
DISEGNO
100
AcDbLine
 10
547.7487721088264
 20
1260.557088289021
 30
0.0
 11
554.2487721088264
 21
1260.55708828902
 31
0.0
  0
LINE
  5
35FC
330
18
100
AcDbEntity
  8
DISEGNO
100
AcDbLine
 10
547.7487721088264
 20
1278.55708828902
 30
0.0
 11
554.2487721088264
 21
1278.55708828902
 31
0.0
  0
LINE
  5
35FD
330
18
100
AcDbEntity
  8
DISEGNO
100
AcDbLine
 10
557.9510447293873
 20
1259.056888874212
 30
0.0
 11
547.748772108825
 21
1259.056888874212
 31
0.0
  0
LINE
  5
35FE
330
18
100
AcDbEntity
  8
DISEGNO
100
AcDbLine
 10
557.9510447293873
 20
1280.056888874212
 30
0.0
 11
547.748772108825
 21
1280.056888874212
 31
0.0
  0
LINE
  5
3618
330
18
100
AcDbEntity
  8
DISEGNO
100
AcDbLine
 10
550.7477721088248
 20
1304.556888804547
 30
0.0
 11
572.2477721088248
 21
1304.556888804547
 31
0.0
  0
ARC
  5
3663
330
18
100
AcDbEntity
  8
DISEGNO
100
AcDbCircle
 10
547.998772108825
 20
1297.306888874212
 30
0.0
 40
2.0
100
AcDbArc
 50
51.76799999999945
 51
218.2319999999973
  0
ARC
  5
3664
330
18
100
AcDbEntity
  8
DISEGNO
100
AcDbCircle
 10
545.6487721088246
 20
1295.446888874212
 30
0.0
 40
1.0
100
AcDbArc
 50
336.863
 51
38.23199999999735
  0
ARC
  5
3665
330
18
100
AcDbEntity
  8
DISEGNO
100
AcDbCircle
 10
542.248772108825
 20
1303.056888874212
 30
0.0
 40
1.5
100
AcDbArc
 50
90.0
 51
179.9999999951667
  0
ARC
  5
3666
330
18
100
AcDbEntity
  8
DISEGNO
100
AcDbCircle
 10
545.6487721088246
 20
1289.156888874212
 30
0.0
 40
1.0
100
AcDbArc
 50
321.7680000000026
 51
23.13699999999991
  0
ARC
  5
3667
330
18
100
AcDbEntity
  8
DISEGNO
100
AcDbCircle
 10
547.998772108825
 20
1287.306888874212
 30
0.0
 40
2.0
100
AcDbArc
 50
141.7678000000007
 51
308.2320000000005
  0
ARC
  5
3668
330
18
100
AcDbEntity
  8
DISEGNO
100
AcDbCircle
 10
552.998772108825
 20
1292.306888874212
 30
0.0
 40
7.0
100
AcDbArc
 50
156.8629000000015
 51
203.1369999999999
  0
ARC
  5
3669
330
18
100
AcDbEntity
  8
DISEGNO
100
AcDbCircle
 10
549.8587721088256
 20
1299.656888874212
 30
0.0
 40
1.0
100
AcDbArc
 50
231.7679999999994
 51
293.1369999999981
  0
ARC
  5
366A
330
18
100
AcDbEntity
  8
DISEGNO
100
AcDbCircle
 10
549.8587721088256
 20
1284.946888874212
 30
0.0
 40
1.0
100
AcDbArc
 50
66.86300000000148
 51
128.2320000000005
  0
LINE
  5
366B
330
18
100
AcDbEntity
  8
DISEGNO
100
AcDbLine
 10
547.7487721088264
 20
1263.557088289021
 30
0.0
 11
547.7487721088264
 21
1260.557088289021
 31
0.0
  0
LINE
  5
366C
330
18
100
AcDbEntity
  8
DISEGNO
100
AcDbLine
 10
543.2487721088263
 20
1263.557088289021
 30
0.0
 11
547.7487721088264
 21
1263.557088289021
 31
0.0
  0
LINE
  5
366D
330
18
100
AcDbEntity
  8
DISEGNO
100
AcDbLine
 10
543.2487721088263
 20
1269.557088289021
 30
0.0
 11
543.2487721088263
 21
1263.557088289021
 31
0.0
  0
LINE
  5
366E
330
18
100
AcDbEntity
  8
DISEGNO
100
AcDbLine
 10
543.2487721088263
 20
1269.557088289021
 30
0.0
 11
543.2487721088263
 21
1275.557088289021
 31
0.0
  0
LINE
  5
366F
330
18
100
AcDbEntity
  8
DISEGNO
100
AcDbLine
 10
547.7487721088264
 20
1275.557088289021
 30
0.0
 11
547.7487721088264
 21
1278.55708828902
 31
0.0
  0
LINE
  5
3670
330
18
100
AcDbEntity
  8
DISEGNO
100
AcDbLine
 10
543.2487721088263
 20
1275.557088289021
 30
0.0
 11
547.7487721088264
 21
1275.557088289021
 31
0.0
  0
LINE
  5
3671
330
18
100
AcDbEntity
  8
DISEGNO
100
AcDbLine
 10
540.7487721088251
 20
1263.306888874212
 30
0.0
 11
547.748772108825
 21
1263.306888874212
 31
0.0
  0
LINE
  5
3672
330
18
100
AcDbEntity
  8
DISEGNO
100
AcDbLine
 10
547.748772108825
 20
1275.806888874212
 30
0.0
 11
540.7487721088251
 21
1275.806888874212
 31
0.0
  0
LINE
  5
3673
330
18
100
AcDbEntity
  8
DISEGNO
100
AcDbLine
 10
547.7487721088277
 20
1275.806888874212
 30
0.0
 11
547.748772108825
 21
1280.056888874212
 31
0.0
  0
LINE
  5
3674
330
18
100
AcDbEntity
  8
DISEGNO
100
AcDbLine
 10
547.748772108825
 20
1259.056888874212
 30
0.0
 11
547.7487721088277
 21
1263.306888874212
 31
0.0
  0
LINE
  5
3675
330
18
100
AcDbEntity
  8
DISEGNO
100
AcDbLine
 10
540.7487721088251
 20
1303.056888874338
 30
0.0
 11
540.7487721088251
 21
1263.306888874212
 31
0.0
  0
ARC
  5
3687
330
18
100
AcDbEntity
  8
DISEGNO
100
AcDbCircle
 10
556.1487721088247
 20
1299.656888874212
 30
0.0
 40
1.0
100
AcDbArc
 50
246.8630000000015
 51
308.2320000000005
  0
ARC
  5
3688
330
18
100
AcDbEntity
  8
DISEGNO
100
AcDbCircle
 10
557.998772108825
 20
1297.306888874212
 30
0.0
 40
2.0
100
AcDbArc
 50
321.7680000000026
 51
128.2320000000005
  0
ARC
  5
3689
330
18
100
AcDbEntity
  8
DISEGNO
100
AcDbCircle
 10
560.3587721088256
 20
1295.446888874212
 30
0.0
 40
1.0
100
AcDbArc
 50
141.7678000000007
 51
203.1369999999999
  0
ARC
  5
368A
330
18
100
AcDbEntity
  8
DISEGNO
100
AcDbCircle
 10
555.9999820937914
 20
1284.354358545685
 30
0.0
 40
1.5
100
AcDbArc
 50
45.00000000000748
 51
110.6760338499983
  0
LINE
  5
368B
330
18
100
AcDbEntity
  8
DISEGNO
100
AcDbLine
 10
559.8906422655723
 20
1288.245018717465
 30
0.0
 11
564.3132670454374
 21
1283.8223939376
 31
0.0
  0
ARC
  5
368C
330
18
100
AcDbEntity
  8
DISEGNO
100
AcDbCircle
 10
560.9513024373513
 20
1289.305678889245
 30
0.0
 40
1.5
100
AcDbArc
 50
159.3239661500023
 51
224.9999999999976
  0
ARC
  5
368D
330
18
100
AcDbEntity
  8
DISEGNO
100
AcDbCircle
 10
552.998772108825
 20
1292.306888874212
 30
0.0
 40
7.0
100
AcDbArc
 50
339.3239661500023
 51
23.13699999999991
  0
LINE
  5
368E
330
18
100
AcDbEntity
  8
DISEGNO
100
AcDbLine
 10
569.498772108825
 20
1304.556888874212
 30
0.0
 11
569.498772108825
 21
1297.556888874212
 31
0.0
  0
LINE
  5
368F
330
18
100
AcDbEntity
  8
DISEGNO
100
AcDbLine
 10
565.248772108825
 20
1297.556888874212
 30
0.0
 11
569.498772108825
 21
1297.556888874212
 31
0.0
  0
ARC
  5
3690
330
18
100
AcDbEntity
  8
DISEGNO
100
AcDbCircle
 10
566.248772108825
 20
1288.056888874212
 30
0.0
 40
1.0
100
AcDbArc
 50
180.0
 51
227.2680000000041
  0
LINE
  5
3691
330
18
100
AcDbEntity
  8
DISEGNO
100
AcDbLine
 10
565.248772108825
 20
1288.056888874212
 30
0.0
 11
565.248772108825
 21
1297.556888874212
 31
0.0
  0
ARC
  5
3692
330
18
100
AcDbEntity
  8
DISEGNO
100
AcDbCircle
 10
572.8087721088245
 20
1260.316888874212
 30
0.0
 40
0.3
100
AcDbArc
 50
252.3240000000031
 51
337.0000000000008
  0
LINE
  5
3693
330
18
100
AcDbEntity
  8
DISEGNO
100
AcDbLine
 10
573.3687721088258
 20
1260.866888874212
 30
0.0
 11
573.0787721088249
 21
1260.196888874212
 31
0.0
  0
ARC
  5
3694
330
18
100
AcDbEntity
  8
DISEGNO
100
AcDbCircle
 10
573.6487721088247
 20
1260.756888874212
 30
0.0
 40
0.3
100
AcDbArc
 50
76.54100000000148
 51
157.0000000000007
  0
ARC
  5
3695
330
18
100
AcDbEntity
  8
DISEGNO
100
AcDbCircle
 10
575.748772108825
 20
1269.556888874212
 30
0.0
 40
8.75
100
AcDbArc
 50
256.5410000000014
 51
282.4590000000022
  0
ARC
  5
3696
330
18
100
AcDbEntity
  8
DISEGNO
100
AcDbCircle
 10
577.7087721088251
 20
1260.716888874212
 30
0.0
 40
0.3
100
AcDbArc
 50
21.99999999999544
 51
102.4594000000025
  0
LINE
  5
3697
330
18
100
AcDbEntity
  8
DISEGNO
100
AcDbLine
 10
577.9787721088246
 20
1260.826888874212
 30
0.0
 11
578.2587721088252
 21
1260.146888874212
 31
0.0
  0
ARC
  5
3698
330
18
100
AcDbEntity
  8
DISEGNO
100
AcDbCircle
 10
578.5387721088259
 20
1260.266888874212
 30
0.0
 40
0.3
100
AcDbArc
 50
201.9999999999954
 51
286.6759999999987
  0
ARC
  5
3699
330
18
100
AcDbEntity
  8
DISEGNO
100
AcDbCircle
 10
575.748772108825
 20
1269.556888874212
 30
0.0
 40
10.0
100
AcDbArc
 50
286.6759999999987
 51
297.3239999999971
  0
ARC
  5
369A
330
18
100
AcDbEntity
  8
DISEGNO
100
AcDbCircle
 10
580.208772108825
 20
1260.936888874212
 30
0.0
 40
0.3
100
AcDbArc
 50
297.3239999999971
 51
21.99999999999544
  0
LINE
  5
369B
330
18
100
AcDbEntity
  8
DISEGNO
100
AcDbLine
 10
580.208772108825
 20
1261.726888874212
 30
0.0
 11
580.4787721088246
 21
1261.046888874212
 31
0.0
  0
ARC
  5
369C
330
18
100
AcDbEntity
  8
DISEGNO
100
AcDbCircle
 10
580.4887721088248
 20
1261.846888874212
 30
0.0
 40
0.3
100
AcDbArc
 50
121.5406000000027
 51
201.9999999999954
  0
ARC
  5
369D
330
18
100
AcDbEntity
  8
DISEGNO
100
AcDbCircle
 10
570.8787721088251
 20
1261.926888874212
 30
0.0
 40
0.3
100
AcDbArc
 50
337.0000000000008
 51
57.45900000000293
  0
LINE
  5
369E
330
18
100
AcDbEntity
  8
DISEGNO
100
AcDbLine
 10
571.1587721088249
 20
1261.806888874212
 30
0.0
 11
570.8687721088258
 21
1261.136888874212
 31
0.0
  0
ARC
  5
369F
330
18
100
AcDbEntity
  8
DISEGNO
100
AcDbCircle
 10
571.1487721088246
 20
1261.016888874212
 30
0.0
 40
0.3
100
AcDbArc
 50
157.0000000000007
 51
241.6760000000028
  0
ARC
  5
36A0
330
18
100
AcDbEntity
  8
DISEGNO
100
AcDbCircle
 10
575.748772108825
 20
1269.556888874212
 30
0.0
 40
10.0
100
AcDbArc
 50
241.6760000000028
 51
252.3240000000031
  0
ARC
  5
36A1
330
18
100
AcDbEntity
  8
DISEGNO
100
AcDbCircle
 10
575.748772108825
 20
1269.556888874212
 30
0.0
 40
10.0
100
AcDbArc
 50
105.6762000000023
 51
116.3237999999963
  0
ARC
  5
36A2
330
18
100
AcDbEntity
  8
DISEGNO
100
AcDbCircle
 10
580.748772108825
 20
1277.096888874212
 30
0.0
 40
0.3
100
AcDbArc
 50
155.9999999999971
 51
236.4590000000003
  0
ARC
  5
36A3
330
18
100
AcDbEntity
  8
DISEGNO
100
AcDbCircle
 10
575.748772108825
 20
1269.556888874212
 30
0.0
 40
10.0
100
AcDbArc
 50
60.67599999999906
 51
71.32400000000053
  0
ARC
  5
36A4
330
18
100
AcDbEntity
  8
DISEGNO
100
AcDbCircle
 10
578.8587721088256
 20
1278.746888874212
 30
0.0
 40
0.3
100
AcDbArc
 50
71.32400000000053
 51
155.9999999999971
  0
LINE
  5
36A5
330
18
100
AcDbEntity
  8
DISEGNO
100
AcDbLine
 10
578.2887721088258
 20
1278.196888874212
 30
0.0
 11
578.5887721088252
 21
1278.866888874212
 31
0.0
  0
ARC
  5
36A6
330
18
100
AcDbEntity
  8
DISEGNO
100
AcDbCircle
 10
578.0087721088253
 20
1278.316888874212
 30
0.0
 40
0.3
100
AcDbArc
 50
255.5410000000017
 51
335.9999999999971
  0
ARC
  5
36A7
330
18
100
AcDbEntity
  8
DISEGNO
100
AcDbCircle
 10
575.748772108825
 20
1269.556888874212
 30
0.0
 40
8.75
100
AcDbArc
 50
75.54100000000183
 51
101.4594000000023
  0
ARC
  5
36A8
330
18
100
AcDbEntity
  8
DISEGNO
100
AcDbCircle
 10
573.9487721088257
 20
1278.426888874212
 30
0.0
 40
0.3
100
AcDbArc
 50
200.9999999999975
 51
281.4589999999995
  0
LINE
  5
36A9
330
18
100
AcDbEntity
  8
DISEGNO
100
AcDbLine
 10
573.4087721088249
 20
1278.996888874212
 30
0.0
 11
573.6687721088251
 21
1278.316888874212
 31
0.0
  0
ARC
  5
36AA
330
18
100
AcDbEntity
  8
DISEGNO
100
AcDbCircle
 10
573.1287721088251
 20
1278.896888874212
 30
0.0
 40
0.3
100
AcDbArc
 50
20.99999999999755
 51
105.6762000000023
  0
ARC
  5
36AB
330
18
100
AcDbEntity
  8
DISEGNO
100
AcDbCircle
 10
571.4487721088257
 20
1278.246888874212
 30
0.0
 40
0.3
100
AcDbArc
 50
116.3237999999963
 51
200.9999999999975
  0
LINE
  5
36AC
330
18
100
AcDbEntity
  8
DISEGNO
100
AcDbLine
 10
571.1687721088251
 20
1278.136888874212
 30
0.0
 11
571.4287721088253
 21
1277.456888874212
 31
0.0
  0
ARC
  5
36AD
330
18
100
AcDbEntity
  8
DISEGNO
100
AcDbCircle
 10
571.1487721088246
 20
1277.346888874212
 30
0.0
 40
0.3
100
AcDbArc
 50
300.5410000000024
 51
20.99999999999755
  0
LINE
  5
36AE
330
18
100
AcDbEntity
  8
DISEGNO
100
AcDbLine
 10
562.8974806078099
 20
1280.9923939376
 30
0.0
 11
564.3132670454374
 21
1282.408180375227
 31
0.0
  0
ARC
  5
36AF
330
18
100
AcDbEntity
  8
DISEGNO
100
AcDbCircle
 10
565.8656160786318
 20
1254.056888874212
 30
0.0
 40
2.0
100
AcDbArc
 50
90.0
 51
145.1500954209494
  0
LINE
  5
36B0
330
18
100
AcDbEntity
  8
DISEGNO
100
AcDbLine
 10
554.7487721088264
 20
1269.557088289021
 30
0.0
 11
554.7487721088264
 21
1261.05708828902
 31
0.0
  0
LINE
  5
36B1
330
18
100
AcDbEntity
  8
DISEGNO
100
AcDbLine
 10
554.2487721088264
 20
1260.55708828902
 30
0.0
 11
554.7487721088264
 21
1261.05708828902
 31
0.0
  0
LINE
  5
36B2
330
18
100
AcDbEntity
  8
DISEGNO
100
AcDbLine
 10
554.2487721088264
 20
1278.55708828902
 30
0.0
 11
554.7487721088264
 21
1278.05708828902
 31
0.0
  0
LINE
  5
36B3
330
18
100
AcDbEntity
  8
DISEGNO
100
AcDbLine
 10
554.7487721088264
 20
1269.557088289021
 30
0.0
 11
554.7487721088264
 21
1278.05708828902
 31
0.0
  0
ARC
  5
36B4
330
18
100
AcDbEntity
  8
DISEGNO
100
AcDbCircle
 10
557.9510447293873
 20
1260.056888874212
 30
0.0
 40
1.0
100
AcDbArc
 50
270.0
 51
338.5687454961772
  0
ARC
  5
36B5
330
18
100
AcDbEntity
  8
DISEGNO
100
AcDbCircle
 10
557.9510447293873
 20
1279.056888874212
 30
0.0
 40
1.0
100
AcDbArc
 50
21.43125450382284
 51
90.0
  0
ARC
  5
36B6
330
18
100
AcDbEntity
  8
DISEGNO
100
AcDbCircle
 10
562.1903738266232
 20
1281.699500718787
 30
0.0
 40
1.0
100
AcDbArc
 50
224.9999999999976
 51
315.0000000000023
  0
ARC
  5
36B7
330
18
100
AcDbEntity
  8
DISEGNO
100
AcDbCircle
 10
533.748772108825
 20
1269.556888874212
 30
0.0
 40
27.0
100
AcDbArc
 50
338.5687454961772
 51
21.43125450382284
  0
ARC
  5
36B8
330
18
100
AcDbEntity
  8
DISEGNO
100
AcDbCircle
 10
567.1387721088244
 20
1265.106888874212
 30
0.0
 40
0.3
100
AcDbArc
 50
207.3240000000033
 51
292.0000000000013
  0
LINE
  5
36B9
330
18
100
AcDbEntity
  8
DISEGNO
100
AcDbLine
 10
567.9287721088253
 20
1265.096888874212
 30
0.0
 11
567.248772108825
 21
1264.826888874212
 31
0.0
  0
ARC
  5
36BA
330
18
100
AcDbEntity
  8
DISEGNO
100
AcDbCircle
 10
568.0387721088258
 20
1264.816888874212
 30
0.0
 40
0.3
100
AcDbArc
 50
31.54100000000457
 51
112.0000000000013
  0
ARC
  5
36BB
330
18
100
AcDbEntity
  8
DISEGNO
100
AcDbCircle
 10
567.208772108825
 20
1274.156888874212
 30
0.0
 40
0.3
100
AcDbArc
 50
66.99999999999978
 51
151.6761999999957
  0
ARC
  5
36BC
330
18
100
AcDbEntity
  8
DISEGNO
100
AcDbCircle
 10
566.5087721088252
 20
1272.496888874212
 30
0.0
 40
0.3
100
AcDbArc
 50
162.3238000000027
 51
246.9999999999997
  0
LINE
  5
36BD
330
18
100
AcDbEntity
  8
DISEGNO
100
AcDbLine
 10
566.3887721088245
 20
1272.226888874212
 30
0.0
 11
567.0687721088247
 21
1271.936888874212
 31
0.0
  0
ARC
  5
36BE
330
18
100
AcDbEntity
  8
DISEGNO
100
AcDbCircle
 10
566.9487721088257
 20
1271.656888874212
 30
0.0
 40
0.3
100
AcDbArc
 50
346.5409999999945
 51
66.99999999999978
  0
ARC
  5
36BF
330
18
100
AcDbEntity
  8
DISEGNO
100
AcDbCircle
 10
575.748772108825
 20
1269.556888874212
 30
0.0
 40
8.75
100
AcDbArc
 50
166.5405999999968
 51
192.4590000000023
  0
ARC
  5
36C0
330
18
100
AcDbEntity
  8
DISEGNO
100
AcDbCircle
 10
566.9187721088251
 20
1267.606888874212
 30
0.0
 40
0.3
100
AcDbArc
 50
292.0000000000013
 51
12.45900000000232
  0
LINE
  5
36C1
330
18
100
AcDbEntity
  8
DISEGNO
100
AcDbLine
 10
567.0287721088256
 20
1267.326888874212
 30
0.0
 11
566.3487721088253
 21
1267.046888874212
 31
0.0
  0
ARC
  5
36C2
330
18
100
AcDbEntity
  8
DISEGNO
100
AcDbCircle
 10
566.4587721088251
 20
1266.766888874212
 30
0.0
 40
0.3
100
AcDbArc
 50
112.0000000000013
 51
196.6759999999977
  0
ARC
  5
36C3
330
18
100
AcDbEntity
  8
DISEGNO
100
AcDbCircle
 10
568.1187721088258
 20
1274.426888874212
 30
0.0
 40
0.3
100
AcDbArc
 50
246.9999999999997
 51
327.4590000000005
  0
LINE
  5
36C4
330
18
100
AcDbEntity
  8
DISEGNO
100
AcDbLine
 10
567.3287721088249
 20
1274.436888874212
 30
0.0
 11
568.0087721088252
 21
1274.146888874212
 31
0.0
  0
ARC
  5
36C5
330
18
100
AcDbEntity
  8
DISEGNO
100
AcDbCircle
 10
575.748772108825
 20
1269.556888874212
 30
0.0
 40
10.0
100
AcDbArc
 50
151.6761999999957
 51
162.3238000000027
  0
ARC
  5
36C6
330
18
100
AcDbEntity
  8
DISEGNO
100
AcDbCircle
 10
575.748772108825
 20
1269.556888874212
 30
0.0
 40
10.0
100
AcDbArc
 50
196.6759999999977
 51
207.3240000000033
  0
LINE
  5
36C7
330
18
100
AcDbEntity
  8
DISEGNO
100
AcDbLine
 10
575.748772108825
 20
1256.056888874212
 30
0.0
 11
565.8656160786318
 21
1256.056888874212
 31
0.0
  0
ARC
  5
36C8
330
18
100
AcDbEntity
  8
DISEGNO
100
AcDbCircle
 10
575.748772108825
 20
1269.556888874212
 30
0.0
 40
8.75
100
AcDbArc
 50
120.540600000001
 51
147.4594000000002
  0
ARC
  5
36C9
330
18
100
AcDbEntity
  8
DISEGNO
100
AcDbCircle
 10
575.748772108825
 20
1269.556888874212
 30
0.0
 40
8.75
100
AcDbArc
 50
211.5410000000045
 51
237.4590000000029
  0
LINE
  5
36CA
330
18
100
AcDbEntity
  8
DISEGNO
100
AcDbLine
 10
557.0606422655723
 20
1285.415018717465
 30
0.0
 11
561.4832670454375
 21
1280.9923939376
 31
0.0
  0
ARC
  5
36CB
330
18
100
AcDbEntity
  8
DISEGNO
100
AcDbCircle
 10
563.6061602642508
 20
1283.115287156413
 30
0.0
 40
1.0
100
AcDbArc
 50
315.0000000000023
 51
44.99999999999769
  0
LINE
  5
36CC
330
18
100
AcDbEntity
  8
DISEGNO
100
AcDbLine
 10
579.2477721088248
 20
1301.556888804547
 30
0.0
 11
579.2477721088248
 21
1304.556888804547
 31
0.0
  0
LINE
  5
36CD
330
18
100
AcDbEntity
  8
DISEGNO
100
AcDbLine
 10
572.2477721088248
 20
1301.556888804547
 30
0.0
 11
572.2477721088248
 21
1304.556888804547
 31
0.0
  0
LINE
  5
36CE
330
18
100
AcDbEntity
  8
DISEGNO
100
AcDbLine
 10
572.2477721088248
 20
1301.556888804547
 30
0.0
 11
579.2477721088248
 21
1301.556888804547
 31
0.0
  0
LINE
  5
3745
330
18
100
AcDbEntity
  8
ASSI
100
AcDbLine
 10
625.748772108825
 20
1072.471048749054
 30
0.0
 11
625.748772108825
 21
1306.808007973696
 31
0.0
  0
LINE
  5
3746
330
18
100
AcDbEntity
  8
DISEGNO
100
AcDbLine
 10
654.7517721088247
 20
1175.806888874212
 30
0.0
 11
654.7517721088247
 21
1179.806888874212
 31
0.0
  0
LINE
  5
3747
330
18
100
AcDbEntity
  8
DISEGNO
100
AcDbLine
 10
660.7517721088247
 20
1175.806888874212
 30
0.0
 11
660.7517721088247
 21
1213.306888874212
 31
0.0
  0
LINE
  5
3748
330
18
100
AcDbEntity
  8
DISEGNO
100
AcDbLine
 10
636.2517721088247
 20
1159.306888874212
 30
0.0
 11
636.2517721088247
 21
1187.336888874211
 31
0.0
  0
LINE
  5
3749
330
18
100
AcDbEntity
  8
DISEGNO
100
AcDbLine
 10
643.7517721088247
 20
1160.306888874212
 30
0.0
 11
643.7517721088247
 21
1178.806888874212
 31
0.0
  0
ARC
  5
374A
330
18
100
AcDbEntity
  8
DISEGNO
100
AcDbCircle
 10
644.2517721088247
 20
1129.056888874212
 30
0.0
 40
8.5
100
AcDbArc
 50
90.0
 51
143.1309999999973
  0
ARC
  5
374B
330
18
100
AcDbEntity
  8
DISEGNO
100
AcDbCircle
 10
639.3071703910268
 20
1107.414277029636
 30
0.0
 40
1.0
100
AcDbArc
 50
44.99999999999769
 51
135.0000000000022
  0
LINE
  5
374C
330
18
100
AcDbEntity
  8
DISEGNO
100
AcDbLine
 10
641.6069019520787
 20
1100.868759030958
 30
0.0
 11
637.1842771722135
 21
1105.291383810823
 31
0.0
  0
LINE
  5
374D
330
18
100
AcDbEntity
  8
DISEGNO
100
AcDbLine
 10
631.998772108825
 20
1084.556888874212
 30
0.0
 11
659.2517721088247
 21
1084.556888874212
 31
0.0
  0
ARC
  5
374E
330
18
100
AcDbEntity
  8
DISEGNO
100
AcDbCircle
 10
625.748772108825
 20
1090.776888874211
 30
0.0
 40
15.0
100
AcDbArc
 50
47.26800000000416
 51
132.7319999999958
  0
ARC
  5
374F
330
18
100
AcDbEntity
  8
DISEGNO
100
AcDbCircle
 10
616.248772108825
 20
1101.056888874212
 30
0.0
 40
8.5
100
AcDbArc
 50
126.8700000000032
 51
180.0
  0
ARC
  5
3750
330
18
100
AcDbEntity
  8
DISEGNO
100
AcDbCircle
 10
585.248772108825
 20
1101.056888874212
 30
0.0
 40
8.5
100
AcDbArc
 50
0.0
 51
55.15009542095461
  0
LINE
  5
3751
330
18
100
AcDbEntity
  8
DISEGNO
100
AcDbLine
 10
581.998772108825
 20
1084.556888874211
 30
0.0
 11
619.498772108825
 21
1084.556888874211
 31
0.0
  0
ARC
  5
3752
330
18
100
AcDbEntity
  8
DISEGNO
100
AcDbCircle
 10
597.748772108825
 20
1096.056888874212
 30
0.0
 40
4.0
100
AcDbArc
 50
180.0
 51
270.0
  0
LINE
  5
3753
330
18
100
AcDbEntity
  8
DISEGNO
100
AcDbLine
 10
593.748772108825
 20
1101.056888874212
 30
0.0
 11
593.748772108825
 21
1096.056888874212
 31
0.0
  0
LINE
  5
3754
330
18
100
AcDbEntity
  8
DISEGNO
100
AcDbLine
 10
607.748772108825
 20
1101.056888874212
 30
0.0
 11
607.748772108825
 21
1096.056888874212
 31
0.0
  0
LINE
  5
3755
330
18
100
AcDbEntity
  8
DISEGNO
100
AcDbLine
 10
603.748772108825
 20
1092.056888874212
 30
0.0
 11
597.748772108825
 21
1092.056888874212
 31
0.0
  0
ARC
  5
3756
330
18
100
AcDbEntity
  8
DISEGNO
100
AcDbCircle
 10
603.748772108825
 20
1096.056888874212
 30
0.0
 40
4.0
100
AcDbArc
 50
270.0
 51
0.0
  0
LINE
  5
3757
330
18
100
AcDbEntity
  8
DISEGNO
100
AcDbLine
 10
586.248772108825
 20
1101.056888874212
 30
0.0
 11
586.248772108825
 21
1091.556888874211
 31
0.0
  0
LINE
  5
3758
330
18
100
AcDbEntity
  8
DISEGNO
100
AcDbLine
 10
581.998772108825
 20
1091.556888874211
 30
0.0
 11
581.998772108825
 21
1084.556888874212
 31
0.0
  0
LINE
  5
3759
330
18
100
AcDbEntity
  8
DISEGNO
100
AcDbLine
 10
581.998772108825
 20
1091.556888874211
 30
0.0
 11
586.248772108825
 21
1091.556888874211
 31
0.0
  0
ARC
  5
375A
330
18
100
AcDbEntity
  8
DISEGNO
100
AcDbCircle
 10
585.248772108825
 20
1101.056888874212
 30
0.0
 40
1.0
100
AcDbArc
 50
0.0
 51
47.26800000000416
  0
LINE
  5
375B
330
18
100
AcDbEntity
  8
DISEGNO
100
AcDbLine
 10
636.2517721088247
 20
1101.056888874212
 30
0.0
 11
636.2517721088247
 21
1091.556888874211
 31
0.0
  0
ARC
  5
375C
330
18
100
AcDbEntity
  8
DISEGNO
100
AcDbCircle
 10
635.2517721088247
 20
1101.056888874212
 30
0.0
 40
1.0
100
AcDbArc
 50
0.0
 51
47.26800000000416
  0
LINE
  5
375D
330
18
100
AcDbEntity
  8
DISEGNO
100
AcDbLine
 10
615.248772108825
 20
1101.056888874212
 30
0.0
 11
615.248772108825
 21
1091.556888874211
 31
0.0
  0
LINE
  5
375E
330
18
100
AcDbEntity
  8
DISEGNO
100
AcDbLine
 10
619.498772108825
 20
1091.556888874211
 30
0.0
 11
615.248772108825
 21
1091.556888874211
 31
0.0
  0
LINE
  5
375F
330
18
100
AcDbEntity
  8
DISEGNO
100
AcDbLine
 10
619.498772108825
 20
1091.556888874211
 30
0.0
 11
619.498772108825
 21
1084.556888874212
 31
0.0
  0
ARC
  5
3760
330
18
100
AcDbEntity
  8
DISEGNO
100
AcDbCircle
 10
616.248772108825
 20
1101.056888874212
 30
0.0
 40
1.0
100
AcDbArc
 50
132.7319999999958
 51
180.0
  0
LINE
  5
3761
330
18
100
AcDbEntity
  8
DISEGNO
100
AcDbLine
 10
631.998772108825
 20
1084.556888874212
 30
0.0
 11
631.998772108825
 21
1091.556888874211
 31
0.0
  0
LINE
  5
3762
330
18
100
AcDbEntity
  8
DISEGNO
100
AcDbLine
 10
636.2517721088247
 20
1091.556888874211
 30
0.0
 11
631.998772108825
 21
1091.556888874211
 31
0.0
  0
ARC
  5
3763
330
18
100
AcDbEntity
  8
DISEGNO
100
AcDbCircle
 10
625.748772108825
 20
1119.556888874212
 30
0.0
 40
13.5
100
AcDbArc
 50
90.0
 51
180.0
  0
ARC
  5
3764
330
18
100
AcDbEntity
  8
DISEGNO
100
AcDbCircle
 10
584.6187721088258
 20
1117.756888874211
 30
0.0
 40
0.3
100
AcDbArc
 50
168.5409999999933
 51
249.0000000000024
  0
LINE
  5
3765
330
18
100
AcDbEntity
  8
DISEGNO
100
AcDbLine
 10
589.248772108825
 20
1119.556888874212
 30
0.0
 11
589.248772108825
 21
1109.673732844018
 31
0.0
  0
ARC
  5
3766
330
18
100
AcDbEntity
  8
DISEGNO
100
AcDbCircle
 10
584.4487721088257
 20
1115.256888874211
 30
0.0
 40
0.3
100
AcDbArc
 50
249.0000000000024
 51
333.6759999999961
  0
LINE
  5
3767
330
18
100
AcDbEntity
  8
DISEGNO
100
AcDbLine
 10
583.6487721088246
 20
1115.236888874211
 30
0.0
 11
584.3387721088252
 21
1114.976888874212
 31
0.0
  0
LINE
  5
3768
330
18
100
AcDbEntity
  8
DISEGNO
100
AcDbLine
 10
584.5187721088255
 20
1117.476888874212
 30
0.0
 11
585.1987721088257
 21
1117.216888874211
 31
0.0
  0
ARC
  5
3769
330
18
100
AcDbEntity
  8
DISEGNO
100
AcDbCircle
 10
575.748772108825
 20
1119.556888874212
 30
0.0
 40
10.0
100
AcDbArc
 50
333.6759999999961
 51
344.3240000000057
  0
ARC
  5
376A
330
18
100
AcDbEntity
  8
DISEGNO
100
AcDbCircle
 10
585.0887721088252
 20
1116.936888874211
 30
0.0
 40
0.3
100
AcDbArc
 50
344.3240000000057
 51
69.00000000000244
  0
ARC
  5
376B
330
18
100
AcDbEntity
  8
DISEGNO
100
AcDbCircle
 10
583.5487721088252
 20
1114.956888874211
 30
0.0
 40
0.3
100
AcDbArc
 50
69.00000000000244
 51
149.4590000000024
  0
ARC
  5
376C
330
18
100
AcDbEntity
  8
DISEGNO
100
AcDbCircle
 10
575.748772108825
 20
1119.556888874212
 30
0.0
 40
10.0
100
AcDbArc
 50
18.67599999999841
 51
29.32400000000173
  0
ARC
  5
376D
330
18
100
AcDbEntity
  8
DISEGNO
100
AcDbCircle
 10
575.748772108825
 20
1119.556888874212
 30
0.0
 40
8.75
100
AcDbArc
 50
348.5409999999933
 51
14.45899999999899
  0
ARC
  5
376E
330
18
100
AcDbEntity
  8
DISEGNO
100
AcDbCircle
 10
584.5187721088255
 20
1121.816888874211
 30
0.0
 40
0.3
100
AcDbArc
 50
113.9999999999976
 51
194.4593999999997
  0
LINE
  5
376F
330
18
100
AcDbEntity
  8
DISEGNO
100
AcDbLine
 10
584.3887721088244
 20
1122.096888874212
 30
0.0
 11
585.0587721088245
 21
1122.386888874211
 31
0.0
  0
ARC
  5
3770
330
18
100
AcDbEntity
  8
DISEGNO
100
AcDbCircle
 10
584.9387721088255
 20
1122.666888874211
 30
0.0
 40
0.3
100
AcDbArc
 50
293.9999999999976
 51
18.67599999999841
  0
LINE
  5
3771
330
18
100
AcDbEntity
  8
DISEGNO
100
AcDbLine
 10
583.4187721088251
 20
1124.286888874212
 30
0.0
 11
584.0887721088251
 21
1124.586888874211
 31
0.0
  0
ARC
  5
3772
330
18
100
AcDbEntity
  8
DISEGNO
100
AcDbCircle
 10
584.208772108825
 20
1124.306888874212
 30
0.0
 40
0.3
100
AcDbArc
 50
29.32400000000173
 51
113.9999999999976
  0
ARC
  5
3773
330
18
100
AcDbEntity
  8
DISEGNO
100
AcDbCircle
 10
583.2987721088252
 20
1124.556888874212
 30
0.0
 40
0.3
100
AcDbArc
 50
213.5406000000044
 51
293.9999999999976
  0
ARC
  5
3774
330
18
100
AcDbEntity
  8
DISEGNO
100
AcDbCircle
 10
591.248772108825
 20
1109.673732844018
 30
0.0
 40
2.0
100
AcDbArc
 50
180.0
 51
235.1500954209545
  0
ARC
  5
3775
330
18
100
AcDbEntity
  8
DISEGNO
100
AcDbCircle
 10
632.2487721088251
 20
1159.306888874212
 30
0.0
 40
4.0
100
AcDbArc
 50
270.0
 51
0.0
  0
ARC
  5
3776
330
18
100
AcDbEntity
  8
DISEGNO
100
AcDbCircle
 10
625.748772108825
 20
1119.556888874212
 30
0.0
 40
8.75
100
AcDbArc
 50
346.5409999999945
 51
12.45900000000232
  0
ARC
  5
3777
330
18
100
AcDbEntity
  8
DISEGNO
100
AcDbCircle
 10
625.748772108825
 20
1119.556888874212
 30
0.0
 40
10.0
100
AcDbArc
 50
331.6759999999959
 51
342.3239999999972
  0
LINE
  5
3778
330
18
100
AcDbEntity
  8
DISEGNO
100
AcDbLine
 10
634.1687721088251
 20
1114.676888874212
 30
0.0
 11
633.498772108825
 21
1114.966888874212
 31
0.0
  0
ARC
  5
3779
330
18
100
AcDbEntity
  8
DISEGNO
100
AcDbCircle
 10
633.3787721088251
 20
1114.686888874211
 30
0.0
 40
0.3
100
AcDbArc
 50
66.99999999999978
 51
147.4590000000004
  0
ARC
  5
377A
330
18
100
AcDbEntity
  8
DISEGNO
100
AcDbCircle
 10
634.5487721088252
 20
1117.456888874211
 30
0.0
 40
0.3
100
AcDbArc
 50
166.5409999999945
 51
246.9999999999997
  0
LINE
  5
377B
330
18
100
AcDbEntity
  8
DISEGNO
100
AcDbLine
 10
635.1107721088251
 20
1116.886888874212
 30
0.0
 11
634.4387721088246
 21
1117.176888874211
 31
0.0
  0
ARC
  5
377C
330
18
100
AcDbEntity
  8
DISEGNO
100
AcDbCircle
 10
634.9937721088249
 20
1116.616888874212
 30
0.0
 40
0.3
100
AcDbArc
 50
342.3239999999972
 51
66.99999999999978
  0
ARC
  5
377D
330
18
100
AcDbEntity
  8
DISEGNO
100
AcDbCircle
 10
634.288772108825
 20
1114.956888874211
 30
0.0
 40
0.3
100
AcDbArc
 50
246.9999999999997
 51
331.6759999999959
  0
ARC
  5
377E
330
18
100
AcDbEntity
  8
DISEGNO
100
AcDbCircle
 10
635.6319281390183
 20
1135.056888874212
 30
0.0
 40
2.0
100
AcDbArc
 50
270.0
 51
325.1500954209494
  0
ARC
  5
377F
330
18
100
AcDbEntity
  8
DISEGNO
100
AcDbCircle
 10
625.748772108825
 20
1119.556888874212
 30
0.0
 40
10.0
100
AcDbArc
 50
16.67599999999778
 51
27.32400000000335
  0
ARC
  5
3780
330
18
100
AcDbEntity
  8
DISEGNO
100
AcDbCircle
 10
635.0437721088251
 20
1122.346888874212
 30
0.0
 40
0.3
100
AcDbArc
 50
292.0000000000013
 51
16.67599999999778
  0
LINE
  5
3781
330
18
100
AcDbEntity
  8
DISEGNO
100
AcDbLine
 10
634.4787721088246
 20
1121.786888874212
 30
0.0
 11
635.1557721088251
 21
1122.066888874211
 31
0.0
  0
ARC
  5
3782
330
18
100
AcDbEntity
  8
DISEGNO
100
AcDbCircle
 10
634.5887721088252
 20
1121.506888874211
 30
0.0
 40
0.3
100
AcDbArc
 50
112.0000000000013
 51
192.4593999999956
  0
ARC
  5
3783
330
18
100
AcDbEntity
  8
DISEGNO
100
AcDbCircle
 10
633.4687721088252
 20
1124.296888874211
 30
0.0
 40
0.3
100
AcDbArc
 50
211.540600000004
 51
292.0000000000013
  0
LINE
  5
3784
330
18
100
AcDbEntity
  8
DISEGNO
100
AcDbLine
 10
633.578772108825
 20
1124.016888874212
 30
0.0
 11
634.2587721088253
 21
1124.286888874212
 31
0.0
  0
ARC
  5
3785
330
18
100
AcDbEntity
  8
DISEGNO
100
AcDbCircle
 10
634.3687721088249
 20
1124.006888874211
 30
0.0
 40
0.3
100
AcDbArc
 50
27.32400000000335
 51
112.0000000000013
  0
LINE
  5
3786
330
18
100
AcDbEntity
  8
DISEGNO
100
AcDbLine
 10
623.2187721088252
 20
1110.916888874211
 30
0.0
 11
622.9187721088251
 21
1110.246888874212
 31
0.0
  0
ARC
  5
3787
330
18
100
AcDbEntity
  8
DISEGNO
100
AcDbCircle
 10
622.9687721088253
 20
1128.846888874212
 30
0.0
 40
0.3
100
AcDbArc
 50
21.99999999999544
 51
106.6759999999987
  0
ARC
  5
3788
330
18
100
AcDbEntity
  8
DISEGNO
100
AcDbCircle
 10
616.8787721088251
 20
1117.756888874211
 30
0.0
 40
0.3
100
AcDbArc
 50
290.9999999999975
 51
11.45900000000665
  0
LINE
  5
3789
330
18
100
AcDbEntity
  8
DISEGNO
100
AcDbLine
 10
612.248772108825
 20
1119.556888874212
 30
0.0
 11
612.248772108825
 21
1109.673732844018
 31
0.0
  0
ARC
  5
378A
330
18
100
AcDbEntity
  8
DISEGNO
100
AcDbCircle
 10
625.748772108825
 20
1119.556888874212
 30
0.0
 40
8.75
100
AcDbArc
 50
210.5405999999997
 51
236.4594000000014
  0
ARC
  5
378B
330
18
100
AcDbEntity
  8
DISEGNO
100
AcDbCircle
 10
617.0587721088245
 20
1115.256888874211
 30
0.0
 40
0.3
100
AcDbArc
 50
206.3237999999963
 51
290.9999999999975
  0
LINE
  5
378C
330
18
100
AcDbEntity
  8
DISEGNO
100
AcDbLine
 10
617.8487721088245
 20
1115.236888874211
 30
0.0
 11
617.1687721088251
 21
1114.976888874212
 31
0.0
  0
ARC
  5
378D
330
18
100
AcDbEntity
  8
DISEGNO
100
AcDbCircle
 10
617.9587721088251
 20
1114.956888874211
 30
0.0
 40
0.3
100
AcDbArc
 50
30.54099999999754
 51
110.9999999999975
  0
LINE
  5
378E
330
18
100
AcDbEntity
  8
DISEGNO
100
AcDbLine
 10
616.9887721088248
 20
1117.476888874212
 30
0.0
 11
616.3087721088245
 21
1117.216888874211
 31
0.0
  0
ARC
  5
378F
330
18
100
AcDbEntity
  8
DISEGNO
100
AcDbCircle
 10
625.748772108825
 20
1119.556888874212
 30
0.0
 40
10.0
100
AcDbArc
 50
195.6761999999966
 51
206.3237999999963
  0
ARC
  5
3790
330
18
100
AcDbEntity
  8
DISEGNO
100
AcDbCircle
 10
616.4087721088248
 20
1116.936888874211
 30
0.0
 40
0.3
100
AcDbArc
 50
110.9999999999975
 51
195.6761999999966
  0
ARC
  5
3791
330
18
100
AcDbEntity
  8
DISEGNO
100
AcDbCircle
 10
622.6487721088247
 20
1110.366888874212
 30
0.0
 40
0.3
100
AcDbArc
 50
251.3237999999994
 51
335.9999999999971
  0
ARC
  5
3792
330
18
100
AcDbEntity
  8
DISEGNO
100
AcDbCircle
 10
625.748772108825
 20
1119.556888874212
 30
0.0
 40
10.0
100
AcDbArc
 50
240.6762999999989
 51
251.3237999999994
  0
ARC
  5
3793
330
18
100
AcDbEntity
  8
DISEGNO
100
AcDbCircle
 10
620.998772108825
 20
1111.096888874212
 30
0.0
 40
0.3
100
AcDbArc
 50
155.9999999999971
 51
240.6762999999989
  0
LINE
  5
3794
330
18
100
AcDbEntity
  8
DISEGNO
100
AcDbLine
 10
621.0287721088247
 20
1111.896888874211
 30
0.0
 11
620.7287721088246
 21
1111.226888874212
 31
0.0
  0
ARC
  5
3795
330
18
100
AcDbEntity
  8
DISEGNO
100
AcDbCircle
 10
620.748772108825
 20
1112.016888874212
 30
0.0
 40
0.3
100
AcDbArc
 50
335.9999999999971
 51
56.45900000000031
  0
ARC
  5
3796
330
18
100
AcDbEntity
  8
DISEGNO
100
AcDbCircle
 10
625.748772108825
 20
1119.556888874212
 30
0.0
 40
10.0
100
AcDbArc
 50
150.6759999999982
 51
161.3240000000015
  0
ARC
  5
3797
330
18
100
AcDbEntity
  8
DISEGNO
100
AcDbCircle
 10
625.748772108825
 20
1119.556888874212
 30
0.0
 40
8.75
100
AcDbArc
 50
165.541000000001
 51
191.459400000003
  0
ARC
  5
3798
330
18
100
AcDbEntity
  8
DISEGNO
100
AcDbCircle
 10
616.9887721088248
 20
1121.816888874211
 30
0.0
 40
0.3
100
AcDbArc
 50
345.5410000000009
 51
66.00000000000237
  0
LINE
  5
3799
330
18
100
AcDbEntity
  8
DISEGNO
100
AcDbLine
 10
617.1087721088247
 20
1122.096888874212
 30
0.0
 11
616.4387721088246
 21
1122.386888874211
 31
0.0
  0
ARC
  5
379A
330
18
100
AcDbEntity
  8
DISEGNO
100
AcDbCircle
 10
616.5587721088245
 20
1122.666888874211
 30
0.0
 40
0.3
100
AcDbArc
 50
161.3240000000015
 51
246.0000000000023
  0
LINE
  5
379B
330
18
100
AcDbEntity
  8
DISEGNO
100
AcDbLine
 10
618.0887721088252
 20
1124.286888874212
 30
0.0
 11
617.4187721088251
 21
1124.586888874211
 31
0.0
  0
ARC
  5
379C
330
18
100
AcDbEntity
  8
DISEGNO
100
AcDbCircle
 10
618.2087721088251
 20
1124.556888874212
 30
0.0
 40
0.3
100
AcDbArc
 50
246.0000000000023
 51
326.4590000000046
  0
ARC
  5
379D
330
18
100
AcDbEntity
  8
DISEGNO
100
AcDbCircle
 10
625.748772108825
 20
1119.556888874212
 30
0.0
 40
8.75
100
AcDbArc
 50
121.5409999999995
 51
146.4590000000046
  0
ARC
  5
379E
330
18
100
AcDbEntity
  8
DISEGNO
100
AcDbCircle
 10
621.0187721088246
 20
1127.266888874212
 30
0.0
 40
0.3
100
AcDbArc
 50
301.5409999999995
 51
21.99999999999544
  0
LINE
  5
379F
330
18
100
AcDbEntity
  8
DISEGNO
100
AcDbLine
 10
621.2987721088252
 20
1127.386888874212
 30
0.0
 11
621.0187721088246
 21
1128.066888874211
 31
0.0
  0
ARC
  5
37A0
330
18
100
AcDbEntity
  8
DISEGNO
100
AcDbCircle
 10
621.2987721088252
 20
1128.176888874212
 30
0.0
 40
0.3
100
AcDbArc
 50
117.3239999999971
 51
201.9999999999954
  0
ARC
  5
37A1
330
18
100
AcDbEntity
  8
DISEGNO
100
AcDbCircle
 10
625.748772108825
 20
1119.556888874212
 30
0.0
 40
10.0
100
AcDbArc
 50
106.6759999999987
 51
117.3239999999971
  0
ARC
  5
37A2
330
18
100
AcDbEntity
  8
DISEGNO
100
AcDbCircle
 10
617.2987721088252
 20
1124.306888874212
 30
0.0
 40
0.3
100
AcDbArc
 50
66.00000000000237
 51
150.6759999999982
  0
ARC
  5
37A3
330
18
100
AcDbEntity
  8
DISEGNO
100
AcDbCircle
 10
625.748772108825
 20
1119.556888874212
 30
0.0
 40
10.0
100
AcDbArc
 50
285.6760000000002
 51
296.3239999999969
  0
ARC
  5
37A4
330
18
100
AcDbEntity
  8
DISEGNO
100
AcDbCircle
 10
630.3487721088245
 20
1111.766888874212
 30
0.0
 40
0.3
100
AcDbArc
 50
120.5410000000024
 51
200.9999999999975
  0
LINE
  5
37A5
330
18
100
AcDbEntity
  8
DISEGNO
100
AcDbLine
 10
630.3287721088249
 20
1110.976888874212
 30
0.0
 11
630.0687721088247
 21
1111.656888874212
 31
0.0
  0
ARC
  5
37A6
330
18
100
AcDbEntity
  8
DISEGNO
100
AcDbCircle
 10
630.0487721088252
 20
1110.866888874211
 30
0.0
 40
0.3
100
AcDbArc
 50
296.3239999999969
 51
20.99999999999755
  0
ARC
  5
37A7
330
18
100
AcDbEntity
  8
DISEGNO
100
AcDbCircle
 10
628.3687721088249
 20
1110.216888874211
 30
0.0
 40
0.3
100
AcDbArc
 50
200.9999999999975
 51
285.6760000000002
  0
LINE
  5
37A8
330
18
100
AcDbEntity
  8
DISEGNO
100
AcDbLine
 10
628.0887721088252
 20
1110.116888874212
 30
0.0
 11
627.828772108825
 21
1110.796888874211
 31
0.0
  0
ARC
  5
37A9
330
18
100
AcDbEntity
  8
DISEGNO
100
AcDbCircle
 10
627.5487721088252
 20
1110.686888874211
 30
0.0
 40
0.3
100
AcDbArc
 50
20.99999999999755
 51
101.4589999999996
  0
ARC
  5
37AA
330
18
100
AcDbEntity
  8
DISEGNO
100
AcDbCircle
 10
625.748772108825
 20
1119.556888874212
 30
0.0
 40
8.75
100
AcDbArc
 50
255.5406000000004
 51
281.4589999999995
  0
ARC
  5
37AB
330
18
100
AcDbEntity
  8
DISEGNO
100
AcDbCircle
 10
623.4887721088248
 20
1110.796888874211
 30
0.0
 40
0.3
100
AcDbArc
 50
75.54100000000183
 51
155.9999999999971
  0
ARC
  5
37AC
330
18
100
AcDbEntity
  8
DISEGNO
100
AcDbCircle
 10
625.748772108825
 20
1119.556888874212
 30
0.0
 40
10.0
100
AcDbArc
 50
61.67600000000281
 51
72.32400000000317
  0
ARC
  5
37AD
330
18
100
AcDbEntity
  8
DISEGNO
100
AcDbCircle
 10
630.3587721088247
 20
1128.096888874212
 30
0.0
 40
0.3
100
AcDbArc
 50
337.0000000000008
 51
61.67600000000281
  0
LINE
  5
37AE
330
18
100
AcDbEntity
  8
DISEGNO
100
AcDbLine
 10
630.3387721088252
 20
1127.306888874212
 30
0.0
 11
630.6287721088251
 21
1127.976888874212
 31
0.0
  0
ARC
  5
37AF
330
18
100
AcDbEntity
  8
DISEGNO
100
AcDbCircle
 10
630.6187721088249
 20
1127.186888874211
 30
0.0
 40
0.3
100
AcDbArc
 50
157.0000000000007
 51
237.4594000000009
  0
LINE
  5
37B0
330
18
100
AcDbEntity
  8
DISEGNO
100
AcDbLine
 10
623.5187721088245
 20
1128.286888874212
 30
0.0
 11
623.248772108825
 21
1128.966888874211
 31
0.0
  0
ARC
  5
37B1
330
18
100
AcDbEntity
  8
DISEGNO
100
AcDbCircle
 10
623.7987721088252
 20
1128.396888874211
 30
0.0
 40
0.3
100
AcDbArc
 50
201.9999999999954
 51
282.4590000000022
  0
ARC
  5
37B2
330
18
100
AcDbEntity
  8
DISEGNO
100
AcDbCircle
 10
625.748772108825
 20
1119.556888874212
 30
0.0
 40
8.75
100
AcDbArc
 50
76.54100000000148
 51
102.4590000000023
  0
ARC
  5
37B3
330
18
100
AcDbEntity
  8
DISEGNO
100
AcDbCircle
 10
627.8587721088247
 20
1128.356888874211
 30
0.0
 40
0.3
100
AcDbArc
 50
256.540599999997
 51
337.0000000000008
  0
LINE
  5
37B4
330
18
100
AcDbEntity
  8
DISEGNO
100
AcDbLine
 10
628.1387721088244
 20
1128.246888874212
 30
0.0
 11
628.4187721088251
 21
1128.916888874211
 31
0.0
  0
ARC
  5
37B5
330
18
100
AcDbEntity
  8
DISEGNO
100
AcDbCircle
 10
628.6987721088248
 20
1128.796888874211
 30
0.0
 40
0.3
100
AcDbArc
 50
72.32400000000317
 51
157.0000000000007
  0
ARC
  5
37B6
330
18
100
AcDbEntity
  8
DISEGNO
100
AcDbCircle
 10
625.748772108825
 20
1119.556888874212
 30
0.0
 40
8.75
100
AcDbArc
 50
300.5410000000024
 51
327.4590000000005
  0
ARC
  5
37B7
330
18
100
AcDbEntity
  8
DISEGNO
100
AcDbCircle
 10
625.748772108825
 20
1119.556888874212
 30
0.0
 40
8.75
100
AcDbArc
 50
31.54100000000457
 51
57.45900000000293
  0
LINE
  5
37B8
330
18
100
AcDbEntity
  8
DISEGNO
100
AcDbLine
 10
625.748772108825
 20
1133.056888874212
 30
0.0
 11
635.6319281390183
 21
1133.056888874212
 31
0.0
  0
LINE
  5
37B9
330
18
100
AcDbEntity
  8
DISEGNO
100
AcDbLine
 10
638.6000636098401
 20
1108.121383810823
 30
0.0
 11
637.1842771722135
 21
1106.705597373196
 31
0.0
  0
ARC
  5
37BA
330
18
100
AcDbEntity
  8
DISEGNO
100
AcDbCircle
 10
637.8913839534002
 20
1105.99849059201
 30
0.0
 40
1.0
100
AcDbArc
 50
135.0000000000022
 51
224.9999999999976
  0
ARC
  5
37BB
330
18
100
AcDbEntity
  8
DISEGNO
100
AcDbCircle
 10
610.248772108825
 20
1109.673732844018
 30
0.0
 40
2.0
100
AcDbArc
 50
304.8499045790453
 51
0.0
  0
ARC
  5
37BC
330
18
100
AcDbEntity
  8
DISEGNO
100
AcDbCircle
 10
653.498772108825
 20
1101.806888874212
 30
0.0
 40
2.0
100
AcDbArc
 50
321.7678000000007
 51
128.2320000000005
  0
LINE
  5
37BD
330
18
100
AcDbEntity
  8
DISEGNO
100
AcDbLine
 10
660.7517721088247
 20
1086.056888874212
 30
0.0
 11
660.7517721088247
 21
1113.306888874212
 31
0.0
  0
ARC
  5
37BE
330
18
100
AcDbEntity
  8
DISEGNO
100
AcDbCircle
 10
648.498772108825
 20
1096.806888874212
 30
0.0
 40
7.0
100
AcDbArc
 50
336.8629000000014
 51
23.13699999999991
  0
ARC
  5
37BF
330
18
100
AcDbEntity
  8
DISEGNO
100
AcDbCircle
 10
655.8487721088254
 20
1093.666888874211
 30
0.0
 40
1.0
100
AcDbArc
 50
156.863
 51
218.2319999999973
  0
ARC
  5
37C0
330
18
100
AcDbEntity
  8
DISEGNO
100
AcDbCircle
 10
659.2517721088247
 20
1086.056888874212
 30
0.0
 40
1.5
100
AcDbArc
 50
270.0
 51
0.0
  0
ARC
  5
37C1
330
18
100
AcDbEntity
  8
DISEGNO
100
AcDbCircle
 10
655.8487721088254
 20
1099.956888874211
 30
0.0
 40
1.0
100
AcDbArc
 50
141.7680000000026
 51
203.1369999999999
  0
ARC
  5
37C2
330
18
100
AcDbEntity
  8
DISEGNO
100
AcDbCircle
 10
651.6387721088253
 20
1089.456888874211
 30
0.0
 40
1.0
100
AcDbArc
 50
51.76799999999945
 51
113.1369999999985
  0
ARC
  5
37C3
330
18
100
AcDbEntity
  8
DISEGNO
100
AcDbCircle
 10
648.498772108825
 20
1096.806888874212
 30
0.0
 40
7.0
100
AcDbArc
 50
159.3239661500023
 51
203.1369999999999
  0
ARC
  5
37C4
330
18
100
AcDbEntity
  8
DISEGNO
100
AcDbCircle
 10
641.1387721088253
 20
1093.666888874211
 30
0.0
 40
1.0
100
AcDbArc
 50
321.7678000000007
 51
23.13699999999991
  0
ARC
  5
37C5
330
18
100
AcDbEntity
  8
DISEGNO
100
AcDbCircle
 10
648.498772108825
 20
1096.806888874212
 30
0.0
 40
7.0
100
AcDbArc
 50
246.8630000000015
 51
293.1369999999981
  0
ARC
  5
37C6
330
18
100
AcDbEntity
  8
DISEGNO
100
AcDbCircle
 10
645.3487721088253
 20
1089.456888874211
 30
0.0
 40
1.0
100
AcDbArc
 50
66.86300000000148
 51
128.2320000000005
  0
ARC
  5
37C7
330
18
100
AcDbEntity
  8
DISEGNO
100
AcDbCircle
 10
643.498772108825
 20
1091.806888874212
 30
0.0
 40
2.0
100
AcDbArc
 50
141.7680000000026
 51
308.2320000000005
  0
ARC
  5
37C8
330
18
100
AcDbEntity
  8
DISEGNO
100
AcDbCircle
 10
640.5462417802986
 20
1099.808098859178
 30
0.0
 40
1.5
100
AcDbArc
 50
339.3239661500023
 51
44.99999999999769
  0
ARC
  5
37C9
330
18
100
AcDbEntity
  8
DISEGNO
100
AcDbCircle
 10
653.498772108825
 20
1091.806888874212
 30
0.0
 40
2.0
100
AcDbArc
 50
231.7679999999994
 51
38.23199999999735
  0
LINE
  5
37CA
330
18
100
AcDbEntity
  8
DISEGNO
100
AcDbLine
 10
654.7517721088247
 20
1175.806888874212
 30
0.0
 11
660.7517721088247
 21
1175.806888874212
 31
0.0
  0
LINE
  5
37CB
330
18
100
AcDbEntity
  8
DISEGNO
100
AcDbLine
 10
653.2517721088247
 20
1147.806888874212
 30
0.0
 11
653.2517721088247
 21
1141.556888874212
 31
0.0
  0
LINE
  5
37CC
330
18
100
AcDbEntity
  8
DISEGNO
100
AcDbLine
 10
654.7517721088247
 20
1159.306888874212
 30
0.0
 11
654.7517721088247
 21
1163.306888874212
 31
0.0
  0
LINE
  5
37CD
330
18
100
AcDbEntity
  8
DISEGNO
100
AcDbLine
 10
660.7517721088247
 20
1163.306888874212
 30
0.0
 11
654.7517721088247
 21
1163.306888874212
 31
0.0
  0
LINE
  5
37CE
330
18
100
AcDbEntity
  8
DISEGNO
100
AcDbLine
 10
653.7517721088248
 20
1113.306888874212
 30
0.0
 11
660.7517721088247
 21
1113.306888874212
 31
0.0
  0
LINE
  5
37CF
330
18
100
AcDbEntity
  8
DISEGNO
100
AcDbLine
 10
660.7517721088247
 20
1125.806888874212
 30
0.0
 11
653.7517721088248
 21
1125.806888874212
 31
0.0
  0
LINE
  5
37D0
330
18
100
AcDbEntity
  8
DISEGNO
100
AcDbLine
 10
653.7517721088248
 20
1130.056888874211
 30
0.0
 11
653.7517721088248
 21
1125.806888874212
 31
0.0
  0
LINE
  5
37D1
330
18
100
AcDbEntity
  8
DISEGNO
100
AcDbLine
 10
660.7517721088247
 20
1125.806888874212
 30
0.0
 11
660.7517721088247
 21
1163.306888874212
 31
0.0
  0
ARC
  5
37D2
330
18
100
AcDbEntity
  8
DISEGNO
100
AcDbCircle
 10
644.7517721088247
 20
1160.306888874212
 30
0.0
 40
1.0
100
AcDbArc
 50
180.0000053477709
 51
270.0
  0
ARC
  5
37D3
330
18
100
AcDbEntity
  8
DISEGNO
100
AcDbCircle
 10
667.748772108825
 20
1119.556888874212
 30
0.0
 40
27.0
100
AcDbArc
 50
158.5687454961771
 51
201.4312545038228
  0
LINE
  5
37D4
330
18
100
AcDbEntity
  8
DISEGNO
100
AcDbLine
 10
644.2517721088247
 20
1137.556888874212
 30
0.0
 11
649.2517721088248
 21
1137.556888874212
 31
0.0
  0
ARC
  5
37D5
330
18
100
AcDbEntity
  8
DISEGNO
100
AcDbCircle
 10
643.5464994882627
 20
1129.056888874212
 30
0.0
 40
1.0
100
AcDbArc
 50
90.0
 51
158.5687454961771
  0
ARC
  5
37D6
330
18
100
AcDbEntity
  8
DISEGNO
100
AcDbCircle
 10
649.2517721088248
 20
1147.806888874212
 30
0.0
 40
4.0
100
AcDbArc
 50
0.0
 51
90.0
  0
ARC
  5
37D7
330
18
100
AcDbEntity
  8
DISEGNO
100
AcDbCircle
 10
649.2517721088248
 20
1141.556888874212
 30
0.0
 40
4.0
100
AcDbArc
 50
270.0
 51
0.0
  0
LINE
  5
37D8
330
18
100
AcDbEntity
  8
DISEGNO
100
AcDbLine
 10
643.5464994882627
 20
1130.056888874211
 30
0.0
 11
653.7517721088248
 21
1130.056888874211
 31
0.0
  0
LINE
  5
37D9
330
18
100
AcDbEntity
  8
DISEGNO
100
AcDbLine
 10
654.7517721088247
 20
1159.306888874212
 30
0.0
 11
644.7517721088247
 21
1159.306888874212
 31
0.0
  0
ARC
  5
37DA
330
18
100
AcDbEntity
  8
DISEGNO
100
AcDbCircle
 10
651.6387721088253
 20
1104.166888874211
 30
0.0
 40
1.0
100
AcDbArc
 50
246.8630000000015
 51
308.2320000000005
  0
ARC
  5
37DB
330
18
100
AcDbEntity
  8
DISEGNO
100
AcDbCircle
 10
648.498772108825
 20
1096.806888874212
 30
0.0
 40
7.0
100
AcDbArc
 50
66.86300000000148
 51
110.6760338499983
  0
ARC
  5
37DC
330
18
100
AcDbEntity
  8
DISEGNO
100
AcDbCircle
 10
645.4975621238586
 20
1104.759419202738
 30
0.0
 40
1.5
100
AcDbArc
 50
225.0000000000074
 51
290.6760338499983
  0
LINE
  5
37DD
330
18
100
AcDbEntity
  8
DISEGNO
100
AcDbLine
 10
644.4369019520786
 20
1103.698759030959
 30
0.0
 11
640.0142771722134
 21
1108.121383810823
 31
0.0
  0
LINE
  5
37DE
330
18
100
AcDbEntity
  8
DISEGNO
100
AcDbLine
 10
643.5464994882627
 20
1109.056888874212
 30
0.0
 11
653.7517721088248
 21
1109.056888874212
 31
0.0
  0
ARC
  5
37DF
330
18
100
AcDbEntity
  8
DISEGNO
100
AcDbCircle
 10
643.5464994882627
 20
1110.056888874212
 30
0.0
 40
1.0
100
AcDbArc
 50
201.4312545038228
 51
270.0
  0
LINE
  5
37E0
330
18
100
AcDbEntity
  8
DISEGNO
100
AcDbLine
 10
653.7517721088248
 20
1113.306888874212
 30
0.0
 11
653.7517721088248
 21
1109.056888874212
 31
0.0
  0
LINE
  5
37E1
330
18
100
AcDbEntity
  8
DISEGNO
100
AcDbLine
 10
641.6069019520787
 20
1288.245018717465
 30
0.0
 11
637.1842771722135
 21
1283.8223939376
 31
0.0
  0
LINE
  5
37E2
330
18
100
AcDbEntity
  8
DISEGNO
  6
CONTINUOUS
100
AcDbLine
 10
639.1067321088244
 20
1304.557088289023
 30
0.0
 11
629.8567321088244
 21
1304.557088289023
 31
0.0
  0
ARC
  5
37E3
330
18
100
AcDbEntity
  8
DISEGNO
100
AcDbCircle
 10
639.3071703910268
 20
1281.699500718787
 30
0.0
 40
1.0
100
AcDbArc
 50
224.9999999999976
 51
315.0000000000023
  0
ARC
  5
37E4
330
18
100
AcDbEntity
  8
DISEGNO
100
AcDbCircle
 10
644.2517721088247
 20
1260.056888874212
 30
0.0
 40
8.5
100
AcDbArc
 50
216.8690000000027
 51
270.0
  0
ARC
  5
37E5
330
18
100
AcDbEntity
  8
DISEGNO
100
AcDbCircle
 10
639.3748503507135
 20
1199.391464493796
 30
0.0
 40
1.0
100
AcDbArc
 50
239.9500863790136
 51
322.8199341417891
  0
ARC
  5
37E6
330
18
100
AcDbEntity
  8
DISEGNO
100
AcDbCircle
 10
639.3748503507135
 20
1189.722313254627
 30
0.0
 40
1.0
100
AcDbArc
 50
37.18006585821087
 51
120.0499136209863
  0
ARC
  5
37E7
330
18
100
AcDbEntity
  8
DISEGNO
100
AcDbCircle
 10
645.748772108825
 20
1194.556888874212
 30
0.0
 40
7.0
100
AcDbArc
 50
217.1800658582108
 51
142.8199341417891
  0
LINE
  5
37E9
330
18
100
AcDbEntity
  8
DISEGNO
100
AcDbLine
 10
638.998772108825
 20
1304.556888804547
 30
0.0
 11
629.748772108825
 21
1304.556888804547
 31
0.0
  0
ARC
  5
37EA
330
18
100
AcDbEntity
  8
DISEGNO
100
AcDbCircle
 10
632.2487721088251
 20
1229.806888874212
 30
0.0
 40
4.0
100
AcDbArc
 50
0.0
 51
90.0
  0
ARC
  5
37EB
330
18
100
AcDbEntity
  8
DISEGNO
100
AcDbCircle
 10
639.248772108825
 20
1201.776888874212
 30
0.0
 40
3.0
100
AcDbArc
 50
180.0
 51
240.0200000000004
  0
LINE
  5
37EC
330
18
100
AcDbEntity
  8
DISEGNO
100
AcDbLine
 10
637.748772108825
 20
1199.176888874212
 30
0.0
 11
638.8740960964209
 21
1198.52587499709
 31
0.0
  0
ARC
  5
37ED
330
18
100
AcDbEntity
  8
DISEGNO
100
AcDbCircle
 10
639.248772108825
 20
1187.336888874211
 30
0.0
 40
3.0
100
AcDbArc
 50
119.9799999999995
 51
180.0
  0
LINE
  5
37EE
330
18
100
AcDbEntity
  8
DISEGNO
100
AcDbLine
 10
637.748772108825
 20
1189.936888874211
 30
0.0
 11
638.8740960964209
 21
1190.587902751333
 31
0.0
  0
LINE
  5
37EF
330
18
100
AcDbEntity
  8
DISEGNO
100
AcDbLine
 10
636.2517721088247
 20
1229.806888874212
 30
0.0
 11
636.2517721088247
 21
1201.776888874212
 31
0.0
  0
ARC
  5
37F0
330
18
100
AcDbEntity
  8
DISEGNO
100
AcDbCircle
 10
616.248772108825
 20
1288.056888874212
 30
0.0
 40
8.5
100
AcDbArc
 50
180.0
 51
233.1299999999967
  0
ARC
  5
37F1
330
18
100
AcDbEntity
  8
DISEGNO
100
AcDbCircle
 10
625.748772108825
 20
1269.556888874212
 30
0.0
 40
13.5
100
AcDbArc
 50
180.0
 51
270.0
  0
LINE
  5
37F2
330
18
100
AcDbEntity
  8
DISEGNO
100
AcDbLine
 10
581.998772108825
 20
1304.556888874213
 30
0.0
 11
619.498772108825
 21
1304.556888874212
 31
0.0
  0
ARC
  5
37F3
330
18
100
AcDbEntity
  8
DISEGNO
100
AcDbCircle
 10
597.748772108825
 20
1293.056888874212
 30
0.0
 40
4.0
100
AcDbArc
 50
90.0
 51
180.0
  0
LINE
  5
37F4
330
18
100
AcDbEntity
  8
DISEGNO
100
AcDbLine
 10
593.748772108825
 20
1288.056888874212
 30
0.0
 11
593.748772108825
 21
1293.056888874212
 31
0.0
  0
LINE
  5
37F5
330
18
100
AcDbEntity
  8
DISEGNO
100
AcDbLine
 10
603.748772108825
 20
1297.056888874212
 30
0.0
 11
597.748772108825
 21
1297.056888874212
 31
0.0
  0
LINE
  5
37F6
330
18
100
AcDbEntity
  8
DISEGNO
100
AcDbLine
 10
607.748772108825
 20
1288.056888874212
 30
0.0
 11
607.748772108825
 21
1293.056888874212
 31
0.0
  0
ARC
  5
37F7
330
18
100
AcDbEntity
  8
DISEGNO
100
AcDbCircle
 10
603.748772108825
 20
1293.056888874212
 30
0.0
 40
4.0
100
AcDbArc
 50
0.0
 51
90.0
  0
LINE
  5
37F8
330
18
100
AcDbEntity
  8
DISEGNO
100
AcDbLine
 10
581.998772108825
 20
1297.556888874212
 30
0.0
 11
581.998772108825
 21
1304.556888874212
 31
0.0
  0
LINE
  5
37F9
330
18
100
AcDbEntity
  8
DISEGNO
100
AcDbLine
 10
581.998772108825
 20
1297.556888874212
 30
0.0
 11
586.248772108825
 21
1297.556888874212
 31
0.0
  0
ARC
  5
37FA
330
18
100
AcDbEntity
  8
DISEGNO
100
AcDbCircle
 10
585.248772108825
 20
1288.056888874212
 30
0.0
 40
1.0
100
AcDbArc
 50
312.7319999999958
 51
0.0
  0
LINE
  5
37FB
330
18
100
AcDbEntity
  8
DISEGNO
100
AcDbLine
 10
586.248772108825
 20
1288.056888874212
 30
0.0
 11
586.248772108825
 21
1297.556888874212
 31
0.0
  0
ARC
  5
37FC
330
18
100
AcDbEntity
  8
DISEGNO
100
AcDbCircle
 10
583.2987721088252
 20
1264.556888874212
 30
0.0
 40
0.3
100
AcDbArc
 50
66.00000000000237
 51
146.4593999999956
  0
ARC
  5
37FD
330
18
100
AcDbEntity
  8
DISEGNO
100
AcDbCircle
 10
584.208772108825
 20
1264.806888874212
 30
0.0
 40
0.3
100
AcDbArc
 50
246.0000000000023
 51
330.6759999999982
  0
LINE
  5
37FE
330
18
100
AcDbEntity
  8
DISEGNO
100
AcDbLine
 10
583.4187721088251
 20
1264.826888874212
 30
0.0
 11
584.0887721088251
 21
1264.526888874212
 31
0.0
  0
ARC
  5
37FF
330
18
100
AcDbEntity
  8
DISEGNO
100
AcDbCircle
 10
591.248772108825
 20
1279.440044904405
 30
0.0
 40
2.0
100
AcDbArc
 50
124.8499045790454
 51
180.0
  0
LINE
  5
3800
330
18
100
AcDbEntity
  8
DISEGNO
100
AcDbLine
 10
589.248772108825
 20
1269.556888874212
 30
0.0
 11
589.248772108825
 21
1279.440044904405
 31
0.0
  0
ARC
  5
3801
330
18
100
AcDbEntity
  8
DISEGNO
100
AcDbCircle
 10
583.5487721088252
 20
1274.156888874212
 30
0.0
 40
0.3
100
AcDbArc
 50
210.5409999999975
 51
290.9999999999975
  0
ARC
  5
3802
330
18
100
AcDbEntity
  8
DISEGNO
100
AcDbCircle
 10
585.0887721088252
 20
1272.176888874212
 30
0.0
 40
0.3
100
AcDbArc
 50
290.9999999999975
 51
15.67599999999433
  0
ARC
  5
3803
330
18
100
AcDbEntity
  8
DISEGNO
100
AcDbCircle
 10
575.748772108825
 20
1269.556888874212
 30
0.0
 40
10.0
100
AcDbArc
 50
15.67599999999433
 51
26.32400000000385
  0
ARC
  5
3804
330
18
100
AcDbEntity
  8
DISEGNO
100
AcDbCircle
 10
584.9387721088255
 20
1266.446888874212
 30
0.0
 40
0.3
100
AcDbArc
 50
341.3240000000016
 51
66.00000000000237
  0
LINE
  5
3805
330
18
100
AcDbEntity
  8
DISEGNO
100
AcDbLine
 10
584.3887721088244
 20
1267.016888874212
 30
0.0
 11
585.0587721088245
 21
1266.726888874212
 31
0.0
  0
ARC
  5
3806
330
18
100
AcDbEntity
  8
DISEGNO
100
AcDbCircle
 10
584.5187721088255
 20
1267.296888874212
 30
0.0
 40
0.3
100
AcDbArc
 50
165.5406000000002
 51
246.0000000000023
  0
ARC
  5
3807
330
18
100
AcDbEntity
  8
DISEGNO
100
AcDbCircle
 10
575.748772108825
 20
1269.556888874212
 30
0.0
 40
8.75
100
AcDbArc
 50
345.5410000000009
 51
11.45900000000665
  0
ARC
  5
3808
330
18
100
AcDbEntity
  8
DISEGNO
100
AcDbCircle
 10
584.6187721088258
 20
1271.356888874212
 30
0.0
 40
0.3
100
AcDbArc
 50
110.9999999999975
 51
191.4590000000066
  0
LINE
  5
3809
330
18
100
AcDbEntity
  8
DISEGNO
100
AcDbLine
 10
584.5187721088255
 20
1271.636888874212
 30
0.0
 11
585.1987721088257
 21
1271.896888874212
 31
0.0
  0
LINE
  5
380A
330
18
100
AcDbEntity
  8
DISEGNO
100
AcDbLine
 10
583.6487721088246
 20
1273.876888874212
 30
0.0
 11
584.3387721088252
 21
1274.136888874211
 31
0.0
  0
ARC
  5
380B
330
18
100
AcDbEntity
  8
DISEGNO
100
AcDbCircle
 10
584.4487721088257
 20
1273.856888874212
 30
0.0
 40
0.3
100
AcDbArc
 50
26.32400000000385
 51
110.9999999999975
  0
ARC
  5
380C
330
18
100
AcDbEntity
  8
DISEGNO
100
AcDbCircle
 10
575.748772108825
 20
1269.556888874212
 30
0.0
 40
10.0
100
AcDbArc
 50
330.6759999999982
 51
341.3240000000016
  0
ARC
  5
380D
330
18
100
AcDbEntity
  8
DISEGNO
100
AcDbCircle
 10
585.248772108825
 20
1288.056888874212
 30
0.0
 40
8.5
100
AcDbArc
 50
304.8499045790453
 51
0.0
  0
ARC
  5
380E
330
18
100
AcDbEntity
  8
DISEGNO
100
AcDbCircle
 10
635.2517721088247
 20
1288.056888874212
 30
0.0
 40
1.0
100
AcDbArc
 50
312.7319999999958
 51
0.0
  0
LINE
  5
380F
330
18
100
AcDbEntity
  8
DISEGNO
100
AcDbLine
 10
636.2517721088247
 20
1288.056888874212
 30
0.0
 11
636.2517721088247
 21
1297.556888874212
 31
0.0
  0
LINE
  5
3810
330
18
100
AcDbEntity
  8
DISEGNO
100
AcDbLine
 10
619.498772108825
 20
1297.556888874212
 30
0.0
 11
619.498772108825
 21
1304.556888874212
 31
0.0
  0
LINE
  5
3811
330
18
100
AcDbEntity
  8
DISEGNO
100
AcDbLine
 10
619.498772108825
 20
1297.556888874212
 30
0.0
 11
615.248772108825
 21
1297.556888874212
 31
0.0
  0
ARC
  5
3812
330
18
100
AcDbEntity
  8
DISEGNO
100
AcDbCircle
 10
616.248772108825
 20
1288.056888874212
 30
0.0
 40
1.0
100
AcDbArc
 50
180.0
 51
227.2680000000041
  0
LINE
  5
3813
330
18
100
AcDbEntity
  8
DISEGNO
100
AcDbLine
 10
615.248772108825
 20
1288.056888874212
 30
0.0
 11
615.248772108825
 21
1297.556888874212
 31
0.0
  0
LINE
  5
3814
330
18
100
AcDbEntity
  8
DISEGNO
100
AcDbLine
 10
631.998772108825
 20
1304.556888874212
 30
0.0
 11
631.998772108825
 21
1297.556888874212
 31
0.0
  0
ARC
  5
3815
330
18
100
AcDbEntity
  8
DISEGNO
100
AcDbCircle
 10
625.748772108825
 20
1298.336888874212
 30
0.0
 40
15.0
100
AcDbArc
 50
227.2680000000041
 51
312.7319999999958
  0
LINE
  5
3816
330
18
100
AcDbEntity
  8
DISEGNO
100
AcDbLine
 10
636.2517721088247
 20
1297.556888874212
 30
0.0
 11
631.998772108825
 21
1297.556888874212
 31
0.0
  0
LINE
  5
3817
330
18
100
AcDbEntity
  8
DISEGNO
100
AcDbLine
 10
638.6000636098401
 20
1280.9923939376
 30
0.0
 11
637.1842771722135
 21
1282.408180375227
 31
0.0
  0
ARC
  5
3818
330
18
100
AcDbEntity
  8
DISEGNO
100
AcDbCircle
 10
635.6319281390183
 20
1254.056888874212
 30
0.0
 40
2.0
100
AcDbArc
 50
34.84990457905059
 51
90.0
  0
ARC
  5
3819
330
18
100
AcDbEntity
  8
DISEGNO
100
AcDbCircle
 10
634.3687721088249
 20
1265.106888874212
 30
0.0
 40
0.3
100
AcDbArc
 50
247.9999999999986
 51
332.6759999999966
  0
LINE
  5
381A
330
18
100
AcDbEntity
  8
DISEGNO
100
AcDbLine
 10
633.578772108825
 20
1265.096888874212
 30
0.0
 11
634.2587721088253
 21
1264.826888874212
 31
0.0
  0
ARC
  5
381B
330
18
100
AcDbEntity
  8
DISEGNO
100
AcDbCircle
 10
633.4687721088252
 20
1264.816888874212
 30
0.0
 40
0.3
100
AcDbArc
 50
67.99999999999866
 51
148.4593999999958
  0
ARC
  5
381C
330
18
100
AcDbEntity
  8
DISEGNO
100
AcDbCircle
 10
634.288772108825
 20
1274.156888874212
 30
0.0
 40
0.3
100
AcDbArc
 50
28.32400000000413
 51
113.0000000000002
  0
ARC
  5
381D
330
18
100
AcDbEntity
  8
DISEGNO
100
AcDbCircle
 10
634.9937721088249
 20
1272.496888874212
 30
0.0
 40
0.3
100
AcDbArc
 50
293.0000000000001
 51
17.67600000000279
  0
LINE
  5
381E
330
18
100
AcDbEntity
  8
DISEGNO
100
AcDbLine
 10
635.1107721088251
 20
1272.226888874212
 30
0.0
 11
634.4387721088246
 21
1271.936888874212
 31
0.0
  0
ARC
  5
381F
330
18
100
AcDbEntity
  8
DISEGNO
100
AcDbCircle
 10
634.5487721088252
 20
1271.656888874212
 30
0.0
 40
0.3
100
AcDbArc
 50
113.0000000000002
 51
193.4590000000054
  0
ARC
  5
3820
330
18
100
AcDbEntity
  8
DISEGNO
100
AcDbCircle
 10
625.748772108825
 20
1269.556888874212
 30
0.0
 40
8.75
100
AcDbArc
 50
347.5409999999976
 51
13.45900000000542
  0
ARC
  5
3821
330
18
100
AcDbEntity
  8
DISEGNO
100
AcDbCircle
 10
634.5887721088252
 20
1267.606888874212
 30
0.0
 40
0.3
100
AcDbArc
 50
167.5406000000043
 51
247.9999999999986
  0
LINE
  5
3822
330
18
100
AcDbEntity
  8
DISEGNO
100
AcDbLine
 10
634.4787721088246
 20
1267.326888874212
 30
0.0
 11
635.1557721088251
 21
1267.046888874212
 31
0.0
  0
ARC
  5
3823
330
18
100
AcDbEntity
  8
DISEGNO
100
AcDbCircle
 10
635.0437721088251
 20
1266.766888874212
 30
0.0
 40
0.3
100
AcDbArc
 50
343.3240000000021
 51
67.99999999999866
  0
ARC
  5
3824
330
18
100
AcDbEntity
  8
DISEGNO
100
AcDbCircle
 10
633.3787721088251
 20
1274.426888874212
 30
0.0
 40
0.3
100
AcDbArc
 50
212.5409999999995
 51
293.0000000000001
  0
LINE
  5
3825
330
18
100
AcDbEntity
  8
DISEGNO
100
AcDbLine
 10
634.1687721088251
 20
1274.436888874212
 30
0.0
 11
633.498772108825
 21
1274.146888874212
 31
0.0
  0
ARC
  5
3826
330
18
100
AcDbEntity
  8
DISEGNO
100
AcDbCircle
 10
625.748772108825
 20
1269.556888874212
 30
0.0
 40
10.0
100
AcDbArc
 50
17.67600000000279
 51
28.32400000000413
  0
ARC
  5
3827
330
18
100
AcDbEntity
  8
DISEGNO
100
AcDbCircle
 10
625.748772108825
 20
1269.556888874212
 30
0.0
 40
10.0
100
AcDbArc
 50
332.6759999999966
 51
343.3240000000021
  0
ARC
  5
3828
330
18
100
AcDbEntity
  8
DISEGNO
100
AcDbCircle
 10
622.9687721088253
 20
1260.266888874212
 30
0.0
 40
0.3
100
AcDbArc
 50
253.3240000000013
 51
338.0000000000045
  0
LINE
  5
3829
330
18
100
AcDbEntity
  8
DISEGNO
100
AcDbLine
 10
623.2187721088252
 20
1278.196888874212
 30
0.0
 11
622.9187721088251
 21
1278.866888874212
 31
0.0
  0
ARC
  5
382A
330
18
100
AcDbEntity
  8
DISEGNO
100
AcDbCircle
 10
617.2987721088252
 20
1264.806888874212
 30
0.0
 40
0.3
100
AcDbArc
 50
209.3240000000017
 51
293.9999999999976
  0
ARC
  5
382B
330
18
100
AcDbEntity
  8
DISEGNO
100
AcDbCircle
 10
625.748772108825
 20
1269.556888874212
 30
0.0
 40
10.0
100
AcDbArc
 50
242.6760000000028
 51
253.3240000000013
  0
ARC
  5
382C
330
18
100
AcDbEntity
  8
DISEGNO
100
AcDbCircle
 10
621.2987721088252
 20
1260.936888874212
 30
0.0
 40
0.3
100
AcDbArc
 50
158.0000000000045
 51
242.6760000000028
  0
LINE
  5
382D
330
18
100
AcDbEntity
  8
DISEGNO
100
AcDbLine
 10
621.2987721088252
 20
1261.726888874212
 30
0.0
 11
621.0187721088246
 21
1261.046888874212
 31
0.0
  0
ARC
  5
382E
330
18
100
AcDbEntity
  8
DISEGNO
100
AcDbCircle
 10
621.0187721088246
 20
1261.846888874212
 30
0.0
 40
0.3
100
AcDbArc
 50
338.0000000000045
 51
58.45900000000043
  0
ARC
  5
382F
330
18
100
AcDbEntity
  8
DISEGNO
100
AcDbCircle
 10
625.748772108825
 20
1269.556888874212
 30
0.0
 40
8.75
100
AcDbArc
 50
213.5409999999954
 51
238.4590000000004
  0
ARC
  5
3830
330
18
100
AcDbEntity
  8
DISEGNO
100
AcDbCircle
 10
618.2087721088251
 20
1264.556888874212
 30
0.0
 40
0.3
100
AcDbArc
 50
33.54099999999539
 51
113.9999999999976
  0
LINE
  5
3831
330
18
100
AcDbEntity
  8
DISEGNO
100
AcDbLine
 10
618.0887721088252
 20
1264.826888874212
 30
0.0
 11
617.4187721088251
 21
1264.526888874212
 31
0.0
  0
LINE
  5
3832
330
18
100
AcDbEntity
  8
DISEGNO
100
AcDbLine
 10
612.248772108825
 20
1269.556888874212
 30
0.0
 11
612.248772108825
 21
1279.440044904405
 31
0.0
  0
ARC
  5
3833
330
18
100
AcDbEntity
  8
DISEGNO
100
AcDbCircle
 10
620.748772108825
 20
1277.096888874212
 30
0.0
 40
0.3
100
AcDbArc
 50
303.5409999999996
 51
24.00000000000283
  0
LINE
  5
3834
330
18
100
AcDbEntity
  8
DISEGNO
100
AcDbLine
 10
621.0287721088247
 20
1277.216888874212
 30
0.0
 11
620.7287721088246
 21
1277.886888874212
 31
0.0
  0
ARC
  5
3835
330
18
100
AcDbEntity
  8
DISEGNO
100
AcDbCircle
 10
620.998772108825
 20
1278.016888874212
 30
0.0
 40
0.3
100
AcDbArc
 50
119.323700000001
 51
204.0000000000028
  0
ARC
  5
3836
330
18
100
AcDbEntity
  8
DISEGNO
100
AcDbCircle
 10
625.748772108825
 20
1269.556888874212
 30
0.0
 40
10.0
100
AcDbArc
 50
108.6762000000005
 51
119.323700000001
  0
ARC
  5
3837
330
18
100
AcDbEntity
  8
DISEGNO
100
AcDbCircle
 10
622.6487721088247
 20
1278.746888874212
 30
0.0
 40
0.3
100
AcDbArc
 50
24.00000000000283
 51
108.6762000000005
  0
ARC
  5
3838
330
18
100
AcDbEntity
  8
DISEGNO
100
AcDbCircle
 10
616.4087721088248
 20
1272.176888874212
 30
0.0
 40
0.3
100
AcDbArc
 50
164.3238000000033
 51
249.0000000000024
  0
ARC
  5
3839
330
18
100
AcDbEntity
  8
DISEGNO
100
AcDbCircle
 10
625.748772108825
 20
1269.556888874212
 30
0.0
 40
10.0
100
AcDbArc
 50
153.6762000000036
 51
164.3238000000033
  0
ARC
  5
383A
330
18
100
AcDbEntity
  8
DISEGNO
100
AcDbCircle
 10
616.5587721088245
 20
1266.446888874212
 30
0.0
 40
0.3
100
AcDbArc
 50
113.9999999999976
 51
198.6759999999984
  0
LINE
  5
383B
330
18
100
AcDbEntity
  8
DISEGNO
100
AcDbLine
 10
617.1087721088247
 20
1267.016888874212
 30
0.0
 11
616.4387721088246
 21
1266.726888874212
 31
0.0
  0
ARC
  5
383C
330
18
100
AcDbEntity
  8
DISEGNO
100
AcDbCircle
 10
616.9887721088248
 20
1267.296888874212
 30
0.0
 40
0.3
100
AcDbArc
 50
293.9999999999976
 51
14.45899999999899
  0
ARC
  5
383D
330
18
100
AcDbEntity
  8
DISEGNO
100
AcDbCircle
 10
625.748772108825
 20
1269.556888874212
 30
0.0
 40
8.75
100
AcDbArc
 50
168.540599999997
 51
194.4589999999989
  0
ARC
  5
383E
330
18
100
AcDbEntity
  8
DISEGNO
100
AcDbCircle
 10
616.8787721088251
 20
1271.356888874212
 30
0.0
 40
0.3
100
AcDbArc
 50
348.5409999999933
 51
69.00000000000244
  0
LINE
  5
383F
330
18
100
AcDbEntity
  8
DISEGNO
100
AcDbLine
 10
616.9887721088248
 20
1271.636888874212
 30
0.0
 11
616.3087721088245
 21
1271.896888874212
 31
0.0
  0
ARC
  5
3840
330
18
100
AcDbEntity
  8
DISEGNO
100
AcDbCircle
 10
617.9587721088251
 20
1274.156888874212
 30
0.0
 40
0.3
100
AcDbArc
 50
249.0000000000024
 51
329.4590000000024
  0
LINE
  5
3841
330
18
100
AcDbEntity
  8
DISEGNO
100
AcDbLine
 10
617.8487721088245
 20
1273.876888874212
 30
0.0
 11
617.1687721088251
 21
1274.136888874211
 31
0.0
  0
ARC
  5
3842
330
18
100
AcDbEntity
  8
DISEGNO
100
AcDbCircle
 10
617.0587721088245
 20
1273.856888874212
 30
0.0
 40
0.3
100
AcDbArc
 50
69.00000000000244
 51
153.6762000000036
  0
ARC
  5
3843
330
18
100
AcDbEntity
  8
DISEGNO
100
AcDbCircle
 10
625.748772108825
 20
1269.556888874212
 30
0.0
 40
8.75
100
AcDbArc
 50
123.5405999999985
 51
149.4594000000002
  0
ARC
  5
3844
330
18
100
AcDbEntity
  8
DISEGNO
100
AcDbCircle
 10
625.748772108825
 20
1269.556888874212
 30
0.0
 40
10.0
100
AcDbArc
 50
198.6759999999984
 51
209.3240000000017
  0
ARC
  5
3845
330
18
100
AcDbEntity
  8
DISEGNO
100
AcDbCircle
 10
628.6987721088248
 20
1260.316888874212
 30
0.0
 40
0.3
100
AcDbArc
 50
202.9999999999992
 51
287.6759999999968
  0
LINE
  5
3846
330
18
100
AcDbEntity
  8
DISEGNO
100
AcDbLine
 10
628.1387721088244
 20
1260.866888874212
 30
0.0
 11
628.4187721088251
 21
1260.196888874212
 31
0.0
  0
ARC
  5
3847
330
18
100
AcDbEntity
  8
DISEGNO
100
AcDbCircle
 10
627.8587721088247
 20
1260.756888874212
 30
0.0
 40
0.3
100
AcDbArc
 50
22.99999999999925
 51
103.4594000000029
  0
ARC
  5
3848
330
18
100
AcDbEntity
  8
DISEGNO
100
AcDbCircle
 10
625.748772108825
 20
1269.556888874212
 30
0.0
 40
8.75
100
AcDbArc
 50
257.5409999999977
 51
283.4589999999985
  0
ARC
  5
3849
330
18
100
AcDbEntity
  8
DISEGNO
100
AcDbCircle
 10
623.7987721088252
 20
1260.716888874212
 30
0.0
 40
0.3
100
AcDbArc
 50
77.54099999999768
 51
158.0000000000045
  0
LINE
  5
384A
330
18
100
AcDbEntity
  8
DISEGNO
100
AcDbLine
 10
623.5187721088245
 20
1260.826888874212
 30
0.0
 11
623.248772108825
 21
1260.146888874212
 31
0.0
  0
ARC
  5
384B
330
18
100
AcDbEntity
  8
DISEGNO
100
AcDbCircle
 10
630.6187721088249
 20
1261.926888874212
 30
0.0
 40
0.3
100
AcDbArc
 50
122.540599999999
 51
202.9999999999992
  0
LINE
  5
384C
330
18
100
AcDbEntity
  8
DISEGNO
100
AcDbLine
 10
630.3387721088252
 20
1261.806888874212
 30
0.0
 11
630.6287721088251
 21
1261.136888874212
 31
0.0
  0
ARC
  5
384D
330
18
100
AcDbEntity
  8
DISEGNO
100
AcDbCircle
 10
630.3587721088247
 20
1261.016888874212
 30
0.0
 40
0.3
100
AcDbArc
 50
298.3239999999971
 51
22.99999999999925
  0
ARC
  5
384E
330
18
100
AcDbEntity
  8
DISEGNO
100
AcDbCircle
 10
625.748772108825
 20
1269.556888874212
 30
0.0
 40
10.0
100
AcDbArc
 50
287.6759999999968
 51
298.3239999999971
  0
ARC
  5
384F
330
18
100
AcDbEntity
  8
DISEGNO
100
AcDbCircle
 10
623.4887721088248
 20
1278.316888874212
 30
0.0
 40
0.3
100
AcDbArc
 50
204.0000000000028
 51
284.4589999999982
  0
ARC
  5
3850
330
18
100
AcDbEntity
  8
DISEGNO
100
AcDbCircle
 10
625.748772108825
 20
1269.556888874212
 30
0.0
 40
8.75
100
AcDbArc
 50
78.54100000000038
 51
104.4593999999995
  0
ARC
  5
3851
330
18
100
AcDbEntity
  8
DISEGNO
100
AcDbCircle
 10
627.5487721088252
 20
1278.426888874212
 30
0.0
 40
0.3
100
AcDbArc
 50
258.5410000000003
 51
339.0000000000024
  0
LINE
  5
3852
330
18
100
AcDbEntity
  8
DISEGNO
100
AcDbLine
 10
628.0887721088252
 20
1278.996888874212
 30
0.0
 11
627.828772108825
 21
1278.316888874212
 31
0.0
  0
ARC
  5
3853
330
18
100
AcDbEntity
  8
DISEGNO
100
AcDbCircle
 10
628.3687721088249
 20
1278.896888874212
 30
0.0
 40
0.3
100
AcDbArc
 50
74.32399999999974
 51
159.0000000000024
  0
ARC
  5
3854
330
18
100
AcDbEntity
  8
DISEGNO
100
AcDbCircle
 10
630.0487721088252
 20
1278.246888874212
 30
0.0
 40
0.3
100
AcDbArc
 50
339.0000000000024
 51
63.67600000000305
  0
LINE
  5
3855
330
18
100
AcDbEntity
  8
DISEGNO
100
AcDbLine
 10
630.3287721088249
 20
1278.136888874212
 30
0.0
 11
630.0687721088247
 21
1277.456888874212
 31
0.0
  0
ARC
  5
3856
330
18
100
AcDbEntity
  8
DISEGNO
100
AcDbCircle
 10
630.3487721088245
 20
1277.346888874212
 30
0.0
 40
0.3
100
AcDbArc
 50
159.0000000000024
 51
239.4589999999975
  0
ARC
  5
3857
330
18
100
AcDbEntity
  8
DISEGNO
100
AcDbCircle
 10
625.748772108825
 20
1269.556888874212
 30
0.0
 40
10.0
100
AcDbArc
 50
63.67600000000305
 51
74.32399999999974
  0
LINE
  5
3858
330
18
100
AcDbEntity
  8
DISEGNO
100
AcDbLine
 10
625.748772108825
 20
1256.056888874212
 30
0.0
 11
635.6319281390183
 21
1256.056888874212
 31
0.0
  0
ARC
  5
3859
330
18
100
AcDbEntity
  8
DISEGNO
100
AcDbCircle
 10
625.748772108825
 20
1269.556888874212
 30
0.0
 40
8.75
100
AcDbArc
 50
302.540999999997
 51
328.4589999999953
  0
ARC
  5
385A
330
18
100
AcDbEntity
  8
DISEGNO
100
AcDbCircle
 10
625.748772108825
 20
1269.556888874212
 30
0.0
 40
8.75
100
AcDbArc
 50
32.54099999999951
 51
59.45899999999753
  0
ARC
  5
385B
330
18
100
AcDbEntity
  8
DISEGNO
100
AcDbCircle
 10
637.8913839534002
 20
1283.115287156413
 30
0.0
 40
1.0
100
AcDbArc
 50
135.0000000000022
 51
224.9999999999976
  0
ARC
  5
385C
330
18
100
AcDbEntity
  8
DISEGNO
100
AcDbCircle
 10
610.248772108825
 20
1279.440044904405
 30
0.0
 40
2.0
100
AcDbArc
 50
0.0
 51
55.15009542095461
  0
LINE
  5
385E
330
18
100
AcDbEntity
  8
DISEGNO
100
AcDbLine
 10
629.248772108825
 20
1304.556888804547
 30
0.0
 11
637.748772108825
 21
1304.556888804547
 31
0.0
  0
LINE
  5
385F
330
18
100
AcDbEntity
  8
DISEGNO
100
AcDbLine
 10
622.248772108825
 20
1301.556888804547
 30
0.0
 11
622.248772108825
 21
1304.556888804547
 31
0.0
  0
LINE
  5
3860
330
18
100
AcDbEntity
  8
DISEGNO
100
AcDbLine
 10
622.248772108825
 20
1301.556888804547
 30
0.0
 11
629.248772108825
 21
1301.556888804547
 31
0.0
  0
LINE
  5
3861
330
18
100
AcDbEntity
  8
DISEGNO
100
AcDbLine
 10
629.248772108825
 20
1301.556888804547
 30
0.0
 11
629.248772108825
 21
1304.556888804547
 31
0.0
  0
ARC
  5
3873
330
18
100
AcDbEntity
  8
DISEGNO
100
AcDbCircle
 10
649.2517721088248
 20
1247.556888874212
 30
0.0
 40
4.0
100
AcDbArc
 50
0.0
 51
90.0
  0
LINE
  5
3874
330
18
100
AcDbEntity
  8
DISEGNO
100
AcDbLine
 10
660.7517721088247
 20
1263.306888874212
 30
0.0
 11
660.7517721088247
 21
1225.806888874212
 31
0.0
  0
LINE
  5
3879
330
18
100
AcDbEntity
  8
DISEGNO
100
AcDbLine
 10
660.7517721088247
 20
1225.806888874212
 30
0.0
 11
654.7517721088247
 21
1225.806888874212
 31
0.0
  0
LINE
  5
387A
330
18
100
AcDbEntity
  8
DISEGNO
100
AcDbLine
 10
654.7517721088247
 20
1229.806888874212
 30
0.0
 11
654.7517721088247
 21
1225.806888874212
 31
0.0
  0
LINE
  5
387B
330
18
100
AcDbEntity
  8
DISEGNO
100
AcDbLine
 10
653.2517721088247
 20
1241.306888874212
 30
0.0
 11
653.2517721088247
 21
1247.556888874212
 31
0.0
  0
ARC
  5
387C
330
18
100
AcDbEntity
  8
DISEGNO
100
AcDbCircle
 10
644.7517721088247
 20
1228.806888874212
 30
0.0
 40
1.0
100
AcDbArc
 50
90.0
 51
179.999994652229
  0
LINE
  5
387D
330
18
100
AcDbEntity
  8
DISEGNO
100
AcDbLine
 10
644.2517721088247
 20
1251.556888874212
 30
0.0
 11
649.2517721088248
 21
1251.556888874212
 31
0.0
  0
ARC
  5
387E
330
18
100
AcDbEntity
  8
DISEGNO
100
AcDbCircle
 10
649.2517721088248
 20
1241.306888874212
 30
0.0
 40
4.0
100
AcDbArc
 50
270.0
 51
0.0
  0
LINE
  5
387F
330
18
100
AcDbEntity
  8
DISEGNO
100
AcDbLine
 10
654.7517721088247
 20
1229.806888874212
 30
0.0
 11
644.7517721088247
 21
1229.806888874212
 31
0.0
  0
LINE
  5
3880
330
18
100
AcDbEntity
  8
DISEGNO
100
AcDbLine
 10
654.7517721088247
 20
1213.306888874212
 30
0.0
 11
654.7517721088247
 21
1209.306888874212
 31
0.0
  0
LINE
  5
3881
330
18
100
AcDbEntity
  8
DISEGNO
100
AcDbLine
 10
654.7517721088247
 20
1213.306888874212
 30
0.0
 11
660.7517721088247
 21
1213.306888874212
 31
0.0
  0
ARC
  5
3882
330
18
100
AcDbEntity
  8
DISEGNO
100
AcDbCircle
 10
644.7517721088247
 20
1210.306888874212
 30
0.0
 40
1.0
100
AcDbArc
 50
179.999994652229
 51
270.0
  0
ARC
  5
3883
330
18
100
AcDbEntity
  8
DISEGNO
100
AcDbCircle
 10
644.7517721088247
 20
1178.806888874212
 30
0.0
 40
1.0
100
AcDbArc
 50
90.0
 51
180.0000053477709
  0
LINE
  5
3884
330
18
100
AcDbEntity
  8
DISEGNO
100
AcDbLine
 10
644.7517721088247
 20
1179.806888874212
 30
0.0
 11
654.7517721088247
 21
1179.806888874212
 31
0.0
  0
LINE
  5
3885
330
18
100
AcDbEntity
  8
DISEGNO
100
AcDbLine
 10
644.7517721088247
 20
1209.306888874212
 30
0.0
 11
654.7517721088247
 21
1209.306888874212
 31
0.0
  0
LINE
  5
3886
330
18
100
AcDbEntity
  8
DISEGNO
100
AcDbLine
 10
643.7517721088247
 20
1228.806888874212
 30
0.0
 11
643.7517721088247
 21
1210.306888874212
 31
0.0
  0
ARC
  5
38BA
330
18
100
AcDbEntity
  8
DISEGNO
100
AcDbCircle
 10
659.2517721088247
 20
1303.056888874212
 30
0.0
 40
1.5
100
AcDbArc
 50
0.0
 51
90.0
  0
ARC
  5
38BB
330
18
100
AcDbEntity
  8
DISEGNO
100
AcDbCircle
 10
655.8487721088254
 20
1295.446888874212
 30
0.0
 40
1.0
100
AcDbArc
 50
141.7680000000026
 51
203.1369999999999
  0
ARC
  5
38BC
330
18
100
AcDbEntity
  8
DISEGNO
100
AcDbCircle
 10
655.8487721088254
 20
1289.156888874212
 30
0.0
 40
1.0
100
AcDbArc
 50
156.863
 51
218.2319999999973
  0
ARC
  5
38BD
330
18
100
AcDbEntity
  8
DISEGNO
100
AcDbCircle
 10
648.498772108825
 20
1292.306888874212
 30
0.0
 40
7.0
100
AcDbArc
 50
336.863
 51
23.1370999999985
  0
ARC
  5
38BE
330
18
100
AcDbEntity
  8
DISEGNO
100
AcDbCircle
 10
651.6387721088253
 20
1299.656888874212
 30
0.0
 40
1.0
100
AcDbArc
 50
246.8630000000015
 51
308.2320000000005
  0
ARC
  5
38BF
330
18
100
AcDbEntity
  8
DISEGNO
100
AcDbCircle
 10
651.6387721088253
 20
1284.946888874212
 30
0.0
 40
1.0
100
AcDbArc
 50
51.76799999999945
 51
113.1369999999985
  0
LINE
  5
38C1
330
18
100
AcDbEntity
  8
DISEGNO
100
AcDbLine
 10
660.857032108825
 20
1304.556907122788
 30
0.0
 11
641.607032108825
 21
1304.556688289023
 31
0.0
  0
ARC
  5
38C4
330
18
100
AcDbEntity
  8
DISEGNO
100
AcDbCircle
 10
645.3487721088253
 20
1299.656888874212
 30
0.0
 40
1.0
100
AcDbArc
 50
231.7679999999994
 51
293.1369999999981
  0
ARC
  5
38C5
330
18
100
AcDbEntity
  8
DISEGNO
100
AcDbCircle
 10
643.498772108825
 20
1297.306888874212
 30
0.0
 40
2.0
100
AcDbArc
 50
51.76799999999945
 51
218.2319999999973
  0
ARC
  5
38C6
330
18
100
AcDbEntity
  8
DISEGNO
100
AcDbCircle
 10
648.498772108825
 20
1292.306888874212
 30
0.0
 40
7.0
100
AcDbArc
 50
66.86300000000148
 51
113.1369999999985
  0
ARC
  5
38C7
330
18
100
AcDbEntity
  8
DISEGNO
100
AcDbCircle
 10
641.1387721088253
 20
1295.446888874212
 30
0.0
 40
1.0
100
AcDbArc
 50
336.863
 51
38.23219999999926
  0
ARC
  5
38C8
330
18
100
AcDbEntity
  8
DISEGNO
100
AcDbCircle
 10
645.4975621238586
 20
1284.354358545685
 30
0.0
 40
1.5
100
AcDbArc
 50
69.32396615000165
 51
134.9999999999925
  0
ARC
  5
38C9
330
18
100
AcDbEntity
  8
DISEGNO
100
AcDbCircle
 10
648.498772108825
 20
1292.306888874212
 30
0.0
 40
7.0
100
AcDbArc
 50
249.3239661500016
 51
293.1369999999981
  0
ARC
  5
38CA
330
18
100
AcDbEntity
  8
DISEGNO
100
AcDbCircle
 10
640.5462417802986
 20
1289.305678889245
 30
0.0
 40
1.5
100
AcDbArc
 50
315.0000000000023
 51
20.67603384999767
  0
ARC
  5
38CB
330
18
100
AcDbEntity
  8
DISEGNO
100
AcDbCircle
 10
648.498772108825
 20
1292.306888874212
 30
0.0
 40
7.0
100
AcDbArc
 50
156.863
 51
200.6760338499976
  0
ARC
  5
38DF
330
18
100
AcDbEntity
  8
DISEGNO
100
AcDbCircle
 10
653.498772108825
 20
1297.306888874212
 30
0.0
 40
2.0
100
AcDbArc
 50
321.7680000000026
 51
128.2320000000005
  0
ARC
  5
38E0
330
18
100
AcDbEntity
  8
DISEGNO
100
AcDbCircle
 10
653.498772108825
 20
1287.306888874212
 30
0.0
 40
2.0
100
AcDbArc
 50
231.7679999999994
 51
38.23219999999926
  0
LINE
  5
38E1
330
18
100
AcDbEntity
  8
DISEGNO
100
AcDbLine
 10
658.2487721088236
 20
1269.557088289021
 30
0.0
 11
658.2487721088236
 21
1263.557088289021
 31
0.0
  0
LINE
  5
38E2
330
18
100
AcDbEntity
  8
DISEGNO
100
AcDbLine
 10
658.2487721088236
 20
1263.557088289021
 30
0.0
 11
653.7487721088236
 21
1263.557088289021
 31
0.0
  0
LINE
  5
38E3
330
18
100
AcDbEntity
  8
DISEGNO
100
AcDbLine
 10
653.7487721088236
 20
1263.557088289021
 30
0.0
 11
653.7487721088236
 21
1260.557088289021
 31
0.0
  0
LINE
  5
38E4
330
18
100
AcDbEntity
  8
DISEGNO
100
AcDbLine
 10
653.7487721088236
 20
1275.557088289021
 30
0.0
 11
653.7487721088236
 21
1278.55708828902
 31
0.0
  0
LINE
  5
38E5
330
18
100
AcDbEntity
  8
DISEGNO
100
AcDbLine
 10
658.2487721088236
 20
1275.557088289021
 30
0.0
 11
653.7487721088236
 21
1275.557088289021
 31
0.0
  0
LINE
  5
38E6
330
18
100
AcDbEntity
  8
DISEGNO
100
AcDbLine
 10
658.2487721088236
 20
1269.557088289021
 30
0.0
 11
658.2487721088236
 21
1275.557088289021
 31
0.0
  0
LINE
  5
38E7
330
18
100
AcDbEntity
  8
DISEGNO
100
AcDbLine
 10
653.7517721088248
 20
1259.056888874212
 30
0.0
 11
653.7517721088248
 21
1263.306888874212
 31
0.0
  0
LINE
  5
38E8
330
18
100
AcDbEntity
  8
DISEGNO
100
AcDbLine
 10
660.7517721088247
 20
1263.306888874212
 30
0.0
 11
653.7517721088248
 21
1263.306888874212
 31
0.0
  0
LINE
  5
38E9
330
18
100
AcDbEntity
  8
DISEGNO
100
AcDbLine
 10
653.7517721088248
 20
1275.806888874212
 30
0.0
 11
653.7517721088248
 21
1280.056888874212
 31
0.0
  0
LINE
  5
38EA
330
18
100
AcDbEntity
  8
DISEGNO
100
AcDbLine
 10
653.7517721088248
 20
1275.806888874212
 30
0.0
 11
660.7517721088247
 21
1275.806888874212
 31
0.0
  0
LINE
  5
38EB
330
18
100
AcDbEntity
  8
DISEGNO
100
AcDbLine
 10
647.2487721088237
 20
1260.55708828902
 30
0.0
 11
646.7487721088237
 21
1261.05708828902
 31
0.0
  0
LINE
  5
38EC
330
18
100
AcDbEntity
  8
DISEGNO
100
AcDbLine
 10
646.7487721088237
 20
1269.557088289021
 30
0.0
 11
646.7487721088237
 21
1261.05708828902
 31
0.0
  0
LINE
  5
38ED
330
18
100
AcDbEntity
  8
DISEGNO
100
AcDbLine
 10
646.7487721088237
 20
1269.557088289021
 30
0.0
 11
646.7487721088237
 21
1278.05708828902
 31
0.0
  0
LINE
  5
38EE
330
18
100
AcDbEntity
  8
DISEGNO
100
AcDbLine
 10
647.2487721088237
 20
1278.55708828902
 30
0.0
 11
646.7487721088237
 21
1278.05708828902
 31
0.0
  0
ARC
  5
38EF
330
18
100
AcDbEntity
  8
DISEGNO
100
AcDbCircle
 10
643.5464994882627
 20
1260.056888874212
 30
0.0
 40
1.0
100
AcDbArc
 50
201.4312545038228
 51
270.0
  0
ARC
  5
38F0
330
18
100
AcDbEntity
  8
DISEGNO
100
AcDbCircle
 10
643.5464994882627
 20
1279.056888874212
 30
0.0
 40
1.0
100
AcDbArc
 50
90.0
 51
158.5687454961771
  0
ARC
  5
38F1
330
18
100
AcDbEntity
  8
DISEGNO
100
AcDbCircle
 10
667.748772108825
 20
1269.556888874212
 30
0.0
 40
27.0
100
AcDbArc
 50
158.5687454961771
 51
201.4312545038228
  0
LINE
  5
38F2
330
18
100
AcDbEntity
  8
DISEGNO
100
AcDbLine
 10
653.7487721088236
 20
1260.557088289021
 30
0.0
 11
647.2487721088237
 21
1260.55708828902
 31
0.0
  0
LINE
  5
38F3
330
18
100
AcDbEntity
  8
DISEGNO
100
AcDbLine
 10
653.7487721088236
 20
1278.55708828902
 30
0.0
 11
647.2487721088237
 21
1278.55708828902
 31
0.0
  0
LINE
  5
38F4
330
18
100
AcDbEntity
  8
DISEGNO
100
AcDbLine
 10
643.5464994882627
 20
1259.056888874212
 30
0.0
 11
653.7517721088248
 21
1259.056888874212
 31
0.0
  0
LINE
  5
38F5
330
18
100
AcDbEntity
  8
DISEGNO
100
AcDbLine
 10
643.5464994882627
 20
1280.056888874212
 30
0.0
 11
653.7517721088248
 21
1280.056888874212
 31
0.0
  0
LINE
  5
38F6
330
18
100
AcDbEntity
  8
DISEGNO
100
AcDbLine
 10
644.4369019520786
 20
1285.415018717465
 30
0.0
 11
640.0142771722134
 21
1280.9923939376
 31
0.0
  0
LINE
  5
38F7
330
18
100
AcDbEntity
  8
DISEGNO
100
AcDbLine
 10
660.7517721088247
 20
1303.056888874212
 30
0.0
 11
660.7517721088247
 21
1275.806888874212
 31
0.0
  0
LINE
  5
391A
330
18
100
AcDbEntity
  8
DISEGNO
100
AcDbLine
 10
650.748772108825
 20
1304.556888804547
 30
0.0
 11
641.498772108825
 21
1304.556888804547
 31
0.0
  0
LINE
  5
391B
330
18
100
AcDbEntity
  8
DISEGNO
100
AcDbLine
 10
641.498772108825
 20
1304.356888804547
 30
0.0
 11
641.498772108825
 21
1304.556888804547
 31
0.0
  0
LINE
  5
391C
330
18
100
AcDbEntity
  8
DISEGNO
100
AcDbLine
 10
638.998772108825
 20
1304.356888804547
 30
0.0
 11
638.998772108825
 21
1304.556888804547
 31
0.0
  0
LINE
  5
391D
330
18
100
AcDbEntity
  8
DISEGNO
100
AcDbLine
 10
638.998772108825
 20
1304.356888804547
 30
0.0
 11
641.498772108825
 21
1304.356888804547
 31
0.0
  0
LINE
  5
391F
330
18
100
AcDbEntity
  8
DISEGNO
100
AcDbLine
 10
660.748772108825
 20
1278.376888874212
 30
0.0
 11
660.748772108825
 21
1266.456888874212
 31
0.0
  0
LINE
  5
3922
330
18
100
AcDbEntity
  8
DISEGNO
100
AcDbLine
 10
660.748772108825
 20
1260.736888874212
 30
0.0
 11
660.748772108825
 21
1266.456888874212
 31
0.0
  0
LINE
  5
484E
330
18
100
AcDbEntity
  8
ASSI
100
AcDbLine
 10
670.1709519032792
 20
1219.556888874212
 30
0.0
 11
531.9449896742694
 21
1219.556888874212
 31
0.0
  0
LINE
  5
4E4B
330
18
100
AcDbEntity
  8
DISEGNO
100
AcDbLine
 10
-329.0432210688701
 20
760.3290417790861
 30
0.0
 11
10.95677893112997
 21
760.3290417790861
 31
0.0
  0
LINE
  5
4E4C
330
18
100
AcDbEntity
  8
DISEGNO
100
AcDbLine
 10
-234.0432210688701
 20
746.3290417790862
 30
0.0
 11
-84.04322106887059
 21
746.3290417790862
 31
0.0
  0
LINE
  5
4E4D
330
18
100
AcDbEntity
  8
DISEGNO
100
AcDbLine
 10
-329.0432210688701
 20
875.3290417790859
 30
0.0
 11
10.95677893112997
 21
875.3290417790863
 31
0.0
  0
LINE
  5
4E4E
330
18
100
AcDbEntity
  8
DISEGNO
100
AcDbLine
 10
-234.0432210688701
 20
889.329041779086
 30
0.0
 11
-84.04322106887059
 21
889.329041779086
 31
0.0
  0
LINE
  5
4E4F
330
18
100
AcDbEntity
  8
DISEGNO
100
AcDbLine
 10
-234.0432210688701
 20
875.3290417790859
 30
0.0
 11
-84.04322106887059
 21
875.3290417790859
 31
0.0
  0
CIRCLE
  5
4E50
330
18
100
AcDbEntity
  8
NORMALI
100
AcDbCircle
 10
-159.0432210688712
 20
1418.556888665209
 30
0.0
 40
12.5
  0
LINE
  5
4E51
330
18
100
AcDbEntity
  8
DISEGNO
100
AcDbLine
 10
-329.0432210688712
 20
1503.556888665213
 30
0.0
 11
10.95677893112861
 21
1503.556888665214
 31
0.0
  0
LINE
  5
4E52
330
18
100
AcDbEntity
  8
DISEGNO
100
AcDbLine
 10
-234.0432210688712
 20
1501.55688866521
 30
0.0
 11
-84.04322106887127
 21
1501.55688866521
 31
0.0
  0
LINE
  5
4E53
330
18
100
AcDbEntity
  8
DISEGNO
100
AcDbLine
 10
-84.04322106887127
 20
1341.55688866521
 30
0.0
 11
-234.0432210688712
 21
1341.556888665209
 31
0.0
  0
CIRCLE
  5
4E54
330
18
100
AcDbEntity
  8
DISEGNO
100
AcDbCircle
 10
-159.0432210688712
 20
1418.556888665209
 30
0.0
 40
35.0
  0
LINE
  5
4E55
330
18
100
AcDbEntity
  8
ASSI
100
AcDbLine
 10
-54.15193072518286
 20
1418.556888665209
 30
0.0
 11
-260.7889706279165
 21
1418.556888665209
 31
0.0
  0
LINE
  5
4E56
330
18
100
AcDbEntity
  8
0
100
AcDbLine
 10
-544.0432210688705
 20
1339.556888665209
 30
0.0
 11
15.95677893112861
 21
1339.556888665208
 31
0.0
  0
LINE
  5
4E57
330
18
100
AcDbEntity
  8
0
100
AcDbLine
 10
290.8567789311291
 20
1084.556888734881
 30
0.0
 11
-719.1432210688706
 21
1084.556888734881
 31
0.0
  0
LINE
  5
4E58
330
18
100
AcDbEntity
  8
BASE
100
AcDbLine
 10
13.95677893112952
 20
957.8290417790865
 30
0.0
 11
-542.0432210688706
 21
957.8290417790865
 31
0.0
  0
LINE
  5
4E59
330
18
100
AcDbEntity
  8
BASE
100
AcDbLine
 10
15.95677893112952
 20
1245.556888734882
 30
0.0
 11
-544.0432210688705
 21
1245.556888734882
 31
0.0
  0
LINE
  5
4E5A
330
18
100
AcDbEntity
  8
DISEGNO
100
AcDbLine
 10
15.95677893113133
 20
1248.556888734881
 30
0.0
 11
-544.0432210688705
 21
1248.556888734881
 31
0.0
  0
LINE
  5
4E5B
330
18
100
AcDbEntity
  8
BASE
100
AcDbLine
 10
-544.0432210688705
 20
1125.806888734881
 30
0.0
 11
32.70677263463813
 21
1125.80688873488
 31
0.0
  0
LINE
  5
4E5C
330
18
100
AcDbEntity
  8
BASE
100
AcDbLine
 10
-544.0432210688705
 20
1113.306888734881
 30
0.0
 11
32.70677263463813
 21
1113.30688873488
 31
0.0
  0
LINE
  5
4E5D
330
18
100
AcDbEntity
  8
BASE
100
AcDbLine
 10
15.95677893112952
 20
1319.556888665208
 30
0.0
 11
-544.0432210688705
 21
1319.556888665208
 31
0.0
  0
LINE
  5
4E5E
330
18
100
AcDbEntity
  8
ASSI
100
AcDbLine
 10
33.91680553315564
 20
737.3290417790865
 30
0.0
 11
-549.7929444543816
 21
737.3290417790865
 31
0.0
  0
LINE
  5
4E5F
330
18
100
AcDbEntity
  8
ASSI
100
AcDbLine
 10
33.46618887827299
 20
898.3290417790865
 30
0.0
 11
-550.7179517280247
 21
898.3290417790865
 31
0.0
  0
LINE
  5
4E60
330
18
100
AcDbEntity
  8
BASE
100
AcDbLine
 10
13.95677893112952
 20
677.8290417790865
 30
0.0
 11
-542.0432210688706
 21
677.8290417790865
 31
0.0
  0
LINE
  5
4E61
330
18
100
AcDbEntity
  8
AX
100
AcDbLine
 10
300.0565416433441
 20
817.8290417790865
 30
0.0
 11
-736.7740539800752
 21
817.8290417790865
 31
0.0
  0
LINE
  5
4E62
330
18
100
AcDbEntity
  8
AX
100
AcDbLine
 10
-544.0432210688705
 20
1119.556888734881
 30
0.0
 11
292.894954329261
 21
1119.556888734881
 31
0.0
  0
LINE
  5
4E63
330
18
100
AcDbEntity
  8
AX
100
AcDbLine
 10
296.3916026807292
 20
1269.556888734882
 30
0.0
 11
-544.0432210688708
 21
1269.556888734881
 31
0.0
  0
LINE
  5
4E64
330
18
100
AcDbEntity
  8
BASE
  6
DASHED
 62
     8
100
AcDbLine
 10
-175.0432210688704
 20
817.8290417790861
 30
0.0
 11
-175.0432210688704
 21
875.3290417790861
 31
0.0
  0
LINE
  5
4E65
330
18
100
AcDbEntity
  8
DISEGNO
100
AcDbLine
 10
-334.0432210688701
 20
875.3290417790859
 30
0.0
 11
-334.0432210688701
 21
760.3290417790861
 31
0.0
  0
LINE
  5
4E66
330
18
100
AcDbEntity
  8
NORMALI
100
AcDbLine
 10
-665.1432210688703
 20
848.3290417790858
 30
0.0
 11
-665.1432210688703
 21
828.3290417790858
 31
0.0
  0
LINE
  5
4E67
330
18
100
AcDbEntity
  8
NORMALI
100
AcDbLine
 10
-664.1432210688703
 20
847.3290417790858
 30
0.0
 11
-664.1432210688703
 21
829.3290417790858
 31
0.0
  0
LINE
  5
4E68
330
18
100
AcDbEntity
  8
BASE
100
AcDbLine
 10
-719.1432210688703
 20
877.8290417790865
 30
0.0
 11
-719.1432210688703
 21
758.829041779089
 31
0.0
  0
LINE
  5
4E69
330
18
100
AcDbEntity
  8
DISEGNO
100
AcDbLine
 10
-684.1432210688712
 20
877.8290417790865
 30
0.0
 11
-684.1432210688695
 21
757.8290417790865
 31
0.0
  0
LINE
  5
4E6A
330
18
100
AcDbEntity
  8
BASE
100
AcDbLine
 10
-544.0432210688705
 20
955.8290417790866
 30
0.0
 11
-544.0432210688705
 21
679.8290417790865
 31
0.0
  0
LINE
  5
4E6B
330
18
100
AcDbEntity
  8
AX
100
AcDbLine
 10
-524.0432210688705
 20
675.7418683037546
 30
0.0
 11
-524.0432210688705
 21
718.9162152544165
 31
0.0
  0
LINE
  5
4E6C
330
18
100
AcDbEntity
  8
AX
100
AcDbLine
 10
-533.3308115706378
 20
684.8290417790856
 30
0.0
 11
-514.9560475935397
 21
684.8290417790856
 31
0.0
  0
LINE
  5
4E6D
330
18
100
AcDbEntity
  8
BASE
100
AcDbLine
 10
-544.0432210688705
 20
679.8290417790865
 30
0.0
 11
-542.0432210688706
 21
677.8290417790865
 31
0.0
  0
LINE
  5
4E6E
330
18
100
AcDbEntity
  8
AX
100
AcDbLine
 10
-533.1303945442015
 20
697.3290417790856
 30
0.0
 11
-514.9560475935397
 21
697.3290417790856
 31
0.0
  0
LINE
  5
4E6F
330
18
100
AcDbEntity
  8
COMPONENTI
100
AcDbLine
 10
-664.1432210688703
 20
792.8290417790865
 30
0.0
 11
-544.0432210688705
 21
792.8290417790865
 31
0.0
  0
LINE
  5
4E70
330
18
100
AcDbEntity
  8
COMPONENTI
100
AcDbLine
 10
-664.1353025575957
 20
742.3290417790865
 30
0.0
 11
-544.0432210688705
 21
742.3290417790865
 31
0.0
  0
LINE
  5
4E71
330
18
100
AcDbEntity
  8
BASE
100
AcDbLine
 10
-544.0432210688704
 20
757.829041779087
 30
0.0
 11
-718.1432210688676
 21
757.8290417790865
 31
0.0
  0
LINE
  5
4E72
330
18
100
AcDbEntity
  8
BASE
100
AcDbLine
 10
-718.1432210688676
 20
757.8290417790865
 30
0.0
 11
-719.1432210688676
 21
758.8290417790865
 31
0.0
  0
LINE
  5
4E73
330
18
100
AcDbEntity
  8
COMPONENTI
100
AcDbLine
 10
-664.1353025575957
 20
742.3290417790865
 30
0.0
 11
-664.1353025575957
 21
757.8290417790865
 31
0.0
  0
LINE
  5
4E74
330
18
100
AcDbEntity
  8
NORMALI
100
AcDbLine
 10
-664.1432210688703
 20
788.3290417790868
 30
0.0
 11
-664.1432210688703
 21
806.3290417790867
 31
0.0
  0
LINE
  5
4E75
330
18
100
AcDbEntity
  8
NORMALI
100
AcDbLine
 10
-665.1432210688703
 20
787.3290417790867
 30
0.0
 11
-665.1432210688703
 21
807.3290417790868
 31
0.0
  0
LINE
  5
4E76
330
18
100
AcDbEntity
  8
NORMALI
100
AcDbLine
 10
-684.1432210688703
 20
787.3290417790867
 30
0.0
 11
-665.1432210688703
 21
787.3290417790867
 31
0.0
  0
LINE
  5
4E77
330
18
100
AcDbEntity
  8
NORMALI
100
AcDbLine
 10
-665.1432210688703
 20
787.3290417790867
 30
0.0
 11
-664.1432210688703
 21
788.3290417790868
 31
0.0
  0
LINE
  5
4E78
330
18
100
AcDbEntity
  8
NORMALI
100
AcDbLine
 10
-684.1432210688703
 20
807.3290417790868
 30
0.0
 11
-665.1432210688703
 21
807.3290417790868
 31
0.0
  0
LINE
  5
4E79
330
18
100
AcDbEntity
  8
NORMALI
100
AcDbLine
 10
-665.1432210688703
 20
807.3290417790868
 30
0.0
 11
-664.1432210688703
 21
806.3290417790867
 31
0.0
  0
LINE
  5
4E7A
330
18
100
AcDbEntity
  8
NORMALI
100
AcDbLine
 10
-684.1432210688703
 20
828.3290417790858
 30
0.0
 11
-665.1432210688703
 21
828.3290417790858
 31
0.0
  0
LINE
  5
4E7B
330
18
100
AcDbEntity
  8
NORMALI
100
AcDbLine
 10
-665.1432210688703
 20
828.3290417790858
 30
0.0
 11
-664.1432210688703
 21
829.3290417790858
 31
0.0
  0
LINE
  5
4E7C
330
18
100
AcDbEntity
  8
ASSI
100
AcDbLine
 10
-519.0432210688697
 20
725.8306989144309
 30
0.0
 11
-519.0432210688697
 21
749.1017637410639
 31
0.0
  0
LINE
  5
4E7D
330
18
100
AcDbEntity
  8
AX
100
AcDbLine
 10
-533.1303945442015
 20
709.8290417790856
 30
0.0
 11
-514.9560475935397
 21
709.8290417790856
 31
0.0
  0
LINE
  5
4E7E
330
18
100
AcDbEntity
  8
ASSI
100
AcDbLine
 10
-449.0432210688705
 20
725.8306989144309
 30
0.0
 11
-449.0432210688705
 21
749.1017637410639
 31
0.0
  0
LINE
  5
4E7F
330
18
100
AcDbEntity
  8
AX
100
AcDbLine
 10
-354.0432210688706
 20
675.7418683037546
 30
0.0
 11
-354.0432210688696
 21
718.9162152544165
 31
0.0
  0
LINE
  5
4E80
330
18
100
AcDbEntity
  8
AX
100
AcDbLine
 10
-363.1303945442015
 20
684.8290417790856
 30
0.0
 11
-344.9560475935396
 21
684.8290417790856
 31
0.0
  0
LINE
  5
4E81
330
18
100
AcDbEntity
  8
AX
100
AcDbLine
 10
-363.1303945442015
 20
697.3290417790856
 30
0.0
 11
-344.9560475935396
 21
697.3290417790856
 31
0.0
  0
LINE
  5
4E82
330
18
100
AcDbEntity
  8
DISEGNO
100
AcDbLine
 10
-334.0432210688701
 20
740.3290417790859
 30
0.0
 11
-244.0432210688701
 21
740.3290417790859
 31
0.0
  0
LINE
  5
4E83
330
18
100
AcDbEntity
  8
ASSI
100
AcDbLine
 10
-261.0149015419567
 20
750.3290417790862
 30
0.0
 11
-312.5945076789369
 21
750.3290417790862
 31
0.0
  0
LINE
  5
4E84
330
18
100
AcDbEntity
  8
ASSI
100
AcDbLine
 10
-379.0432210688706
 20
725.8306989144305
 30
0.0
 11
-379.0432210688706
 21
749.1017637410634
 31
0.0
  0
LINE
  5
4E85
330
18
100
AcDbEntity
  8
ASSI
100
AcDbLine
 10
-309.0432210688705
 20
749.0380985623844
 30
0.0
 11
-309.0432210688697
 21
725.6199890621699
 31
0.0
  0
LINE
  5
4E86
330
18
100
AcDbEntity
  8
AX
100
AcDbLine
 10
-363.1303945442006
 20
709.8290417790856
 30
0.0
 11
-344.9560475935396
 21
709.8290417790856
 31
0.0
  0
LINE
  5
4E87
330
18
100
AcDbEntity
  8
DISEGNO
100
AcDbLine
 10
-334.0432210688701
 20
760.3290417790861
 30
0.0
 11
-334.0432210688701
 21
741.3290417790859
 31
0.0
  0
LINE
  5
4E88
330
18
100
AcDbEntity
  8
DISEGNO
100
AcDbLine
 10
-334.0432210688701
 20
741.3290417790859
 30
0.0
 11
-334.0432210688701
 21
740.3290417790859
 31
0.0
  0
LINE
  5
4E89
330
18
100
AcDbEntity
  8
DISEGNO
100
AcDbLine
 10
-329.0432210688701
 20
760.3290417790861
 30
0.0
 11
-334.0432210688701
 21
760.3290417790861
 31
0.0
  0
LINE
  5
4E8A
330
18
100
AcDbEntity
  8
BASE
  6
DASHED
 62
     8
100
AcDbLine
 10
-171.5432210688702
 20
760.3290417790893
 30
0.0
 11
-171.5432210688702
 21
817.8290417790861
 31
0.0
  0
LINE
  5
4E8B
330
18
100
AcDbEntity
  8
ASSI
100
AcDbLine
 10
-274.0432210688705
 20
749.0380985623844
 30
0.0
 11
-274.0432210688696
 21
725.6199890621699
 31
0.0
  0
LINE
  5
4E8C
330
18
100
AcDbEntity
  8
ASSI
100
AcDbLine
 10
-239.0432210688724
 20
748.7299644725497
 30
0.0
 11
-239.0432210688724
 21
725.9281190856333
 31
0.0
  0
LINE
  5
4E8D
330
18
100
AcDbEntity
  8
ASSI
100
AcDbLine
 10
-280.0432210688701
 20
759.329041779086
 30
0.0
 11
-280.0432210688701
 21
740.3290417790859
 31
0.0
  0
LINE
  5
4E8E
330
18
100
AcDbEntity
  8
ASSI
100
AcDbLine
 10
-298.0432210688701
 20
759.329041779086
 30
0.0
 11
-298.0432210688701
 21
740.3290417790859
 31
0.0
  0
LINE
  5
4E8F
330
18
100
AcDbEntity
  8
DISEGNO
100
AcDbLine
 10
-244.0432210688701
 20
741.3290417790859
 30
0.0
 11
-244.0432210688701
 21
760.3290417790861
 31
0.0
  0
LINE
  5
4E90
330
18
100
AcDbEntity
  8
DISEGNO
100
AcDbLine
 10
-239.0432210688701
 20
760.3290417790861
 30
0.0
 11
-239.0432210688701
 21
746.3290417790862
 31
0.0
  0
LINE
  5
4E91
330
18
100
AcDbEntity
  8
DISEGNO
100
AcDbLine
 10
-244.0432210688701
 20
740.3290417790859
 30
0.0
 11
-244.0432210688701
 21
741.3290417790859
 31
0.0
  0
LINE
  5
4E92
330
18
100
AcDbEntity
  8
DISEGNO
100
AcDbLine
 10
-234.0432210688701
 20
746.3290417790862
 30
0.0
 11
-239.0432210688701
 21
746.3290417790862
 31
0.0
  0
LINE
  5
4E93
330
18
100
AcDbEntity
  8
BASE
  6
DASHED
 62
     8
100
AcDbLine
 10
-194.0432210688704
 20
760.3290417790907
 30
0.0
 11
-194.0432210688704
 21
746.3290417790862
 31
0.0
  0
LINE
  5
4E94
330
18
100
AcDbEntity
  8
COMPONENTI
100
AcDbLine
 10
-664.1432210688703
 20
842.8290417790865
 30
0.0
 11
-544.0432210688705
 21
842.8290417790865
 31
0.0
  0
LINE
  5
4E95
330
18
100
AcDbEntity
  8
COMPONENTI
100
AcDbLine
 10
-664.1353025575957
 20
893.3290417790866
 30
0.0
 11
-544.0432210688705
 21
893.3290417790866
 31
0.0
  0
LINE
  5
4E96
330
18
100
AcDbEntity
  8
BASE
100
AcDbLine
 10
-544.0432210688704
 20
877.8290417790866
 30
0.0
 11
-718.1432210688676
 21
877.8290417790865
 31
0.0
  0
LINE
  5
4E97
330
18
100
AcDbEntity
  8
NORMALI
100
AcDbLine
 10
-684.1432210688703
 20
848.3290417790858
 30
0.0
 11
-665.1432210688703
 21
848.3290417790858
 31
0.0
  0
LINE
  5
4E98
330
18
100
AcDbEntity
  8
NORMALI
100
AcDbLine
 10
-665.1432210688703
 20
848.3290417790858
 30
0.0
 11
-664.1432210688703
 21
847.3290417790858
 31
0.0
  0
LINE
  5
4E99
330
18
100
AcDbEntity
  8
BASE
100
AcDbLine
 10
-719.1432210688676
 20
876.8290417790865
 30
0.0
 11
-718.1432210688676
 21
877.8290417790865
 31
0.0
  0
LINE
  5
4E9A
330
18
100
AcDbEntity
  8
COMPONENTI
100
AcDbLine
 10
-664.1353025575957
 20
893.3290417790866
 30
0.0
 11
-664.1353025575957
 21
877.8290417790865
 31
0.0
  0
LINE
  5
4E9B
330
18
100
AcDbEntity
  8
ASSI
100
AcDbLine
 10
-449.0432210688705
 20
909.827384643742
 30
0.0
 11
-449.0432210688705
 21
886.5563198171091
 31
0.0
  0
LINE
  5
4E9C
330
18
100
AcDbEntity
  8
ASSI
100
AcDbLine
 10
-519.0432210688697
 20
909.827384643742
 30
0.0
 11
-519.0432210688697
 21
886.5563198171091
 31
0.0
  0
LINE
  5
4E9D
330
18
100
AcDbEntity
  8
AX
100
AcDbLine
 10
-524.0432210688705
 20
959.9162152544174
 30
0.0
 11
-524.0432210688705
 21
916.7418683037556
 31
0.0
  0
LINE
  5
4E9E
330
18
100
AcDbEntity
  8
AX
100
AcDbLine
 10
-533.1303945442015
 20
925.8290417790865
 30
0.0
 11
-514.9560475935397
 21
925.8290417790865
 31
0.0
  0
LINE
  5
4E9F
330
18
100
AcDbEntity
  8
AX
100
AcDbLine
 10
-533.1303945442015
 20
938.3290417790865
 30
0.0
 11
-514.9560475935397
 21
938.3290417790865
 31
0.0
  0
LINE
  5
4EA0
330
18
100
AcDbEntity
  8
AX
100
AcDbLine
 10
-533.3308115706378
 20
950.8290417790865
 30
0.0
 11
-514.9560475935397
 21
950.8290417790865
 31
0.0
  0
LINE
  5
4EA1
330
18
100
AcDbEntity
  8
BASE
100
AcDbLine
 10
-542.0432210688706
 20
957.8290417790865
 30
0.0
 11
-544.0432210688705
 21
955.8290417790866
 31
0.0
  0
LINE
  5
4EA2
330
18
100
AcDbEntity
  8
DISEGNO
100
AcDbLine
 10
-244.0432210688701
 20
895.3290417790862
 30
0.0
 11
-334.0432210688701
 21
895.3290417790862
 31
0.0
  0
LINE
  5
4EA3
330
18
100
AcDbEntity
  8
ASSI
100
AcDbLine
 10
-261.0149015419567
 20
885.3290417790862
 30
0.0
 11
-312.5945076789369
 21
885.3290417790862
 31
0.0
  0
LINE
  5
4EA4
330
18
100
AcDbEntity
  8
ASSI
100
AcDbLine
 10
-413.5432210688687
 20
886.7909295369626
 30
0.0
 11
-413.5432210688687
 21
909.5927749238789
 31
0.0
  0
LINE
  5
4EA5
330
18
100
AcDbEntity
  8
ASSI
100
AcDbLine
 10
-309.0432210688705
 20
886.6199849957887
 30
0.0
 11
-309.0432210688697
 21
910.0380944960036
 31
0.0
  0
LINE
  5
4EA6
330
18
100
AcDbEntity
  8
ASSI
100
AcDbLine
 10
-379.0432210688706
 20
909.8273846437425
 30
0.0
 11
-379.0432210688706
 21
886.5563198171097
 31
0.0
  0
LINE
  5
4EA7
330
18
100
AcDbEntity
  8
DISEGNO
100
AcDbLine
 10
-334.0432210688701
 20
894.329041779086
 30
0.0
 11
-334.0432210688701
 21
875.3290417790859
 31
0.0
  0
LINE
  5
4EA8
330
18
100
AcDbEntity
  8
DISEGNO
100
AcDbLine
 10
-334.0432210688701
 20
875.3290417790859
 30
0.0
 11
-329.0432210688701
 21
875.3290417790859
 31
0.0
  0
LINE
  5
4EA9
330
18
100
AcDbEntity
  8
DISEGNO
100
AcDbLine
 10
-334.0432210688701
 20
895.3290417790862
 30
0.0
 11
-334.0432210688701
 21
894.329041779086
 31
0.0
  0
LINE
  5
4EAA
330
18
100
AcDbEntity
  8
AX
100
AcDbLine
 10
-354.0432210688706
 20
959.9162152544174
 30
0.0
 11
-354.0432210688696
 21
916.7418683037556
 31
0.0
  0
LINE
  5
4EAB
330
18
100
AcDbEntity
  8
AX
100
AcDbLine
 10
-363.1303945442006
 20
925.8290417790865
 30
0.0
 11
-344.9560475935396
 21
925.8290417790865
 31
0.0
  0
LINE
  5
4EAC
330
18
100
AcDbEntity
  8
AX
100
AcDbLine
 10
-363.1303945442015
 20
950.8290417790865
 30
0.0
 11
-344.9560475935396
 21
950.8290417790865
 31
0.0
  0
LINE
  5
4EAD
330
18
100
AcDbEntity
  8
AX
100
AcDbLine
 10
-363.1303945442015
 20
938.3290417790865
 30
0.0
 11
-344.9560475935396
 21
938.3290417790865
 31
0.0
  0
LINE
  5
4EAE
330
18
100
AcDbEntity
  8
ASSI
100
AcDbLine
 10
-274.0432210688705
 20
886.6199849957887
 30
0.0
 11
-274.0432210688696
 21
910.0380944960036
 31
0.0
  0
LINE
  5
4EAF
330
18
100
AcDbEntity
  8
ASSI
100
AcDbLine
 10
-239.0432210688724
 20
886.9281190856234
 30
0.0
 11
-239.0432210688724
 21
909.7299644725396
 31
0.0
  0
LINE
  5
4EB0
330
18
100
AcDbEntity
  8
ASSI
100
AcDbLine
 10
-298.0432210688701
 20
894.329041779086
 30
0.0
 11
-298.0432210688701
 21
875.3290417790859
 31
0.0
  0
LINE
  5
4EB1
330
18
100
AcDbEntity
  8
ASSI
100
AcDbLine
 10
-280.0432210688701
 20
894.329041779086
 30
0.0
 11
-280.0432210688701
 21
875.3290417790859
 31
0.0
  0
LINE
  5
4EB2
330
18
100
AcDbEntity
  8
DISEGNO
100
AcDbLine
 10
-244.0432210688701
 20
875.3290417790859
 30
0.0
 11
-244.0432210688701
 21
894.3290417790862
 31
0.0
  0
LINE
  5
4EB3
330
18
100
AcDbEntity
  8
DISEGNO
100
AcDbLine
 10
-239.0432210688701
 20
889.329041779086
 30
0.0
 11
-239.0432210688701
 21
875.3290417790859
 31
0.0
  0
LINE
  5
4EB4
330
18
100
AcDbEntity
  8
DISEGNO
100
AcDbLine
 10
-244.0432210688701
 20
894.3290417790862
 30
0.0
 11
-244.0432210688701
 21
895.3290417790862
 31
0.0
  0
LINE
  5
4EB5
330
18
100
AcDbEntity
  8
DISEGNO
100
AcDbLine
 10
-239.0432210688701
 20
889.329041779086
 30
0.0
 11
-234.0432210688701
 21
889.329041779086
 31
0.0
  0
LINE
  5
4EB6
330
18
100
AcDbEntity
  8
BASE
  6
DASHED
 62
     8
100
AcDbLine
 10
-194.0432210688704
 20
875.3290417790861
 30
0.0
 11
-194.0432210688704
 21
889.329041779086
 31
0.0
  0
LINE
  5
4EB7
330
18
100
AcDbEntity
  8
AX
100
AcDbLine
 10
-734.6780448184706
 20
1269.556788149693
 30
0.0
 11
-544.0432210688701
 21
1269.556788149693
 31
0.0
  0
LINE
  5
4EB8
330
18
100
AcDbEntity
  8
AX
100
AcDbLine
 10
-734.6780448184706
 20
1119.556788149693
 30
0.0
 11
-544.0432210688705
 21
1119.556788149693
 31
0.0
  0
LINE
  5
4EB9
330
18
100
AcDbEntity
  8
DISEGNO
100
AcDbLine
 10
-842.9734587397398
 20
1358.55708814967
 30
0.0
 11
-842.9734587397456
 21
1339.557088149669
 31
0.0
  0
LINE
  5
4EBA
330
18
100
AcDbEntity
  8
DISEGNO
100
AcDbLine
 10
-997.9734587397452
 20
1339.557088149715
 30
0.0
 11
-997.9734587397402
 21
1358.557088149715
 31
0.0
  0
LINE
  5
4EBB
330
18
100
AcDbEntity
  8
ASSI
100
AcDbLine
 10
-852.9734587403781
 20
1332.63793834415
 30
0.0
 11
-852.9734587403831
 21
1366.17109532839
 31
0.0
  0
LINE
  5
4EBC
330
18
100
AcDbEntity
  8
ASSI
100
AcDbLine
 10
-987.9734587397452
 20
1332.63793834415
 30
0.0
 11
-987.9734587397402
 21
1366.17109532839
 31
0.0
  0
LINE
  5
4EBD
330
18
100
AcDbEntity
  8
DISEGNO
100
AcDbLine
 10
-977.973458739736
 20
1342.557088149694
 30
0.0
 11
-977.9734587396983
 21
1498.55708814971
 31
0.0
  0
LINE
  5
4EBE
330
18
100
AcDbEntity
  8
DISEGNO
100
AcDbLine
 10
-862.9734587396983
 20
1498.557088149676
 30
0.0
 11
-862.973458739737
 21
1342.557088149694
 31
0.0
  0
LINE
  5
4EBF
330
18
100
AcDbEntity
  8
ASSI
100
AcDbLine
 10
-920.2604271537934
 20
1532.307446582161
 30
0.0
 11
-920.260427153793
 21
1052.997260660275
 31
0.0
  0
LINE
  5
4EC0
330
18
100
AcDbEntity
  8
ASSI
100
AcDbLine
 10
-1027.506678725435
 20
1269.556888734881
 30
0.0
 11
-811.8777234074595
 21
1269.556888734881
 31
0.0
  0
LINE
  5
4EC1
330
18
100
AcDbEntity
  8
BASE
100
AcDbLine
 10
-980.3686871537934
 20
1339.556888665209
 30
0.0
 11
-1060.260427153793
 21
1339.556888665209
 31
0.0
  0
LINE
  5
4EC2
330
18
100
AcDbEntity
  8
BASE
  6
CONTINUOUS
100
AcDbLine
 10
-980.3686871537934
 20
1319.556888665208
 30
0.0
 11
-1060.260427153793
 21
1319.556888665208
 31
0.0
  0
LINE
  5
4EC3
330
18
100
AcDbEntity
  8
BASE
100
AcDbLine
 10
-989.3602271537934
 20
1245.556888734882
 30
0.0
 11
-1008.261427153793
 21
1245.556888734882
 31
0.0
  0
LINE
  5
4EC4
330
18
100
AcDbEntity
  8
BASE
100
AcDbLine
 10
-1018.261427153793
 20
1248.556888734882
 30
0.0
 11
-982.2607271537931
 21
1248.556888734882
 31
0.0
  0
LINE
  5
4EC5
330
18
100
AcDbEntity
  8
BASE
100
AcDbLine
 10
-1018.261427153793
 20
1245.556888734882
 30
0.0
 11
-982.2607271537931
 21
1245.556888734882
 31
0.0
  0
LINE
  5
4EC6
330
18
100
AcDbEntity
  8
DISEGNO
100
AcDbLine
 10
-1018.261427153793
 20
1245.556888734882
 30
0.0
 11
-1018.261427153793
 21
1319.556888665208
 31
0.0
  0
LINE
  5
4EC7
330
18
100
AcDbEntity
  8
BASE
100
AcDbLine
 10
-1060.260427153793
 20
1319.556888665208
 30
0.0
 11
-1060.260427153793
 21
1339.556888665209
 31
0.0
  0
LINE
  5
4EC8
330
18
100
AcDbEntity
  8
0
100
AcDbLine
 10
-980.3686871537934
 20
1342.557088149695
 30
0.0
 11
-980.3686871537934
 21
1084.556888734881
 31
0.0
  0
LINE
  5
4EC9
330
18
100
AcDbEntity
  8
0
100
AcDbLine
 10
-860.3676871537931
 20
1342.557088149694
 30
0.0
 11
-860.3676871537931
 21
1084.556888734881
 31
0.0
  0
LINE
  5
4ECA
330
18
100
AcDbEntity
  8
0
100
AcDbLine
 10
-980.3686871537934
 20
1084.556888734881
 30
0.0
 11
-860.3676871537931
 21
1084.556888734881
 31
0.0
  0
LINE
  5
4ECB
330
18
100
AcDbEntity
  8
DISEGNO
100
AcDbLine
 10
-860.3676871537931
 20
1342.557088149694
 30
0.0
 11
-980.3687344350706
 21
1342.557088149694
 31
0.0
  0
LINE
  5
4ECC
330
18
100
AcDbEntity
  8
BASE
100
AcDbLine
 10
-980.3589863756508
 20
1319.556888665208
 30
0.0
 11
-860.3579863756515
 21
1319.556888665208
 31
0.0
  0
LINE
  5
4ECD
330
18
100
AcDbEntity
  8
0
100
AcDbLine
 10
-980.3596237833762
 20
1319.556888665208
 30
0.0
 11
-860.3573489679261
 21
1319.556888665208
 31
0.0
  0
LINE
  5
4ECE
330
18
100
AcDbEntity
  8
BASE
100
AcDbLine
 10
-982.2607271537931
 20
1319.556888665208
 30
0.0
 11
-982.2607271537931
 21
1279.556888734882
 31
0.0
  0
LINE
  5
4ECF
330
18
100
AcDbEntity
  8
COMPONENTI
100
AcDbLine
 10
-995.8673371537933
 20
1279.556888734882
 30
0.0
 11
-995.8673371537933
 21
1259.556888734882
 31
0.0
  0
LINE
  5
4ED0
330
18
100
AcDbEntity
  8
BASE
100
AcDbLine
 10
-982.2607271537931
 20
1259.556888734882
 30
0.0
 11
-982.2607271537931
 21
1245.556888734882
 31
0.0
  0
LINE
  5
4ED1
330
18
100
AcDbEntity
  8
COMPONENTI
100
AcDbLine
 10
-995.8673371537933
 20
1259.556888734882
 30
0.0
 11
-981.5473371537937
 21
1259.556888734882
 31
0.0
  0
LINE
  5
4ED2
330
18
100
AcDbEntity
  8
COMPONENTI
100
AcDbLine
 10
-980.3673371537934
 20
1260.736888734882
 30
0.0
 11
-981.5473371537937
 21
1259.556888734882
 31
0.0
  0
LINE
  5
4ED3
330
18
100
AcDbEntity
  8
COMPONENTI
100
AcDbLine
 10
-995.8673371537933
 20
1279.556888734882
 30
0.0
 11
-981.5473371537937
 21
1279.556888734882
 31
0.0
  0
LINE
  5
4ED4
330
18
100
AcDbEntity
  8
COMPONENTI
100
AcDbLine
 10
-980.3673371537934
 20
1278.376888734882
 30
0.0
 11
-981.5473371537937
 21
1279.556888734882
 31
0.0
  0
LINE
  5
4ED5
330
18
100
AcDbEntity
  8
ASSI
100
AcDbLine
 10
-1000.760427153793
 20
1344.107379608014
 30
0.0
 11
-1000.760427153793
 21
1314.20692442043
 31
0.0
  0
LINE
  5
4ED6
330
18
100
AcDbEntity
  8
ASSI
100
AcDbLine
 10
-952.5745063756508
 20
1302.58767845681
 30
0.0
 11
-952.5745063756508
 21
1320.362581155931
 31
0.0
  0
CIRCLE
  5
4ED7
330
18
100
AcDbEntity
  8
NORMALI
100
AcDbCircle
 10
-952.5745063756508
 20
1309.556689250398
 30
0.0
 40
5.0
1001
COMAU_ACADLIB
1000
00302052
1000
Vite T.C.E.I. UNI 5931 - M6x20 - 8.8
  0
LINE
  5
4ED8
330
18
100
AcDbEntity
  8
ASSI
100
AcDbLine
 10
-959.0272805556601
 20
1309.556689250398
 30
0.0
 11
-945.1128234649809
 21
1309.556689250398
 31
0.0
  0
LINE
  5
4ED9
330
18
100
AcDbEntity
  8
ASSI
100
AcDbLine
 10
-888.5745063756507
 20
1302.58767845681
 30
0.0
 11
-888.5745063756507
 21
1320.224523030123
 31
0.0
  0
CIRCLE
  5
4EDA
330
18
100
AcDbEntity
  8
NORMALI
100
AcDbCircle
 10
-888.5745063756507
 20
1309.556689250398
 30
0.0
 40
5.0
1001
COMAU_ACADLIB
1000
00302052
1000
Vite T.C.E.I. UNI 5931 - M6x20 - 8.8
  0
LINE
  5
4EDB
330
18
100
AcDbEntity
  8
ASSI
100
AcDbLine
 10
-881.053451241009
 20
1309.556689250398
 30
0.0
 11
-895.9162850036451
 21
1309.556689250398
 31
0.0
  0
LINE
  5
4EDC
330
18
100
AcDbEntity
  8
BASE
100
AcDbLine
 10
-858.2601271537933
 20
1319.556888665208
 30
0.0
 11
-858.2601271537933
 21
1279.556888734882
 31
0.0
  0
LINE
  5
4EDD
330
18
100
AcDbEntity
  8
DISEGNO
100
AcDbLine
 10
-822.2594271537927
 20
1245.556888734882
 30
0.0
 11
-822.2594271537927
 21
1319.556888665208
 31
0.0
  0
LINE
  5
4EDE
330
18
100
AcDbEntity
  8
COMPONENTI
100
AcDbLine
 10
-844.8690371537932
 20
1279.556888734882
 30
0.0
 11
-844.8690371537932
 21
1259.556888734882
 31
0.0
  0
LINE
  5
4EDF
330
18
100
AcDbEntity
  8
BASE
100
AcDbLine
 10
-822.2594271537927
 20
1245.556888734882
 30
0.0
 11
-858.2601271537933
 21
1245.556888734882
 31
0.0
  0
LINE
  5
4EE0
330
18
100
AcDbEntity
  8
BASE
100
AcDbLine
 10
-822.2594271537927
 20
1248.556888734882
 30
0.0
 11
-858.2601271537933
 21
1248.556888734882
 31
0.0
  0
LINE
  5
4EE1
330
18
100
AcDbEntity
  8
BASE
100
AcDbLine
 10
-858.2601271537933
 20
1259.556888734882
 30
0.0
 11
-858.2601271537933
 21
1245.556888734882
 31
0.0
  0
LINE
  5
4EE2
330
18
100
AcDbEntity
  8
BASE
100
AcDbLine
 10
-851.160627153793
 20
1245.556888734882
 30
0.0
 11
-832.2594271537928
 21
1245.556888734882
 31
0.0
  0
LINE
  5
4EE3
330
18
100
AcDbEntity
  8
COMPONENTI
100
AcDbLine
 10
-844.8690371537932
 20
1259.556888734882
 30
0.0
 11
-859.1890371537928
 21
1259.556888734882
 31
0.0
  0
LINE
  5
4EE4
330
18
100
AcDbEntity
  8
COMPONENTI
100
AcDbLine
 10
-860.3690371537933
 20
1260.736888734882
 30
0.0
 11
-859.1890371537928
 21
1259.556888734882
 31
0.0
  0
LINE
  5
4EE5
330
18
100
AcDbEntity
  8
COMPONENTI
100
AcDbLine
 10
-844.8690371537932
 20
1279.556888734882
 30
0.0
 11
-859.1890371537928
 21
1279.556888734882
 31
0.0
  0
LINE
  5
4EE6
330
18
100
AcDbEntity
  8
COMPONENTI
100
AcDbLine
 10
-860.3690371537933
 20
1278.376888734882
 30
0.0
 11
-859.1890371537928
 21
1279.556888734882
 31
0.0
  0
LINE
  5
4EE7
330
18
100
AcDbEntity
  8
BASE
100
AcDbLine
 10
-780.2604271537934
 20
1339.556888665209
 30
0.0
 11
-860.3676871537931
 21
1339.556888665209
 31
0.0
  0
LINE
  5
4EE8
330
18
100
AcDbEntity
  8
BASE
  6
CONTINUOUS
100
AcDbLine
 10
-780.2604271537934
 20
1319.556888665209
 30
0.0
 11
-860.3676871537931
 21
1319.556888665208
 31
0.0
  0
LINE
  5
4EE9
330
18
100
AcDbEntity
  8
ASSI
100
AcDbLine
 10
-839.7604271537934
 20
1344.343366097982
 30
0.0
 11
-839.7604271537934
 21
1313.00131878538
 31
0.0
  0
LINE
  5
4EEA
330
18
100
AcDbEntity
  8
BASE
100
AcDbLine
 10
-780.2604271537934
 20
1319.556888665209
 30
0.0
 11
-780.2604271537934
 21
1339.556888665209
 31
0.0
  0
LINE
  5
4EEB
330
18
100
AcDbEntity
  8
ASSI
100
AcDbLine
 10
-827.1552898767922
 20
1418.557088149692
 30
0.0
 11
-1014.91942108207
 21
1418.557088149692
 31
0.0
  0
LINE
  5
4EEC
330
18
100
AcDbEntity
  8
AX
100
AcDbLine
 10
-826.7919414985872
 20
1418.557088149692
 30
0.0
 11
-1012.193504565704
 21
1418.557088149692
 31
0.0
  0
LINE
  5
4EED
330
18
100
AcDbEntity
  8
DISEGNO
100
AcDbLine
 10
-848.9734587397116
 20
1359.557088149671
 30
0.0
 11
-848.9734587396711
 21
1496.557088149671
 31
0.0
  0
LINE
  5
4EEE
330
18
100
AcDbEntity
  8
DISEGNO
100
AcDbLine
 10
-991.9734587397115
 20
1359.557088149714
 30
0.0
 11
-991.973458739671
 21
1496.557088149713
 31
0.0
  0
LINE
  5
4EEF
330
18
100
AcDbEntity
  8
BASE
  6
DASHED
 62
     8
100
AcDbLine
 10
-920.4734587396941
 20
1434.557088149693
 30
0.0
 11
-862.9734587396942
 21
1434.557088149692
 31
0.0
  0
LINE
  5
4EF0
330
18
100
AcDbEntity
  8
BASE
  6
DASHED
 62
     8
100
AcDbLine
 10
-920.4734587396941
 20
1402.557088149692
 30
0.0
 11
-862.9734587396942
 21
1402.557088149692
 31
0.0
  0
LINE
  5
4EF1
330
18
100
AcDbEntity
  8
BASE
  6
DASHED
 62
     8
100
AcDbLine
 10
-977.9734587396911
 20
1406.057088149693
 30
0.0
 11
-920.4734587396941
 21
1406.057088149693
 31
0.0
  0
LINE
  5
4EF2
330
18
100
AcDbEntity
  8
DISEGNO
100
AcDbLine
 10
-996.9734587397397
 20
1359.557088149715
 30
0.0
 11
-977.9734587397397
 21
1359.55708814971
 31
0.0
  0
LINE
  5
4EF3
330
18
100
AcDbEntity
  8
DISEGNO
100
AcDbLine
 10
-997.9734587397402
 20
1358.557088149715
 30
0.0
 11
-996.9734587397397
 21
1359.557088149715
 31
0.0
  0
LINE
  5
4EF4
330
18
100
AcDbEntity
  8
BASE
  6
DASHED
 62
     8
100
AcDbLine
 10
-977.9734587396937
 20
1383.557088149692
 30
0.0
 11
-991.9734587396938
 21
1383.557088149692
 31
0.0
  0
LINE
  5
4EF5
330
18
100
AcDbEntity
  8
BASE
  6
DASHED
 62
     8
100
AcDbLine
 10
-977.9734587396911
 20
1431.057088149693
 30
0.0
 11
-920.4734587396941
 21
1431.057088149693
 31
0.0
  0
LINE
  5
4EF6
330
18
100
AcDbEntity
  8
BASE
  6
DASHED
 62
     8
100
AcDbLine
 10
-977.9734587396937
 20
1453.557088149692
 30
0.0
 11
-991.9734587396938
 21
1453.557088149692
 31
0.0
  0
LINE
  5
4EF7
330
18
100
AcDbEntity
  8
DISEGNO
100
AcDbLine
 10
-862.9734587397397
 20
1359.557088149676
 30
0.0
 11
-843.9734587397397
 21
1359.55708814967
 31
0.0
  0
LINE
  5
4EF8
330
18
100
AcDbEntity
  8
DISEGNO
100
AcDbLine
 10
-843.9734587397397
 20
1359.55708814967
 30
0.0
 11
-842.9734587397398
 21
1358.55708814967
 31
0.0
  0
LINE
  5
4EF9
330
18
100
AcDbEntity
  8
BASE
  6
DASHED
 62
     8
100
AcDbLine
 10
-862.9734587396988
 20
1383.557088149692
 30
0.0
 11
-848.9734587396942
 21
1383.557088149692
 31
0.0
  0
LINE
  5
4EFA
330
18
100
AcDbEntity
  8
BASE
  6
DASHED
 62
     8
100
AcDbLine
 10
-862.9734587396988
 20
1453.557088149692
 30
0.0
 11
-848.9734587396942
 21
1453.557088149692
 31
0.0
  0
LINE
  5
4EFB
330
18
100
AcDbEntity
  8
DISEGNO
100
AcDbLine
 10
-862.9734587396956
 20
1503.557088149675
 30
0.0
 11
-977.9734587396951
 21
1503.557088149709
 31
0.0
  0
LINE
  5
4EFC
330
18
100
AcDbEntity
  8
DISEGNO
100
AcDbLine
 10
-977.9734587396678
 20
1501.557088149709
 30
0.0
 11
-991.9734587396678
 21
1501.557088149714
 31
0.0
  0
LINE
  5
4EFD
330
18
100
AcDbEntity
  8
DISEGNO
100
AcDbLine
 10
-991.973458739671
 20
1496.557088149713
 30
0.0
 11
-991.9734587396678
 21
1501.557088149714
 31
0.0
  0
LINE
  5
4EFE
330
18
100
AcDbEntity
  8
DISEGNO
100
AcDbLine
 10
-977.9734587396983
 20
1498.55708814971
 30
0.0
 11
-977.9734587396951
 21
1503.55708814971
 31
0.0
  0
LINE
  5
4EFF
330
18
100
AcDbEntity
  8
DISEGNO
100
AcDbLine
 10
-862.9734587396956
 20
1503.557088149675
 30
0.0
 11
-862.9734587396983
 21
1498.557088149676
 31
0.0
  0
LINE
  5
4F00
330
18
100
AcDbEntity
  8
DISEGNO
100
AcDbLine
 10
-848.9734587396679
 20
1501.557088149672
 30
0.0
 11
-862.9734587396679
 21
1501.557088149675
 31
0.0
  0
LINE
  5
4F01
330
18
100
AcDbEntity
  8
DISEGNO
100
AcDbLine
 10
-848.9734587396679
 20
1501.557088149672
 30
0.0
 11
-848.9734587396711
 21
1496.557088149671
 31
0.0
  0
LINE
  5
4F02
330
18
100
AcDbEntity
  8
DISEGNO
100
AcDbLine
 10
-244.0432210688712
 20
1339.556888665208
 30
0.0
 11
-244.0432210688712
 21
1358.556888665208
 31
0.0
  0
LINE
  5
4F03
330
18
100
AcDbEntity
  8
DISEGNO
100
AcDbLine
 10
-334.0432210688712
 20
1358.556888665208
 30
0.0
 11
-334.0432210688712
 21
1339.556888665208
 31
0.0
  0
LINE
  5
4F04
330
18
100
AcDbEntity
  8
ASSI
100
AcDbLine
 10
-298.0432210688708
 20
1326.743860087562
 30
0.0
 11
-298.0432210688708
 21
1373.654077892076
 31
0.0
  0
LINE
  5
4F05
330
18
100
AcDbEntity
  8
ASSI
100
AcDbLine
 10
-280.0432210688708
 20
1326.743860087562
 30
0.0
 11
-280.0432210688708
 21
1373.654077892076
 31
0.0
  0
LINE
  5
4F06
330
18
100
AcDbEntity
  8
DISEGNO
100
AcDbLine
 10
-239.0432210688712
 20
1346.556888665209
 30
0.0
 11
-239.0432210688712
 21
1496.556888665209
 31
0.0
  0
LINE
  5
4F07
330
18
100
AcDbEntity
  8
BASE
100
AcDbLine
 10
-719.1432210688706
 20
1304.557088149693
 30
0.0
 11
-719.1432210688706
 21
1084.556888734881
 31
0.0
  0
LINE
  5
4F08
330
18
100
AcDbEntity
  8
BASE
100
AcDbLine
 10
-719.1432210688706
 20
1125.806888734881
 30
0.0
 11
-544.0432210688705
 21
1125.806888734881
 31
0.0
  0
LINE
  5
4F09
330
18
100
AcDbEntity
  8
BASE
100
AcDbLine
 10
-719.1432210688706
 20
1113.306888734881
 30
0.0
 11
-544.0432210688705
 21
1113.306888734881
 31
0.0
  0
LINE
  5
4F0A
330
18
100
AcDbEntity
  8
COMPONENTI
100
AcDbLine
 10
-544.0432210688705
 20
1259.556888734882
 30
0.0
 11
-664.3149636646941
 21
1259.556888734879
 31
0.0
  0
LINE
  5
4F0B
330
18
100
AcDbEntity
  8
COMPONENTI
100
AcDbLine
 10
-560.7932147723787
 20
1279.556888734882
 30
0.0
 11
-664.3149636646931
 21
1279.556888734879
 31
0.0
  0
LINE
  5
4F0C
330
18
100
AcDbEntity
  8
BASE
100
AcDbLine
 10
-719.1432210688706
 20
1304.557088149693
 30
0.0
 11
-544.0432210688701
 21
1304.557088149693
 31
0.0
  0
LINE
  5
4F0D
330
18
100
AcDbEntity
  8
COMPONENTI
100
AcDbLine
 10
-664.3149636646931
 20
1279.556888734882
 30
0.0
 11
-664.3149636646941
 21
1259.556888734882
 31
0.0
  0
LINE
  5
4F0E
330
18
100
AcDbEntity
  8
BASE
100
AcDbLine
 10
-664.3149636646939
 20
1263.306888734881
 30
0.0
 11
-719.1432210688706
 21
1263.306888734881
 31
0.0
  0
LINE
  5
4F0F
330
18
100
AcDbEntity
  8
BASE
100
AcDbLine
 10
-664.3149636646934
 20
1275.806888734881
 30
0.0
 11
-719.1432210688706
 21
1275.806888734881
 31
0.0
  0
LINE
  5
4F10
330
18
100
AcDbEntity
  8
BASE
100
AcDbLine
 10
-719.1432210688706
 20
1317.557088149692
 30
0.0
 11
-619.1432210688706
 21
1317.557088149692
 31
0.0
  0
LINE
  5
4F11
330
18
100
AcDbEntity
  8
NORMALI
100
AcDbLine
 10
-665.1432210688697
 20
1341.557088149695
 30
0.0
 11
-665.1432210688697
 21
1321.557088149695
 31
0.0
  0
LINE
  5
4F12
330
18
100
AcDbEntity
  8
NORMALI
100
AcDbLine
 10
-664.1432210688697
 20
1340.557088149695
 30
0.0
 11
-664.1432210688697
 21
1322.557088149695
 31
0.0
  0
LINE
  5
4F13
330
18
100
AcDbEntity
  8
DISEGNO
100
AcDbLine
 10
-684.1432210688696
 20
1342.557088149695
 30
0.0
 11
-684.1432210688696
 21
1317.557088149693
 31
0.0
  0
LINE
  5
4F14
330
18
100
AcDbEntity
  8
BASE
100
AcDbLine
 10
-719.1432210688699
 20
1339.557088149695
 30
0.0
 11
-719.1432210688706
 21
1304.557088149693
 31
0.0
  0
LINE
  5
4F15
330
18
100
AcDbEntity
  8
NORMALI
100
AcDbLine
 10
-684.1432210688696
 20
1321.557088149695
 30
0.0
 11
-665.2382210688699
 21
1321.557088149695
 31
0.0
  0
LINE
  5
4F16
330
18
100
AcDbEntity
  8
NORMALI
100
AcDbLine
 10
-665.2382210688699
 20
1321.557088149695
 30
0.0
 11
-664.2382210688699
 21
1322.557088149695
 31
0.0
  0
LINE
  5
4F17
330
18
100
AcDbEntity
  8
BASE
100
AcDbLine
 10
-684.1432210688696
 20
1342.557088149695
 30
0.0
 11
-716.1432210688706
 21
1342.557088149695
 31
0.0
  0
LINE
  5
4F18
330
18
100
AcDbEntity
  8
BASE
100
AcDbLine
 10
-716.1432210688706
 20
1342.557088149695
 30
0.0
 11
-719.1432210688706
 21
1339.557088149695
 31
0.0
  0
LINE
  5
4F19
330
18
100
AcDbEntity
  8
NORMALI
100
AcDbLine
 10
-684.1432210688696
 20
1341.557088149695
 30
0.0
 11
-665.1432210688697
 21
1341.557088149695
 31
0.0
  0
LINE
  5
4F1A
330
18
100
AcDbEntity
  8
NORMALI
100
AcDbLine
 10
-665.1432210688697
 20
1341.557088149695
 30
0.0
 11
-664.1432210688697
 21
1340.557088149695
 31
0.0
  0
LINE
  5
4F1B
330
18
100
AcDbEntity
  8
BASE
100
AcDbLine
 10
-619.1432210688706
 20
1317.557088149692
 30
0.0
 11
-619.1432210688706
 21
1304.557088149693
 31
0.0
  0
LINE
  5
4F1C
330
18
100
AcDbEntity
  8
DISEGNO
100
AcDbLine
 10
-541.0432210688705
 20
1319.556888665208
 30
0.0
 11
-541.0432210688696
 21
1248.556888734882
 31
0.0
  0
LINE
  5
4F1D
330
18
100
AcDbEntity
  8
BASE
100
AcDbLine
 10
-544.0432210688705
 20
1339.556888665208
 30
0.0
 11
-544.0432210688705
 21
1245.556888734882
 31
0.0
  0
LINE
  5
4F1E
330
18
100
AcDbEntity
  8
COMPONENTI
100
AcDbLine
 10
-544.0432210688697
 20
1279.556888734882
 30
0.0
 11
-560.7932147723787
 21
1279.556888734882
 31
0.0
  0
LINE
  5
4F1F
330
18
100
AcDbEntity
  8
BASE
100
AcDbLine
 10
-544.0432210688701
 20
1304.557088149693
 30
0.0
 11
-544.0432210688701
 21
1304.557088149693
 31
0.0
  0
ARC
  5
4F20
330
18
100
AcDbEntity
  8
DISEGNO
100
AcDbCircle
 10
-234.0432210688712
 20
1346.556888665209
 30
0.0
 40
5.000000000000015
100
AcDbArc
 50
180.0
 51
270.0
  0
LINE
  5
4F21
330
18
100
AcDbEntity
  8
DISEGNO
100
AcDbLine
 10
-334.0432210688712
 20
1498.556888665214
 30
0.0
 11
-334.0432210688712
 21
1359.556888665214
 31
0.0
  0
LINE
  5
4F22
330
18
100
AcDbEntity
  8
DISEGNO
100
AcDbLine
 10
-244.0432210688717
 20
1359.556888665208
 30
0.0
 11
-334.0432210688712
 21
1359.556888665208
 31
0.0
  0
LINE
  5
4F23
330
18
100
AcDbEntity
  8
DISEGNO
100
AcDbLine
 10
-334.0432210688712
 20
1359.556888665208
 30
0.0
 11
-334.0432210688712
 21
1358.556888665208
 31
0.0
  0
LINE
  5
4F24
330
18
100
AcDbEntity
  8
ASSI
100
AcDbLine
 10
-218.6960800577681
 20
1375.556888665229
 30
0.0
 11
-241.5631715287527
 21
1375.556888665229
 31
0.0
  0
LINE
  5
4F25
330
18
100
AcDbEntity
  8
DISEGNO
100
AcDbLine
 10
-244.0432210688717
 20
1358.556888665208
 30
0.0
 11
-244.0432210688717
 21
1359.556888665208
 31
0.0
  0
LINE
  5
4F26
330
18
100
AcDbEntity
  8
ASSI
100
AcDbLine
 10
-229.0432210688712
 20
1386.519208717356
 30
0.0
 11
-229.0432210688712
 21
1363.746962566447
 31
0.0
  0
LINE
  5
4F27
330
18
100
AcDbEntity
  8
ASSI
100
AcDbLine
 10
-218.6960800577681
 20
1461.55688866519
 30
0.0
 11
-241.5631715287527
 21
1461.55688866519
 31
0.0
  0
LINE
  5
4F28
330
18
100
AcDbEntity
  8
ASSI
100
AcDbLine
 10
-229.0432210688712
 20
1450.594568613063
 30
0.0
 11
-229.0432210688712
 21
1473.366814763971
 31
0.0
  0
ARC
  5
4F29
330
18
100
AcDbEntity
  8
DISEGNO
100
AcDbCircle
 10
-329.0432210688712
 20
1498.556888665214
 30
0.0
 40
4.999999999999998
100
AcDbArc
 50
90.0
 51
180.0
  0
ARC
  5
4F2A
330
18
100
AcDbEntity
  8
DISEGNO
100
AcDbCircle
 10
-234.0432210688712
 20
1496.556888665209
 30
0.0
 40
5.000000000000015
100
AcDbArc
 50
90.0
 51
180.0
  0
LINE
  5
4F2B
330
18
100
AcDbEntity
  8
ASSI
100
AcDbLine
 10
-159.0432210688703
 20
724.5108729161842
 30
0.0
 11
-159.0432210688703
 21
912.275004121462
 31
0.0
  0
LINE
  5
4F2C
330
18
100
AcDbEntity
  8
DISEGNO
100
AcDbLine
 10
15.95677893112952
 20
760.3290417790861
 30
0.0
 11
15.95677893112952
 21
875.3290417790859
 31
0.0
  0
LINE
  5
4F2D
330
18
100
AcDbEntity
  8
BASE
  6
DASHED
 62
     8
100
AcDbLine
 10
-143.0432210688702
 20
817.8290417790861
 30
0.0
 11
-143.0432210688704
 21
875.3290417790861
 31
0.0
  0
LINE
  5
4F2E
330
18
100
AcDbEntity
  8
BASE
100
AcDbLine
 10
180.7567789311312
 20
876.8290417790865
 30
0.0
 11
180.7567789311312
 21
758.8290417790865
 31
0.0
  0
LINE
  5
4F2F
330
18
100
AcDbEntity
  8
NORMALI
100
AcDbLine
 10
196.8567789311305
 20
848.3290417790874
 30
0.0
 11
196.8567789311305
 21
828.3290417790874
 31
0.0
  0
LINE
  5
4F30
330
18
100
AcDbEntity
  8
NORMALI
100
AcDbLine
 10
195.8567789311305
 20
847.3290417790874
 30
0.0
 11
195.8567789311305
 21
829.3290417790874
 31
0.0
  0
LINE
  5
4F31
330
18
100
AcDbEntity
  8
DISEGNO
100
AcDbLine
 10
215.8567789311287
 20
877.8290417790868
 30
0.0
 11
215.8567789311287
 21
757.8290417790867
 31
0.0
  0
LINE
  5
4F32
330
18
100
AcDbEntity
  8
BASE
100
AcDbLine
 10
290.8567789311291
 20
877.8290417790868
 30
0.0
 11
290.8567789311291
 21
757.829041779087
 31
0.0
  0
LINE
  5
4F33
330
18
100
AcDbEntity
  8
BASE
100
AcDbLine
 10
280.8567789311291
 20
876.827581685792
 30
0.0
 11
280.8567789311291
 21
758.8290417790865
 31
0.0
  0
LINE
  5
4F34
330
18
100
AcDbEntity
  8
BASE
100
AcDbLine
 10
15.95677893112952
 20
955.8290417790866
 30
0.0
 11
15.95677893112952
 21
679.8290417790856
 31
0.0
  0
LINE
  5
4F35
330
18
100
AcDbEntity
  8
COMPONENTI
100
AcDbLine
 10
180.7567789311312
 20
792.8290417790865
 30
0.0
 11
31.81229321154387
 21
792.8290417790865
 31
0.0
  0
LINE
  5
4F36
330
18
100
AcDbEntity
  8
BASE
100
AcDbLine
 10
290.8567789311291
 20
757.829041779087
 30
0.0
 11
15.95677893112952
 21
757.8290417790865
 31
0.0
  0
LINE
  5
4F37
330
18
100
AcDbEntity
  8
COMPONENTI
100
AcDbLine
 10
190.8567789311296
 20
742.3290417790865
 30
0.0
 11
31.81229321154387
 21
742.3290417790865
 31
0.0
  0
LINE
  5
4F38
330
18
100
AcDbEntity
  8
BASE
100
AcDbLine
 10
13.95677893112952
 20
677.8290417790856
 30
0.0
 11
15.95677893112952
 21
679.8290417790856
 31
0.0
  0
LINE
  5
4F39
330
18
100
AcDbEntity
  8
DISEGNO
100
AcDbLine
 10
-74.04322106887014
 20
740.3290417790859
 30
0.0
 11
15.95677893112997
 21
740.3290417790859
 31
0.0
  0
LINE
  5
4F3A
330
18
100
AcDbEntity
  8
ASSI
100
AcDbLine
 10
-1.01490154195676
 20
750.3290417790862
 30
0.0
 11
-52.59450767893691
 21
750.3290417790862
 31
0.0
  0
LINE
  5
4F3B
330
18
100
AcDbEntity
  8
BASE
  6
DASHED
 62
     8
100
AcDbLine
 10
-146.5432210688702
 20
760.3290417790893
 30
0.0
 11
-146.5432210688702
 21
817.8290417790861
 31
0.0
  0
LINE
  5
4F3C
330
18
100
AcDbEntity
  8
BASE
  6
DASHED
 62
     8
100
AcDbLine
 10
-124.0432210688704
 20
760.3290417790907
 30
0.0
 11
-124.0432210688704
 21
746.3290417790862
 31
0.0
  0
LINE
  5
4F3D
330
18
100
AcDbEntity
  8
ASSI
100
AcDbLine
 10
-44.04322106887241
 20
748.729964472546
 30
0.0
 11
-44.04322106887241
 21
725.9281190856297
 31
0.0
  0
LINE
  5
4F3E
330
18
100
AcDbEntity
  8
ASSI
100
AcDbLine
 10
-79.04322106887241
 20
748.729964472546
 30
0.0
 11
-79.04322106887241
 21
725.9281190856297
 31
0.0
  0
LINE
  5
4F3F
330
18
100
AcDbEntity
  8
DISEGNO
100
AcDbLine
 10
-74.04322106887014
 20
760.3290417790861
 30
0.0
 11
-74.04322106887014
 21
741.3290417790859
 31
0.0
  0
LINE
  5
4F40
330
18
100
AcDbEntity
  8
DISEGNO
100
AcDbLine
 10
-79.04322106887059
 20
746.3290417790862
 30
0.0
 11
-79.04322106887059
 21
760.3290417790861
 31
0.0
  0
LINE
  5
4F41
330
18
100
AcDbEntity
  8
DISEGNO
100
AcDbLine
 10
-74.04322106887014
 20
741.3290417790859
 30
0.0
 11
-74.04322106887014
 21
740.3290417790859
 31
0.0
  0
LINE
  5
4F42
330
18
100
AcDbEntity
  8
DISEGNO
100
AcDbLine
 10
-79.04322106887014
 20
746.3290417790862
 30
0.0
 11
-84.04322106887013
 21
746.3290417790862
 31
0.0
  0
LINE
  5
4F43
330
18
100
AcDbEntity
  8
ASSI
100
AcDbLine
 10
-20.04322106887002
 20
759.329041779086
 30
0.0
 11
-20.04322106887002
 21
740.3290417790859
 31
0.0
  0
LINE
  5
4F44
330
18
100
AcDbEntity
  8
ASSI
100
AcDbLine
 10
-38.04322106887013
 20
759.329041779086
 30
0.0
 11
-38.04322106887013
 21
740.3290417790859
 31
0.0
  0
LINE
  5
4F45
330
18
100
AcDbEntity
  8
ASSI
100
AcDbLine
 10
-9.043221068872298
 20
748.7299644725446
 30
0.0
 11
-9.043221068872298
 21
725.9281190856284
 31
0.0
  0
LINE
  5
4F46
330
18
100
AcDbEntity
  8
COMPONENTI
100
AcDbLine
 10
31.81229321154569
 20
742.3290417790865
 30
0.0
 11
15.95677893112952
 21
742.3290417790865
 31
0.0
  0
LINE
  5
4F47
330
18
100
AcDbEntity
  8
DISEGNO
100
AcDbLine
 10
15.95677893112997
 20
741.3290417790859
 30
0.0
 11
15.95677893112997
 21
760.3290417790861
 31
0.0
  0
LINE
  5
4F48
330
18
100
AcDbEntity
  8
DISEGNO
100
AcDbLine
 10
15.95677893112997
 20
740.3290417790859
 30
0.0
 11
15.95677893112997
 21
741.3290417790859
 31
0.0
  0
LINE
  5
4F49
330
18
100
AcDbEntity
  8
DISEGNO
100
AcDbLine
 10
15.95677893112997
 20
760.3290417790861
 30
0.0
 11
10.95677893112997
 21
760.3290417790861
 31
0.0
  0
LINE
  5
4F4A
330
18
100
AcDbEntity
  8
COMPONENTI
100
AcDbLine
 10
31.81229321154387
 20
792.8290417790865
 30
0.0
 11
15.95677893112952
 21
792.8290417790865
 31
0.0
  0
LINE
  5
4F4B
330
18
100
AcDbEntity
  8
COMPONENTI
100
AcDbLine
 10
190.8567789311296
 20
742.3290417790865
 30
0.0
 11
190.8567789311296
 21
757.8290417790865
 31
0.0
  0
LINE
  5
4F4C
330
18
100
AcDbEntity
  8
BASE
100
AcDbLine
 10
180.7567789311312
 20
758.8290417790865
 30
0.0
 11
181.7567789311312
 21
757.8290417790865
 31
0.0
  0
LINE
  5
4F4D
330
18
100
AcDbEntity
  8
NORMALI
100
AcDbLine
 10
196.8567789311305
 20
787.3290417790874
 30
0.0
 11
196.8567789311305
 21
807.3290417790873
 31
0.0
  0
LINE
  5
4F4E
330
18
100
AcDbEntity
  8
NORMALI
100
AcDbLine
 10
195.8567789311305
 20
788.3290417790874
 30
0.0
 11
195.8567789311305
 21
806.3290417790874
 31
0.0
  0
LINE
  5
4F4F
330
18
100
AcDbEntity
  8
NORMALI
100
AcDbLine
 10
215.8567789311305
 20
787.3290417790874
 30
0.0
 11
196.8567789311305
 21
787.3290417790874
 31
0.0
  0
LINE
  5
4F50
330
18
100
AcDbEntity
  8
NORMALI
100
AcDbLine
 10
196.8567789311295
 20
787.3290417790874
 30
0.0
 11
195.8567789311296
 21
788.3290417790874
 31
0.0
  0
LINE
  5
4F51
330
18
100
AcDbEntity
  8
NORMALI
100
AcDbLine
 10
215.8567789311305
 20
807.3290417790873
 30
0.0
 11
196.8567789311305
 21
807.3290417790873
 31
0.0
  0
LINE
  5
4F52
330
18
100
AcDbEntity
  8
NORMALI
100
AcDbLine
 10
196.8567789311305
 20
807.3290417790873
 30
0.0
 11
195.8567789311305
 21
806.3290417790874
 31
0.0
  0
LINE
  5
4F53
330
18
100
AcDbEntity
  8
NORMALI
100
AcDbLine
 10
215.8567789311305
 20
828.3290417790874
 30
0.0
 11
196.8567789311305
 21
828.3290417790874
 31
0.0
  0
LINE
  5
4F54
330
18
100
AcDbEntity
  8
NORMALI
100
AcDbLine
 10
196.8567789311305
 20
828.3290417790874
 30
0.0
 11
195.8567789311305
 21
829.3290417790874
 31
0.0
  0
LINE
  5
4F55
330
18
100
AcDbEntity
  8
BASE
100
AcDbLine
 10
279.8567789311291
 20
757.8290417790865
 30
0.0
 11
280.8567789311291
 21
758.8290417790865
 31
0.0
  0
LINE
  5
4F56
330
18
100
AcDbEntity
  8
COMPONENTI
100
AcDbLine
 10
190.8567789311296
 20
893.3290417790866
 30
0.0
 11
31.81229321154387
 21
893.3290417790866
 31
0.0
  0
LINE
  5
4F57
330
18
100
AcDbEntity
  8
COMPONENTI
100
AcDbLine
 10
180.7567789311312
 20
842.8290417790865
 30
0.0
 11
31.81229321154387
 21
842.8290417790865
 31
0.0
  0
LINE
  5
4F58
330
18
100
AcDbEntity
  8
BASE
100
AcDbLine
 10
290.8567789311291
 20
877.829041779087
 30
0.0
 11
15.95677893112952
 21
877.8290417790866
 31
0.0
  0
LINE
  5
4F59
330
18
100
AcDbEntity
  8
DISEGNO
100
AcDbLine
 10
15.95677893112952
 20
895.3290417790862
 30
0.0
 11
-74.04322106887014
 21
895.3290417790862
 31
0.0
  0
LINE
  5
4F5A
330
18
100
AcDbEntity
  8
ASSI
100
AcDbLine
 10
-1.01490154195676
 20
884.8290417790861
 30
0.0
 11
-52.59450767893691
 21
884.8290417790861
 31
0.0
  0
LINE
  5
4F5B
330
18
100
AcDbEntity
  8
ASSI
100
AcDbLine
 10
-44.04322106887241
 20
886.9281190856275
 30
0.0
 11
-44.04322106887241
 21
909.7299644725437
 31
0.0
  0
LINE
  5
4F5C
330
18
100
AcDbEntity
  8
ASSI
100
AcDbLine
 10
-79.04322106887241
 20
886.9281190856275
 30
0.0
 11
-79.04322106887241
 21
909.7299644725437
 31
0.0
  0
LINE
  5
4F5D
330
18
100
AcDbEntity
  8
BASE
  6
DASHED
 62
     8
100
AcDbLine
 10
-124.0432210688704
 20
875.3290417790861
 30
0.0
 11
-124.0432210688704
 21
889.329041779086
 31
0.0
  0
LINE
  5
4F5E
330
18
100
AcDbEntity
  8
DISEGNO
100
AcDbLine
 10
-74.04322106887014
 20
894.3290417790862
 30
0.0
 11
-74.04322106887014
 21
875.3290417790859
 31
0.0
  0
LINE
  5
4F5F
330
18
100
AcDbEntity
  8
DISEGNO
100
AcDbLine
 10
-79.04322106887059
 20
875.3290417790863
 30
0.0
 11
-79.04322106887059
 21
889.329041779086
 31
0.0
  0
LINE
  5
4F60
330
18
100
AcDbEntity
  8
DISEGNO
100
AcDbLine
 10
-74.04322106887014
 20
895.3290417790862
 30
0.0
 11
-74.04322106887014
 21
894.3290417790862
 31
0.0
  0
LINE
  5
4F61
330
18
100
AcDbEntity
  8
DISEGNO
100
AcDbLine
 10
-84.04322106887059
 20
889.329041779086
 30
0.0
 11
-79.04322106887059
 21
889.329041779086
 31
0.0
  0
LINE
  5
4F62
330
18
100
AcDbEntity
  8
ASSI
100
AcDbLine
 10
-20.04322106887002
 20
893.8290417790859
 30
0.0
 11
-20.04322106887002
 21
874.829041779086
 31
0.0
  0
LINE
  5
4F63
330
18
100
AcDbEntity
  8
ASSI
100
AcDbLine
 10
-38.04322106887013
 20
893.8290417790859
 30
0.0
 11
-38.04322106887013
 21
874.829041779086
 31
0.0
  0
LINE
  5
4F64
330
18
100
AcDbEntity
  8
ASSI
100
AcDbLine
 10
-9.043221068872298
 20
886.9281190856284
 30
0.0
 11
-9.043221068872298
 21
909.7299644725447
 31
0.0
  0
LINE
  5
4F65
330
18
100
AcDbEntity
  8
COMPONENTI
100
AcDbLine
 10
31.81229321154387
 20
842.8290417790865
 30
0.0
 11
15.95677893112952
 21
842.8290417790865
 31
0.0
  0
LINE
  5
4F66
330
18
100
AcDbEntity
  8
COMPONENTI
100
AcDbLine
 10
31.81229321154387
 20
893.3290417790855
 30
0.0
 11
15.95677893112952
 21
893.3290417790866
 31
0.0
  0
LINE
  5
4F67
330
18
100
AcDbEntity
  8
DISEGNO
100
AcDbLine
 10
15.95677893112952
 20
875.3290417790859
 30
0.0
 11
15.95677893112952
 21
894.3290417790862
 31
0.0
  0
LINE
  5
4F68
330
18
100
AcDbEntity
  8
DISEGNO
100
AcDbLine
 10
10.95677893112997
 20
875.3290417790863
 30
0.0
 11
15.95677893112997
 21
875.3290417790863
 31
0.0
  0
LINE
  5
4F69
330
18
100
AcDbEntity
  8
DISEGNO
100
AcDbLine
 10
15.95677893112952
 20
894.3290417790862
 30
0.0
 11
15.95677893112952
 21
895.3290417790862
 31
0.0
  0
LINE
  5
4F6A
330
18
100
AcDbEntity
  8
BASE
100
AcDbLine
 10
13.95677893112952
 20
957.8290417790865
 30
0.0
 11
15.95677893112952
 21
955.8290417790866
 31
0.0
  0
LINE
  5
4F6B
330
18
100
AcDbEntity
  8
COMPONENTI
100
AcDbLine
 10
190.8567789311296
 20
893.3290417790866
 30
0.0
 11
190.8567789311296
 21
877.8290417790865
 31
0.0
  0
LINE
  5
4F6C
330
18
100
AcDbEntity
  8
BASE
100
AcDbLine
 10
181.7567789311312
 20
877.8290417790865
 30
0.0
 11
180.7567789311312
 21
876.8290417790865
 31
0.0
  0
LINE
  5
4F6D
330
18
100
AcDbEntity
  8
NORMALI
100
AcDbLine
 10
215.8567789311305
 20
848.3290417790874
 30
0.0
 11
196.8567789311305
 21
848.3290417790874
 31
0.0
  0
LINE
  5
4F6E
330
18
100
AcDbEntity
  8
NORMALI
100
AcDbLine
 10
196.8567789311295
 20
848.3290417790874
 30
0.0
 11
195.8567789311296
 21
847.3290417790874
 31
0.0
  0
LINE
  5
4F6F
330
18
100
AcDbEntity
  8
BASE
100
AcDbLine
 10
280.8567789311291
 20
876.827581685792
 30
0.0
 11
279.8567789311291
 21
877.827581685792
 31
0.0
  0
LINE
  5
4F70
330
18
100
AcDbEntity
  8
DISEGNO
100
AcDbLine
 10
15.95677893112861
 20
1339.556888665208
 30
0.0
 11
15.95677893112861
 21
1358.556888665208
 31
0.0
  0
LINE
  5
4F71
330
18
100
AcDbEntity
  8
ASSI
100
AcDbLine
 10
-20.04322106887138
 20
1326.743860087556
 30
0.0
 11
-20.04322106887138
 21
1373.654077892071
 31
0.0
  0
LINE
  5
4F72
330
18
100
AcDbEntity
  8
DISEGNO
100
AcDbLine
 10
-74.04322106887128
 20
1358.556888665208
 30
0.0
 11
-74.04322106887128
 21
1339.556888665208
 31
0.0
  0
LINE
  5
4F73
330
18
100
AcDbEntity
  8
ASSI
100
AcDbLine
 10
-38.04322106887127
 20
1326.743860087556
 30
0.0
 11
-38.04322106887127
 21
1373.654077892071
 31
0.0
  0
LINE
  5
4F74
330
18
100
AcDbEntity
  8
DISEGNO
100
AcDbLine
 10
-79.04322106887173
 20
1496.556888665209
 30
0.0
 11
-79.04322106887128
 21
1346.556888665209
 31
0.0
  0
LINE
  5
4F75
330
18
100
AcDbEntity
  8
ASSI
100
AcDbLine
 10
-159.0432210688712
 20
1329.540513772312
 30
0.0
 11
-159.0432210688712
 21
1515.079903597426
 31
0.0
  0
LINE
  5
4F76
330
18
100
AcDbEntity
  8
COMPONENTI
100
AcDbLine
 10
15.95677893112929
 20
1259.556888734882
 30
0.0
 11
190.9567789311276
 21
1259.556888734882
 31
0.0
  0
LINE
  5
4F77
330
18
100
AcDbEntity
  8
BASE
100
AcDbLine
 10
32.70677263463767
 20
1113.30688873488
 30
0.0
 11
280.8567789311291
 21
1113.306888734881
 31
0.0
  0
LINE
  5
4F78
330
18
100
AcDbEntity
  8
BASE
100
AcDbLine
 10
32.70677263463767
 20
1125.806888734882
 30
0.0
 11
280.8567789311291
 21
1125.806888734881
 31
0.0
  0
LINE
  5
4F79
330
18
100
AcDbEntity
  8
COMPONENTI
100
AcDbLine
 10
180.8567789311291
 20
1306.556888665208
 30
0.0
 11
36.57208873420859
 21
1306.556888665208
 31
0.0
  0
LINE
  5
4F7A
330
18
100
AcDbEntity
  8
COMPONENTI
100
AcDbLine
 10
180.8567789311291
 20
1311.056888665209
 30
0.0
 11
32.70677263463767
 21
1311.056888665209
 31
0.0
  0
LINE
  5
4F7B
330
18
100
AcDbEntity
  8
BASE
100
AcDbLine
 10
280.8567789311291
 20
1304.556888665209
 30
0.0
 11
33.47390731748964
 21
1304.556888665209
 31
0.0
  0
LINE
  5
4F7C
330
18
100
AcDbEntity
  8
COMPONENTI
100
AcDbLine
 10
32.70677263463767
 20
1279.556888734882
 30
0.0
 11
190.9567789311276
 21
1279.556888734882
 31
0.0
  0
ARC
  5
4F7D
330
18
100
AcDbEntity
  8
DISEGNO
100
AcDbCircle
 10
-84.04322106887127
 20
1346.556888665209
 30
0.0
 40
4.999999999999961
100
AcDbArc
 50
270.0
 51
0.0
  0
LINE
  5
4F7E
330
18
100
AcDbEntity
  8
DISEGNO
100
AcDbLine
 10
15.95677893112861
 20
1339.556888665208
 30
0.0
 11
15.95677893112952
 21
1245.556888734882
 31
0.0
  0
LINE
  5
4F7F
330
18
100
AcDbEntity
  8
DISEGNO
100
AcDbLine
 10
12.95677893113043
 20
1319.556888665208
 30
0.0
 11
12.95677893113134
 21
1248.556888734882
 31
0.0
  0
LINE
  5
4F80
330
18
100
AcDbEntity
  8
COMPONENTI
100
AcDbLine
 10
15.95677893112861
 20
1279.556888734882
 30
0.0
 11
32.70677263463767
 21
1279.556888734882
 31
0.0
  0
LINE
  5
4F81
330
18
100
AcDbEntity
  8
BASE
100
AcDbLine
 10
33.47390731748964
 20
1304.556888665209
 30
0.0
 11
15.95677893112952
 21
1304.556888665208
 31
0.0
  0
LINE
  5
4F82
330
18
100
AcDbEntity
  8
COMPONENTI
100
AcDbLine
 10
36.57208873420859
 20
1306.556888665208
 30
0.0
 11
15.95677893113133
 21
1306.556888665208
 31
0.0
  0
LINE
  5
4F83
330
18
100
AcDbEntity
  8
COMPONENTI
100
AcDbLine
 10
32.70677263463858
 20
1311.056888665209
 30
0.0
 11
15.95677893113133
 21
1311.056888665209
 31
0.0
  0
LINE
  5
4F84
330
18
100
AcDbEntity
  8
BASE
100
AcDbLine
 10
290.85677893113
 20
1319.556888665208
 30
0.0
 11
290.8567789311291
 21
1084.556888734881
 31
0.0
  0
LINE
  5
4F85
330
18
100
AcDbEntity
  8
BASE
100
AcDbLine
 10
280.8567789311291
 20
1327.556888665209
 30
0.0
 11
280.8567789311291
 21
1084.556888734881
 31
0.0
  0
LINE
  5
4F86
330
18
100
AcDbEntity
  8
BASE
100
AcDbLine
 10
280.8567789311291
 20
1263.306888734881
 30
0.0
 11
190.8617789311274
 21
1263.306888734881
 31
0.0
  0
LINE
  5
4F87
330
18
100
AcDbEntity
  8
BASE
100
AcDbLine
 10
280.8567789311291
 20
1275.806888734881
 30
0.0
 11
190.8617789311274
 21
1275.806888734881
 31
0.0
  0
LINE
  5
4F88
330
18
100
AcDbEntity
  8
DISEGNO
100
AcDbLine
 10
215.9567789311267
 20
1342.556888665211
 30
0.0
 11
277.8567789311291
 21
1342.556888665211
 31
0.0
  0
LINE
  5
4F89
330
18
100
AcDbEntity
  8
BASE
100
AcDbLine
 10
280.8567789311291
 20
1317.556888665208
 30
0.0
 11
180.8567789311291
 21
1317.556888665208
 31
0.0
  0
LINE
  5
4F8A
330
18
100
AcDbEntity
  8
COMPONENTI
100
AcDbLine
 10
190.9567789311276
 20
1279.556888734882
 30
0.0
 11
190.9567789311286
 21
1259.556888734882
 31
0.0
  0
LINE
  5
4F8B
330
18
100
AcDbEntity
  8
BASE
100
AcDbLine
 10
180.8567789311291
 20
1304.556888665209
 30
0.0
 11
180.8567789311291
 21
1317.556888665208
 31
0.0
  0
LINE
  5
4F8C
330
18
100
AcDbEntity
  8
DISEGNO
100
AcDbLine
 10
215.9567789311267
 20
1342.556888665211
 30
0.0
 11
215.9567789311267
 21
1317.556888665209
 31
0.0
  0
LINE
  5
4F8D
330
18
100
AcDbEntity
  8
NORMALI
100
AcDbLine
 10
195.9567789311267
 20
1340.556888665211
 30
0.0
 11
195.9567789311267
 21
1322.556888665211
 31
0.0
  0
LINE
  5
4F8E
330
18
100
AcDbEntity
  8
NORMALI
100
AcDbLine
 10
196.9567789311268
 20
1341.556888665211
 30
0.0
 11
196.9567789311268
 21
1321.556888665211
 31
0.0
  0
LINE
  5
4F8F
330
18
100
AcDbEntity
  8
NORMALI
100
AcDbLine
 10
215.9567789311267
 20
1321.556888665211
 30
0.0
 11
197.051778931127
 21
1321.556888665211
 31
0.0
  0
LINE
  5
4F90
330
18
100
AcDbEntity
  8
NORMALI
100
AcDbLine
 10
197.051778931127
 20
1321.556888665211
 30
0.0
 11
196.051778931127
 21
1322.556888665211
 31
0.0
  0
LINE
  5
4F91
330
18
100
AcDbEntity
  8
NORMALI
100
AcDbLine
 10
215.9567789311267
 20
1341.556888665211
 30
0.0
 11
196.9567789311268
 21
1341.556888665211
 31
0.0
  0
LINE
  5
4F92
330
18
100
AcDbEntity
  8
NORMALI
100
AcDbLine
 10
196.9567789311268
 20
1341.556888665211
 30
0.0
 11
195.9567789311267
 21
1340.556888665211
 31
0.0
  0
LINE
  5
4F93
330
18
100
AcDbEntity
  8
DISEGNO
100
AcDbLine
 10
280.8567789311282
 20
1339.556888665211
 30
0.0
 11
280.8567789311291
 21
1317.556888665209
 31
0.0
  0
LINE
  5
4F94
330
18
100
AcDbEntity
  8
BASE
100
AcDbLine
 10
290.85677893113
 20
1319.556888665208
 30
0.0
 11
280.8567789311291
 21
1319.556888665208
 31
0.0
  0
LINE
  5
4F95
330
18
100
AcDbEntity
  8
DISEGNO
100
AcDbLine
 10
277.8567789311282
 20
1342.556888665211
 30
0.0
 11
280.8567789311282
 21
1339.556888665211
 31
0.0
  0
LINE
  5
4F96
330
18
100
AcDbEntity
  8
DISEGNO
100
AcDbLine
 10
15.95677893112861
 20
1359.556888665214
 30
0.0
 11
15.95677893112815
 21
1498.556888665214
 31
0.0
  0
LINE
  5
4F97
330
18
100
AcDbEntity
  8
DISEGNO
100
AcDbLine
 10
15.95677893112861
 20
1359.556888665208
 30
0.0
 11
-74.04322106887173
 21
1359.556888665208
 31
0.0
  0
LINE
  5
4F98
330
18
100
AcDbEntity
  8
ASSI
100
AcDbLine
 10
-99.39036207997446
 20
1375.556888665229
 30
0.0
 11
-76.52327060898983
 21
1375.556888665229
 31
0.0
  0
LINE
  5
4F99
330
18
100
AcDbEntity
  8
ASSI
100
AcDbLine
 10
-89.04322106887127
 20
1386.519208717356
 30
0.0
 11
-89.04322106887127
 21
1363.746962566447
 31
0.0
  0
LINE
  5
4F9A
330
18
100
AcDbEntity
  8
DISEGNO
100
AcDbLine
 10
-74.04322106887173
 20
1359.556888665208
 30
0.0
 11
-74.04322106887128
 21
1358.556888665208
 31
0.0
  0
LINE
  5
4F9B
330
18
100
AcDbEntity
  8
ASSI
100
AcDbLine
 10
-99.39036207997446
 20
1461.55688866519
 30
0.0
 11
-76.52327060898983
 21
1461.55688866519
 31
0.0
  0
LINE
  5
4F9C
330
18
100
AcDbEntity
  8
ASSI
100
AcDbLine
 10
-89.04322106887127
 20
1450.594568613063
 30
0.0
 11
-89.04322106887127
 21
1473.366814763971
 31
0.0
  0
LINE
  5
4F9D
330
18
100
AcDbEntity
  8
DISEGNO
100
AcDbLine
 10
15.95677893112861
 20
1358.556888665208
 30
0.0
 11
15.95677893112861
 21
1359.556888665208
 31
0.0
  0
ARC
  5
4F9E
330
18
100
AcDbEntity
  8
DISEGNO
100
AcDbCircle
 10
-84.04322106887127
 20
1496.556888665209
 30
0.0
 40
4.999999999999987
100
AcDbArc
 50
0.0
 51
90.0
  0
ARC
  5
4F9F
330
18
100
AcDbEntity
  8
DISEGNO
100
AcDbCircle
 10
10.95677893112861
 20
1498.556888665214
 30
0.0
 40
4.999999999999944
100
AcDbArc
 50
0.0
 51
90.0
  0
LINE
  5
4FA0
330
18
100
AcDbEntity
  8
DISEGNO
100
AcDbLine
 10
678.3560321091467
 20
1358.556888665186
 30
0.0
 11
678.3560321091409
 21
1339.556888665185
 31
0.0
  0
LINE
  5
4FA1
330
18
100
AcDbEntity
  8
ASSI
100
AcDbLine
 10
668.3560321085082
 20
1332.637738859666
 30
0.0
 11
668.3560321085033
 21
1366.170895843906
 31
0.0
  0
LINE
  5
4FA2
330
18
100
AcDbEntity
  8
DISEGNO
100
AcDbLine
 10
523.3560321091413
 20
1339.556888665232
 30
0.0
 11
523.3560321091463
 21
1358.556888665231
 31
0.0
  0
LINE
  5
4FA3
330
18
100
AcDbEntity
  8
ASSI
100
AcDbLine
 10
533.3560321091413
 20
1332.637738859666
 30
0.0
 11
533.3560321091463
 21
1366.170895843906
 31
0.0
  0
LINE
  5
4FA4
330
18
100
AcDbEntity
  8
DISEGNO
100
AcDbLine
 10
658.3560321091881
 20
1498.556888665192
 30
0.0
 11
658.3560321091488
 21
1339.556888665209
 31
0.0
  0
LINE
  5
4FA5
330
18
100
AcDbEntity
  8
DISEGNO
100
AcDbLine
 10
543.35603210915
 20
1339.556888665209
 30
0.0
 11
543.3560321091881
 21
1498.556888665226
 31
0.0
  0
LINE
  5
4FA7
330
18
100
AcDbEntity
  8
ASSI
100
AcDbLine
 10
488.061299689818
 20
1269.556888734882
 30
0.0
 11
714.1073408066567
 21
1269.556888734882
 31
0.0
  0
LINE
  5
4FA8
330
18
100
AcDbEntity
  8
BASE
100
AcDbLine
 10
698.7492721088251
 20
1248.556888734882
 30
0.0
 11
662.7485721088246
 21
1248.556888734882
 31
0.0
  0
LINE
  5
4FA9
330
18
100
AcDbEntity
  8
BASE
100
AcDbLine
 10
698.7492721088251
 20
1245.556888734882
 30
0.0
 11
662.7485721088246
 21
1245.556888734882
 31
0.0
  0
LINE
  5
4FAA
330
18
100
AcDbEntity
  8
BASE
100
AcDbLine
 10
669.8480721088249
 20
1245.556888734882
 30
0.0
 11
688.7492721088251
 21
1245.556888734882
 31
0.0
  0
LINE
  5
4FAB
330
18
100
AcDbEntity
  8
BASE
100
AcDbLine
 10
539.0838187905724
 20
1339.556888665208
 30
0.0
 11
740.7482721088249
 21
1339.556888665209
 31
0.0
  0
LINE
  5
4FAC
330
18
100
AcDbEntity
  8
BASE
  6
CONTINUOUS
100
AcDbLine
 10
660.8565321088249
 20
1319.556888665208
 30
0.0
 11
740.7482721088249
 21
1319.556888665208
 31
0.0
  0
LINE
  5
50A5
330
18
100
AcDbEntity
  8
DISEGNO
100
AcDbLine
 10
540.9637921088246
 20
1304.556888804546
 30
0.0
 11
569.6065321088249
 21
1304.556888804546
 31
0.0
  0
LINE
  5
50A6
330
18
100
AcDbEntity
  8
DISEGNO
100
AcDbLine
 10
541.8560321088248
 20
1304.556888734881
 30
0.0
 11
569.6060321088248
 21
1304.556888734881
 31
0.0
  0
LINE
  5
50A7
330
18
100
AcDbEntity
  8
DISEGNO
100
AcDbLine
 10
540.9637921088246
 20
1317.556888734882
 30
0.0
 11
660.9647921088249
 21
1317.556888734881
 31
0.0
  0
LINE
  5
50A8
330
18
100
AcDbEntity
  8
0
100
AcDbLine
 10
660.8474687384077
 20
1319.556888665208
 30
0.0
 11
540.8451939229576
 21
1319.556888665208
 31
0.0
  0
LINE
  5
50AB
330
18
100
AcDbEntity
  8
BASE
100
AcDbLine
 10
538.7479721088247
 20
1319.556888665208
 30
0.0
 11
538.7479721088247
 21
1279.556888734882
 31
0.0
  0
LINE
  5
50AC
330
18
100
AcDbEntity
  8
DISEGNO
100
AcDbLine
 10
502.7472721088242
 20
1245.556888734882
 30
0.0
 11
502.7472721088242
 21
1319.556888665208
 31
0.0
  0
LINE
  5
50AE
330
18
100
AcDbEntity
  8
COMPONENTI
100
AcDbLine
 10
525.3568821088247
 20
1279.556888734882
 30
0.0
 11
525.3568821088247
 21
1259.556888734882
 31
0.0
  0
LINE
  5
50AF
330
18
100
AcDbEntity
  8
BASE
100
AcDbLine
 10
502.7472721088242
 20
1245.556888734882
 30
0.0
 11
538.7479721088247
 21
1245.556888734882
 31
0.0
  0
LINE
  5
50B0
330
18
100
AcDbEntity
  8
BASE
100
AcDbLine
 10
502.7472721088242
 20
1248.556888734882
 30
0.0
 11
538.7479721088247
 21
1248.556888734882
 31
0.0
  0
LINE
  5
50B1
330
18
100
AcDbEntity
  8
BASE
100
AcDbLine
 10
538.7479721088247
 20
1259.556888734882
 30
0.0
 11
538.7479721088247
 21
1245.556888734882
 31
0.0
  0
LINE
  5
50B2
330
18
100
AcDbEntity
  8
BASE
100
AcDbLine
 10
531.6484721088245
 20
1245.556888734882
 30
0.0
 11
512.7472721088243
 21
1245.556888734882
 31
0.0
  0
LINE
  5
50B3
330
18
100
AcDbEntity
  8
COMPONENTI
100
AcDbLine
 10
525.3568821088247
 20
1259.556888734882
 30
0.0
 11
539.6768821088244
 21
1259.556888734882
 31
0.0
  0
LINE
  5
50B4
330
18
100
AcDbEntity
  8
COMPONENTI
100
AcDbLine
 10
540.8568821088246
 20
1260.736888734882
 30
0.0
 11
539.6768821088244
 21
1259.556888734882
 31
0.0
  0
LINE
  5
50B5
330
18
100
AcDbEntity
  8
COMPONENTI
100
AcDbLine
 10
525.3568821088247
 20
1279.556888734882
 30
0.0
 11
539.6768821088244
 21
1279.556888734882
 31
0.0
  0
LINE
  5
50B7
330
18
100
AcDbEntity
  8
COMPONENTI
100
AcDbLine
 10
540.8568821088246
 20
1278.376888734882
 30
0.0
 11
539.6768821088244
 21
1279.556888734882
 31
0.0
  0
LINE
  5
50B8
330
18
100
AcDbEntity
  8
BASE
100
AcDbLine
 10
460.7482721088249
 20
1339.556888665209
 30
0.0
 11
540.8555321088247
 21
1339.556888665209
 31
0.0
  0
LINE
  5
50B9
330
18
100
AcDbEntity
  8
BASE
  6
CONTINUOUS
100
AcDbLine
 10
460.7482721088249
 20
1319.556888665209
 30
0.0
 11
540.8555321088247
 21
1319.556888665208
 31
0.0
  0
LINE
  5
50BA
330
18
100
AcDbEntity
  8
BASE
100
AcDbLine
 10
460.7482721088249
 20
1319.556888665209
 30
0.0
 11
460.7482721088249
 21
1339.556888665209
 31
0.0
  0
LINE
  5
50BB
330
18
100
AcDbEntity
  8
ASSI
100
AcDbLine
 10
520.2482721088249
 20
1343.34727955932
 30
0.0
 11
520.2482721088249
 21
1314.241754988015
 31
0.0
  0
LINE
  5
50BC
330
18
100
AcDbEntity
  8
DISEGNO
100
AcDbLine
 10
540.9637921088246
 20
1304.556888734882
 30
0.0
 11
540.9637921088246
 21
1317.556888734882
 31
0.0
  0
ARC
  5
50BD
330
18
100
AcDbEntity
  8
DISEGNO
100
AcDbCircle
 10
541.8560321088248
 20
1303.556888734881
 30
0.0
 40
1.0
100
AcDbArc
 50
90.0
 51
180.0
  0
LINE
  5
50C9
330
18
100
AcDbEntity
  8
BASE
100
AcDbLine
 10
662.7485721088246
 20
1319.556888665208
 30
0.0
 11
662.7485721088246
 21
1279.556888734882
 31
0.0
  0
LINE
  5
5145
330
18
100
AcDbEntity
  8
COMPONENTI
100
AcDbLine
 10
676.3551821088249
 20
1279.556888734882
 30
0.0
 11
676.3551821088249
 21
1259.556888734882
 31
0.0
  0
LINE
  5
5165
330
18
100
AcDbEntity
  8
BASE
100
AcDbLine
 10
662.7485721088246
 20
1259.556888734882
 30
0.0
 11
662.7485721088246
 21
1245.556888734882
 31
0.0
  0
LINE
  5
5166
330
18
100
AcDbEntity
  8
COMPONENTI
100
AcDbLine
 10
676.3551821088249
 20
1259.556888734882
 30
0.0
 11
662.0351821088251
 21
1259.556888734882
 31
0.0
  0
LINE
  5
516C
330
18
100
AcDbEntity
  8
COMPONENTI
100
AcDbLine
 10
660.8551821088249
 20
1260.736888734882
 30
0.0
 11
662.0351821088251
 21
1259.556888734882
 31
0.0
  0
LINE
  5
51AB
330
18
100
AcDbEntity
  8
COMPONENTI
100
AcDbLine
 10
676.3551821088249
 20
1279.556888734882
 30
0.0
 11
662.0351821088251
 21
1279.556888734882
 31
0.0
  0
LINE
  5
51B1
330
18
100
AcDbEntity
  8
COMPONENTI
100
AcDbLine
 10
660.8551821088249
 20
1278.376888734882
 30
0.0
 11
662.0351821088251
 21
1279.556888734882
 31
0.0
  0
LINE
  5
51B8
330
18
100
AcDbEntity
  8
DISEGNO
100
AcDbLine
 10
582.1065321088249
 20
1304.556888804547
 30
0.0
 11
619.6065321088249
 21
1304.556888804547
 31
0.0
  0
LINE
  5
51B9
330
18
100
AcDbEntity
  8
DISEGNO
100
AcDbLine
 10
619.6060321088248
 20
1304.556888734881
 30
0.0
 11
582.1060321088248
 21
1304.556888734881
 31
0.0
  0
LINE
  5
51BA
330
18
100
AcDbEntity
  8
DISEGNO
100
AcDbLine
 10
582.1060321088248
 20
1304.556888804547
 30
0.0
 11
619.6060321088248
 21
1304.556888804546
 31
0.0
  0
LINE
  5
51BB
330
18
100
AcDbEntity
  8
DISEGNO
100
AcDbLine
 10
567.1065321088248
 20
1314.756888734882
 30
0.0
 11
634.6065321088249
 21
1314.756888734881
 31
0.0
  0
LINE
  5
51BC
330
18
100
AcDbEntity
  8
DISEGNO
100
AcDbLine
 10
579.3555321088247
 20
1304.556888734882
 30
0.0
 11
622.3565321088249
 21
1304.556888734881
 31
0.0
  0
LINE
  5
51BD
330
18
100
AcDbEntity
  8
DISEGNO
100
AcDbLine
 10
572.3555321088247
 20
1301.556888734882
 30
0.0
 11
579.3555321088247
 21
1301.556888734882
 31
0.0
  0
LINE
  5
51BE
330
18
100
AcDbEntity
  8
DISEGNO
100
AcDbLine
 10
564.8565321088248
 20
1309.056888734881
 30
0.0
 11
564.8565321088248
 21
1304.556888734882
 31
0.0
  0
LINE
  5
51BF
330
18
100
AcDbEntity
  8
DISEGNO
100
AcDbLine
 10
545.9647921088248
 20
1308.556888734881
 30
0.0
 11
545.9647921088248
 21
1304.556888734882
 31
0.0
  0
LINE
  5
51C0
330
18
100
AcDbEntity
  8
DISEGNO
100
AcDbLine
 10
550.8555321088246
 20
1304.556888734882
 30
0.0
 11
572.3555321088247
 21
1304.556888734882
 31
0.0
  0
LINE
  5
51C1
330
18
100
AcDbEntity
  8
DISEGNO
100
AcDbLine
 10
550.9637921088247
 20
1304.556688219357
 30
0.0
 11
560.2137921088247
 21
1304.556688219357
 31
0.0
  0
LINE
  5
51C2
330
18
100
AcDbEntity
  8
DISEGNO
100
AcDbLine
 10
550.9632921088246
 20
1304.556688219357
 30
0.0
 11
560.2132921088245
 21
1304.556688219357
 31
0.0
  0
LINE
  5
51C3
330
18
100
AcDbEntity
  8
DISEGNO
100
AcDbLine
 10
572.3555321088247
 20
1301.556888734882
 30
0.0
 11
572.3555321088247
 21
1304.556888734882
 31
0.0
  0
LINE
  5
51C4
330
18
100
AcDbEntity
  8
DISEGNO
100
AcDbLine
 10
567.1065321088248
 20
1309.056888734881
 30
0.0
 11
546.4647921088249
 21
1309.056888734881
 31
0.0
  0
ARC
  5
51C5
330
18
100
AcDbEntity
  8
DISEGNO
100
AcDbCircle
 10
546.4647921088249
 20
1308.556888734881
 30
0.0
 40
0.5
100
AcDbArc
 50
90.0
 51
180.0
  0
LINE
  5
51C6
330
18
100
AcDbEntity
  8
DISEGNO
100
AcDbLine
 10
567.1065321088248
 20
1314.756888734881
 30
0.0
 11
567.1065321088248
 21
1309.056888734881
 31
0.0
  0
LINE
  5
51C8
330
18
100
AcDbEntity
  8
DISEGNO
100
AcDbLine
 10
579.3555321088247
 20
1301.556888734882
 30
0.0
 11
579.3555321088247
 21
1304.556888734882
 31
0.0
  0
LINE
  5
51C9
330
18
100
AcDbEntity
  8
ASSI
100
AcDbLine
 10
681.2482721088249
 20
1345.00811850065
 30
0.0
 11
681.2482721088249
 21
1310.826363183251
 31
0.0
  0
LINE
  5
51CA
330
18
100
AcDbEntity
  8
DISEGNO
100
AcDbLine
 10
650.9642921088247
 20
1304.556688219357
 30
0.0
 11
641.7142921088248
 21
1304.556688219357
 31
0.0
  0
LINE
  5
51CB
330
18
100
AcDbEntity
  8
DISEGNO
100
AcDbLine
 10
655.4647921088249
 20
1309.056888734881
 30
0.0
 11
634.6065321088249
 21
1309.056888734881
 31
0.0
  0
LINE
  5
51CC
330
18
100
AcDbEntity
  8
DISEGNO
100
AcDbLine
 10
659.8560321088248
 20
1304.556888734881
 30
0.0
 11
632.1060321088248
 21
1304.556888734881
 31
0.0
  0
LINE
  5
51CD
330
18
100
AcDbEntity
  8
DISEGNO
100
AcDbLine
 10
629.3565321088249
 20
1304.556888734882
 30
0.0
 11
660.9647921088249
 21
1304.556888734882
 31
0.0
  0
LINE
  5
51CE
330
18
100
AcDbEntity
  8
DISEGNO
100
AcDbLine
 10
636.856532108824
 20
1309.056888734882
 30
0.0
 11
636.8565321088249
 21
1304.556888734882
 31
0.0
  0
LINE
  5
51CF
330
18
100
AcDbEntity
  8
DISEGNO
100
AcDbLine
 10
629.3565321088249
 20
1301.556888734882
 30
0.0
 11
629.3565321088249
 21
1304.556888734882
 31
0.0
  0
LINE
  5
51D0
330
18
100
AcDbEntity
  8
DISEGNO
100
AcDbLine
 10
622.3565321088249
 20
1301.556888734882
 30
0.0
 11
629.3565321088249
 21
1301.556888734882
 31
0.0
  0
LINE
  5
51D1
330
18
100
AcDbEntity
  8
DISEGNO
100
AcDbLine
 10
622.3565321088249
 20
1301.556888734882
 30
0.0
 11
622.3565321088249
 21
1304.556888734882
 31
0.0
  0
LINE
  5
51D2
330
18
100
AcDbEntity
  8
DISEGNO
100
AcDbLine
 10
634.6065321088249
 20
1314.756888734881
 30
0.0
 11
634.6065321088249
 21
1309.056888734882
 31
0.0
  0
LINE
  5
51D3
330
18
100
AcDbEntity
  8
DISEGNO
100
AcDbLine
 10
660.9647921088249
 20
1304.556888734882
 30
0.0
 11
660.9647921088249
 21
1317.556888734882
 31
0.0
  0
LINE
  5
51D4
330
18
100
AcDbEntity
  8
DISEGNO
100
AcDbLine
 10
655.9647921088249
 20
1308.556888734882
 30
0.0
 11
655.9647921088249
 21
1304.556888734882
 31
0.0
  0
ARC
  5
51D5
330
18
100
AcDbEntity
  8
DISEGNO
100
AcDbCircle
 10
659.8560321088248
 20
1303.556888734881
 30
0.0
 40
1.0
100
AcDbArc
 50
0.0000107197993082
 51
90.0
  0
ARC
  5
51D6
330
18
100
AcDbEntity
  8
DISEGNO
100
AcDbCircle
 10
655.4647921088249
 20
1308.556888734882
 30
0.0
 40
0.5
100
AcDbArc
 50
0.0
 51
90.0
  0
LINE
  5
51D7
330
18
100
AcDbEntity
  8
DISEGNO
100
AcDbLine
 10
698.7492721088251
 20
1245.556888734882
 30
0.0
 11
698.7492721088251
 21
1319.556888665208
 31
0.0
  0
LINE
  5
51D8
330
18
100
AcDbEntity
  8
BASE
100
AcDbLine
 10
740.7482721088249
 20
1319.556888665208
 30
0.0
 11
740.7482721088249
 21
1339.556888665209
 31
0.0
  0
LINE
  5
51D9
330
18
100
AcDbEntity
  8
AX
100
AcDbLine
 10
694.5375493502995
 20
1418.556888665209
 30
0.0
 11
509.1359862831819
 21
1418.556888665209
 31
0.0
  0
LINE
  5
51DA
330
18
100
AcDbEntity
  8
ASSI
100
AcDbLine
 10
694.1742009720944
 20
1418.556888665209
 30
0.0
 11
506.4100697668165
 21
1418.556888665209
 31
0.0
  0
LINE
  5
51DB
330
18
100
AcDbEntity
  8
DISEGNO
100
AcDbLine
 10
672.3560321091749
 20
1359.556888665187
 30
0.0
 11
672.3560321092154
 21
1496.556888665187
 31
0.0
  0
LINE
  5
51DC
330
18
100
AcDbEntity
  8
DISEGNO
100
AcDbLine
 10
529.3560321091749
 20
1359.55688866523
 30
0.0
 11
529.3560321092154
 21
1496.55688866523
 31
0.0
  0
LINE
  5
51DD
330
18
100
AcDbEntity
  8
BASE
  6
DASHED
 62
     8
100
AcDbLine
 10
600.8560321091924
 20
1434.556888665209
 30
0.0
 11
543.3560321091927
 21
1434.556888665208
 31
0.0
  0
LINE
  5
51DE
330
18
100
AcDbEntity
  8
BASE
  6
DASHED
 62
     8
100
AcDbLine
 10
600.8560321091924
 20
1402.556888665208
 30
0.0
 11
543.3560321091927
 21
1402.556888665208
 31
0.0
  0
LINE
  5
51DF
330
18
100
AcDbEntity
  8
DISEGNO
100
AcDbLine
 10
524.3560321091467
 20
1359.556888665231
 30
0.0
 11
543.3560321091468
 21
1359.556888665226
 31
0.0
  0
LINE
  5
51E0
330
18
100
AcDbEntity
  8
DISEGNO
100
AcDbLine
 10
523.3560321091463
 20
1358.556888665231
 30
0.0
 11
524.3560321091467
 21
1359.556888665231
 31
0.0
  0
LINE
  5
51E1
330
18
100
AcDbEntity
  8
BASE
  6
DASHED
 62
     8
100
AcDbLine
 10
543.3560321091927
 20
1383.556888665208
 30
0.0
 11
529.3560321091927
 21
1383.556888665208
 31
0.0
  0
LINE
  5
51E2
330
18
100
AcDbEntity
  8
BASE
  6
DASHED
 62
     8
100
AcDbLine
 10
543.3560321091927
 20
1453.556888665208
 30
0.0
 11
529.3560321091927
 21
1453.556888665209
 31
0.0
  0
LINE
  5
51E3
330
18
100
AcDbEntity
  8
BASE
  6
DASHED
 62
     8
100
AcDbLine
 10
658.3560321091892
 20
1406.056888665209
 30
0.0
 11
600.8560321091924
 21
1406.056888665209
 31
0.0
  0
LINE
  5
51E4
330
18
100
AcDbEntity
  8
DISEGNO
100
AcDbLine
 10
658.3560321091468
 20
1359.556888665192
 30
0.0
 11
677.3560321091467
 21
1359.556888665186
 31
0.0
  0
LINE
  5
51E5
330
18
100
AcDbEntity
  8
DISEGNO
100
AcDbLine
 10
677.3560321091467
 20
1359.556888665186
 30
0.0
 11
678.3560321091467
 21
1358.556888665186
 31
0.0
  0
LINE
  5
51E6
330
18
100
AcDbEntity
  8
BASE
  6
DASHED
 62
     8
100
AcDbLine
 10
658.3560321091879
 20
1383.556888665208
 30
0.0
 11
672.3560321091924
 21
1383.556888665208
 31
0.0
  0
LINE
  5
51E7
330
18
100
AcDbEntity
  8
BASE
  6
DASHED
 62
     8
100
AcDbLine
 10
658.3560321091892
 20
1431.056888665209
 30
0.0
 11
600.8560321091924
 21
1431.056888665209
 31
0.0
  0
LINE
  5
51E8
330
18
100
AcDbEntity
  8
BASE
  6
DASHED
 62
     8
100
AcDbLine
 10
658.3560321091879
 20
1453.556888665208
 30
0.0
 11
672.3560321091924
 21
1453.556888665209
 31
0.0
  0
LINE
  5
51E9
330
18
100
AcDbEntity
  8
DISEGNO
100
AcDbLine
 10
658.3560321091908
 20
1503.556888665191
 30
0.0
 11
543.3560321091913
 21
1503.556888665225
 31
0.0
  0
LINE
  5
51EA
330
18
100
AcDbEntity
  8
DISEGNO
100
AcDbLine
 10
543.3560321091881
 20
1498.556888665226
 30
0.0
 11
543.3560321091913
 21
1503.556888665226
 31
0.0
  0
LINE
  5
51EB
330
18
100
AcDbEntity
  8
DISEGNO
100
AcDbLine
 10
529.3560321092154
 20
1496.55688866523
 30
0.0
 11
529.3560321092185
 21
1501.55688866523
 31
0.0
  0
LINE
  5
51EC
330
18
100
AcDbEntity
  8
DISEGNO
100
AcDbLine
 10
543.3560321092186
 20
1501.556888665225
 30
0.0
 11
529.3560321092185
 21
1501.55688866523
 31
0.0
  0
LINE
  5
51ED
330
18
100
AcDbEntity
  8
DISEGNO
100
AcDbLine
 10
672.3560321092186
 20
1501.556888665188
 30
0.0
 11
658.3560321092186
 21
1501.556888665191
 31
0.0
  0
LINE
  5
51EE
330
18
100
AcDbEntity
  8
DISEGNO
100
AcDbLine
 10
658.3560321091908
 20
1503.556888665192
 30
0.0
 11
658.3560321091881
 21
1498.556888665192
 31
0.0
  0
LINE
  5
51EF
330
18
100
AcDbEntity
  8
DISEGNO
100
AcDbLine
 10
672.3560321092186
 20
1501.556888665188
 30
0.0
 11
672.3560321092154
 21
1496.556888665187
 31
0.0
  0
LINE
  5
51F0
330
18
100
AcDbEntity
  8
ASSI
100
AcDbLine
 10
-743.7142178401622
 20
1169.556888734882
 30
0.0
 11
307.2421096683937
 21
1169.556888734882
 31
0.0
  0
LINE
  5
51F1
330
18
100
AcDbEntity
  8
ASSI
100
AcDbLine
 10
-743.7142178401622
 20
1219.556888734882
 30
0.0
 11
307.2421096683937
 21
1219.556888734882
 31
0.0
  0
LINE
  5
51F2
330
18
100
AcDbEntity
  8
BASE
100
AcDbLine
 10
-544.0432210688706
 20
1212.94368451668
 30
0.0
 11
32.7067726346379
 21
1212.943684516679
 31
0.0
  0
LINE
  5
51F3
330
18
100
AcDbEntity
  8
BASE
100
AcDbLine
 10
-544.0432210688706
 20
1225.44368451668
 30
0.0
 11
32.7067726346379
 21
1225.443684516679
 31
0.0
  0
LINE
  5
51F4
330
18
100
AcDbEntity
  8
BASE
100
AcDbLine
 10
-544.0432210688706
 20
1175.625286625781
 30
0.0
 11
32.7067726346379
 21
1175.625286625779
 31
0.0
  0
LINE
  5
51F5
330
18
100
AcDbEntity
  8
BASE
100
AcDbLine
 10
-544.0432210688706
 20
1163.12528662578
 30
0.0
 11
32.7067726346379
 21
1163.125286625779
 31
0.0
  0
LINE
  5
51F6
330
18
100
AcDbEntity
  8
BASE
100
AcDbLine
 10
-719.1432210688707
 20
1175.62528662578
 30
0.0
 11
-544.0432210688706
 21
1175.62528662578
 31
0.0
  0
LINE
  5
51F7
330
18
100
AcDbEntity
  8
BASE
100
AcDbLine
 10
-719.1432210688707
 20
1163.12528662578
 30
0.0
 11
-544.0432210688706
 21
1163.12528662578
 31
0.0
  0
LINE
  5
51F8
330
18
100
AcDbEntity
  8
BASE
100
AcDbLine
 10
-719.1432210688707
 20
1212.94368451668
 30
0.0
 11
-544.0432210688706
 21
1212.94368451668
 31
0.0
  0
LINE
  5
51F9
330
18
100
AcDbEntity
  8
BASE
100
AcDbLine
 10
-719.1432210688707
 20
1225.44368451668
 30
0.0
 11
-544.0432210688706
 21
1225.44368451668
 31
0.0
  0
LINE
  5
51FA
330
18
100
AcDbEntity
  8
BASE
100
AcDbLine
 10
32.70677263463744
 20
1225.443684516681
 30
0.0
 11
280.8567789311289
 21
1225.44368451668
 31
0.0
  0
LINE
  5
51FB
330
18
100
AcDbEntity
  8
BASE
100
AcDbLine
 10
32.70677263463744
 20
1212.943684516679
 30
0.0
 11
280.8567789311289
 21
1212.94368451668
 31
0.0
  0
LINE
  5
51FC
330
18
100
AcDbEntity
  8
BASE
100
AcDbLine
 10
32.70677263463744
 20
1163.125286625779
 30
0.0
 11
280.8567789311289
 21
1163.12528662578
 31
0.0
  0
LINE
  5
51FD
330
18
100
AcDbEntity
  8
BASE
100
AcDbLine
 10
32.70677263463744
 20
1175.625286625781
 30
0.0
 11
280.8567789311289
 21
1175.62528662578
 31
0.0
  0
LINE
  5
51FE
330
18
100
AcDbEntity
  8
ASSI
100
AcDbLine
 10
600.7482721088249
 20
1041.352059911385
 30
0.0
 11
600.7482721088249
 21
1546.535392629698
 31
0.0
  0
LINE
  5
5226
330
18
100
AcDbEntity
  8
COMPONENTI
100
AcDbLine
 10
-619.1432210688706
 20
1306.556888665208
 30
0.0
 11
-544.0432210688705
 21
1306.556888665208
 31
0.0
  0
LINE
  5
5227
330
18
100
AcDbEntity
  8
COMPONENTI
100
AcDbLine
 10
-619.1432210688706
 20
1311.056888665209
 30
0.0
 11
-544.0432210688705
 21
1311.056888665209
 31
0.0
  0
ENDSEC
  0
SECTION
  2
OBJECTS
  0
DICTIONARY
  5
C
330
0
100
AcDbDictionary
  3
ACAD_GROUP
350
D
  3
ACAD_LAYOUT
350
CFB
  3
ACAD_MLINESTYLE
350
1B
  3
ACAD_PLOTSETTINGS
350
CFC
  3
ACAD_PLOTSTYLENAME
350
CF9
  3
ACAMCATALOGSTATE
350
4A95
  3
ACASAPPOBJECT
350
4A1C
  3
ACASGREF_MASTER
350
4A64
  3
ACDBVARIABLEDICTIONARY
350
2CB9
  3
ACDMSYSVARMGR
350
49FA
  3
ACGREF_MASTER
350
D16
  3
ACGREFACAD_MASTER
350
D1A
  3
ACMDICTIONARY
350
D1C
  3
ACME_BOM_MANAGER_NAME
350
D0F
  3
ACME_COMMAND_HISTORY
350
D0A
  3
ACME_SCOPE_NAME
350
D09
  3
ACMESTATEMGR
350
D14
  3
ACMESYSVARMANAGER
350
D0B
  3
ACMSYSTEMVARIABLEMANAGER
350
D20
  3
AD_APPL
350
4A7C
  3
AD_GREF_MODULE
350
4A65
  3
AD_MAPI_MODULE
350
4A7E
  3
ADSYSVARMGR
350
4A6E
  3
AMDTNAMEDDWGMGR
350
4A16
  3
AMG
350
D02
  3
AMGSNAPSETTINGS
350
D4F
  3
AMI_MASTER
350
D1B
  3
ASURF_STATIC_VARS
350
4A1D
  3
AUTOCAD_ASSEMBLIES_PROJECT
350
4A89
  3
AUTOSURF_SYSVARS
350
4A1E
  3
DESIGNER_ASSEMBLIES_SYSVARS
350
4A80
  3
DWGPROPS
350
5245
  3
GREFAM_MODULE
350
4A67
  3
MAPISURF_MODULE
350
4A66
  3
ACDBHEADERROUNDTRIPXREC
350
52AA
  0
DICTIONARY
  5
2CA9
330
18
100
AcDbDictionary
280
     1
  3
ACAD_INDEX
360
49A8
  3
ACAD_LAYOUTSELFREF
360
52CD
  0
DICTIONARY
  5
52CB
330
15
100
AcDbDictionary
280
     1
  3
ACAD_LAYOUTSELFREF
360
52CC
  0
DICTIONARY
  5
D
102
{ACAD_REACTORS
330
C
102
}
330
C
100
AcDbDictionary
  0
DICTIONARY
  5
CFB
102
{ACAD_REACTORS
330
C
102
}
330
C
100
AcDbDictionary
  0
DICTIONARY
  5
1B
102
{ACAD_REACTORS
330
C
102
}
330
C
100
AcDbDictionary
  3
STANDARD
350
1C
  0
DICTIONARY
  5
CFC
102
{ACAD_REACTORS
330
C
102
}
330
C
100
AcDbDictionary
  0
ACDBDICTIONARYWDFLT
  5
CF9
102
{ACAD_REACTORS
330
C
102
}
330
C
100
AcDbDictionary
281
     1
  3
Normal
350
CFA
100
AcDbDictionaryWithDefault
340
CFA
  0
ACAD_PROXY_OBJECT
  5
4A95
102
{ACAD_REACTORS
330
C
102
}
330
C
100
AcDbProxyObject
 90
      499
 91
      595
 93
      776
310
3FFFFFFFE00A0281402AA2E2E2A32B1B737B198182E2A32B1B7379021B2B73A32B92E2234B932BD34B7B732902A32B1B734B1B0AE20A921A424AB24A7902224A9A2A3A724AE21A0A22E26B7B23634B732AE19222E2D31B92FB99018991826400AA02
 94
        0
1001
ACAD
1000
AcadProxyRoundTripData
1071
      590
1071
   393239
1070
     0
  0
ACAD_PROXY_OBJECT
  5
4A1C
102
{ACAD_REACTORS
330
C
102
}
330
C
100
AcDbProxyObject
 90
      499
 91
      595
 93
       10
310
4041
 94
        0
1001
ACAD
1000
AcadProxyRoundTripData
1071
      565
1071
   393239
1070
     0
  0
ACAD_PROXY_OBJECT
  5
4A64
102
{ACAD_REACTORS
330
C
102
}
330
C
100
AcDbProxyObject
 90
      499
 91
      595
 93
       34
310
0100004056
 94
        0
1001
ACAD
1000
AcadProxyRoundTripData
1071
      570
1071
   393239
1070
     0
  0
DICTIONARY
  5
2CB9
102
{ACAD_REACTORS
330
C
102
}
330
C
100
AcDbDictionary
  3
DIMASSOC
350
2CBB
  3
INDEXCTL
350
2CBA
  0
ACAD_PROXY_OBJECT
  5
49FA
102
{ACAD_REACTORS
330
C
102
}
330
C
100
AcDbProxyObject
 90
      499
 91
      595
 93
      240
310
4C51A47A000000000000000000000000000000000000000000000000000005
330
49FB
330
49FC
330
49FD
330
49FE
330
49FF
330
4A00
330
4A01
330
4A03
330
4A04
330
4A05
330
4A06
330
4A07
330
4A08
330
4A09
330
4A0A
330
4A0B
330
4A0C
330
4A0D
330
4A0E
330
4A0F
330
4A10
330
4A11
330
4A12
330
4A13
330
4A14
330
4A15
 94
        0
1001
ACAD
1000
AcadProxyRoundTripData
1071
      507
1071
   393239
1070
     0
  0
ACAD_PROXY_OBJECT
  5
D16
102
{ACAD_REACTORS
330
C
102
}
330
C
100
AcDbProxyObject
 90
      499
 91
      595
 93
       34
310
0400004296
 94
        0
1001
ACAD
1000
AcadProxyRoundTripData
1071
      516
1071
   393239
1070
     0
  0
ACAD_PROXY_OBJECT
  5
D1A
102
{ACAD_REACTORS
330
C
102
}
330
C
100
AcDbProxyObject
 90
      499
 91
      595
 93
      114
310
04000041C00000000000000000001A
 94
        0
1001
ACAD
1000
AcadProxyRoundTripData
1071
      519
1071
   393239
1070
     0
  0
DICTIONARY
  5
D1C
102
{ACAD_REACTORS
330
C
102
}
330
C
100
AcDbDictionary
  3
ACMBOMDATA
350
D1D
  3
ACMSTDDICTIONARY
350
D22
  0
ACAD_PROXY_OBJECT
  5
D0F
102
{ACAD_REACTORS
330
C
102
}
330
C
100
AcDbProxyObject
 90
      499
 91
      595
 93
       50
310
0001004040001C
330
0
330
0
330
D10
 94
        0
1001
ACAD
1000
AcadProxyRoundTripData
1071
      510
1071
   393239
1070
     0
  0
ACAD_PROXY_OBJECT
  5
D0A
102
{ACAD_REACTORS
330
C
102
}
330
C
100
AcDbProxyObject
 90
      499
 91
      595
 93
     2964
310
4780504554E444F80504554E444F805075354524554434880501558050753545245544348805044D4F56458050C475249505F535452455443488050C475249505F53545245544348805044D4F56458050C475249505F535452455443488050C475249505F53545245544348805064F4646534554805064D4952524F5280506
310
455854454E4440405184D5347202D20436F6D6D616E642043414E43454C4C45442E0141D4D514915510D2201411693D3D36014154155491D1601415454D055916014390535115149154D15511109353D1102014213880B4815539113C05084E202D20554E444F014115539113E014115539113E014115539113E0141155391
310
13E014115539113E01411312539150101461354D1C80B4810DBDB5B585B990810D05390D1531311510B8050C475249505F53545245544348805075354524554434840405184D5347202D20436F6D6D616E642043414E43454C4C45442E0141D4D514915510D2201411693D3D3601415454D0559165
 94
        0
1001
ACAD
1000
AcadProxyRoundTripData
1071
      506
1071
   393239
1070
     0
  0
ACAD_PROXY_OBJECT
  5
D09
102
{ACAD_REACTORS
330
C
102
}
330
C
100
AcDbProxyObject
 90
      499
 91
      595
 93
     1234
310
06000044400000000000000000001856260000000000000000000000000000000000000000000000000000000000000000000000000000000000000000000000000000000000000000000000000000000000000000000000000000000000000000000000000000000000000000000000000000000000000000000000000000
310
0000000000000000000000000000000000000000000000AAA406AAB4
360
D0C
360
D0D
360
D0E
360
D10
360
D21
360
1BDB
360
49F5
360
49F6
360
49F7
360
49F8
360
49FB
360
49FC
360
49FD
360
49FE
360
49FF
360
4A00
360
4A01
360
4A03
360
4A04
360
4A05
360
4A06
360
4A07
360
4A08
360
4A09
360
4A0A
360
4A0B
360
4A0C
360
4A0D
360
4A0E
360
4A0F
360
4A10
360
4A11
360
4A12
360
4A13
360
4A14
360
4A15
360
4A1F
360
4A20
360
4A21
360
4A22
360
4A23
360
4A24
360
4A25
360
4A26
360
4A27
360
4A28
360
4A29
360
4A2A
360
4A2B
360
4A2C
360
4A2D
360
4A2E
360
4A2F
360
4A30
360
4A31
360
4A32
360
4A33
360
4A34
360
4A35
360
4A36
360
4A37
360
4A38
360
4A39
360
4A3A
360
4A3B
360
4A3C
360
4A3D
360
4A3E
360
4A3F
360
4A40
360
4A41
360
4A42
360
4A43
360
4A44
360
4A45
360
4A46
360
4A47
360
4A48
360
4A49
360
4A4A
360
4A4B
360
4A4C
360
4A4D
360
4A4E
360
4A4F
360
4A50
360
4A51
360
4A52
360
4A53
360
4A54
360
4A55
360
4A56
360
4A57
360
4A58
360
4A59
360
4A5A
360
4A5B
360
4A5C
360
4A5D
360
4A5E
360
4A5F
360
4A60
360
4A6A
360
4A6B
360
4A6C
360
4A6D
360
4A6F
360
4A70
360
4A71
360
4A72
360
4A73
360
4A74
360
4A75
360
4A76
360
4A77
360
4A78
360
4A79
360
4A7A
360
4A7B
360
4A81
360
4A82
360
4A83
360
4A84
360
4A85
360
4A86
360
4A87
360
4A88
360
4A8D
360
4A8E
360
4A8F
360
4A90
360
4A91
360
4A92
 94
        0
1001
ACAD
1000
AcadProxyRoundTripData
1071
      505
1071
   393239
1070
     0
  0
ACAD_PROXY_OBJECT
  5
D14
102
{ACAD_REACTORS
330
C
102
}
330
C
100
AcDbProxyObject
 90
      499
 91
      595
 93
       50
310
06000041641280
 94
        0
1001
ACAD
1000
AcadProxyRoundTripData
1071
      515
1071
   393239
1070
     0
  0
ACAD_PROXY_OBJECT
  5
D0B
102
{ACAD_REACTORS
330
C
102
}
330
C
100
AcDbProxyObject
 90
      499
 91
      595
 93
       48
310
90341200000041
330
D0C
330
D0D
330
D0E
 94
        0
1001
ACAD
1000
AcadProxyRoundTripData
1071
      507
1071
   393239
1070
     0
  0
ACAD_PROXY_OBJECT
  5
D20
102
{ACAD_REACTORS
330
C
102
}
330
C
100
AcDbProxyObject
 90
      499
 91
      595
 93
       32
310
90140A0053
330
D21
 94
        0
1001
ACAD
1000
AcadProxyRoundTripData
1071
      507
1071
   393239
1070
     0
  0
ACAD_PROXY_OBJECT
  5
4A7C
102
{ACAD_REACTORS
330
C
102
}
330
C
100
AcDbProxyObject
 90
      499
 91
      595
 93
       42
310
0006000043C1
330
4A6A
 94
        0
1001
ACAD
1000
AcadProxyRoundTripData
1071
      579
1071
   393239
1070
     0
  0
ACAD_PROXY_OBJECT
  5
4A65
102
{ACAD_REACTORS
330
C
102
}
330
C
100
AcDbProxyObject
 90
      499
 91
      595
 93
      114
310
000000438000000000000000000016
 94
        0
1001
ACAD
1000
AcadProxyRoundTripData
1071
      571
1071
   393239
1070
     0
  0
ACAD_PROXY_OBJECT
  5
4A7E
102
{ACAD_REACTORS
330
C
102
}
330
C
100
AcDbProxyObject
 90
      499
 91
      595
 93
       34
310
05000044D6
 94
        0
1001
ACAD
1000
AcadProxyRoundTripData
1071
      581
1071
   393239
1070
     0
  0
ACAD_PROXY_OBJECT
  5
4A6E
102
{ACAD_REACTORS
330
C
102
}
330
C
100
AcDbProxyObject
 90
      499
 91
      595
 93
      128
310
90D4460000000000000000000000000000
330
4A6F
330
4A70
330
4A71
330
4A72
330
4A73
330
4A74
330
4A75
330
4A76
330
4A77
330
4A78
330
4A79
330
4A7A
330
4A7B
 94
        0
1001
ACAD
1000
AcadProxyRoundTripData
1071
      507
1071
   393239
1070
     0
  0
ACAD_PROXY_OBJECT
  5
4A16
102
{ACAD_REACTORS
330
C
102
}
330
C
100
AcDbProxyObject
 90
      499
 91
      595
 93
       42
310
000100005AC1
330
49F5
 94
        0
1001
ACAD
1000
AcadProxyRoundTripData
1071
      562
1071
   393239
1070
     0
  0
DICTIONARY
  5
D02
102
{ACAD_REACTORS
330
C
102
}
330
C
100
AcDbDictionary
  3
ACMGSETTINGS
350
D03
  3
AMGLAYCFG
350
D24
  0
DICTIONARY
  5
D4F
102
{ACAD_REACTORS
330
C
102
}
330
C
100
AcDbDictionary
  3
DIMENSION
350
D54
  3
FEA
350
D53
  3
HATCH__1_
350
D50
  3
HATCH__2_
350
D51
  3
SIMPLE_WELD
350
D55
  3
SYMBOLS
350
D52
  0
ACAD_PROXY_OBJECT
  5
D1B
102
{ACAD_REACTORS
330
C
102
}
330
C
100
AcDbProxyObject
 90
      499
 91
      595
 93
       34
310
0500004296
 94
        0
1001
ACAD
1000
AcadProxyRoundTripData
1071
      520
1071
   393239
1070
     0
  0
ACAD_PROXY_OBJECT
  5
4A1D
102
{ACAD_REACTORS
330
C
102
}
330
C
100
AcDbProxyObject
 90
      499
 91
      595
 93
      424
310
585314D60000000000000000000000000000000000000000000000000000000000000000000000000000000000000000000000000000
330
4A30
330
4A31
330
4A32
330
4A33
330
4A34
330
4A35
330
4A36
330
4A37
330
4A38
330
4A39
330
4A3A
330
4A3B
330
4A3C
330
4A3D
330
4A3E
330
4A3F
330
4A40
330
4A41
330
4A42
330
4A43
330
4A44
330
4A45
330
4A46
330
4A47
330
4A48
330
4A49
330
4A4A
330
4A4B
330
4A4C
330
4A4D
330
4A4E
330
4A4F
330
4A50
330
4A51
330
4A52
330
4A53
330
4A54
330
4A55
330
4A56
330
4A57
330
4A58
330
4A59
330
4A5A
330
4A5B
330
4A5C
330
4A5D
330
4A5E
330
4A5F
330
4A60
 94
        0
1001
ACAD
1000
AcadProxyRoundTripData
1071
      566
1071
   393239
1070
     0
  0
ACAD_PROXY_OBJECT
  5
4A89
102
{ACAD_REACTORS
330
C
102
}
330
C
100
AcDbProxyObject
 90
      499
 91
      595
 93
       74
310
0600004A40000000000C
330
4A90
330
0
330
4A91
330
0
330
0
 94
        0
1001
ACAD
1000
AcadProxyRoundTripData
1071
      583
1071
   393239
1070
     0
  0
ACAD_PROXY_OBJECT
  5
4A1E
102
{ACAD_REACTORS
330
C
102
}
330
C
100
AcDbProxyObject
 90
      499
 91
      595
 93
      168
310
4C511456000000000000000000000000000000000040
330
4A1F
330
4A20
330
4A21
330
4A22
330
4A23
330
4A24
330
4A25
330
4A26
330
4A27
330
4A28
330
4A29
330
4A2A
330
4A2B
330
4A2C
330
4A2D
330
4A2E
330
4A2F
 94
        0
1001
ACAD
1000
AcadProxyRoundTripData
1071
      507
1071
   393239
1070
     0
  0
ACAD_PROXY_OBJECT
  5
4A80
102
{ACAD_REACTORS
330
C
102
}
330
C
100
AcDbProxyObject
 90
      499
 91
      595
 93
       88
310
908432000000000000000000
330
4A81
330
4A82
330
4A83
330
4A84
330
4A85
330
4A86
330
4A87
330
4A88
 94
        0
1001
ACAD
1000
AcadProxyRoundTripData
1071
      507
1071
   393239
1070
     0
  0
XRECORD
  5
5245
102
{ACAD_REACTORS
330
C
102
}
330
C
100
AcDbXrecord
  1
DWGPROPS COOKIE
  2

  3

  4

  6

  7

  8

  9

300
AmdtFileType=84
301
=
302
=
303
=
304
=
305
=
306
=
307
=
308
=
309
=
 40
0.1603825115740741
 41
2452088.782487164
 42
2453132.351130972
  1

 90
        1
  0
ACAD_PROXY_OBJECT
  5
4A67
102
{ACAD_REACTORS
330
C
102
}
330
C
100
AcDbProxyObject
 90
      499
 91
      595
 93
        8
310
0501
 94
        0
1001
ACAD
1000
AcadProxyRoundTripData
1071
      573
1071
   393239
1070
     0
  0
ACAD_PROXY_OBJECT
  5
4A66
102
{ACAD_REACTORS
330
C
102
}
330
C
100
AcDbProxyObject
 90
      499
 91
      595
 93
        8
310
0401
 94
        0
1001
ACAD
1000
AcadProxyRoundTripData
1071
      572
1071
   393239
1070
     0
  0
DICTIONARY
  5
52AA
102
{ACAD_REACTORS
330
C
102
}
330
C
100
AcDbDictionary
  3
TSTACKALIGN
350
52AB
  3
TSTACKSIZE
350
52AC
  3
HYPERLINKBASE
350
52AD
  3
STYLESHEET
350
52AE
  3
LAYOUTDICT
350
52AF
  3
PLOTSETDICT
350
52B0
  3
PLOTSTYLNAMDICT
350
52B1
  3
LWETCUNION
350
52B2
  3
INSUNITS
350
52B3
  3
CEPSNTYPE
350
52B4
  3
FINGERPRINTGUID
350
52B5
  3
VERSIONGUID
350
52B6
  3
PSVPSCALE
350
52B7
  3
DIMSTYLEDATA
350
52B8
  3
PUCSORTHOREF
350
52B9
  3
PUCSORTHOVIEW
350
52BA
  3
PUCSBASE
350
52BB
  3
PUCSORGTOP
350
52BC
  3
PUCSORGBOTTOM
350
52BD
  3
PUCSORGLEFT
350
52BE
  3
PUCSORGRIGHT
350
52BF
  3
PUCSORGFRONT
350
52C0
  3
PUCSORGBACK
350
52C1
  3
UCSORTHOREF
350
52C2
  3
UCSORTHOVIEW
350
52C3
  3
UCSBASE
350
52C4
  3
UCSORGTOP
350
52C5
  3
UCSORGBOTTOM
350
52C6
  3
UCSORGLEFT
350
52C7
  3
UCSORGRIGHT
350
52C8
  3
UCSORGFRONT
350
52C9
  3
UCSORGBACK
350
52CA
  0
DICTIONARY
  5
49A8
102
{ACAD_REACTORS
330
2CA9
102
}
330
2CA9
100
AcDbDictionary
  3
*A1
350
49A9
  0
XRECORD
  5
52CD
102
{ACAD_REACTORS
330
2CA9
102
}
330
2CA9
100
AcDbXrecord
340
18
  0
XRECORD
  5
52CC
102
{ACAD_REACTORS
330
52CB
102
}
330
52CB
100
AcDbXrecord
340
15
  0
MLINESTYLE
  5
1C
102
{ACAD_REACTORS
330
1B
102
}
330
1B
100
AcDbMlineStyle
  2
STANDARD
 70
     0
  3

 62
   256
 51
90.0
 52
90.0
 71
     2
 49
0.5
 62
   256
  6
BYLAYER
 49
-0.5
 62
   256
  6
BYLAYER
  0
ACDBPLACEHOLDER
  5
CFA
102
{ACAD_REACTORS
330
CF9
102
}
330
CF9
100
AcDbPlaceHolder
280
     0
  0
DICTIONARYVAR
  5
2CBB
102
{ACAD_REACTORS
330
2CB9
102
}
330
2CB9
100
DictionaryVariables
280
     0
  1
1
  0
DICTIONARYVAR
  5
2CBA
102
{ACAD_REACTORS
330
2CB9
102
}
330
2CB9
100
DictionaryVariables
280
     0
  1
1
  0
ACAD_PROXY_OBJECT
  5
D1D
102
{ACAD_REACTORS
330
D1C
102
}
330
D1C
100
AcDbProxyObject
 90
      499
 91
      595
 93
      118
310
405010040CA904C415CD5B0757109A
350
D1E
 94
        0
1001
ACAD
1000
AcadProxyRoundTripData
1071
      521
1071
   393239
1070
     0
  0
DICTIONARY
  5
D22
102
{ACAD_REACTORS
330
D1C
102
}
330
D1C
100
AcDbDictionary
  3
ANSI
350
1442
  3
ISO
350
D23
  0
ACAD_PROXY_OBJECT
  5
D0C
330
0
100
AcDbProxyObject
 90
      499
 91
      595
 93
      156
310
00010143D050D351505391D5531054925390D499
330
D09
 94
        0
1001
ACAD
1000
AcadProxyRoundTripData
1071
      508
1071
   393239
1070
     0
  0
ACAD_PROXY_OBJECT
  5
D0D
330
0
100
AcDbProxyObject
 90
      499
 91
      595
 93
      148
310
000101439050D351531253915054925390D490
330
D09
 94
        0
1001
ACAD
1000
AcadProxyRoundTripData
1071
      508
1071
   393239
1070
     0
  0
ACAD_PROXY_OBJECT
  5
D0E
330
0
100
AcDbProxyObject
 90
      499
 91
      595
 93
      156
310
000101439050D35154D6535093D314D256915089
330
D09
 94
        0
1001
ACAD
1000
AcadProxyRoundTripData
1071
      509
1071
   393239
1070
     0
  0
ACAD_PROXY_OBJECT
  5
D10
330
0
100
AcDbProxyObject
 90
      499
 91
      595
 93
      216
310
00010145111A5CDD1A5B9D184818DBDB5C1BDB995B9D1A4C402B0000
330
D09
330
0
330
0
 94
        0
1001
ACAD
1000
AcadProxyRoundTripData
1071
      511
1071
   393239
1070
     0
  0
ACAD_PROXY_OBJECT
  5
D21
330
0
100
AcDbProxyObject
 90
      499
 91
      595
 93
      140
310
00010142105350D55494D5110050349534F0
330
D09
 94
        0
1001
ACAD
1000
AcadProxyRoundTripData
1071
      523
1071
   393239
1070
     0
  0
ACAD_PROXY_OBJECT
  5
1BDB
330
0
100
AcDbProxyObject
 90
      499
 91
      595
 93
       28
310
00014063
330
D09
 94
        0
1001
ACAD
1000
AcadProxyRoundTripData
1071
      554
1071
   393239
1070
     0
  0
ACAD_PROXY_OBJECT
  5
49F5
330
0
100
AcDbProxyObject
 90
      499
 91
      595
 93
      358
310
0001014119185D1840507362E332E302E31014119185D1840507362E332E302E3140501000041505391D311658
330
D09
330
49F6
330
49FA
 94
        0
1001
ACAD
1000
AcadProxyRoundTripData
1071
      558
1071
   393239
1070
     0
  0
ACAD_PROXY_OBJECT
  5
49F6
330
0
100
AcDbProxyObject
 90
      499
 91
      595
 93
       48
310
000190140A004F
330
D09
330
49F7
 94
        0
1001
ACAD
1000
AcadProxyRoundTripData
1071
      559
1071
   393239
1070
     0
  0
ACAD_PROXY_OBJECT
  5
49F7
330
0
100
AcDbProxyObject
 90
      499
 91
      595
 93
       48
310
0001AA00000048
330
D09
330
CFE
330
49F8
330
0
 94
        0
1001
ACAD
1000
AcadProxyRoundTripData
1071
      560
1071
   393239
1070
     0
  0
ACAD_PROXY_OBJECT
  5
49F8
330
0
100
AcDbProxyObject
 90
      499
 91
      595
 93
       28
310
0001AAA3
330
D09
 94
        0
1001
ACAD
1000
AcadProxyRoundTripData
1071
      561
1071
   393239
1070
     0
  0
ACAD_PROXY_OBJECT
  5
49FB
330
0
100
AcDbProxyObject
 90
      499
 91
      595
 93
      108
310
000101421053521310D05310D013
330
D09
 94
        0
1001
ACAD
1000
AcadProxyRoundTripData
1071
      509
1071
   393239
1070
     0
  0
ACAD_PROXY_OBJECT
  5
49FC
330
0
100
AcDbProxyObject
 90
      499
 91
      595
 93
      124
310
00010142905354915554D15112535013
330
D09
 94
        0
1001
ACAD
1000
AcadProxyRoundTripData
1071
      509
1071
   393239
1070
     0
  0
ACAD_PROXY_OBJECT
  5
49FD
330
0
100
AcDbProxyObject
 90
      499
 91
      595
 93
      132
310
00010143105354D150D51253D391125362
330
D09
 94
        0
1001
ACAD
1000
AcadProxyRoundTripData
1071
      509
1071
   393239
1070
     0
  0
ACAD_PROXY_OBJECT
  5
49FE
330
0
100
AcDbProxyObject
 90
      499
 91
      595
 93
      124
310
00010142905355941093D49111549014
330
D09
 94
        0
1001
ACAD
1000
AcadProxyRoundTripData
1071
      509
1071
   393239
1070
     0
  0
ACAD_PROXY_OBJECT
  5
49FF
330
0
100
AcDbProxyObject
 90
      499
 91
      595
 93
      116
310
0001014290535115D1D0D3D313D4A1
330
D09
 94
        0
1001
ACAD
1000
AcadProxyRoundTripData
1071
      509
1071
   393239
1070
     0
  0
ACAD_PROXY_OBJECT
  5
4A00
330
0
100
AcDbProxyObject
 90
      499
 91
      595
 93
      148
310
00010143505355925155D49151949154D21015
330
D09
 94
        0
1001
ACAD
1000
AcadProxyRoundTripData
1071
      509
1071
   393239
1070
     0
  0
ACAD_PROXY_OBJECT
  5
4A01
330
0
100
AcDbProxyObject
 90
      499
 91
      595
 93
      172
310
00010144105350539393D51154149154D15495915010
330
D09
 94
        0
1001
ACAD
1000
AcadProxyRoundTripData
1071
      509
1071
   393239
1070
     0
  0
ACAD_PROXY_OBJECT
  5
4A03
330
0
100
AcDbProxyObject
 90
      499
 91
      595
 93
      172
310
00010144105350555513D11253505494905391D15010
330
D09
 94
        0
1001
ACAD
1000
AcadProxyRoundTripData
1071
      509
1071
   393239
1070
     0
  0
ACAD_PROXY_OBJECT
  5
4A04
330
0
100
AcDbProxyObject
 90
      499
 91
      595
 93
      124
310
00010142D05351561514915191125360
330
D09
 94
        0
1001
ACAD
1000
AcadProxyRoundTripData
1071
      509
1071
   393239
1070
     0
  0
ACAD_PROXY_OBJECT
  5
4A05
330
0
100
AcDbProxyObject
 90
      499
 91
      595
 93
      132
310
00010142D05355105410539393D5115013
330
D09
 94
        0
1001
ACAD
1000
AcadProxyRoundTripData
1071
      509
1071
   393239
1070
     0
  0
ACAD_PROXY_OBJECT
  5
4A06
330
0
100
AcDbProxyObject
 90
      499
 91
      595
 93
      108
310
00010142105350555513D0D31013
330
D09
 94
        0
1001
ACAD
1000
AcadProxyRoundTripData
1071
      509
1071
   393239
1070
     0
  0
ACAD_PROXY_OBJECT
  5
4A07
330
0
100
AcDbProxyObject
 90
      499
 91
      595
 93
      108
310
00010142105350D3119150551053
330
D09
 94
        0
1001
ACAD
1000
AcadProxyRoundTripData
1071
      509
1071
   393239
1070
     0
  0
ACAD_PROXY_OBJECT
  5
4A08
330
0
100
AcDbProxyObject
 90
      499
 91
      595
 93
      108
310
00010142105350D315925155D3F3
330
D09
 94
        0
1001
ACAD
1000
AcadProxyRoundTripData
1071
      509
1071
   393239
1070
     0
  0
ACAD_PROXY_OBJECT
  5
4A09
330
0
100
AcDbProxyObject
 90
      499
 91
      595
 93
      148
310
0001014350535212511156915493D112535010
330
D09
 94
        0
1001
ACAD
1000
AcadProxyRoundTripData
1071
      509
1071
   393239
1070
     0
  0
ACAD_PROXY_OBJECT
  5
4A0A
330
0
100
AcDbProxyObject
 90
      499
 91
      595
 93
      124
310
00010142905352105510D21254D3D013
330
D09
 94
        0
1001
ACAD
1000
AcadProxyRoundTripData
1071
      509
1071
   393239
1070
     0
  0
ACAD_PROXY_OBJECT
  5
4A0B
330
0
100
AcDbProxyObject
 90
      499
 91
      595
 93
      148
310
00010143905354D25391D31152105513105660
330
D09
 94
        0
1001
ACAD
1000
AcadProxyRoundTripData
1071
      509
1071
   393239
1070
     0
  0
ACAD_PROXY_OBJECT
  5
4A0C
330
0
100
AcDbProxyObject
 90
      499
 91
      595
 93
      124
310
00010142D0535115D1D193111254D424
330
D09
 94
        0
1001
ACAD
1000
AcadProxyRoundTripData
1071
      509
1071
   393239
1070
     0
  0
ACAD_PROXY_OBJECT
  5
4A0D
330
0
100
AcDbProxyObject
 90
      499
 91
      595
 93
      100
310
00010142105350555513D213A5
330
D09
 94
        0
1001
ACAD
1000
AcadProxyRoundTripData
1071
      509
1071
   393239
1070
     0
  0
ACAD_PROXY_OBJECT
  5
4A0E
330
0
100
AcDbProxyObject
 90
      499
 91
      595
 93
      116
310
000101425053521390D3D553951013
330
D09
 94
        0
1001
ACAD
1000
AcadProxyRoundTripData
1071
      509
1071
   393239
1070
     0
  0
ACAD_PROXY_OBJECT
  5
4A0F
330
0
100
AcDbProxyObject
 90
      499
 91
      595
 93
      108
310
0001014210535213941493D29010
330
D09
 94
        0
1001
ACAD
1000
AcadProxyRoundTripData
1071
      509
1071
   393239
1070
     0
  0
ACAD_PROXY_OBJECT
  5
4A10
330
0
100
AcDbProxyObject
 90
      499
 91
      595
 93
      108
310
0001014210535213951654115070
330
D09
 94
        0
1001
ACAD
1000
AcadProxyRoundTripData
1071
      509
1071
   393239
1070
     0
  0
ACAD_PROXY_OBJECT
  5
4A11
330
0
100
AcDbProxyObject
 90
      499
 91
      595
 93
      108
310
000101421053521395925155D0F0
330
D09
 94
        0
1001
ACAD
1000
AcadProxyRoundTripData
1071
      509
1071
   393239
1070
     0
  0
ACAD_PROXY_OBJECT
  5
4A12
330
0
100
AcDbProxyObject
 90
      499
 91
      595
 93
      140
310
00010143505354D150D51253D390D3D41665
330
D09
 94
        0
1001
ACAD
1000
AcadProxyRoundTripData
1071
      509
1071
   393239
1070
     0
  0
ACAD_PROXY_OBJECT
  5
4A13
330
0
100
AcDbProxyObject
 90
      499
 91
      595
 93
      108
310
00010142105350D3141493D29030
330
D09
 94
        0
1001
ACAD
1000
AcadProxyRoundTripData
1071
      509
1071
   393239
1070
     0
  0
ACAD_PROXY_OBJECT
  5
4A14
330
0
100
AcDbProxyObject
 90
      499
 91
      595
 93
      212
310
00010143905350555513D2105510D21493D500000000000002E400
330
D09
 94
        0
1001
ACAD
1000
AcadProxyRoundTripData
1071
      508
1071
   393239
1070
     0
  0
ACAD_PROXY_OBJECT
  5
4A15
330
0
100
AcDbProxyObject
 90
      499
 91
      595
 93
      156
310
00010143905350555513D2105510D21111551010
330
D09
 94
        0
1001
ACAD
1000
AcadProxyRoundTripData
1071
      509
1071
   393239
1070
     0
  0
ACAD_PROXY_OBJECT
  5
4A1F
330
0
100
AcDbProxyObject
 90
      499
 91
      595
 93
      116
310
000101425053541051D15311539191
330
D09
 94
        0
1001
ACAD
1000
AcadProxyRoundTripData
1071
      509
1071
   393239
1070
     0
  0
ACAD_PROXY_OBJECT
  5
4A20
330
0
100
AcDbProxyObject
 90
      499
 91
      595
 93
      108
310
000101421053555312539154D053
330
D09
 94
        0
1001
ACAD
1000
AcadProxyRoundTripData
1071
      509
1071
   393239
1070
     0
  0
ACAD_PROXY_OBJECT
  5
4A21
330
0
100
AcDbProxyObject
 90
      499
 91
      595
 93
      108
310
000101421053559312539154D033
330
D09
 94
        0
1001
ACAD
1000
AcadProxyRoundTripData
1071
      509
1071
   393239
1070
     0
  0
ACAD_PROXY_OBJECT
  5
4A22
330
0
100
AcDbProxyObject
 90
      499
 91
      595
 93
      140
310
00010143105354D1911254D41353D111501A
330
D09
 94
        0
1001
ACAD
1000
AcadProxyRoundTripData
1071
      509
1071
   393239
1070
     0
  0
ACAD_PROXY_OBJECT
  5
4A23
330
0
100
AcDbProxyObject
 90
      499
 91
      595
 93
      172
310
00010142505354119255105391C1C052DC9A6F104403
330
D09
 94
        0
1001
ACAD
1000
AcadProxyRoundTripData
1071
      508
1071
   393239
1070
     0
  0
ACAD_PROXY_OBJECT
  5
4A24
330
0
100
AcDbProxyObject
 90
      499
 91
      595
 93
      164
310
000101421053559150D05551C000000000000E03F8
330
D09
 94
        0
1001
ACAD
1000
AcadProxyRoundTripData
1071
      508
1071
   393239
1070
     0
  0
ACAD_PROXY_OBJECT
  5
4A25
330
0
100
AcDbProxyObject
 90
      499
 91
      595
 93
      180
310
00010142905350931153911513D307B14AE47E17A843F3
330
D09
 94
        0
1001
ACAD
1000
AcadProxyRoundTripData
1071
      508
1071
   393239
1070
     0
  0
ACAD_PROXY_OBJECT
  5
4A26
330
0
100
AcDbProxyObject
 90
      499
 91
      595
 93
      172
310
0001014250535293D25391D05407B14AE47E17A843F8
330
D09
 94
        0
1001
ACAD
1000
AcadProxyRoundTripData
1071
      508
1071
   393239
1070
     0
  0
ACAD_PROXY_OBJECT
  5
4A27
330
0
100
AcDbProxyObject
 90
      499
 91
      595
 93
      172
310
000101425053541192551311538000000FC83D797418
330
D09
 94
        0
1001
ACAD
1000
AcadProxyRoundTripData
1071
      508
1071
   393239
1070
     0
  0
ACAD_PROXY_OBJECT
  5
4A28
330
0
100
AcDbProxyObject
 90
      499
 91
      595
 93
      156
310
00010141D053559150D4D18000000000000E03F8
330
D09
 94
        0
1001
ACAD
1000
AcadProxyRoundTripData
1071
      508
1071
   393239
1070
     0
  0
ACAD_PROXY_OBJECT
  5
4A29
330
0
100
AcDbProxyObject
 90
      499
 91
      595
 93
      156
310
00010141D05354D19513D309A9999999999993F8
330
D09
 94
        0
1001
ACAD
1000
AcadProxyRoundTripData
1071
      508
1071
   393239
1070
     0
  0
ACAD_PROXY_OBJECT
  5
4A2A
330
0
100
AcDbProxyObject
 90
      499
 91
      595
 93
      172
310
000101425053541192551513D307B14AE47E17A843F8
330
D09
 94
        0
1001
ACAD
1000
AcadProxyRoundTripData
1071
      508
1071
   393239
1070
     0
  0
ACAD_PROXY_OBJECT
  5
4A2B
330
0
100
AcDbProxyObject
 90
      499
 91
      595
 93
      188
310
00010142D05354D151D192551513D307B14AE47E17A843F0
330
D09
 94
        0
1001
ACAD
1000
AcadProxyRoundTripData
1071
      508
1071
   393239
1070
     0
  0
ACAD_PROXY_OBJECT
  5
4A2C
330
0
100
AcDbProxyObject
 90
      499
 91
      595
 93
      148
310
000101419053541311538000000FC83D79741F
330
D09
 94
        0
1001
ACAD
1000
AcadProxyRoundTripData
1071
      508
1071
   393239
1070
     0
  0
ACAD_PROXY_OBJECT
  5
4A2D
330
0
100
AcDbProxyObject
 90
      499
 91
      595
 93
      172
310
00010142505354105391D513D301C052DC9A6F104402
330
D09
 94
        0
1001
ACAD
1000
AcadProxyRoundTripData
1071
      508
1071
   393239
1070
     0
  0
ACAD_PROXY_OBJECT
  5
4A2E
330
0
100
AcDbProxyObject
 90
      499
 91
      595
 93
      132
310
0001014114D25691400000000000024404
330
D09
 94
        0
1001
ACAD
1000
AcadProxyRoundTripData
1071
      508
1071
   393239
1070
     0
  0
ACAD_PROXY_OBJECT
  5
4A2F
330
0
100
AcDbProxyObject
 90
      499
 91
      595
 93
      156
310
00010142905351D4941491519256005034153470
330
D09
 94
        0
1001
ACAD
1000
AcadProxyRoundTripData
1071
      523
1071
   393239
1070
     0
  0
ACAD_PROXY_OBJECT
  5
4A30
330
0
100
AcDbProxyObject
 90
      499
 91
      595
 93
      314
310
00014080509646973745363616C650000000000003C2FC000000000000F0BF0000003F20F5E5D050
330
D09
 94
        0
1001
ACAD
1000
AcadProxyRoundTripData
1071
      567
1071
   393239
1070
     0
  0
ACAD_PROXY_OBJECT
  5
4A31
330
0
100
AcDbProxyObject
 90
      499
 91
      595
 93
      322
310
0001408050A65646175526F74617465060B51153EC87E4FC182D4454FB2119C0060B51153EC8465004
330
D09
 94
        0
1001
ACAD
1000
AcadProxyRoundTripData
1071
      567
1071
   393239
1070
     0
  0
ACAD_PROXY_OBJECT
  5
4A32
330
0
100
AcDbProxyObject
 90
      499
 91
      595
 93
      314
310
00014080509656461755477697374060B51153EC846500000000FC83D797C10000003F20F5E5D050
330
D09
 94
        0
1001
ACAD
1000
AcadProxyRoundTripData
1071
      567
1071
   393239
1070
     0
  0
ACAD_PROXY_OBJECT
  5
4A33
330
0
100
AcDbProxyObject
 90
      499
 91
      595
 93
      294
310
000140C050A656467654F75747075740144D41BDB1A5B1A5B99584817D41BDB1E5B1A5B994
330
D09
 94
        0
1001
ACAD
1000
AcadProxyRoundTripData
1071
      568
1071
   393239
1070
     0
  0
ACAD_PROXY_OBJECT
  5
4A34
330
0
100
AcDbProxyObject
 90
      499
 91
      595
 93
      154
310
0001404050B65646974507265766965774064040
330
D09
 94
        0
1001
ACAD
1000
AcadProxyRoundTripData
1071
      569
1071
   393239
1070
     0
  0
ACAD_PROXY_OBJECT
  5
4A35
330
0
100
AcDbProxyObject
 90
      499
 91
      595
 93
      170
310
0001404050A666C6F77556C696E657342A3A00C00003
330
D09
 94
        0
1001
ACAD
1000
AcadProxyRoundTripData
1071
      569
1071
   393239
1070
     0
  0
ACAD_PROXY_OBJECT
  5
4A36
330
0
100
AcDbProxyObject
 90
      499
 91
      595
 93
      170
310
0001404050A666C6F77566C696E657342A3A00C00003
330
D09
 94
        0
1001
ACAD
1000
AcadProxyRoundTripData
1071
      569
1071
   393239
1070
     0
  0
ACAD_PROXY_OBJECT
  5
4A37
330
0
100
AcDbProxyObject
 90
      499
 91
      595
 93
      322
310
0001408050A666C7366456E645261640000000000003C2FC000000000000F0BF0000003F20F5E5D044
330
D09
 94
        0
1001
ACAD
1000
AcadProxyRoundTripData
1071
      567
1071
   393239
1070
     0
  0
ACAD_PROXY_OBJECT
  5
4A38
330
0
100
AcDbProxyObject
 90
      499
 91
      595
 93
      246
310
000140C05086A6E33644D6F64650143D3585B9D585B194817D3585B9D585B1
330
D09
 94
        0
1001
ACAD
1000
AcadProxyRoundTripData
1071
      568
1071
   393239
1070
     0
  0
ACAD_PROXY_OBJECT
  5
4A39
330
0
100
AcDbProxyObject
 90
      499
 91
      595
 93
      294
310
000140C050A6A6E33644F75747075740144D41BDB1A5B1A5B99584817D41BDB1E5B1A5B995
330
D09
 94
        0
1001
ACAD
1000
AcadProxyRoundTripData
1071
      568
1071
   393239
1070
     0
  0
ACAD_PROXY_OBJECT
  5
4A3A
330
0
100
AcDbProxyObject
 90
      499
 91
      595
 93
      306
310
000140805086C656E675065726300000000002016D002D431CEBE2361A3F0000003F20F5E5D046
330
D09
 94
        0
1001
ACAD
1000
AcadProxyRoundTripData
1071
      567
1071
   393239
1070
     0
  0
ACAD_PROXY_OBJECT
  5
4A3B
330
0
100
AcDbProxyObject
 90
      499
 91
      595
 93
      266
310
0001408050B6D61737344656E7369747942D431CEBE2361A3F0000003F20F5E5D04B
330
D09
 94
        0
1001
ACAD
1000
AcadProxyRoundTripData
1071
      567
1071
   393239
1070
     0
  0
ACAD_PROXY_OBJECT
  5
4A3C
330
0
100
AcDbProxyObject
 90
      499
 91
      595
 93
      186
310
000140805096D617373546869636BA0000003F20F5E5D04D
330
D09
 94
        0
1001
ACAD
1000
AcadProxyRoundTripData
1071
      567
1071
   393239
1070
     0
  0
ACAD_PROXY_OBJECT
  5
4A3D
330
0
100
AcDbProxyObject
 90
      499
 91
      595
 93
      222
310
000140C05086D61737354797065014314DA195B1B0817D4DA195B1B1
330
D09
 94
        0
1001
ACAD
1000
AcadProxyRoundTripData
1071
      568
1071
   393239
1070
     0
  0
ACAD_PROXY_OBJECT
  5
4A3E
330
0
100
AcDbProxyObject
 90
      499
 91
      595
 93
      242
310
000140805086F667366446973744000000FC83D797C10000003F20F5E5D065
330
D09
 94
        0
1001
ACAD
1000
AcadProxyRoundTripData
1071
      567
1071
   393239
1070
     0
  0
ACAD_PROXY_OBJECT
  5
4A3F
330
0
100
AcDbProxyObject
 90
      499
 91
      595
 93
      258
310
0001408050A7072696D52616469757342D431CEBE2361A3F0000003F20F5E5D050
330
D09
 94
        0
1001
ACAD
1000
AcadProxyRoundTripData
1071
      567
1071
   393239
1070
     0
  0
ACAD_PROXY_OBJECT
  5
4A40
330
0
100
AcDbProxyObject
 90
      499
 91
      595
 93
      194
310
0001408050A7072696D546F70526164A0000003F20F5E5D07F
330
D09
 94
        0
1001
ACAD
1000
AcadProxyRoundTripData
1071
      567
1071
   393239
1070
     0
  0
ACAD_PROXY_OBJECT
  5
4A41
330
0
100
AcDbProxyObject
 90
      499
 91
      595
 93
      266
310
0001408050B7072696D5475626552616442D431CEBE2361A3F0000003F20F5E5D04B
330
D09
 94
        0
1001
ACAD
1000
AcadProxyRoundTripData
1071
      567
1071
   393239
1070
     0
  0
ACAD_PROXY_OBJECT
  5
4A42
330
0
100
AcDbProxyObject
 90
      499
 91
      595
 93
      258
310
0001408050A7072696D4865696768744000000FC83D797C10000003F20F5E5D046
330
D09
 94
        0
1001
ACAD
1000
AcadProxyRoundTripData
1071
      567
1071
   393239
1070
     0
  0
ACAD_PROXY_OBJECT
  5
4A43
330
0
100
AcDbProxyObject
 90
      499
 91
      595
 93
      250
310
000140805097072696D5374416E678182D4454FB2119C0060B51153EC8465000
330
D09
 94
        0
1001
ACAD
1000
AcadProxyRoundTripData
1071
      567
1071
   393239
1070
     0
  0
ACAD_PROXY_OBJECT
  5
4A44
330
0
100
AcDbProxyObject
 90
      499
 91
      595
 93
      322
310
0001408050A7072696D456E64416E67060B51153EC846500182D4454FB2119C0060B51153EC8465004
330
D09
 94
        0
1001
ACAD
1000
AcadProxyRoundTripData
1071
      567
1071
   393239
1070
     0
  0
ACAD_PROXY_OBJECT
  5
4A45
330
0
100
AcDbProxyObject
 90
      499
 91
      595
 93
      242
310
000140805087265765374416E678182D4454FB2119C0060B51153EC8465000
330
D09
 94
        0
1001
ACAD
1000
AcadProxyRoundTripData
1071
      567
1071
   393239
1070
     0
  0
ACAD_PROXY_OBJECT
  5
4A46
330
0
100
AcDbProxyObject
 90
      499
 91
      595
 93
      314
310
00014080509726576456E64416E67060B51153EC846500182D4454FB2119C0060B51153EC8465015
330
D09
 94
        0
1001
ACAD
1000
AcadProxyRoundTripData
1071
      567
1071
   393239
1070
     0
  0
ACAD_PROXY_OBJECT
  5
4A47
330
0
100
AcDbProxyObject
 90
      499
 91
      595
 93
      194
310
0001404050C7266736655706174636865734290139C0C0003D
330
D09
 94
        0
1001
ACAD
1000
AcadProxyRoundTripData
1071
      569
1071
   393239
1070
     0
  0
ACAD_PROXY_OBJECT
  5
4A48
330
0
100
AcDbProxyObject
 90
      499
 91
      595
 93
      194
310
0001404050C7266736656706174636865734290139C0C0003D
330
D09
 94
        0
1001
ACAD
1000
AcadProxyRoundTripData
1071
      569
1071
   393239
1070
     0
  0
ACAD_PROXY_OBJECT
  5
4A49
330
0
100
AcDbProxyObject
 90
      499
 91
      595
 93
      246
310
000140C0508747562654D6F64650143D3585B9D585B194817D3585B9D585B0
330
D09
 94
        0
1001
ACAD
1000
AcadProxyRoundTripData
1071
      568
1071
   393239
1070
     0
  0
ACAD_PROXY_OBJECT
  5
4A4A
330
0
100
AcDbProxyObject
 90
      499
 91
      595
 93
      274
310
0001408050C747562654469616D6574657242D431CEBE2361A3F0000003F20F5E5D045
330
D09
 94
        0
1001
ACAD
1000
AcadProxyRoundTripData
1071
      567
1071
   393239
1070
     0
  0
ACAD_PROXY_OBJECT
  5
4A4B
330
0
100
AcDbProxyObject
 90
      499
 91
      595
 93
      130
310
00014040509696E746572506F6C79A4056
330
D09
 94
        0
1001
ACAD
1000
AcadProxyRoundTripData
1071
      569
1071
   393239
1070
     0
  0
ACAD_PROXY_OBJECT
  5
4A4C
330
0
100
AcDbProxyObject
 90
      499
 91
      595
 93
      162
310
0001404050D696E746572417567506F696E74A4049
330
D09
 94
        0
1001
ACAD
1000
AcadProxyRoundTripData
1071
      569
1071
   393239
1070
     0
  0
ACAD_PROXY_OBJECT
  5
4A4D
330
0
100
AcDbProxyObject
 90
      499
 91
      595
 93
      246
310
000140C0509696E7465727472696D0143915B9D1C985B58994817D09BDD1A1
330
D09
 94
        0
1001
ACAD
1000
AcadProxyRoundTripData
1071
      568
1071
   393239
1070
     0
  0
ACAD_PROXY_OBJECT
  5
4A4E
330
0
100
AcDbProxyObject
 90
      499
 91
      595
 93
      230
310
000140C0509696E746572747970650143151859DB1A584817D51C9A5B5
330
D09
 94
        0
1001
ACAD
1000
AcadProxyRoundTripData
1071
      568
1071
   393239
1070
     0
  0
ACAD_PROXY_OBJECT
  5
4A4F
330
0
100
AcDbProxyObject
 90
      499
 91
      595
 93
      146
310
0001404050A636F726E65727472696D4064060
330
D09
 94
        0
1001
ACAD
1000
AcadProxyRoundTripData
1071
      569
1071
   393239
1070
     0
  0
ACAD_PROXY_OBJECT
  5
4A50
330
0
100
AcDbProxyObject
 90
      499
 91
      595
 93
      130
310
000140405086F6673666B656570406404A
330
D09
 94
        0
1001
ACAD
1000
AcadProxyRoundTripData
1071
      569
1071
   393239
1070
     0
  0
ACAD_PROXY_OBJECT
  5
4A51
330
0
100
AcDbProxyObject
 90
      499
 91
      595
 93
      146
310
0001404050A70726F6A4F757470757440A40E0
330
D09
 94
        0
1001
ACAD
1000
AcadProxyRoundTripData
1071
      569
1071
   393239
1070
     0
  0
ACAD_PROXY_OBJECT
  5
4A52
330
0
100
AcDbProxyObject
 90
      499
 91
      595
 93
      254
310
000140C050D70726F6A446972656374696F6E0142DD925CDD184817DD92595DD
330
D09
 94
        0
1001
ACAD
1000
AcadProxyRoundTripData
1071
      568
1071
   393239
1070
     0
  0
ACAD_PROXY_OBJECT
  5
4A53
330
0
100
AcDbProxyObject
 90
      499
 91
      595
 93
      130
310
0001404050870726F6A4B6565704064070
330
D09
 94
        0
1001
ACAD
1000
AcadProxyRoundTripData
1071
      569
1071
   393239
1070
     0
  0
ACAD_PROXY_OBJECT
  5
4A54
330
0
100
AcDbProxyObject
 90
      499
 91
      595
 93
      286
310
000140C050B70726F6A53706163696E67014453DD1D1A5B585B194817D3DC1D1A5B585B1
330
D09
 94
        0
1001
ACAD
1000
AcadProxyRoundTripData
1071
      568
1071
   393239
1070
     0
  0
ACAD_PROXY_OBJECT
  5
4A55
330
0
100
AcDbProxyObject
 90
      499
 91
      595
 93
      250
310
0001408050970726F6A54617065728182D4454FB21F9BF060B51153EC87E4FFD
330
D09
 94
        0
1001
ACAD
1000
AcadProxyRoundTripData
1071
      567
1071
   393239
1070
     0
  0
ACAD_PROXY_OBJECT
  5
4A56
330
0
100
AcDbProxyObject
 90
      499
 91
      595
 93
      130
310
00014040508647261674B6565704064057
330
D09
 94
        0
1001
ACAD
1000
AcadProxyRoundTripData
1071
      569
1071
   393239
1070
     0
  0
ACAD_PROXY_OBJECT
  5
4A57
330
0
100
AcDbProxyObject
 90
      499
 91
      595
 93
      302
310
000140C050F647261674F7269656E746174696F6E0143D39BDC9B585B194817D39BDC9B585B2
330
D09
 94
        0
1001
ACAD
1000
AcadProxyRoundTripData
1071
      568
1071
   393239
1070
     0
  0
ACAD_PROXY_OBJECT
  5
4A58
330
0
100
AcDbProxyObject
 90
      499
 91
      595
 93
      270
310
000140C050E647261675472616E736974696F6E01431CD0D85B184817DCD0D85B195
330
D09
 94
        0
1001
ACAD
1000
AcadProxyRoundTripData
1071
      568
1071
   393239
1070
     0
  0
ACAD_PROXY_OBJECT
  5
4A59
330
0
100
AcDbProxyObject
 90
      499
 91
      595
 93
      302
310
000140C051061646A757374436F6E74696E7569747901439B195D9A51D84817D4DB5BDBDD1A2
330
D09
 94
        0
1001
ACAD
1000
AcadProxyRoundTripData
1071
      568
1071
   393239
1070
     0
  0
ACAD_PROXY_OBJECT
  5
4A5A
330
0
100
AcDbProxyObject
 90
      499
 91
      595
 93
      138
310
0001404050A61646A7573744B656570A405C
330
D09
 94
        0
1001
ACAD
1000
AcadProxyRoundTripData
1071
      569
1071
   393239
1070
     0
  0
ACAD_PROXY_OBJECT
  5
4A5B
330
0
100
AcDbProxyObject
 90
      499
 91
      595
 93
      250
310
0001408050972756C65576964746842D431CEBE2361A3F0000003F20F5E5D048
330
D09
 94
        0
1001
ACAD
1000
AcadProxyRoundTripData
1071
      567
1071
   393239
1070
     0
  0
ACAD_PROXY_OBJECT
  5
4A5C
330
0
100
AcDbProxyObject
 90
      499
 91
      595
 93
      274
310
0001408050C616E616C797A65447261667421D139D28615ED8FE060B51153EC8425003
330
D09
 94
        0
1001
ACAD
1000
AcadProxyRoundTripData
1071
      567
1071
   393239
1070
     0
  0
ACAD_PROXY_OBJECT
  5
4A5D
330
0
100
AcDbProxyObject
 90
      499
 91
      595
 93
      210
310
0001404050F616E616C797A654E756D4C696E65734163FDFC00026
330
D09
 94
        0
1001
ACAD
1000
AcadProxyRoundTripData
1071
      569
1071
   393239
1070
     0
  0
ACAD_PROXY_OBJECT
  5
4A5E
330
0
100
AcDbProxyObject
 90
      499
 91
      595
 93
      202
310
00014040512616E616C797A65526F746174654C696E6573A4040
330
D09
 94
        0
1001
ACAD
1000
AcadProxyRoundTripData
1071
      569
1071
   393239
1070
     0
  0
ACAD_PROXY_OBJECT
  5
4A5F
330
0
100
AcDbProxyObject
 90
      499
 91
      595
 93
      210
310
00014040513616E616C797A65446973706C61794C696E6573A4066
330
D09
 94
        0
1001
ACAD
1000
AcadProxyRoundTripData
1071
      569
1071
   393239
1070
     0
  0
ACAD_PROXY_OBJECT
  5
4A60
330
0
100
AcDbProxyObject
 90
      499
 91
      595
 93
      258
310
00014040519616E616C797A655472616E736C7563656E7453757266616365A4043
330
D09
 94
        0
1001
ACAD
1000
AcadProxyRoundTripData
1071
      569
1071
   393239
1070
     0
  0
ACAD_PROXY_OBJECT
  5
4A6A
330
0
100
AcDbProxyObject
 90
      499
 91
      595
 93
      698
310
0001000000009AA6A9AA4051E576564204D61792030352030393A32313A313920323030342028555443290141CD8B8CCB8C0B8C80518546875204D61792030362030383A33303A313320323030340141CD8B8CCB8C0B8C92
330
D09
330
4A6B
330
4A6C
330
4A6E
330
0
 94
        0
1001
ACAD
1000
AcadProxyRoundTripData
1071
      575
1071
   393239
1070
     0
  0
ACAD_PROXY_OBJECT
  5
4A6B
330
0
100
AcDbProxyObject
 90
      499
 91
      595
 93
       70
310
0001AAA80820000000
330
D09
330
4A6B
330
4A6B
 94
        0
1001
ACAD
1000
AcadProxyRoundTripData
1071
      576
1071
   393239
1070
     0
  0
ACAD_PROXY_OBJECT
  5
4A6C
330
0
100
AcDbProxyObject
 90
      499
 91
      595
 93
       48
310
00010000000000
330
D09
330
0
330
4A6D
330
0
330
0
 94
        0
1001
ACAD
1000
AcadProxyRoundTripData
1071
      577
1071
   393239
1070
     0
  0
ACAD_PROXY_OBJECT
  5
4A6D
330
0
100
AcDbProxyObject
 90
      499
 91
      595
 93
       40
310
000100AAAA4F
330
D09
330
0
 94
        0
1001
ACAD
1000
AcadProxyRoundTripData
1071
      578
1071
   393239
1070
     0
  0
ACAD_PROXY_OBJECT
  5
4A6F
330
0
100
AcDbProxyObject
 90
      499
 91
      595
 93
      124
310
00010142905350D3D39114D414D69051
330
D09
 94
        0
1001
ACAD
1000
AcadProxyRoundTripData
1071
      509
1071
   393239
1070
     0
  0
ACAD_PROXY_OBJECT
  5
4A70
330
0
100
AcDbProxyObject
 90
      499
 91
      595
 93
      124
310
000101429053549553115353D1115011
330
D09
 94
        0
1001
ACAD
1000
AcadProxyRoundTripData
1071
      509
1071
   393239
1070
     0
  0
ACAD_PROXY_OBJECT
  5
4A71
330
0
100
AcDbProxyObject
 90
      499
 91
      595
 93
      108
310
00010142105354D2D353D1115013
330
D09
 94
        0
1001
ACAD
1000
AcadProxyRoundTripData
1071
      509
1071
   393239
1070
     0
  0
ACAD_PROXY_OBJECT
  5
4A72
330
0
100
AcDbProxyObject
 90
      499
 91
      595
 93
      140
310
000101435053511253511254D41353D11160
330
D09
 94
        0
1001
ACAD
1000
AcadProxyRoundTripData
1071
      509
1071
   393239
1070
     0
  0
ACAD_PROXY_OBJECT
  5
4A73
330
0
100
AcDbProxyObject
 90
      499
 91
      595
 93
      180
310
00010142905354D2D05391D513D3000000000000010404
330
D09
 94
        0
1001
ACAD
1000
AcadProxyRoundTripData
1071
      508
1071
   393239
1070
     0
  0
ACAD_PROXY_OBJECT
  5
4A74
330
0
100
AcDbProxyObject
 90
      499
 91
      595
 93
      164
310
00010142505354D2D4D516531140505434F4E542A4
330
D09
 94
        0
1001
ACAD
1000
AcadProxyRoundTripData
1071
      523
1071
   393239
1070
     0
  0
ACAD_PROXY_OBJECT
  5
4A75
330
0
100
AcDbProxyObject
 90
      499
 91
      595
 93
      108
310
00010142105350D3511112535016
330
D09
 94
        0
1001
ACAD
1000
AcadProxyRoundTripData
1071
      509
1071
   393239
1070
     0
  0
ACAD_PROXY_OBJECT
  5
4A76
330
0
100
AcDbProxyObject
 90
      499
 91
      595
 93
      108
310
00010142105350D3D35414D59016
330
D09
 94
        0
1001
ACAD
1000
AcadProxyRoundTripData
1071
      509
1071
   393239
1070
     0
  0
ACAD_PROXY_OBJECT
  5
4A77
330
0
100
AcDbProxyObject
 90
      499
 91
      595
 93
      172
310
0001014290535410549514D411960050550415254454
330
D09
 94
        0
1001
ACAD
1000
AcadProxyRoundTripData
1071
      523
1071
   393239
1070
     0
  0
ACAD_PROXY_OBJECT
  5
4A78
330
0
100
AcDbProxyObject
 90
      499
 91
      595
 93
      220
310
0001014350535513D3D31093D116541196005085554454E53494C452
330
D09
 94
        0
1001
ACAD
1000
AcadProxyRoundTripData
1071
      523
1071
   393239
1070
     0
  0
ACAD_PROXY_OBJECT
  5
4A79
330
0
100
AcDbProxyObject
 90
      499
 91
      595
 93
      116
310
000101425053511254D410D3D39011
330
D09
 94
        0
1001
ACAD
1000
AcadProxyRoundTripData
1071
      509
1071
   393239
1070
     0
  0
ACAD_PROXY_OBJECT
  5
4A7A
330
0
100
AcDbProxyObject
 90
      499
 91
      595
 93
      108
310
00010142105350D3D39114D41016
330
D09
 94
        0
1001
ACAD
1000
AcadProxyRoundTripData
1071
      509
1071
   393239
1070
     0
  0
ACAD_PROXY_OBJECT
  5
4A7B
330
0
100
AcDbProxyObject
 90
      499
 91
      595
 93
      124
310
0001014290535490511114D414D69190
330
D09
 94
        0
1001
ACAD
1000
AcadProxyRoundTripData
1071
      509
1071
   393239
1070
     0
  0
ACAD_PROXY_OBJECT
  5
4A81
330
0
100
AcDbProxyObject
 90
      499
 91
      595
 93
      132
310
00010142D05050555513D4D3D315915013
330
D09
 94
        0
1001
ACAD
1000
AcadProxyRoundTripData
1071
      509
1071
   393239
1070
     0
  0
ACAD_PROXY_OBJECT
  5
4A82
330
0
100
AcDbProxyObject
 90
      499
 91
      595
 93
      156
310
00010143905050555513D054D4D1535093115014
330
D09
 94
        0
1001
ACAD
1000
AcadProxyRoundTripData
1071
      509
1071
   393239
1070
     0
  0
ACAD_PROXY_OBJECT
  5
4A83
330
0
100
AcDbProxyObject
 90
      499
 91
      595
 93
      148
310
00010143505055925155D49154D513D4915015
330
D09
 94
        0
1001
ACAD
1000
AcadProxyRoundTripData
1071
      509
1071
   393239
1070
     0
  0
ACAD_PROXY_OBJECT
  5
4A84
330
0
100
AcDbProxyObject
 90
      499
 91
      595
 93
      124
310
00010142D050525394D15495105094E5
330
D09
 94
        0
1001
ACAD
1000
AcadProxyRoundTripData
1071
      509
1071
   393239
1070
     0
  0
ACAD_PROXY_OBJECT
  5
4A85
330
0
100
AcDbProxyObject
 90
      499
 91
      595
 93
      148
310
00010143505054D0D153915554111055115015
330
D09
 94
        0
1001
ACAD
1000
AcadProxyRoundTripData
1071
      509
1071
   393239
1070
     0
  0
ACAD_PROXY_OBJECT
  5
4A86
330
0
100
AcDbProxyObject
 90
      499
 91
      595
 93
      188
310
00010143105054D5509054D4D354119600505534F54544FB
330
D09
 94
        0
1001
ACAD
1000
AcadProxyRoundTripData
1071
      523
1071
   393239
1070
     0
  0
ACAD_PROXY_OBJECT
  5
4A87
330
0
100
AcDbProxyObject
 90
      499
 91
      595
 93
      172
310
00010142905054D0D15391541196005055343454E412
330
D09
 94
        0
1001
ACAD
1000
AcadProxyRoundTripData
1071
      523
1071
   393239
1070
     0
  0
ACAD_PROXY_OBJECT
  5
4A88
330
0
100
AcDbProxyObject
 90
      499
 91
      595
 93
      148
310
00010143505350555513D313D0D2D4D0D39019
330
D09
 94
        0
1001
ACAD
1000
AcadProxyRoundTripData
1071
      509
1071
   393239
1070
     0
  0
ACAD_PROXY_OBJECT
  5
4A8D
330
0
100
AcDbProxyObject
 90
      499
 91
      595
 93
       32
310
0001000043
330
D09
340
4A8A
330
4A8F
330
4A8A
 94
        0
1001
ACAD
1000
AcadProxyRoundTripData
1071
      584
1071
   393239
1070
     0
  0
ACAD_PROXY_OBJECT
  5
4A8E
330
0
100
AcDbProxyObject
 90
      499
 91
      595
 93
       18
310
0001A0
330
D09
 94
        0
1001
ACAD
1000
AcadProxyRoundTripData
1071
      585
1071
   393239
1070
     0
  0
ACAD_PROXY_OBJECT
  5
4A8F
330
0
100
AcDbProxyObject
 90
      499
 91
      595
 93
      143
310
000101425690D154C80C4C8C131050055401
330
D09
330
4A8D
330
4A8E
 94
        0
1001
ACAD
1000
AcadProxyRoundTripData
1071
      586
1071
   393239
1070
     0
  0
ACAD_PROXY_OBJECT
  5
4A90
330
0
100
AcDbProxyObject
 90
      499
 91
      595
 93
       40
310
000100AAAA50
330
D09
330
4A8F
 94
        0
1001
ACAD
1000
AcadProxyRoundTripData
1071
      587
1071
   393239
1070
     0
  0
ACAD_PROXY_OBJECT
  5
4A91
330
0
100
AcDbProxyObject
 90
      499
 91
      595
 93
      108
310
000190140A000000000000AAAAA3
330
D09
330
4A92
330
4A92
330
4A92
330
4A92
330
4A92
330
0
 94
        0
1001
ACAD
1000
AcadProxyRoundTripData
1071
      588
1071
   393239
1070
     0
  0
ACAD_PROXY_OBJECT
  5
4A92
330
0
100
AcDbProxyObject
 90
      499
 91
      595
 93
       51
310
00010000AAAA82
330
D09
330
4A91
330
4A8F
 94
        0
1001
ACAD
1000
AcadProxyRoundTripData
1071
      589
1071
   393239
1070
     0
  0
DICTIONARY
  5
D03
102
{ACAD_REACTORS
330
D02
102
}
330
D02
100
AcDbDictionary
  3
DWGSETTINGS
350
D04
  3
TRANSSETTINGS
350
D05
  0
ACAD_PROXY_OBJECT
  5
D24
102
{ACAD_REACTORS
330
D02
102
}
330
D02
100
AcDbProxyObject
 90
      499
 91
      595
 93
    12938
310
41102491013041105357CC1074CA404C504414D5F31439329013241105357CC9054CA404CD04414D5F33419199013441105357CD103466404D504414D5F3540D199013641105357CD90248E404DD04414D5F37411199013841105357CE101466404E504414D5F397F641102324141505357CC4C1074CA408D10505414D5F31
310
3140D19902495041505357CC4C9074C902408C13905414D5F304E41D32902314E41505357CC5390E4CA408C93905414D5F324E41532902334E41505357CCD3906466408D13905414D5F344E40D19902354E41505357CD53903466408D93905414D5F364E40923902374E41505357CDD3904466408E13905414D5F384E40519
310
902394E41505357CE539FD90440CC9053906414D5F31304E41D3290334414E41905357CC4C5390346640D25413906414D5F31324E41D32409044B4C494E41505357D0D3101465094112539193D08414D5F50415245464111942D055241484D3541905357D093D49074C9094115925155D08414D5F56494557534051942D064
310
24548494E4441905357D253959FD90D415514905253105414D5F545240D194250348494441905357D212511074650940D59254D06414D5F56495341D324250650415244494D42505357D410549112535034650941949151911253509414D5F52454644494D4111942553411092139590139CFFFFFFFF415092139594D06424
310
548494E44CFFFFFFFF411093D48C9055241484D3540519411093D48CD055241484D3540923411093D48D5055241484D35CFFFFFFFF4110D0530C90134CFFFFFFFF4110D0530CD0134409234110D0530D5013441D324110D0530DD0134479464110D1539390137CFFFFFFFF4110D15395D0137CFFFFFFFF4110D312539044B4
310
C494ECFFFFFFFF4110D3D38C50130CFFFFFFFF4110D3D38C90131CFFFFFFFF4110D3D38CD0132CFFFFFFFF4110D3D38D10132CFFFFFFFF411111551050134CFFFFFFFF4111125051D0135CFFFFFFFF411112531250135CFFFFFFFF411112535410650415244494DCFFFFFFFF411112535490652454644494DCFFFFFFFF4111
310
91535390138CFFFFFFFF4151915354139013840CFFFFFFFF4151915354D41023441CFFFFFFFF4151915354D5102344140D1941519153559390132CFFFFFFFF4151915355951013240D194112105510D0138CFFFFFFFF411212511390133CFFFFFFFF4112125115D0133CFFFFFFFF411213125390134CFFFFFFFF411213D0D3
310
90137CFFFFFFFF411213D0D5D0137CFFFFFFFF4112539193D04494E464FCFFFFFFFF411311505110135CFFFFFFFF419397D0921395902394ECFFFFFFFF419397D0D3D38C502304ECFFFFFFFF419397D0D3D38C902314ECFFFFFFFF419397D0D3D38CD02324ECFFFFFFFF419397D0D3D38D102324ECFFFFFFFF419397D0D153
310
93902374ECFFFFFFFF419397D0D15395D02374ECFFFFFFFF419397D1125312502354ECFFFFFFFF419397D2105510D02384ECFFFFFFFF419397D2125113902334ECFFFFFFFF419397D2125115D02334ECFFFFFFFF419397D3115051102354ECFFFFFFFF419397D391D25410349504ECFFFFFFFF419397D412105390334414EC
310
FFFFFFFF419397D510D3D3902304ECFFFFFFFF419397D5121312502344ECFFFFFFFF419397D5131153902304ECFFFFFFFF419397D594131250332414ECFFFFFFFF411391D2541024950CFFFFFFFF411410530C9055241484D3540519411410530CD055241484D3540923411410530D5055241484D35CFFFFFFFF4114121053
310
9023441CFFFFFFFF411413D4D390135CFFFFFFFF411490D1D390137CFFFFFFFF411490D1D5D0137CFFFFFFFF4114D09492D0134CFFFFFFFF4114D150D510134CFFFFFFFF4114D6508CD013540923411354D6535013540923411510D3D390130CFFFFFFFF411512131250134CFFFFFFFF411512550C9055241484D354051941
310
1512550CD055241484D3540923411512550D5055241484D35CFFFFFFFF411513115390130CFFFFFFFF415514905253105545241494CCFFFFFFFF411514931250134CFFFFFFFF411516150C5013640D19411516150C9013640D19411516150CD0136CFFFFFFFF411516150D5013641D32411516150DD0136479464115925155
310
D0456494557CFFFFFFFF4115915112103484944CFFFFFFFF4115915115903564953CFFFFFFFF41159413125023241CFFFFFFFF411692569050134CFFFFFFFFAA9FD404FE4290E4C9074C906465054C904465034650248D014651E519FD94
340
14
340
14
340
14
340
D25
340
14
340
14
340
14
340
D26
340
14
340
14
340
D26
340
D27
340
14
340
14
340
14
340
14
340
D25
340
14
340
14
340
14
340
D26
340
14
340
14
340
D26
340
D27
340
14
340
D28
340
14
340
14
340
14
340
14
340
14
340
D25
340
14
340
14
340
14
340
13
340
13
340
13
340
13
340
13
340
13
340
13
340
13
340
13
340
D29
340
13
340
13
340
13
340
13
340
13
340
13
340
13
340
13
340
13
340
13
340
13
340
13
340
13
340
14
340
13
340
13
340
13
340
13
340
D2A
340
13
340
13
340
D29
340
13
340
13
340
13
340
13
340
13
340
13
340
13
340
13
340
D29
340
13
340
13
340
13
340
D2A
340
13
340
13
340
13
340
13
340
13
340
13
340
13
340
13
340
13
340
13
340
13
340
13
340
13
340
13
340
D29
340
13
340
13
340
13
340
13
340
13
340
13
340
13
340
13
340
13
340
13
340
13
340
13
340
13
340
13
340
13
340
13
340
13
340
13
340
13
340
13
340
13
340
13
340
D2D
 94
        0
1001
ACAD
1000
AcadProxyRoundTripData
1071
      525
1071
   393239
1070
     0
  0
ACAD_PROXY_OBJECT
  5
D54
102
{ACAD_REACTORS
330
D4F
102
}
330
D4F
100
AcDbProxyObject
 90
      499
 91
      595
 93
      253
310
43D1444494D454E53494F4E2C414D44545F2A5F44494D404A9012A404A9012AA
 94
        0
1001
ACAD
1000
AcadProxyRoundTripData
1071
      541
1071
   393239
1070
     0
  0
ACAD_PROXY_OBJECT
  5
D53
102
{ACAD_REACTORS
330
D4F
102
}
330
D4F
100
AcDbProxyObject
 90
      499
 91
      595
 93
      181
310
43D012A42D05357D191504B505357CA9012A404A9012AC
 94
        0
1001
ACAD
1000
AcadProxyRoundTripData
1071
      541
1071
   393239
1070
     0
  0
ACAD_PROXY_OBJECT
  5
D50
102
{ACAD_REACTORS
330
D4F
102
}
330
D4F
100
AcDbProxyObject
 90
      499
 91
      595
 93
      133
310
43D054841544348404A9012A404A9012A8
 94
        0
1001
ACAD
1000
AcadProxyRoundTripData
1071
      541
1071
   393239
1070
     0
  0
ACAD_PROXY_OBJECT
  5
D51
102
{ACAD_REACTORS
330
D4F
102
}
330
D4F
100
AcDbProxyObject
 90
      499
 91
      595
 93
      549
310
43D044C494E4549CE0B0E138B0A8B4E0B0A8B4E138B105357CE0B105357CE138B0A8B505357CE0B0A8B505357CE139012A404A910494E534552542C535444504152543244C
 94
        0
1001
ACAD
1000
AcadProxyRoundTripData
1071
      541
1071
   393239
1070
     0
  0
ACAD_PROXY_OBJECT
  5
D55
102
{ACAD_REACTORS
330
D4F
102
}
330
D4F
100
AcDbProxyObject
 90
      499
 91
      595
 93
      181
310
43D0341524341105357CD5012A404C906494E534552542
 94
        0
1001
ACAD
1000
AcadProxyRoundTripData
1071
      541
1071
   393239
1070
     0
  0
ACAD_PROXY_OBJECT
  5
D52
102
{ACAD_REACTORS
330
D4F
102
}
330
D4F
100
AcDbProxyObject
 90
      499
 91
      595
 93
     1053
310
43D7841434D46434652414D452C41434D444154554D5441524745542C41434D444154554D49442C41434D57454C4453594D2C41434D5355524653594D2C41434D4645415449442C41434D504152545245462C41434D42414C4C4F4F4E2C414D44544544474553594D2C414D47534352455743414C435441424C45404A9012A
310
404A9012AD
 94
        0
1001
ACAD
1000
AcadProxyRoundTripData
1071
      541
1071
   393239
1070
     0
  0
XRECORD
  5
52AB
102
{ACAD_REACTORS
330
52AA
102
}
330
52AA
100
AcDbXrecord
 90
        1
  0
XRECORD
  5
52AC
102
{ACAD_REACTORS
330
52AA
102
}
330
52AA
100
AcDbXrecord
 90
       70
  0
XRECORD
  5
52AD
102
{ACAD_REACTORS
330
52AA
102
}
330
52AA
100
AcDbXrecord
  1

  0
XRECORD
  5
52AE
102
{ACAD_REACTORS
330
52AA
102
}
330
52AA
100
AcDbXrecord
  1

  0
XRECORD
  5
52AF
102
{ACAD_REACTORS
330
52AA
102
}
330
52AA
100
AcDbXrecord
340
CFB
  0
XRECORD
  5
52B0
102
{ACAD_REACTORS
330
52AA
102
}
330
52AA
100
AcDbXrecord
340
CFC
  0
XRECORD
  5
52B1
102
{ACAD_REACTORS
330
52AA
102
}
330
52AA
100
AcDbXrecord
340
CF9
  0
XRECORD
  5
52B2
102
{ACAD_REACTORS
330
52AA
102
}
330
52AA
100
AcDbXrecord
 90
    14877
  0
XRECORD
  5
52B3
102
{ACAD_REACTORS
330
52AA
102
}
330
52AA
100
AcDbXrecord
 90
        0
  0
XRECORD
  5
52B4
102
{ACAD_REACTORS
330
52AA
102
}
330
52AA
100
AcDbXrecord
 90
        0
  0
XRECORD
  5
52B5
102
{ACAD_REACTORS
330
52AA
102
}
330
52AA
100
AcDbXrecord
  1
{50BB8086-841C-11D6-9A2A-000102212E7C}
  0
XRECORD
  5
52B6
102
{ACAD_REACTORS
330
52AA
102
}
330
52AA
100
AcDbXrecord
  1
{D25F7E4E-0C2F-40CE-A21C-95711FFD3957}
  0
XRECORD
  5
52B7
102
{ACAD_REACTORS
330
52AA
102
}
330
52AA
100
AcDbXrecord
 40
0.0
  0
XRECORD
  5
52B8
102
{ACAD_REACTORS
330
52AA
102
}
330
52AA
100
AcDbXrecord
1000
DSTYLE
1002
{
1070
   277
 70
     6
1002
}
  0
XRECORD
  5
52B9
102
{ACAD_REACTORS
330
52AA
102
}
330
52AA
100
AcDbXrecord
340
0
  0
XRECORD
  5
52BA
102
{ACAD_REACTORS
330
52AA
102
}
330
52AA
100
AcDbXrecord
 70
     0
  0
XRECORD
  5
52BB
102
{ACAD_REACTORS
330
52AA
102
}
330
52AA
100
AcDbXrecord
340
0
  0
XRECORD
  5
52BC
102
{ACAD_REACTORS
330
52AA
102
}
330
52AA
100
AcDbXrecord
 10
0.0
 20
0.0
 30
0.0
  0
XRECORD
  5
52BD
102
{ACAD_REACTORS
330
52AA
102
}
330
52AA
100
AcDbXrecord
 10
0.0
 20
0.0
 30
0.0
  0
XRECORD
  5
52BE
102
{ACAD_REACTORS
330
52AA
102
}
330
52AA
100
AcDbXrecord
 10
0.0
 20
0.0
 30
0.0
  0
XRECORD
  5
52BF
102
{ACAD_REACTORS
330
52AA
102
}
330
52AA
100
AcDbXrecord
 10
0.0
 20
0.0
 30
0.0
  0
XRECORD
  5
52C0
102
{ACAD_REACTORS
330
52AA
102
}
330
52AA
100
AcDbXrecord
 10
0.0
 20
0.0
 30
0.0
  0
XRECORD
  5
52C1
102
{ACAD_REACTORS
330
52AA
102
}
330
52AA
100
AcDbXrecord
 10
0.0
 20
0.0
 30
0.0
  0
XRECORD
  5
52C2
102
{ACAD_REACTORS
330
52AA
102
}
330
52AA
100
AcDbXrecord
340
0
  0
XRECORD
  5
52C3
102
{ACAD_REACTORS
330
52AA
102
}
330
52AA
100
AcDbXrecord
 70
     0
  0
XRECORD
  5
52C4
102
{ACAD_REACTORS
330
52AA
102
}
330
52AA
100
AcDbXrecord
340
0
  0
XRECORD
  5
52C5
102
{ACAD_REACTORS
330
52AA
102
}
330
52AA
100
AcDbXrecord
 10
0.0
 20
0.0
 30
0.0
  0
XRECORD
  5
52C6
102
{ACAD_REACTORS
330
52AA
102
}
330
52AA
100
AcDbXrecord
 10
0.0
 20
0.0
 30
0.0
  0
XRECORD
  5
52C7
102
{ACAD_REACTORS
330
52AA
102
}
330
52AA
100
AcDbXrecord
 10
0.0
 20
0.0
 30
0.0
  0
XRECORD
  5
52C8
102
{ACAD_REACTORS
330
52AA
102
}
330
52AA
100
AcDbXrecord
 10
0.0
 20
0.0
 30
0.0
  0
XRECORD
  5
52C9
102
{ACAD_REACTORS
330
52AA
102
}
330
52AA
100
AcDbXrecord
 10
0.0
 20
0.0
 30
0.0
  0
XRECORD
  5
52CA
102
{ACAD_REACTORS
330
52AA
102
}
330
52AA
100
AcDbXrecord
 10
0.0
 20
0.0
 30
0.0
  0
LAYER_INDEX
  5
49A9
102
{ACAD_REACTORS
330
49A8
102
}
330
49A8
100
AcDbIndex
 40
2453142.657702719
100
AcDbLayerIndex
  8
0
360
49AA
 90
        7
  8
DISEGNO
360
49AB
 90
      735
  8
ASSI
360
49AC
 90
       73
  8
NORMALI
360
49AD
 90
       39
  8
COMPONENTI
360
49AE
 90
       50
  8
BASE
360
49AF
 90
      119
  8
AX
360
49B0
 90
       23
  0
ACAD_PROXY_OBJECT
  5
D1E
102
{ACAD_REACTORS
330
D1D
102
}
330
D1D
100
AcDbProxyObject
 90
      499
 91
      595
 93
      219
310
057356C1D5C406406AA8FFFFFFFF0AE5095A434553203132304C4043
330
18
330
0
330
4A8F
 94
        0
1001
ACAD
1000
AcadProxyRoundTripData
1071
      522
1071
   393239
1070
     0
  0
ACAD_PROXY_OBJECT
  5
1442
102
{ACAD_REACTORS
330
D22
102
}
330
D22
100
AcDbProxyObject
 90
      499
 91
      595
 93
     2109
310
570B81E85EB51B8BE3FD04414E5349405901409022E07A17AD46E2F8FD2208721C82C6DAA6EAE4CCA8CAF0E8A6E8C88120284A0B1B6A321A329BA3220480A1A82C6DAAECAD8C8D2DCCEA6E8C8812028420B1B6A4B229BA3220480A1682C6DA88C2E8EADAA6E8C88120284A0B1B6A127A6A9BA3220480A2082DAC8E888CAE8C
310
2D2D8A6F2DAA6E8C88120288A0B6B23A29B2B1BA34B7B729BCB6A9BA3220480A2282DAC8E886CADCE8CAE498D2DCCAA6E8C88120285A0B6B23A2737BA32A9BA3220480A1682C682DACE98C2F2A6E8C88120285A0B1A0B6B3A234B6A9BA3220480A2282C682DACE90DED8CA86D0C2E4E8A6E8C88120286A0B1A0B6B3AA34BA3
310
632A9BA3220480A02810
340
E55
360
1443
360
1444
360
1445
360
1446
360
1447
360
1448
360
1449
360
144A
360
144B
360
144C
360
144D
360
144E
360
144F
360
1450
 94
        0
1001
ACAD
1000
AcadProxyRoundTripData
1071
      542
1071
   393239
1070
     0
  0
ACAD_PROXY_OBJECT
  5
D23
102
{ACAD_REACTORS
330
D22
102
}
330
D22
100
AcDbProxyObject
 90
      499
 91
      595
 93
     2211
310
5700000000000000C40D0349534F405901409020000000000000310322287A1682DAC8E88AC8CECAA6E8C8812028720B1B6A9BAB9332A32BC3A29BA3220480A1282C6DA8C868CA6E8C88120286A0B1B6ABB2B63234B733A9BA3220480A1082C6DA92C8A6E8C88120285A0B1B6A230BA3AB6A9BA3220480A1282C6DA849E9AA
310
6E8C8812028820B6B23A2232BA30B4B629BCB6A9BA3220480A2282DAC8E8A6CAC6E8D2DEDCA6F2DAA6E8C88120288A0B6B23A21B2B73A32B92634B732A9BA3220480A1682DAC8E89CDEE8CAA6E8C88120285A0B1A0B6B3A630BCA9BA3220480A1682C682DACE88D2DAA6E8C88120288A0B1A0B6B3A437B632A1B430B93A29B
310
A3220480A1A82C682DACEA8D2E8D8CAA6E8C8812032050
340
D2E
360
D2F
360
D30
360
D31
360
D32
360
D33
360
D34
360
D35
360
D36
360
D37
360
D38
360
D39
360
D3F
360
D40
360
D4C
360
D4D
 94
        0
1001
ACAD
1000
AcadProxyRoundTripData
1071
      524
1071
   393239
1070
     0
  0
ACAD_PROXY_OBJECT
  5
D04
102
{ACAD_REACTORS
330
D03
102
}
330
D03
100
AcDbProxyObject
 90
      499
 91
      595
 93
     2356
310
4050B44574753455454494E4753A1286829C8E82A4A482B282A106660F8686AF86C608321A2A720A723A0A849A1ABE1C983E18999AA0C868A9C889282940000000000000488083A1A2A72224A0A9A0A8418983E19183E199820E868A9C8892A6A894000000000000010808321A2A72622A7250000000000000122020C868A9
310
C9E8C8C940000000000000488084A1A624A720A92920ACA0A81989B982108698929C8AA8B2A082A0AB098929C8A84A22BA3AAA9A1A0A622A50A0E9882A6A89E849482A02608426A0A5A2AB24A2ABA7E8120CA0A68682988A0C00800010652455649534941501304154D0D0531150540CC4E8C50954494D455354414D504A0A
310
ECB53A1B31C734141D5915494D253D3905414C4D4B8C0C1107B44574753455454494E4753454E447D0
 94
        0
1001
ACAD
1000
AcadProxyRoundTripData
1071
      504
1071
   393239
1070
     0
  0
ACAD_PROXY_OBJECT
  5
D05
102
{ACAD_REACTORS
330
D03
102
}
330
D03
100
AcDbProxyObject
 90
      499
 91
      595
 93
      852
310
4050D5452414E5353455454494E4753A2488A482AE929C8EA8A4829CA69882A8929E9C0C00800050D4F524947494E414C4C595F4F4E0600400008529A7AAA921A2A620A723A0A81A4AA20A12AAA0A48AA68AA4AC8A0C0080001107B44574753455454494E4753454E447D0
 94
        0
1001
ACAD
1000
AcadProxyRoundTripData
1071
      504
1071
   393239
1070
     0
  0
IDBUFFER
  5
49AA
330
0
100
AcDbIdBuffer
330
4E56
330
4E57
330
4EC8
330
4EC9
330
4ECA
330
4ECD
330
50A8
  0
IDBUFFER
  5
49AB
330
0
100
AcDbIdBuffer
330
3409
330
340A
330
340B
330
340C
330
340D
330
340E
330
340F
330
3410
330
3411
330
3412
330
3413
330
3414
330
3415
330
3416
330
3417
330
3418
330
341A
330
3448
330
3449
330
344A
330
344B
330
3450
330
3451
330
3452
330
3453
330
3454
330
3455
330
3456
330
3457
330
3458
330
3459
330
345A
330
345B
330
345C
330
345D
330
345E
330
345F
330
3460
330
3461
330
3462
330
3463
330
3464
330
3465
330
3466
330
3467
330
3468
330
3469
330
346A
330
346B
330
346C
330
346D
330
346E
330
346F
330
3470
330
3471
330
3472
330
3473
330
3474
330
3475
330
3476
330
3477
330
3478
330
3479
330
347A
330
347B
330
347C
330
347D
330
347E
330
347F
330
3480
330
3481
330
3482
330
3483
330
3484
330
3485
330
3486
330
3487
330
3488
330
3489
330
348A
330
348B
330
348C
330
348D
330
348E
330
348F
330
3490
330
3491
330
3492
330
3493
330
3494
330
3495
330
3496
330
3497
330
3498
330
3499
330
349A
330
349B
330
349C
330
349D
330
349E
330
349F
330
34A0
330
34A1
330
34A2
330
34A3
330
34A4
330
34A5
330
34A6
330
34A7
330
34A8
330
34A9
330
34AA
330
34AB
330
34AC
330
34AD
330
34AE
330
3597
330
3598
330
3599
330
35A4
330
35A5
330
35A6
330
35A7
330
35A8
330
35AF
330
35B4
330
35CA
330
35CB
330
35CC
330
35CD
330
35CE
330
35D7
330
35D8
330
35D9
330
35DA
330
35DB
330
35DC
330
35DD
330
35DE
330
35DF
330
35E0
330
35E1
330
35E2
330
35E3
330
35E4
330
35E5
330
35E6
330
35E7
330
35FB
330
35FC
330
35FD
330
35FE
330
3618
330
3663
330
3664
330
3665
330
3666
330
3667
330
3668
330
3669
330
366A
330
366B
330
366C
330
366D
330
366E
330
366F
330
3670
330
3671
330
3672
330
3673
330
3674
330
3675
330
3687
330
3688
330
3689
330
368A
330
368B
330
368C
330
368D
330
368E
330
368F
330
3690
330
3691
330
3692
330
3693
330
3694
330
3695
330
3696
330
3697
330
3698
330
3699
330
369A
330
369B
330
369C
330
369D
330
369E
330
369F
330
36A0
330
36A1
330
36A2
330
36A3
330
36A4
330
36A5
330
36A6
330
36A7
330
36A8
330
36A9
330
36AA
330
36AB
330
36AC
330
36AD
330
36AE
330
36AF
330
36B0
330
36B1
330
36B2
330
36B3
330
36B4
330
36B5
330
36B6
330
36B7
330
36B8
330
36B9
330
36BA
330
36BB
330
36BC
330
36BD
330
36BE
330
36BF
330
36C0
330
36C1
330
36C2
330
36C3
330
36C4
330
36C5
330
36C6
330
36C7
330
36C8
330
36C9
330
36CA
330
36CB
330
36CC
330
36CD
330
36CE
330
3746
330
3747
330
3748
330
3749
330
374A
330
374B
330
374C
330
374D
330
374E
330
374F
330
3750
330
3751
330
3752
330
3753
330
3754
330
3755
330
3756
330
3757
330
3758
330
3759
330
375A
330
375B
330
375C
330
375D
330
375E
330
375F
330
3760
330
3761
330
3762
330
3763
330
3764
330
3765
330
3766
330
3767
330
3768
330
3769
330
376A
330
376B
330
376C
330
376D
330
376E
330
376F
330
3770
330
3771
330
3772
330
3773
330
3774
330
3775
330
3776
330
3777
330
3778
330
3779
330
377A
330
377B
330
377C
330
377D
330
377E
330
377F
330
3780
330
3781
330
3782
330
3783
330
3784
330
3785
330
3786
330
3787
330
3788
330
3789
330
378A
330
378B
330
378C
330
378D
330
378E
330
378F
330
3790
330
3791
330
3792
330
3793
330
3794
330
3795
330
3796
330
3797
330
3798
330
3799
330
379A
330
379B
330
379C
330
379D
330
379E
330
379F
330
37A0
330
37A1
330
37A2
330
37A3
330
37A4
330
37A5
330
37A6
330
37A7
330
37A8
330
37A9
330
37AA
330
37AB
330
37AC
330
37AD
330
37AE
330
37AF
330
37B0
330
37B1
330
37B2
330
37B3
330
37B4
330
37B5
330
37B6
330
37B7
330
37B8
330
37B9
330
37BA
330
37BB
330
37BC
330
37BD
330
37BE
330
37BF
330
37C0
330
37C1
330
37C2
330
37C3
330
37C4
330
37C5
330
37C6
330
37C7
330
37C8
330
37C9
330
37CA
330
37CB
330
37CC
330
37CD
330
37CE
330
37CF
330
37D0
330
37D1
330
37D2
330
37D3
330
37D4
330
37D5
330
37D6
330
37D7
330
37D8
330
37D9
330
37DA
330
37DB
330
37DC
330
37DD
330
37DE
330
37DF
330
37E0
330
37E1
330
37E2
330
37E3
330
37E4
330
37E5
330
37E6
330
37E7
330
37E9
330
37EA
330
37EB
330
37EC
330
37ED
330
37EE
330
37EF
330
37F0
330
37F1
330
37F2
330
37F3
330
37F4
330
37F5
330
37F6
330
37F7
330
37F8
330
37F9
330
37FA
330
37FB
330
37FC
330
37FD
330
37FE
330
37FF
330
3800
330
3801
330
3802
330
3803
330
3804
330
3805
330
3806
330
3807
330
3808
330
3809
330
380A
330
380B
330
380C
330
380D
330
380E
330
380F
330
3810
330
3811
330
3812
330
3813
330
3814
330
3815
330
3816
330
3817
330
3818
330
3819
330
381A
330
381B
330
381C
330
381D
330
381E
330
381F
330
3820
330
3821
330
3822
330
3823
330
3824
330
3825
330
3826
330
3827
330
3828
330
3829
330
382A
330
382B
330
382C
330
382D
330
382E
330
382F
330
3830
330
3831
330
3832
330
3833
330
3834
330
3835
330
3836
330
3837
330
3838
330
3839
330
383A
330
383B
330
383C
330
383D
330
383E
330
383F
330
3840
330
3841
330
3842
330
3843
330
3844
330
3845
330
3846
330
3847
330
3848
330
3849
330
384A
330
384B
330
384C
330
384D
330
384E
330
384F
330
3850
330
3851
330
3852
330
3853
330
3854
330
3855
330
3856
330
3857
330
3858
330
3859
330
385A
330
385B
330
385C
330
385E
330
385F
330
3860
330
3861
330
3873
330
3874
330
3879
330
387A
330
387B
330
387C
330
387D
330
387E
330
387F
330
3880
330
3881
330
3882
330
3883
330
3884
330
3885
330
3886
330
38BA
330
38BB
330
38BC
330
38BD
330
38BE
330
38BF
330
38C1
330
38C4
330
38C5
330
38C6
330
38C7
330
38C8
330
38C9
330
38CA
330
38CB
330
38DF
330
38E0
330
38E1
330
38E2
330
38E3
330
38E4
330
38E5
330
38E6
330
38E7
330
38E8
330
38E9
330
38EA
330
38EB
330
38EC
330
38ED
330
38EE
330
38EF
330
38F0
330
38F1
330
38F2
330
38F3
330
38F4
330
38F5
330
38F6
330
38F7
330
391A
330
391B
330
391C
330
391D
330
391F
330
3922
330
4E4B
330
4E4C
330
4E4D
330
4E4E
330
4E4F
330
4E51
330
4E52
330
4E53
330
4E54
330
4E5A
330
4E65
330
4E69
330
4E82
330
4E87
330
4E88
330
4E89
330
4E8F
330
4E90
330
4E91
330
4E92
330
4EA2
330
4EA7
330
4EA8
330
4EA9
330
4EB2
330
4EB3
330
4EB4
330
4EB5
330
4EB9
330
4EBA
330
4EBD
330
4EBE
330
4EC6
330
4ECB
330
4EDD
330
4EED
330
4EEE
330
4EF2
330
4EF3
330
4EF7
330
4EF8
330
4EFB
330
4EFC
330
4EFD
330
4EFE
330
4EFF
330
4F00
330
4F01
330
4F02
330
4F03
330
4F06
330
4F13
330
4F1C
330
4F20
330
4F21
330
4F22
330
4F23
330
4F25
330
4F29
330
4F2A
330
4F2C
330
4F31
330
4F39
330
4F3F
330
4F40
330
4F41
330
4F42
330
4F47
330
4F48
330
4F49
330
4F59
330
4F5E
330
4F5F
330
4F60
330
4F61
330
4F67
330
4F68
330
4F69
330
4F70
330
4F72
330
4F74
330
4F7D
330
4F7E
330
4F7F
330
4F88
330
4F8C
330
4F93
330
4F95
330
4F96
330
4F97
330
4F9A
330
4F9D
330
4F9E
330
4F9F
330
4FA0
330
4FA2
330
4FA4
330
4FA5
330
50A5
330
50A6
330
50A7
330
50AC
330
50BC
330
50BD
330
51B8
330
51B9
330
51BA
330
51BB
330
51BC
330
51BD
330
51BE
330
51BF
330
51C0
330
51C1
330
51C2
330
51C3
330
51C4
330
51C5
330
51C6
330
51C8
330
51CA
330
51CB
330
51CC
330
51CD
330
51CE
330
51CF
330
51D0
330
51D1
330
51D2
330
51D3
330
51D4
330
51D5
330
51D6
330
51D7
330
51DB
330
51DC
330
51DF
330
51E0
330
51E4
330
51E5
330
51E9
330
51EA
330
51EB
330
51EC
330
51ED
330
51EE
330
51EF
  0
IDBUFFER
  5
49AC
330
0
100
AcDbIdBuffer
330
3407
330
3408
330
3447
330
3745
330
484E
330
4E55
330
4E5E
330
4E5F
330
4E7C
330
4E7E
330
4E83
330
4E84
330
4E85
330
4E8B
330
4E8C
330
4E8D
330
4E8E
330
4E9B
330
4E9C
330
4EA3
330
4EA4
330
4EA5
330
4EA6
330
4EAE
330
4EAF
330
4EB0
330
4EB1
330
4EBB
330
4EBC
330
4EBF
330
4EC0
330
4ED5
330
4ED6
330
4ED8
330
4ED9
330
4EDB
330
4EE9
330
4EEB
330
4F04
330
4F05
330
4F24
330
4F26
330
4F27
330
4F28
330
4F2B
330
4F3A
330
4F3D
330
4F3E
330
4F43
330
4F44
330
4F45
330
4F5A
330
4F5B
330
4F5C
330
4F62
330
4F63
330
4F64
330
4F71
330
4F73
330
4F75
330
4F98
330
4F99
330
4F9B
330
4F9C
330
4FA1
330
4FA3
330
4FA7
330
50BB
330
51C9
330
51DA
330
51F0
330
51F1
330
51FE
  0
IDBUFFER
  5
49AD
330
0
100
AcDbIdBuffer
330
4E50
330
4E66
330
4E67
330
4E74
330
4E75
330
4E76
330
4E77
330
4E78
330
4E79
330
4E7A
330
4E7B
330
4E97
330
4E98
330
4ED7
330
4EDA
330
4F11
330
4F12
330
4F15
330
4F16
330
4F19
330
4F1A
330
4F2F
330
4F30
330
4F4D
330
4F4E
330
4F4F
330
4F50
330
4F51
330
4F52
330
4F53
330
4F54
330
4F6D
330
4F6E
330
4F8D
330
4F8E
330
4F8F
330
4F90
330
4F91
330
4F92
  0
IDBUFFER
  5
49AE
330
0
100
AcDbIdBuffer
330
4E6F
330
4E70
330
4E73
330
4E94
330
4E95
330
4E9A
330
4ECF
330
4ED1
330
4ED2
330
4ED3
330
4ED4
330
4EDE
330
4EE3
330
4EE4
330
4EE5
330
4EE6
330
4F0A
330
4F0B
330
4F0D
330
4F1E
330
4F35
330
4F37
330
4F46
330
4F4A
330
4F4B
330
4F56
330
4F57
330
4F65
330
4F66
330
4F6B
330
4F76
330
4F79
330
4F7A
330
4F7C
330
4F80
330
4F82
330
4F83
330
4F8A
330
50AE
330
50B3
330
50B4
330
50B5
330
50B7
330
5145
330
5166
330
516C
330
51AB
330
51B1
330
5226
330
5227
  0
IDBUFFER
  5
49AF
330
0
100
AcDbIdBuffer
330
4E58
330
4E59
330
4E5B
330
4E5C
330
4E5D
330
4E60
330
4E64
330
4E68
330
4E6A
330
4E6D
330
4E71
330
4E72
330
4E8A
330
4E93
330
4E96
330
4E99
330
4EA1
330
4EB6
330
4EC1
330
4EC2
330
4EC3
330
4EC4
330
4EC5
330
4EC7
330
4ECC
330
4ECE
330
4ED0
330
4EDC
330
4EDF
330
4EE0
330
4EE1
330
4EE2
330
4EE7
330
4EE8
330
4EEA
330
4EEF
330
4EF0
330
4EF1
330
4EF4
330
4EF5
330
4EF6
330
4EF9
330
4EFA
330
4F07
330
4F08
330
4F09
330
4F0C
330
4F0E
330
4F0F
330
4F10
330
4F14
330
4F17
330
4F18
330
4F1B
330
4F1D
330
4F1F
330
4F2D
330
4F2E
330
4F32
330
4F33
330
4F34
330
4F36
330
4F38
330
4F3B
330
4F3C
330
4F4C
330
4F55
330
4F58
330
4F5D
330
4F6A
330
4F6C
330
4F6F
330
4F77
330
4F78
330
4F7B
330
4F81
330
4F84
330
4F85
330
4F86
330
4F87
330
4F89
330
4F8B
330
4F94
330
4FA8
330
4FA9
330
4FAA
330
4FAB
330
4FAC
330
50AB
330
50AF
330
50B0
330
50B1
330
50B2
330
50B8
330
50B9
330
50BA
330
50C9
330
5165
330
51D8
330
51DD
330
51DE
330
51E1
330
51E2
330
51E3
330
51E6
330
51E7
330
51E8
330
51F2
330
51F3
330
51F4
330
51F5
330
51F6
330
51F7
330
51F8
330
51F9
330
51FA
330
51FB
330
51FC
330
51FD
  0
IDBUFFER
  5
49B0
330
0
100
AcDbIdBuffer
330
4E61
330
4E62
330
4E63
330
4E6B
330
4E6C
330
4E6E
330
4E7D
330
4E7F
330
4E80
330
4E81
330
4E86
330
4E9D
330
4E9E
330
4E9F
330
4EA0
330
4EAA
330
4EAB
330
4EAC
330
4EAD
330
4EB7
330
4EB8
330
4EEC
330
51D9
  0
ACAD_PROXY_OBJECT
  5
1443
330
1442
100
AcDbProxyObject
 90
      499
 91
      595
 93
       96
310
57020E80A0280A0280A0280800
 94
        0
1001
ACAD
1000
AcadProxyRoundTripData
1071
      543
1071
   393239
1070
     0
  0
ACAD_PROXY_OBJECT
  5
1444
330
1442
100
AcDbProxyObject
 90
      499
 91
      595
 93
      332
310
5710E4050140501405014050140501405014050142501405014050140501405012000000000000000404
340
E56
 94
        0
1001
ACAD
1000
AcadProxyRoundTripData
1071
      544
1071
   393239
1070
     0
  0
ACAD_PROXY_OBJECT
  5
1445
330
1442
100
AcDbProxyObject
 90
      499
 91
      595
 93
      402
310
570C199999999999E99F91F4050140501405014050140501405014050140501405014050140501405014050140501405014044
340
0
 94
        0
1001
ACAD
1000
AcadProxyRoundTripData
1071
      545
1071
   393239
1070
     0
  0
ACAD_PROXY_OBJECT
  5
1446
330
1442
100
AcDbProxyObject
 90
      499
 91
      595
 93
       10
310
5701
 94
        0
1001
ACAD
1000
AcadProxyRoundTripData
1071
      546
1071
   393239
1070
     0
  0
ACAD_PROXY_OBJECT
  5
1447
330
1442
100
AcDbProxyObject
 90
      499
 91
      595
 93
      223
310
572290EA22A7D90F49F9353333333333727F44D4CCCCCCCCCDC9FA04
340
E4B
340
E4C
 94
        0
1001
ACAD
1000
AcadProxyRoundTripData
1071
      547
1071
   393239
1070
     0
  0
ACAD_PROXY_OBJECT
  5
1448
330
1442
100
AcDbProxyObject
 90
      499
 91
      595
 93
    12881
310
5710E4112551153501411413D4CB901405014069011349A4F2590CB64FD3347454E545241434F2C4954412C302C504F532E2C47454E54524154582C25732C2847454E4D53472067656E647767203232322940690120281A8AA2CA0281A8AA602028120280A03202269349E4B2196C9FA648E8A9CA8A482869E5892A8825860
310
58A2A980588E8A9CA8A482A8B0584AE658508E8A9C9AA68E40CECADCC8EECE406464665280D202405044E414D45405044E4F4D454051C40640A8BA5C2E97CBE502404CD1D15395149050D3CB1255104B0C0B1393D3514B11D15395149055160B095CCB0A11D1539354D1C819D95B991DD9C80C8C8D8A50190B3D424C4F434B
310
3A4E414D4540480A0A888AA686A480A16888AA686A492B4929E9C8A80A3A80C81D10782C06030180C809D23A2A72A2920A1A79624AA209618162222A9A1A924AD24A7A7229623A2A72A2920AA2C1612B9961423A2A726A9A39033B2B7323BB39019189B94A024809014214D51053911054911014214D510539110549110147
310
501904A383BFDFEFF5FBFCFD3747454E545241434F2C4954412C302C5354414E444152442C47454E54524154582C25732C2847454E4D53472067656E64776720323138294049012028426A0AA22A924A0A620284A6A0AA22A924A0A622A028EA0320B41416D838E9017D9FA708E8A9CA8A482869E5892A8825860589A82A88
310
AA49282988A588E8A9CA8A482A8B0584AE658508E8A9C9AA68E40CECADCC8EECE406464625280D202405044E4F5445405044E4F54414051D40641A8BA5C2E97CBE5F23F4CD1D15395149050D3CB1255104B0C0B1393D5104B11D15395149055160B095CCB0A11D1539354D1C819D95B991DD9C80C8C8D4A501A40480A0CAC8
310
A9C889EA480A128C9EA49C92A89EA48A80A3A80C83D174B85D2F97CBE47E9C23A2A72A2920A1A79624AA209618162327A92724AA27A9229623A2A72A2920AA2C1612B9961423A2A726A9A39033B2B7323BB39019191A14A0348090141911154D0D48C90143511154D0D492569253D391480C90147501908A20F0580C060301
310
9013B47454E545241434F2C4954412C302C4445534352495A494F4E4520322C47454E54524154582C25732C2847454E4D53472067656E6477672033362940490120284A9AA20A72220A922192028529AA20A72220A92210192028EA0321347077FBFDFEBF7F9FA728E8A9CA8A482869E5892A882586058A6A8829C8882A488
310
4064588E8A9CA8A482A8B0584AE658508E8A9C9AA68E40CECADCC8EECE4064646052809202405094D4154455249414C324050B4D4154455249414C4520324051D40642A8282DB071D202FB3F4E51D15395149050D3CB1255104B0C0B135055115492505311480C8B11D15395149055160B095CCB0A11D1539354D1C819D95B
310
991DD9C80D0C0A501240480A089A82A6A680A0A9A82A6A68280A3A80A0485A0681174B85D2F97CBE47E99A3A2A72A2920A1A79624AA2096181626A0A9A9A09623A2A72A2920AA2C1612B9961423A2A726A9A39033B2B7323BB3901A1914A024809014154149250D150141941491569693D01475014090C409022E970BA5F2F
310
97C8FD3447454E545241434F2C4954412C302C5052455A5A4F2C47454E54524154582C25732C2847454E4D53472067656E6477672034332940490120281A224A6A028326A4A9AAA920A028EA028121A81A045D2E174BE5F2F91FA688E8A9CA8A482869E5892A8825860589A92A6AAA482588E8A9CA8A482A8B0584AE658508
310
E8A9C9AA68E40CECADCC8EECE406868528092024050E441022E07A17AD46E338FD1E004062B355AAD56AB7D8FCACD56AB55AADF63F41CF4F125511534F9014062B355AAD56AB7D8FCACD56AB55AADF63F41CF4F125511534F9014062431F8FC5E0F3B8FC90C7E3F1783CEE3F41CF4F125511534F9014062431F8FC5E0F3B8F
310
C90C7E3F1783CEE3F41CF4F125511534F90140A404ACD56AB55AADF63F2B355AAD56AB7D8FD073D3C4954454D3E405063D3C5154593E405018ACD56AB55AADF63F2B355AAD56AB7D8FD073D3C4954454D3E40640400ACD56AB55AADF63F2B355AAD56AB7D8FE8800000000000002081A0881A068120480A032208521122080
310
D21480D211480A1485214852050000000000003C2FC000000000000F0BF4050241C3BDF4F8D976EA23F0EF7D3E365DBA88FCB81E85EB51B8BE3FC80D069014090541D06901A5C0F42F5A8DC5F1FA0483A048098A028081
340
0
340
0
 94
        0
1001
ACAD
1000
AcadProxyRoundTripData
1071
      548
1071
   393239
1070
     0
  0
ACAD_PROXY_OBJECT
  5
1449
330
1442
100
AcDbProxyObject
 90
      499
 91
      595
 93
      960
310
5700B81E85EB51B8CE3F4BCF511155105253080F11115510525317D3105091530F971414D0D05311480F11115510525317D05094D4D0D053114F92341C9A9999999999B93F26A666666666724FC000000000000E03F40000000000000040000000000000051000000000000002440478B81E85EB51B8CE3F3E
340
E47
340
E55
 94
        0
1001
ACAD
1000
AcadProxyRoundTripData
1071
      549
1071
   393239
1070
     0
  0
ACAD_PROXY_OBJECT
  5
144A
330
1442
100
AcDbProxyObject
 90
      499
 91
      595
 93
      745
310
570031703D0BD6A3719C7E999EA9A2A1AA24A7A7101E29A2A1AA24A7A72FA620A122A62FA324A929AA1F169E29A2A1AA24A7A72FA620A122A62FA620A9AA1F1353333333333B27EFF41C8823C4D4CCCCCCCCCEC9FC5C0F42F5A8DC671FC2
340
E47
340
E55
 94
        0
1001
ACAD
1000
AcadProxyRoundTripData
1071
      550
1071
   393239
1070
     0
  0
ACAD_PROXY_OBJECT
  5
144B
330
1442
100
AcDbProxyObject
 90
      499
 91
      595
 93
      279
310
5702B8716D9CEF7C33F0A5723F0BD4A2F0FC295C8FC2F528BC3FA199999999999F99FC
 94
        0
1001
ACAD
1000
AcadProxyRoundTripData
1071
      551
1071
   393239
1070
     0
  0
ACAD_PROXY_OBJECT
  5
144C
330
1442
100
AcDbProxyObject
 90
      499
 91
      595
 93
     5890
310
571084050B90142A40502405094D6F64656C6C6F2031405EA3D3C696628657175616C28486F6C653A7461707065642C223022292C222525632220486F6C653A6469612C20486F6C653A6E6F6D696E616C2022202220696628657175616C28486F6C653A756E6974732C223122292C2278222C222D22292022202220486F6C6
310
53A706974636864657363293E207B5C46414D4744543B787D203C696628657175616C28486F6C653A7465726D696E6174696F6E2C223022292C486F6C653A64657074682C225448525522293E5C507B5C46414D4744543B767D2525633C486F6C653A63746469613E207B5C46414D4744543B787D203C486F6C653A6374646
310
57074683E40640503405094D6F64656C6C6F2031405E33D3C696628657175616C28486F6C653A7461707065642C223022292C222525632220486F6C653A6469612C20486F6C653A6E6F6D696E616C2022202220696628657175616C28486F6C653A756E6974732C223122292C2278222C222D22292022202220486F6C653A7
310
06974636864657363293E207B5C46414D4744543B787D203C696628657175616C28486F6C653A7465726D696E6174696F6E2C223022292C486F6C653A64657074682C225448525522293E5C507B5C46414D4744543B777D2525633C486F6C653A63746469613E2058203C486F6C653A6374616E676C653E252564406405014
310
05094D6F64656C6C6F2031405B43D3C696628657175616C28486F6C653A7461707065642C223022292C222525632220486F6C653A6469612C20486F6C653A6E6F6D696E616C2022202220696628657175616C28486F6C653A756E6974732C223122292C2278222C222D22292022202220486F6C653A7069746368646573632
310
93E5C507B5C46414D4744543B787D203C696628657175616C28486F6C653A7465726D696E6174696F6E2C223022292C486F6C653A64657074682C225448525522293E4064051E405094D6F64656C6C6F20314050C3D3C535444503A444553433E40640515A88
 94
        0
1001
ACAD
1000
AcadProxyRoundTripData
1071
      552
1071
   393239
1070
     0
  0
ACAD_PROXY_OBJECT
  5
144D
330
1442
100
AcDbProxyObject
 90
      499
 91
      595
 93
       20
310
571010
340
0
 94
        0
1001
ACAD
1000
AcadProxyRoundTripData
1071
      537
1071
   393239
1070
     0
  0
ACAD_PROXY_OBJECT
  5
144E
330
1442
100
AcDbProxyObject
 90
      499
 91
      595
 93
      258
310
57102000000000000380FC000000000000E03F408F0F9023C3E40DB18CCCFFFFB8
340
E58
340
0
340
0
340
E59
340
E5A
340
0
340
E5B
340
E5C
340
E5D
340
0
 94
        0
1001
ACAD
1000
AcadProxyRoundTripData
1071
      538
1071
   393239
1070
     0
  0
ACAD_PROXY_OBJECT
  5
144F
330
1442
100
AcDbProxyObject
 90
      499
 91
      595
 93
    13409
310
5711A023FFFFFFFD010300002E07A17AD46E2F8FC09010300002E07A17AD46E2F8FC080511454C454E434F20434F4F5244494E415445015011D15395149050D3CB1255104B0C0B1153115390D3C810D3D3D49112539055114B11D15395149055160B095CCB0A11D1539354D1C819D95B991A5B5E880CCC0A78000C00000000
310
0000000000000000000000007B14AE47E17AA43F2E07A17AD46E2F8FD021EC52B91F85EA90FCB81E85EB51B8BE3F40A014315105091531310481193D4924053B47454E545241434F2C4954412C302C544142454C4C4120464F52492C47454E54524154582C25732C2847454E4D53472067656E64696D7A20333129E0003000
310
000000000000000000000000000001EC52B91F85EA90FCB81E85EB51B8BE3F4087B14AE47E17AA43F2E07A17AD46E2F8FD0290B4410F4450240D04415014391244D05449074510C4350F000141D3D49251D253914053547454E545241434F2C4954412C302C4F524947494E452C47454E54524154582C25732C2847454E4D5
310
3472067656E64696D7A20312900010105002214000283A7A924A3A4A72280A6A8E8A9CA8A482869E5892A8825860589EA4928E929C8A588E8A9CA8A482A8B0584AE658508E8A9C9AA68E40CECADCC8D2DAF4406252000202080043E8000504464F524F014C91D15395149050D3CB1255104B0C0B1193D493CB11D153951490
310
55160B095CCB0A11D1539354D1C819D95B991A5B5E880C8A405163D3C486F6C654974656D3E3C486F6C65496E6465783E010104002234000280AC00A5E8E8A9CA8A482869E5892A882586058B0588E8A9CA8A482A8B0584AE658508E8A9C9AA68E40CECADCC8D2DAF4406652000202000040A800050159014BD1D153951490
310
50D3CB1255104B0C0B164B11D15395149055160B095CCB0A11D1539354D1C819D95B991A5B5E880D0A4000404000081D0000A02A40297A3A2A72A2920A1A79624AA20961816291623A2A72A2920AA2C1612B9961423A2A726A9A39033B2B73234B6BD101B148000808000104A000141954ACC0D0D0D0053447454E54524143
310
4F2C4954412C302C552B303434342C47454E54524154582C25732C2847454E4D53472067656E64696D7A203729000101030020B40002822827A99700A668E8A9CA8A482869E5892A882586058A09EA65C588E8A9CA8A482A8B0584AE658508E8A9C9AA68E40CECADCC8D2DAF4406268520002020A004068000506494E44494
310
345014D51D15395149050D3CB1255104B0C0B1253911250D14B11D15395149055160B095CCB0A11D1539354D1C819D95B991A5B5E880C4D4A400040414008750000A088C9EA49E0299A3A2A72A2920A1A79624AA209618162327A9279623A2A72A2920AA2C1612B9961423A2A726A9A39033B2B73234B6BD10189B14800080
310
8200112A000142D253911250D1481193D493C053A47454E545241434F2C4954412C302C494E4449434520464F524F2C47454E54524154582C25732C2847454E4D53472067656E64696D7A20313729000101050022740002819292A180A628E8A9CA8A482869E5892A8825860584A4A86588E8A9CA8A482A8B0584AE658508E
310
8A9C9AA68E40CECADCC8D2DAF4407052000202020041E80005035154C0014C91D15395149050D3CB1255104B0C0B1455300B11D15395149055160B095CCB0A11D1539354D1C819D95B991A5B5E880C4E4A400040418008A50000A16888AA686A492B4929E9C8A029D23A2A72A2920A1A79624AA209618162222A9A1A924AD2
310
4A7A7229623A2A72A2920AA2C1612B9961423A2A726A9A39033B2B73234B6BD10191814800080020010CA00014214D51053911054910053747454E545241434F2C4954412C302C5354414E444152442C47454E54524154582C25732C2847454E4D53472067656E64696D7A20323129000100040021B4878030026A66666666
310
67A4FE064D4CCCCCCCCCF49FC049A9999999999E93F809353333333333D27F0226A6666666667A4FE044D4CCCCCCCCCF49FC009A9999999999D93F801353333333333D27F0026A6666666667A4FE004D4CCCCCCCCCF49FC0D819703D0BD6A371BC7F03000000000000001020633B333333333032050F006004D4CCCCCCCCCF
310
49FC0C9A9999999999E93F819353333333333D27F0326A6666666667A4FE064D4CCCCCCCCCF49FC0C9A9999999999E93F801353333333333B27F0026A6666666667A4FE064D4CCCCCCCCCF49FC009A9999999999E93F81B032E07A17AD46E378FE06000000000000002040C6766666666660640A088800000021E000000890
310
000002260000008220E000200890000002060002008100008015
340
0
340
0
340
0
340
0
 94
        0
1001
ACAD
1000
AcadProxyRoundTripData
1071
      553
1071
   393239
1070
     0
  0
ACAD_PROXY_OBJECT
  5
1450
330
1442
100
AcDbProxyObject
 90
      499
 91
      595
 93
     5766
310
5719741105394D2506414E53495F4342905394D257D512551554D15414E53495F54525F5265766973696F6E6C697374614191243202831372E307832322E30706F6C6C2E2941905394D257D0D1246202832382E307834302E30706F6C6C2E2941905394D257D1911412028382E357831312E30706F6C6C2E2941905394D257
310
D051242202831312E307831372E30706F6C6C2E2941905394D257D091244202832322E307833342E30706F6C6C2E2941905394D257D111245202833342E307834342E30706F6C6C2E2941905394D257D150544505394D24810D85C9D1A59DB1A5BC81050D0C414E53495F5449544C4541434310D85C9D1A59DB1A5BC81554D
310
0A414E53495F544954555344105394D24810D85C9D1A59DB1A5BC81050B414E53495F5449544C454144105394D24810D85C9D1A59DB1A5BC81110B414E53495F5449544C454444505394D24810D85C9D1A59DB1A5BC81110D0C414E53495F5449544C45444342116456C656E636F207265766973696F6E6920445F54525F45
310
505394D257D51497D4995D9A5CDA5BDB9B1A5CDD19116456C656E636F207265766973696F6E6920415F424C5F45505394D257D09317D4995D9A5CDA5BDB9B1A5CDD18516456C656E636F207265766973696F6E6920415F544C5F45505394D257D51317D4995D9A5CDA5BDB9B1A5CDD18516456C656E636F207265766973696
310
F6E6920445F424C5F45505394D257D09317D4995D9A5CDA5BDB9B1A5CDD19116456C656E636F207265766973696F6E6920445F544C5F45505394D257D51317D4995D9A5CDA5BDB9B1A5CDD19116456C656E636F207265766973696F6E6920415F42525F45505394D257D09497D4995D9A5CDA5BDB9B1A5CDD18516456C656E
310
636F207265766973696F6E6920415F54525F45505394D257D51497D4995D9A5CDA5BDB9B1A5CDD18516456C656E636F207265766973696F6E6920445F42525F45505394D257D09497D4995D9A5CDA5BDB9B1A5CDD190
 94
        0
1001
ACAD
1000
AcadProxyRoundTripData
1071
      540
1071
   393239
1070
     0
  0
ACAD_PROXY_OBJECT
  5
D2F
330
D23
100
AcDbProxyObject
 90
      499
 91
      595
 93
       12
310
5711
 94
        0
1001
ACAD
1000
AcadProxyRoundTripData
1071
      526
1071
   393239
1070
     0
  0
ACAD_PROXY_OBJECT
  5
D30
330
D23
100
AcDbProxyObject
 90
      499
 91
      595
 93
       96
310
572A0E80A0280A0280A0280FC3
 94
        0
1001
ACAD
1000
AcadProxyRoundTripData
1071
      527
1071
   393239
1070
     0
  0
ACAD_PROXY_OBJECT
  5
D31
330
D23
100
AcDbProxyObject
 90
      499
 91
      595
 93
      272
310
5710E4050140501405014050140501405014050140D01405012C0000000000000040F9
340
D3A
 94
        0
1001
ACAD
1000
AcadProxyRoundTripData
1071
      528
1071
   393239
1070
     0
  0
ACAD_PROXY_OBJECT
  5
D32
330
D23
100
AcDbProxyObject
 90
      499
 91
      595
 93
      496
310
5728666666666667A67E199999999999E99FD22405014050140501405014050140501405014050140501405014050140501405014050140501405014050103
340
D3B
 94
        0
1001
ACAD
1000
AcadProxyRoundTripData
1071
      529
1071
   393239
1070
     0
  0
ACAD_PROXY_OBJECT
  5
D33
330
D23
100
AcDbProxyObject
 90
      499
 91
      595
 93
       10
310
5701
 94
        0
1001
ACAD
1000
AcadProxyRoundTripData
1071
      530
1071
   393239
1070
     0
  0
ACAD_PROXY_OBJECT
  5
D34
330
D23
100
AcDbProxyObject
 90
      499
 91
      595
 93
      223
310
572290EA22A7D90F49F8000000000000108140000000000000420205
340
D3C
340
D3D
 94
        0
1001
ACAD
1000
AcadProxyRoundTripData
1071
      531
1071
   393239
1070
     0
  0
ACAD_PROXY_OBJECT
  5
D35
330
D23
100
AcDbProxyObject
 90
      499
 91
      595
 93
    12879
310
5710E411255115350141141BDCCB90140501406901000000000000091013347454E545241434F2C4954412C302C506F732E2C47454E54524154582C25732C2847454E4D53472067656E647767203232322940690120281A8AA2CA0281A8BA702028120280A0320200000000000012202648E8A9CA8A482869E5892A8825860
310
58A2E9C0588E8A9CA8A482A8B0584AE658508E8A9C9AA68E40CECADCC8EECE406464665280D202405044E414D45405044E6F6D654051C40640A80000000000004E404CD1D15395149050D3CB1255104B0C0B139BDB594B11D15395149055160B095CCB0A11D1539354D1C819D95B991DD9C80C8C8D8A50190B3D424C4F434B
310
3A4E414D4540480A0A888AA686A480A1688CAE6C6E4D2F4D2DEDCCA80A3A80C81D0000000000100A2809D23A2A72A2920A1A79624AA209618162232B9B1B934BD34B7B7329623A2A72A2920AA2C1612B9961423A2A726A9A39033B2B7323BB39019189B94A034809014214D51053911054911014214DD185B99185C9910147
310
501904A000000000000125013747454E545241434F2C4954412C302C5374616E646172642C47454E54524154582C25732C2847454E4D53472067656E64776720323138294069012028426A0AA22A924A0A620284A6B0BA32B934B0B632A028EA0320B40000000000001CA02708E8A9CA8A482869E5892A8825860589AC2E8C
310
AE4D2C2D8CA588E8A9CA8A482A8B0584AE658508E8A9C9AA68E40CECADCC8EECE406464625280D202405044E4F5445405044E6F74614051D40641A80000000000003E404CD1D15395149050D3CB1255104B0C0B139BDD184B11D15395149055160B095CCB0A11D1539354D1C819D95B991DD9C80C8C8D4A501240480A0CAC8
310
A9C889EA480A128CDEE4DCD2E8DEE4CA80A3A80C83D00000000000007C809C23A2A72A2920A1A79624AA209618162337B93734BA37B9329623A2A72A2920AA2C1612B9961423A2A726A9A39033B2B7323BB39019191A14A0248090141911154D0D48C9014351195CD8DC9A5E9A5BDB99480C90147501908A00000000002014
310
5013B47454E545241434F2C4954412C302C4465736372697A696F6E6520322C47454E54524154582C25732C2847454E4D53472067656E6477672033362940490120284A9AA20A72220A922192028529BA30B73230B93210192028EA03213400000000000024A02728E8A9CA8A482869E5892A882586058A6E8C2DCC8C2E4C8
310
4064588E8A9CA8A482A8B0584AE658508E8A9C9AA68E40CECADCC8EECE4064646052809202405094D4154455249414C324050B4D6174657269616C6520324051D40642A8713D0AD7A37045404E51D15395149050D3CB1255104B0C0B13585D195C9A585B19480C8B11D15395149055160B095CCB0A11D1539354D1C819D95B
310
991DD9C80D0C0A501240480A089A82A6A680A0A9AC2E6E6C280A3A80A0485A068100000000000007C8099A3A2A72A2920A1A79624AA2096181626B0B9B9B09623A2A72A2920AA2C1612B9961423A2A726A9A39033B2B7323BB3901A1914A024809014154149250D150141941C995E9E9BD01475014090C4090200000000000
310
00F9013447454E545241434F2C4954412C302C5072657A7A6F2C47454E54524154582C25732C2847454E4D53472067656E6477672034332940490120281A224A6A028326B4B9BAB930A028EA028121A81A040000000000001F202688E8A9CA8A482869E5892A8825860589AD2E6EAE4C2588E8A9CA8A482A8B0584AE658508
310
E8A9C9AA68E40CECADCC8EECE406868528092024050E445020000000000000510107004060000000000000F9000000000000003E4041CF4F125511534F9014060000000000000F9000000000000003E4041CF4F125511534F9014060000000000000D100000000000000344041CF4F125511534F9014060000000000000D10
310
0000000000000344041CF4F125511534F90140A4040000000000003E400000000000000F901073D3C4954454D3E405063D3C5154593E4050180000000000003E400000000000000F901073D3C4954454D3E406404000000000000003E400000000000000F902888000000000000208081A0881A068120480A0322085211220
310
80D21480D211480A1485214852050000000000003C2FC000000000000F0BF4050241CCDCCCCCCCCCCEC3F3373333333333B0FC0000000000000C40480D0590140D04416406800000000000018808120480A026280A02
340
0
340
0
 94
        0
1001
ACAD
1000
AcadProxyRoundTripData
1071
      532
1071
   393239
1070
     0
  0
ACAD_PROXY_OBJECT
  5
D36
330
D23
100
AcDbProxyObject
 90
      499
 91
      595
 93
      864
310
5704000000000000144048CF4F11115510525317D3105091530F880A0F11115510525317D05094D4D0D053114F8A51141C9A9999999999B93F26A666666666724FC000000000000E03F4000000000000004000000000000005100000000000000244041C000000000000144000
340
14
340
D2E
 94
        0
1001
ACAD
1000
AcadProxyRoundTripData
1071
      533
1071
   393239
1070
     0
  0
ACAD_PROXY_OBJECT
  5
D37
330
D23
100
AcDbProxyObject
 90
      499
 91
      595
 93
      745
310
5700B00000000000002880959E9E29A2A1AA24A7A72FA620A122A62FA324A929AA1F169E29A2A1AA24A7A72FA620A122A62FA620A9AA1F00000000000004880FF41C88A0E0000000000001220000000000000028800000000000000A2022
340
163
340
D2E
 94
        0
1001
ACAD
1000
AcadProxyRoundTripData
1071
      534
1071
   393239
1070
     0
  0
ACAD_PROXY_OBJECT
  5
D38
330
D23
100
AcDbProxyObject
 90
      499
 91
      595
 93
      151
310
57280000000000000840A3D0A5723F0BD1F200
 94
        0
1001
ACAD
1000
AcadProxyRoundTripData
1071
      535
1071
   393239
1070
     0
  0
ACAD_PROXY_OBJECT
  5
D39
330
D23
100
AcDbProxyObject
 90
      499
 91
      595
 93
     5762
310
571084050B90142A40502405094D6F64656C6C6F2031405DC3D2525633C486F6C653A63746469613E2078203C486F6C653A637464657074683E20555C503C696628657175616C28486F6C653A7461707065642C223022292C222525632220486F6C653A6469612C20486F6C653A6E6F6D696E616C20222078202220486F6C6
310
53A70697463686465736320696628657175616C28486F6C653A7461707065642C223122292C222078202220486F6C653A74617064657074682C222229293E203C696628657175616C28486F6C653A7465726D696E6174696F6E2C223022292C22202F202220486F6C653A64657074682C222022293E40640503405094D6F64
310
656C6C6F2031405DD3D2525633C486F6C653A63746469613E2078203C486F6C653A6374616E676C653E2525645C503C696628657175616C28486F6C653A7461707065642C223022292C222525632220486F6C653A6469612C20486F6C653A6E6F6D696E616C20222078202220486F6C653A706974636864657363206966286
310
57175616C28486F6C653A7461707065642C223122292C222078202220486F6C653A74617064657074682C222229293E203C696628657175616C28486F6C653A7465726D696E6174696F6E2C223022292C22202F202220486F6C653A64657074682C222022293E40640501405094D6F64656C6C6F2031405B83D3C696628657
310
175616C28486F6C653A7461707065642C223022292C222525632220486F6C653A6469612C20486F6C653A6E6F6D696E616C20222078202220486F6C653A70697463686465736320696628657175616C28486F6C653A7461707065642C223122292C222078202220486F6C653A74617064657074682C222229293E203C69662
310
8657175616C28486F6C653A7465726D696E6174696F6E2C223022292C22202F202220486F6C653A64657074682C222022293E4064051E405094D6F64656C6C6F20314050C3D3C535444503A444553433E40640515AA2
 94
        0
1001
ACAD
1000
AcadProxyRoundTripData
1071
      536
1071
   393239
1070
     0
  0
ACAD_PROXY_OBJECT
  5
D3F
330
D23
100
AcDbProxyObject
 90
      499
 91
      595
 93
       20
310
571010
340
D24
 94
        0
1001
ACAD
1000
AcadProxyRoundTripData
1071
      537
1071
   393239
1070
     0
  0
ACAD_PROXY_OBJECT
  5
D40
330
D23
100
AcDbProxyObject
 90
      499
 91
      595
 93
      250
310
571020000000000000A1000000000000002440408F0F9023C3E409A0DCFFFF80
340
D41
340
0
340
0
340
D42
340
D43
340
D44
340
D45
340
D46
340
D4B
340
0
 94
        0
1001
ACAD
1000
AcadProxyRoundTripData
1071
      538
1071
   393239
1070
     0
  0
ACAD_PROXY_OBJECT
  5
D4C
330
D23
100
AcDbProxyObject
 90
      499
 91
      595
 93
    13755
310
5711A003FFFFFFFD0303000300000000000003100090303000300000000000003100080511456C656E636F20636F6F7264696E617465015011D15395149050D3CB1255104B0C0B115B195B98DBC818DBDBDC991A5B985D194B11D15395149055160B095CCB0A11D1539354D1C819D95B991A5B5E880CCC0A78000C00000000
310
000000000000000000000001000000000000031010240000000000000C4040A0143151858995B1B1848199BDC9A4053B47454E545241434F2C4954412C302C546162656C6C6120666F72692C47454E54524154582C25732C2847454E4D53472067656E64696D7A20333129E000300000000000000000000000000000000400
310
00000000000C40409000000000000031010290D44111409034110541D0C4350F4050E44D03449074510F000141D3DC9A59DA5B994053547454E545241434F2C4954412C302C4F726967696E652C47454E54524154582C25732C2847454E4D53472067656E64696D7A203129000101050022140002822337B93780A648E8A9C
310
A8A482869E5892A8825860588CDEE4DE588E8A9CA8A482A8B0584AE658508E8A9C9AA68E40CECADCC8D2DAF4406452029F9E9E27B934B3B4B71F1E24A31427A91424A9A12620A7259427B934B3B4B7149624A9A12620A7259424B73232BC149496111116111711149F1E24B73232BC1F00808200111A000140560052F47454
310
E545241434F2C4954412C302C582C47454E54524154582C25732C2847454E4D53472067656E64696D7A20332900010100002054000280AC80A5E8E8A9CA8A482869E5892A882586058B2588E8A9CA8A482A8B0584AE658508E8A9C9AA68E40CECADCC8D2DAF4406852000202000040E800050172014BD1D15395149050D3CB
310
1255104B0C0B1C8B11D15395149055160B095CCB0A11D1539354D1C819D95B991A5B5E880D8A400040400008250000A0CAA5660686868029A23A2A72A2920A1A79624AA209618162A95981A1A1A1623A2A72A2920AA2C1612B9961423A2A726A9A39033B2B73234B6BD101B948000808180105A000140C94958C053147454E
310
545241434F2C4954412C302C2525632C47454E54524154582C25732C2847454E4D53472067656E64696D7A203829000101010020F4000285A232B9B1B934BD34B7B73280A748E8A9CA8A482869E5892A88258605888CAE6C6E4D2F4D2DEDCCA588E8A9CA8A482A8B0584AE658508E8A9C9AA68E40CECADCC8D2DAF44064605
310
2000200080043280005085374616E64617264014DD1D15395149050D3CB1255104B0C0B14DD185B99185C990B11D15395149055160B095CCB0A11D1539354D1C819D95B991A5B5E880C8C4A4000400100086D0000A0E9EE4D2CED2DCCA029AA3A2A72A2920A1A79624AA2096181627B934B3B4B7329623A2A72A2920AA2C16
310
12B9961423A2A726A9A39033B2B73234B6BD10189480A026202020A0043E8000504506F732E014CD1D15395149050D3CB1255104B0C0B141BDCCB8B11D15395149055160B095CCB0A11D1539354D1C819D95B991A5B5E880C4D0A4000404140080D0000A0C92DCC8D2C6CA029AA3A2A72A2920A1A79624AA2096181624B732
310
34B1B29623A2A72A2920AA2C1612B9961423A2A726A9A39033B2B73234B6BD10189A94800080828010EA000142D25B991A58D948199BDC9BC053A47454E545241434F2C4954412C302C496E6469636520666F726F2C47454E54524154582C25732C2847454E4D53472067656E64696D7A20313729000101050022740002822
310
337B93780A668E8A9CA8A482869E5892A8825860588CDEE4DE588E8A9CA8A482A8B0584AE658508E8A9C9AA68E40CECADCC8D2DAF440626C52000202080044A80005035174E0014C91D15395149050D3CB1255104B0C0B145D380B11D15395149055160B095CCB0A11D1539354D1C819D95B991A5B5E880C4E4A4000404180
310
08A521E000000000000001CA040C00000000000034408080000000000006881010000000000000D102040000000000001A204080000000000003440818000000000000728103000000000000125020600000000004028A040000000000000034408000000000000004881000000000000000D102000000000000001A204000
310
000000000003440818000000000000508143C0000000000000039408180000000000006881030000000000000D102060000000000001A2040C00000000000034408180000000000006881030000000000000E5020600000000000024A040C00000000008051408000000000000006881000000000000000910200000000000
310
0001A2040000000000000034408180000000000006881030000000000000A10283A2000000087800000204000000818000002080000008280000020E00000080A240000011
340
0
340
0
340
0
340
0
 94
        0
1001
ACAD
1000
AcadProxyRoundTripData
1071
      539
1071
   393239
1070
     0
  0
ACAD_PROXY_OBJECT
  5
D4D
330
D23
100
AcDbProxyObject
 90
      499
 91
      595
 93
     7258
310
5719740D254D3D0649534F5F4133429254D3D7D5125513115051349534F5F42525F5265766973696F6E6C69737446111413478342028323937783834316D6D2920421254D3D7D04D1E0D11141327835202835393478323130326D6D29421254D3D7D04C9E0D51141347839202832393778313839326D6D29421254D3D7D04D
310
1E0E51141337837202834323078323038306D6D29421254D3D7D04CDE0DD1141347838202832393778313638326D6D29421254D3D7D04D1E0E11141327834202835393478313638326D6D29421254D3D7D04C9E0D10E41312028353934783834316D6D29419254D3D7D04C51141347837202832393778313437316D6D29421
310
254D3D7D04D1E0DD1141347836202832393778313236316D6D29421254D3D7D04D1E0D91141347835202832393778313035316D6D29421254D3D7D04D1E0D5104130202838343078313138396D6D2920419254D3D7D04C10E41332028323937783432306D6D29419254D3D7D04CD1141327833202835393478313236316D6D
310
29421254D3D7D04C9E0CD10413478332028323937783633306D6D29421254D3D7D04D1E0CD1141337834202834323078313138396D6D29421254D3D7D04CDE0D11141337836202834323078313738336D6D29421254D3D7D04CDE0D91141337835202834323078313438366D6D29421254D3D7D04CDE0D50E4132202834323
310
0783539346D6D29419254D3D7D04C910413378332028343230783839316D6D29421254D3D7D04CDE0CD0E41342028323937783231306D6D29419254D3D7D04D1124130783220283131383978313638326D6D29421254D3D7D04C1E0C9124130783320283131383978323532336D6D29421254D3D7D04C1E0CD114131783420
310
2838343178323337386D6D29421254D3D7D04C5E0D11141317833202838343178313738336D6D29421254D3D7D04C5E0CD0243D254D3C810D85C9D1A59DB1A5BC81050A49534F5F5449544C454143D254D3C810D85C9D1A59DB1A5BC81090A49534F5F5449544C454241114456C656E636F207265766973696F6E695F54525
310
F44D254D3D7D51497D4995D9A5CDA5BDB9B1A5CDD114456C656E636F207265766973696F6E695F424C5F44D254D3D7D09317D4995D9A5CDA5BDB9B1A5CDD114456C656E636F207265766973696F6E695F544C5F44D254D3D7D51317D4995D9A5CDA5BDB9B1A5CDD114456C656E636F207265766973696F6E695F42525F44D2
310
54D3D7D09497D4995D9A5CDA5BDB9B1A5CDD1C
 94
        0
1001
ACAD
1000
AcadProxyRoundTripData
1071
      540
1071
   393239
1070
     0
  0
ENDSEC
  0
EOF
