  0
SECTION
  2
HEADER
  9
$ACADVER
  1
AC1018
  9
$ACADMAINTVER
 70
   104
  9
$DWGCODEPAGE
  3
ANSI_1252
  9
$LASTSAVEDBY
  1
Achim
  9
$CUSTOMPROPERTYTAG
  1
AmdtFileType
  9
$CUSTOMPROPERTY
  1
84
  9
$INSBASE
 10
0.0
 20
0.0
 30
0.0
  9
$EXTMIN
 10
-453.8847405614514
 20
-225.0000000000001
 30
0.0
  9
$EXTMAX
 10
2088.219837813088
 20
670.9792843546985
 30
0.0
  9
$LIMMIN
 10
0.0
 20
0.0
  9
$LIMMAX
 10
420.0
 20
297.0
  9
$ORTHOMODE
 70
     1
  9
$REGENMODE
 70
     1
  9
$FILLMODE
 70
     1
  9
$QTEXTMODE
 70
     0
  9
$MIRRTEXT
 70
     1
  9
$LTSCALE
 40
20.0
  9
$ATTMODE
 70
     1
  9
$TEXTSIZE
 40
2.5
  9
$TRACEWID
 40
1.0
  9
$TEXTSTYLE
  7
STANDARD
  9
$CLAYER
  8
DISEGNO
  9
$CELTYPE
  6
BYLAYER
  9
$CECOLOR
 62
   256
  9
$CELTSCALE
 40
1.0
  9
$DISPSILH
 70
     0
  9
$DIMSCALE
 40
2.5
  9
$DIMASZ
 40
3.0
  9
$DIMEXO
 40
1.0
  9
$DIMDLI
 40
1.0
  9
$DIMRND
 40
0.0
  9
$DIMDLE
 40
0.0
  9
$DIMEXE
 40
1.0
  9
$DIMTP
 40
0.0
  9
$DIMTM
 40
0.0
  9
$DIMTXT
 40
3.0
  9
$DIMCEN
 40
0.09
  9
$DIMTSZ
 40
0.0
  9
$DIMTOL
 70
     0
  9
$DIMLIM
 70
     0
  9
$DIMTIH
 70
     0
  9
$DIMTOH
 70
     0
  9
$DIMSE1
 70
     0
  9
$DIMSE2
 70
     0
  9
$DIMTAD
 70
     1
  9
$DIMZIN
 70
    12
  9
$DIMBLK
  1

  9
$DIMASO
 70
     1
  9
$DIMSHO
 70
     1
  9
$DIMPOST
  1

  9
$DIMAPOST
  1

  9
$DIMALT
 70
     0
  9
$DIMALTD
 70
     2
  9
$DIMALTF
 40
25.4
  9
$DIMLFAC
 40
1.0
  9
$DIMTOFL
 70
     1
  9
$DIMTVP
 40
0.0
  9
$DIMTIX
 70
     0
  9
$DIMSOXD
 70
     0
  9
$DIMSAH
 70
     0
  9
$DIMBLK1
  1

  9
$DIMBLK2
  1

  9
$DIMSTYLE
  2
SCALA2_5
  9
$DIMCLRD
 70
     1
  9
$DIMCLRE
 70
     1
  9
$DIMCLRT
 70
     7
  9
$DIMTFAC
 40
0.2
  9
$DIMGAP
 40
1.0
  9
$DIMJUST
 70
     0
  9
$DIMSD1
 70
     0
  9
$DIMSD2
 70
     0
  9
$DIMTOLJ
 70
     1
  9
$DIMTZIN
 70
     0
  9
$DIMALTZ
 70
     0
  9
$DIMALTTZ
 70
     0
  9
$DIMUPT
 70
     0
  9
$DIMDEC
 70
     2
  9
$DIMTDEC
 70
     4
  9
$DIMALTU
 70
     2
  9
$DIMALTTD
 70
     2
  9
$DIMTXSTY
  7
SIMPLEX
  9
$DIMAUNIT
 70
     0
  9
$DIMADEC
 70
     0
  9
$DIMALTRND
 40
0.0
  9
$DIMAZIN
 70
     0
  9
$DIMDSEP
 70
    46
  9
$DIMATFIT
 70
     3
  9
$DIMFRAC
 70
     0
  9
$DIMLDRBLK
  1

  9
$DIMLUNIT
 70
     2
  9
$DIMLWD
 70
    -2
  9
$DIMLWE
 70
    -2
  9
$DIMTMOVE
 70
     0
  9
$LUNITS
 70
     2
  9
$LUPREC
 70
     4
  9
$SKETCHINC
 40
1.0
  9
$FILLETRAD
 40
10.0
  9
$AUNITS
 70
     0
  9
$AUPREC
 70
     0
  9
$MENU
  1
.
  9
$ELEVATION
 40
0.0
  9
$PELEVATION
 40
0.0
  9
$THICKNESS
 40
0.0
  9
$LIMCHECK
 70
     0
  9
$CHAMFERA
 40
10.0
  9
$CHAMFERB
 40
10.0
  9
$CHAMFERC
 40
20.0
  9
$CHAMFERD
 40
0.0
  9
$SKPOLY
 70
     0
  9
$TDCREATE
 40
2452088.696503924
  9
$TDUCREATE
 40
2452088.613170591
  9
$TDUPDATE
 40
2455404.435680474
  9
$TDUUPDATE
 40
2455404.352347141
  9
$TDINDWG
 40
0.4556483912
  9
$TDUSRTIMER
 40
0.4556483912
  9
$USRTIMER
 70
     1
  9
$ANGBASE
 50
0.0
  9
$ANGDIR
 70
     0
  9
$PDMODE
 70
     0
  9
$PDSIZE
 40
0.0
  9
$PLINEWID
 40
0.0
  9
$SPLFRAME
 70
     0
  9
$SPLINETYPE
 70
     6
  9
$SPLINESEGS
 70
     8
  9
$HANDSEED
  5
3102
  9
$SURFTAB1
 70
     6
  9
$SURFTAB2
 70
     6
  9
$SURFTYPE
 70
     6
  9
$SURFU
 70
     6
  9
$SURFV
 70
     6
  9
$UCSBASE
  2

  9
$UCSNAME
  2

  9
$UCSORG
 10
0.0
 20
0.0
 30
0.0
  9
$UCSXDIR
 10
1.0
 20
0.0
 30
0.0
  9
$UCSYDIR
 10
0.0
 20
1.0
 30
0.0
  9
$UCSORTHOREF
  2

  9
$UCSORTHOVIEW
 70
     0
  9
$UCSORGTOP
 10
0.0
 20
0.0
 30
0.0
  9
$UCSORGBOTTOM
 10
0.0
 20
0.0
 30
0.0
  9
$UCSORGLEFT
 10
0.0
 20
0.0
 30
0.0
  9
$UCSORGRIGHT
 10
0.0
 20
0.0
 30
0.0
  9
$UCSORGFRONT
 10
0.0
 20
0.0
 30
0.0
  9
$UCSORGBACK
 10
0.0
 20
0.0
 30
0.0
  9
$PUCSBASE
  2

  9
$PUCSNAME
  2

  9
$PUCSORG
 10
0.0
 20
0.0
 30
0.0
  9
$PUCSXDIR
 10
1.0
 20
0.0
 30
0.0
  9
$PUCSYDIR
 10
0.0
 20
1.0
 30
0.0
  9
$PUCSORTHOREF
  2

  9
$PUCSORTHOVIEW
 70
     0
  9
$PUCSORGTOP
 10
0.0
 20
0.0
 30
0.0
  9
$PUCSORGBOTTOM
 10
0.0
 20
0.0
 30
0.0
  9
$PUCSORGLEFT
 10
0.0
 20
0.0
 30
0.0
  9
$PUCSORGRIGHT
 10
0.0
 20
0.0
 30
0.0
  9
$PUCSORGFRONT
 10
0.0
 20
0.0
 30
0.0
  9
$PUCSORGBACK
 10
0.0
 20
0.0
 30
0.0
  9
$USERI1
 70
     0
  9
$USERI2
 70
     0
  9
$USERI3
 70
     0
  9
$USERI4
 70
     0
  9
$USERI5
 70
     0
  9
$USERR1
 40
0.0
  9
$USERR2
 40
0.0
  9
$USERR3
 40
0.0
  9
$USERR4
 40
0.0
  9
$USERR5
 40
0.0
  9
$WORLDVIEW
 70
     1
  9
$SHADEDGE
 70
     3
  9
$SHADEDIF
 70
    70
  9
$TILEMODE
 70
     1
  9
$MAXACTVP
 70
    48
  9
$PINSBASE
 10
0.0
 20
0.0
 30
0.0
  9
$PLIMCHECK
 70
     0
  9
$PEXTMIN
 10
1.000000000000000E+20
 20
1.000000000000000E+20
 30
1.000000000000000E+20
  9
$PEXTMAX
 10
-1.000000000000000E+20
 20
-1.000000000000000E+20
 30
-1.000000000000000E+20
  9
$PLIMMIN
 10
0.0
 20
0.0
  9
$PLIMMAX
 10
420.0
 20
297.0
  9
$UNITMODE
 70
     0
  9
$VISRETAIN
 70
     1
  9
$PLINEGEN
 70
     0
  9
$PSLTSCALE
 70
     1
  9
$TREEDEPTH
 70
  3020
  9
$CMLSTYLE
  2
STANDARD
  9
$CMLJUST
 70
     0
  9
$CMLSCALE
 40
20.0
  9
$PROXYGRAPHICS
 70
     1
  9
$MEASUREMENT
 70
     1
  9
$CELWEIGHT
370
    -1
  9
$ENDCAPS
280
     0
  9
$JOINSTYLE
280
     0
  9
$LWDISPLAY
290
     0
  9
$INSUNITS
 70
     0
  9
$HYPERLINKBASE
  1

  9
$STYLESHEET
  1

  9
$XEDIT
290
     1
  9
$CEPSNTYPE
380
     0
  9
$PSTYLEMODE
290
     1
  9
$FINGERPRINTGUID
  2
{B1CDB641-46F3-11D6-99F9-000102212E7C}
  9
$VERSIONGUID
  2
{1818F468-78F5-42B4-BDB8-4CAC3BCE22BA}
  9
$EXTNAMES
290
     1
  9
$PSVPSCALE
 40
0.0
  9
$OLESTARTUP
290
     0
  9
$SORTENTS
280
   127
  9
$INDEXCTL
280
     1
  9
$HIDETEXT
280
     0
  9
$XCLIPFRAME
290
     0
  9
$HALOGAP
280
     0
  9
$OBSCOLOR
 70
   257
  9
$OBSLTYPE
280
     0
  9
$INTERSECTIONDISPLAY
280
     0
  9
$INTERSECTIONCOLOR
 70
   257
  9
$DIMASSOC
280
     1
  9
$PROJECTNAME
  1

  0
ENDSEC
  0
SECTION
  2
CLASSES
  0
CLASS
  1
LWPOLYLINE
  2
AcDbPolyline
  3
ObjectDBX Classes
 90
        0
 91
        0
280
     0
281
     1
  0
CLASS
  1
ACDBDICTIONARYWDFLT
  2
AcDbDictionaryWithDefault
  3
ObjectDBX Classes
 90
        0
 91
        1
280
     0
281
     0
  0
CLASS
  1
ACDBPLACEHOLDER
  2
AcDbPlaceHolder
  3
ObjectDBX Classes
 90
        0
 91
        1
280
     0
281
     0
  0
CLASS
  1
LAYOUT
  2
AcDbLayout
  3
ObjectDBX Classes
 90
        0
 91
        2
280
     0
281
     0
  0
CLASS
  1
ACME_DOCUMENT
  2
AcMeDbDoc
  3
AcMeServices
 90
        0
 91
        0
280
     0
281
     0
  0
CLASS
  1
AMGSETTINGSOBJ
  2
AmgSettingsObj
  3
"AcadM|Product Description: AutoCAD Mechanical 2000|Company: Autodesk"
 90
        0
 91
        2
280
     0
281
     0
  0
CLASS
  1
ACMESCOPE
  2
AcMeScope
  3
AcMeServices
 90
        0
 91
        1
280
     0
281
     0
  0
CLASS
  1
ACMECOMMANDHISTORY
  2
AcMeCommandHistory
  3
AcMeServices
 90
        0
 91
        1
280
     0
281
     0
  0
CLASS
  1
ACIMSYSVARMAN
  2
AcImSysVarManager
  3
AcMeServices
 90
        0
 91
        2
280
     0
281
     0
  0
CLASS
  1
ACIMREALSYSVAR
  2
AcImRealSysVar
  3
AcMeServices
 90
        0
 91
        2
280
     0
281
     0
  0
CLASS
  1
ACIMINTSYSVAR
  2
AcImIntSysVar
  3
AcMeServices
 90
        0
 91
        1
280
     0
281
     0
  0
CLASS
  1
ACMEDRAWINGMAN
  2
AcMeDrawingMan
  3
AcMeServices
 90
        0
 91
        1
280
     0
281
     0
  0
CLASS
  1
ACMEVIEW
  2
AcMeView
  3
AcMeServices
 90
        0
 91
        1
280
     0
281
     0
  0
CLASS
  1
ACDBENTITYCACHE
  2
AcMeEntityCache
  3
AcMeServices
 90
        0
 91
        0
280
     0
281
     0
  0
CLASS
  1
GSMANAGER
  2
AcMeGSManager
  3
AcMeServices
 90
        0
 91
        0
280
     0
281
     0
  0
CLASS
  1
AMDTINTERNALREACTOR
  2
AmdtInternalReactor
  3
AcMeServices
 90
        0
 91
        0
280
     0
281
     0
  0
CLASS
  1
ACMESTATEMGR
  2
AcMeStateMgr
  3
AcMeServices
 90
        0
 91
        1
280
     0
281
     0
  0
CLASS
  1
ACGREFMASTER
  2
AcGrefMaster
  3
AcAttribServices
 90
        0
 91
        1
280
     0
281
     0
  0
CLASS
  1
ACME_DATABASE
  2
AcMeDbDatabase
  3
AcMeServices
 90
        0
 91
        0
280
     0
281
     0
  0
CLASS
  1
ACRFINSADJUSTERMGR
  2
AcRfInsAdjusterMgr
  3
AcMeServices
 90
        0
 91
        0
280
     0
281
     0
  0
CLASS
  1
ACGREFACADMASTER
  2
AcGrefacadMaster
  3
AcGrefServices
 90
        0
 91
        1
280
     0
281
     0
  0
CLASS
  1
AMIMASTER
  2
AmiMaster
  3
AmiServices
 90
        0
 91
        1
280
     0
281
     0
  0
CLASS
  1
ACMDATADICTIONARY
  2
AcmDataDictionary
  3
"AcmSymBB|Product Description: AutoCAD Mechanical 2000|Company: Autodesk"
 90
        0
 91
        1
280
     0
281
     0
  0
CLASS
  1
ACMDATAENTRYBLOCK
  2
AcmDataEntryBlock
  3
"AcmSymBB|Product Description: AutoCAD Mechanical 2000|Company: Autodesk"
 90
        0
 91
        1
280
     0
281
     0
  0
CLASS
  1
ACIMSTRSYSVAR
  2
AcImStrSysVar
  3
AcMeServices
 90
        0
 91
        1
280
     0
281
     0
  0
CLASS
  1
ACMSTANDARDISO
  2
AcmStandardISO
  3
"Amdt_StdImp|Product Description: AutoCAD Mechanical 2000|Company: Autodesk"
 90
        0
 91
        1
280
     0
281
     0
  0
CLASS
  1
AMGOBJPROPCFG
  2
AmgObjPropCfg
  3
"AmgLay|Product Description: AutoCAD Mechanical 2000|Company: Autodesk"
 90
        1
 91
        1
280
     0
281
     0
  0
CLASS
  1
AMDTEDGESTANDARDISO
  2
AmdtEdgeStdISO
  3
"Amdt_StdImp|Product Description: AutoCAD Mechanical 2000|Company: Autodesk"
 90
        0
 91
        1
280
     0
281
     0
  0
CLASS
  1
ACMSURFSTANDARDISO
  2
AcmSurfTextStdISO
  3
"Amdt_StdImp|Product Description: AutoCAD Mechanical 2000|Company: Autodesk"
 90
        0
 91
        1
280
     0
281
     0
  0
CLASS
  1
ACMFCFSTANDARDISO
  2
AcmFCFStdISO
  3
"Amdt_StdImp|Product Description: AutoCAD Mechanical 2000|Company: Autodesk"
 90
        0
 91
        1
280
     0
281
     0
  0
CLASS
  1
ACMWELDSTANDARDISO
  2
AcmWeldingStdISO
  3
"Amdt_StdImp|Product Description: AutoCAD Mechanical 2000|Company: Autodesk"
 90
        0
 91
        1
280
     0
281
     0
  0
CLASS
  1
ACMIDSTANDARDISO
  2
AcmIdStdISO
  3
"Amdt_StdImp|Product Description: AutoCAD Mechanical 2000|Company: Autodesk"
 90
        0
 91
        1
280
     0
281
     0
  0
CLASS
  1
ACMDATUMSTANDARDISO
  2
AcmDatumStdISO
  3
"Amdt_StdImp|Product Description: AutoCAD Mechanical 2000|Company: Autodesk"
 90
        0
 91
        1
280
     0
281
     0
  0
CLASS
  1
ACMBOMSTANDARDISO
  2
AcmBOMStdISO
  3
"Amdt_StdImp|Product Description: AutoCAD Mechanical 2000|Company: Autodesk"
 90
        0
 91
        1
280
     0
281
     0
  0
CLASS
  1
ACMDETAILSTANDARDISO
  2
AmdtDetailSymStdISO
  3
"Amdt_StdImp|Product Description: AutoCAD Mechanical 2000|Company: Autodesk"
 90
        0
 91
        1
280
     0
281
     0
  0
CLASS
  1
ACMSECTIONSTANDARDISO
  2
AmdtSectionSymStdISO
  3
"Amdt_StdImp|Product Description: AutoCAD Mechanical 2000|Company: Autodesk"
 90
        0
 91
        1
280
     0
281
     0
  0
CLASS
  1
ACMCENTERLINESTANDARDISO
  2
AmdtCenterLineStdISO
  3
"Amdt_StdImp|Product Description: AutoCAD Mechanical 2000|Company: Autodesk"
 90
        0
 91
        1
280
     0
281
     0
  0
CLASS
  1
ACMNOTESTANDARDISO
  2
AmdtNoteStdISO
  3
"Amdt_StdImp|Product Description: AutoCAD Mechanical 2000|Company: Autodesk"
 90
        0
 91
        1
280
     0
281
     0
  0
CLASS
  1
ACAMGLAYSTD
  2
AcAmgLayStd
  3
"AcAmgLayStd|Product Description: AutoCAD Mechanical 2000|Company: Autodesk"
 90
        0
 91
        2
280
     0
281
     0
  0
CLASS
  1
ACAMGDIMSTD
  2
AcAmgDimStd
  3
"AcAmgDimStd|Product Description: AutoCAD Mechanical 2000|Company: Autodesk"
 90
        0
 91
        2
280
     0
281
     0
  0
CLASS
  1
ACAMGHOLECHARTSTDISO
  2
AcAmgHoleChartStdISO
  3
ACMSYMBB_MODULE_NAME
 90
        0
 91
        1
280
     0
281
     0
  0
CLASS
  1
ACAMGTITLESTD
  2
AcAmgTitleStd
  3
"TITLEAPP"
 90
        0
 91
        2
280
     0
281
     0
  0
CLASS
  1
ACAMGFILTERDAT
  2
AcAmgFilterDat
  3
"AcadM|Product Description: AutoCAD Mechanical 2000|Company: Autodesk"
 90
        0
 91
        0
280
     0
281
     0
  0
CLASS
  1
AMDTFORMULAUPDATEDISPATCHER
  2
AmdtFormulaUpdateDispatcher
  3
AcMeServices
 90
        0
 91
        1
280
     0
281
     0
  0
CLASS
  1
LAYER_INDEX
  2
AcDbLayerIndex
  3
ObjectDBX Classes
 90
        0
 91
        1
280
     0
281
     0
  0
CLASS
  1
IDBUFFER
  2
AcDbIdBuffer
  3
ObjectDBX Classes
 90
        0
 91
        8
280
     0
281
     0
  0
CLASS
  1
DICTIONARYVAR
  2
AcDbDictionaryVar
  3
ObjectDBX Classes
 90
        0
 91
        5
280
     0
281
     0
  0
CLASS
  1
LONG_TRANSACTION
  2
AcDbLongTransaction
  3
ObjectDBX Classes
 90
        0
 91
        0
280
     0
281
     0
  0
CLASS
  1
LWPOLYLINE
  2
AcDbPolyline
  3
ObjectDBX Classes
 90
        0
 91
        0
280
     0
281
     1
  0
CLASS
  1
HATCH
  2
AcDbHatch
  3
ObjectDBX Classes
 90
        0
 91
        0
280
     0
281
     1
  0
CLASS
  1
XRECORD
  2
AcDbXrecord
  3
ObjectDBX Classes
 90
        0
 91
       28
280
     0
281
     0
  0
CLASS
  1
ACMSTANDARDANSI
  2
AcmStandardANSI
  3
"Amdt_StdImp|Product Description: AutoCAD Mechanical 2000|Company: Autodesk"
 90
        0
 91
        1
280
     0
281
     0
  0
CLASS
  1
ACMSURFSTANDARDANSI
  2
AcmSurfTextStdANSI
  3
"Amdt_StdImp|Product Description: AutoCAD Mechanical 2000|Company: Autodesk"
 90
        0
 91
        1
280
     0
281
     0
  0
CLASS
  1
ACMFCFSTANDARDANSI
  2
AcmFCFStdANSI
  3
"Amdt_StdImp|Product Description: AutoCAD Mechanical 2000|Company: Autodesk"
 90
        0
 91
        1
280
     0
281
     0
  0
CLASS
  1
ACMWELDSTANDARDANSI
  2
AcmWeldingStdANSI
  3
"Amdt_StdImp|Product Description: AutoCAD Mechanical 2000|Company: Autodesk"
 90
        0
 91
        1
280
     0
281
     0
  0
CLASS
  1
ACMIDSTANDARDANSI
  2
AcmIdStdANSI
  3
"Amdt_StdImp|Product Description: AutoCAD Mechanical 2000|Company: Autodesk"
 90
        0
 91
        1
280
     0
281
     0
  0
CLASS
  1
ACMDATUMSTANDARDANSI
  2
AcmDatumStdANSI
  3
"Amdt_StdImp|Product Description: AutoCAD Mechanical 2000|Company: Autodesk"
 90
        0
 91
        1
280
     0
281
     0
  0
CLASS
  1
ACMBOMSTANDARDANSI
  2
AcmBOMStdANSI
  3
"Amdt_StdImp|Product Description: AutoCAD Mechanical 2000|Company: Autodesk"
 90
        0
 91
        1
280
     0
281
     0
  0
CLASS
  1
ACMDETAILSTANDARDANSI
  2
AmdtDetailSymStdANSI
  3
"Amdt_StdImp|Product Description: AutoCAD Mechanical 2000|Company: Autodesk"
 90
        0
 91
        1
280
     0
281
     0
  0
CLASS
  1
ACMSECTIONSTANDARDANSI
  2
AmdtSectionSymStdANSI
  3
"Amdt_StdImp|Product Description: AutoCAD Mechanical 2000|Company: Autodesk"
 90
        0
 91
        1
280
     0
281
     0
  0
CLASS
  1
ACMCENTERLINESTANDARDANSI
  2
AmdtCenterLineStdANSI
  3
"Amdt_StdImp|Product Description: AutoCAD Mechanical 2000|Company: Autodesk"
 90
        0
 91
        1
280
     0
281
     0
  0
CLASS
  1
ACMNOTESTANDARDANSI
  2
AmdtNoteStdANSI
  3
"Amdt_StdImp|Product Description: AutoCAD Mechanical 2000|Company: Autodesk"
 90
        0
 91
        1
280
     0
281
     0
  0
CLASS
  1
ACAMGHOLECHARTSTDANSI
  2
AcAmgHoleChartStdANSI
  3
ACMSYMBB_MODULE_NAME
 90
        0
 91
        1
280
     0
281
     0
  0
CLASS
  1
MATERIAL
  2
AcDbMaterial
  3
ObjectDBX Classes
 90
     1153
 91
        3
280
     0
281
     0
  0
CLASS
  1
VISUALSTYLE
  2
AcDbVisualStyle
  3
ObjectDBX Classes
 90
     4095
 91
       16
280
     0
281
     0
  0
CLASS
  1
TABLESTYLE
  2
AcDbTableStyle
  3
ObjectDBX Classes
 90
     4095
 91
        1
280
     0
281
     0
  0
CLASS
  1
SCALE
  2
AcDbScale
  3
ObjectDBX Classes
 90
     1153
 91
       33
280
     0
281
     0
  0
CLASS
  1
MLEADERSTYLE
  2
AcDbMLeaderStyle
  3
ACDB_MLEADERSTYLE_CLASS
 90
     4095
 91
        1
280
     0
281
     0
  0
CLASS
  1
CELLSTYLEMAP
  2
AcDbCellStyleMap
  3
ObjectDBX Classes
 90
     1152
 91
        1
280
     0
281
     0
  0
ENDSEC
  0
SECTION
  2
TABLES
  0
TABLE
  2
VPORT
  5
8
330
0
100
AcDbSymbolTable
 70
     1
  0
VPORT
  5
309D
330
8
100
AcDbSymbolTableRecord
100
AcDbViewportTableRecord
  2
*Active
 70
     0
 10
0.0
 20
0.0
 11
1.0
 21
1.0
 12
902.1820416133268
 22
223.0023844626468
 13
0.0
 23
0.0
 14
10.0
 24
10.0
 15
10.0
 25
10.0
 16
0.0
 26
0.0
 36
1.0
 17
0.0
 27
0.0
 37
0.0
 40
1566.895945338343
 41
1.739910313901345
 42
50.0
 43
0.0
 44
0.0
 50
0.0
 51
0.0
 71
     0
 72
  1234
 73
     1
 74
     0
 75
     0
 76
     0
 77
     0
 78
     0
281
     0
 65
     1
110
0.0
120
0.0
130
0.0
111
1.0
121
0.0
131
0.0
112
0.0
122
1.0
132
0.0
 79
     0
146
0.0
  0
ENDTAB
  0
TABLE
  2
LTYPE
  5
5
330
0
100
AcDbSymbolTable
 70
    16
  0
LTYPE
  5
12
330
5
100
AcDbSymbolTableRecord
100
AcDbLinetypeTableRecord
  2
BYBLOCK
 70
     0
  3

 72
    65
 73
     0
 40
0.0
  0
LTYPE
  5
13
330
5
100
AcDbSymbolTableRecord
100
AcDbLinetypeTableRecord
  2
BYLAYER
 70
     0
  3

 72
    65
 73
     0
 40
0.0
  0
LTYPE
  5
14
330
5
100
AcDbSymbolTableRecord
100
AcDbLinetypeTableRecord
  2
CONTINUOUS
 70
     0
  3
Solid line
 72
    65
 73
     0
 40
0.0
  0
LTYPE
  5
175
330
5
100
AcDbSymbolTableRecord
100
AcDbLinetypeTableRecord
  2
CENTER
 70
     0
  3
____ _ ____ _ ____ _ ____ _ ____ _ ____ _ ____ 
 72
    65
 73
     4
 40
2.0
 49
1.25
 74
     0
 49
-0.25
 74
     0
 49
0.25
 74
     0
 49
-0.25
 74
     0
  0
LTYPE
  5
176
330
5
100
AcDbSymbolTableRecord
100
AcDbLinetypeTableRecord
  2
DASHED
 70
     0
  3
__ __ __ __ __ __ __ __ __ __ __ __ __ __ __ __
 72
    65
 73
     2
 40
0.75
 49
0.5
 74
     0
 49
-0.25
 74
     0
  0
LTYPE
  5
1BDE
330
5
100
AcDbSymbolTableRecord
100
AcDbLinetypeTableRecord
  2
AM_ISO02W050
 70
     0
  3
__ __ __ __ __ __ __ __ __ __ __ __ __ __ __
 72
    65
 73
     2
 40
7.5
 49
6.0
 74
     0
 49
-1.5
 74
     0
  0
LTYPE
  5
1BDF
330
5
100
AcDbSymbolTableRecord
100
AcDbLinetypeTableRecord
  2
AM_ISO08W050
 70
     0
  3
____ . ____ . ____ . ____ . ____ . ____ . ____
 72
    65
 73
     4
 40
18.0
 49
12.0
 74
     0
 49
-1.5
 74
     0
 49
3.0
 74
     0
 49
-1.5
 74
     0
  0
LTYPE
  5
1BE0
330
5
100
AcDbSymbolTableRecord
100
AcDbLinetypeTableRecord
  2
AM_ISO09W050
 70
     0
  3
_____ . . _____ . . _____ . . ____ .. ____
 72
    65
 73
     6
 40
22.5
 49
12.0
 74
     0
 49
-1.5
 74
     0
 49
3.0
 74
     0
 49
-1.5
 74
     0
 49
3.0
 74
     0
 49
-1.5
 74
     0
  0
LTYPE
  5
1BE1
330
5
100
AcDbSymbolTableRecord
100
AcDbLinetypeTableRecord
  2
Amconstr
 70
     0
  3
_______________________
 72
    65
 73
     2
 40
9999.0
 49
9999.0
 74
     0
 49
0.0
 74
     0
  0
LTYPE
  5
1BE2
330
5
100
AcDbSymbolTableRecord
100
AcDbLinetypeTableRecord
  2
AM_ISO08W050x2
 70
     0
  3
__ . __ . __ . __ . __ . __
 72
    65
 73
     4
 40
9.0
 49
6.0
 74
     0
 49
-0.75
 74
     0
 49
1.5
 74
     0
 49
-0.75
 74
     0
  0
LTYPE
  5
1BE3
330
5
100
AcDbSymbolTableRecord
100
AcDbLinetypeTableRecord
  2
AM_ISO02W050x2
 70
     0
  3
 _ _ _ _ _ _ _ _ _ _ _ _
 72
    65
 73
     2
 40
3.75
 49
3.0
 74
     0
 49
-0.75
 74
     0
  0
LTYPE
  5
1BE6
330
5
100
AcDbSymbolTableRecord
100
AcDbLinetypeTableRecord
  2
Amzigzag
 70
     0
  3
/\/-/\/-/\/-/\/-/\/-/\/
 72
    65
 73
     2
 40
11.0001
 49
0.0001
 74
     4
 75
   135
340
1BE5
 46
0.04
 50
0.0
 44
0.0
 45
0.0
 49
-11.0
 74
     0
  0
LTYPE
  5
1BF4
330
5
100
AcDbSymbolTableRecord
100
AcDbLinetypeTableRecord
  2
ACISOWELD
 70
     0
  3
_ _ _ _ _
 72
    65
 73
     2
 40
2.0
 49
2.0
 74
     0
 49
-1.0
 74
     0
  0
LTYPE
  5
1BF5
330
5
100
AcDbSymbolTableRecord
100
AcDbLinetypeTableRecord
  2
ACISOTGB
 70
     0
  3
__ . . __ . .
 72
    65
 73
     6
 40
9.0
 49
4.0
 74
     0
 49
-1.0
 74
     0
 49
1.0
 74
     0
 49
-1.0
 74
     0
 49
1.0
 74
     0
 49
-1.0
 74
     0
  0
LTYPE
  5
1BF6
330
5
100
AcDbSymbolTableRecord
100
AcDbLinetypeTableRecord
  2
ACISOTGL
 70
     0
  3
_ _ _ _ _
 72
    65
 73
     2
 40
3.0
 49
2.0
 74
     0
 49
-1.0
 74
     0
  0
LTYPE
  5
27A9
330
5
100
AcDbSymbolTableRecord
100
AcDbLinetypeTableRecord
  2
PHANTOM2
 70
     0
  3
Phantom (.5x) ___ _ _ ___ _ _ ___ _ _ ___ _ _
 72
    65
 73
     6
 40
1.25
 49
0.625
 74
     0
 49
-0.125
 74
     0
 49
0.125
 74
     0
 49
-0.125
 74
     0
 49
0.125
 74
     0
 49
-0.125
 74
     0
  0
LTYPE
  5
27AD
330
5
100
AcDbSymbolTableRecord
100
AcDbLinetypeTableRecord
  2
ACANSTGB
 70
     0
  3
__ . . __ . .
 72
    65
 73
     6
 40
0.35433070866
 49
0.15748031496
 74
     0
 49
-0.03937007874
 74
     0
 49
0.03937007874
 74
     0
 49
-0.03937007874
 74
     0
 49
0.03937007874
 74
     0
 49
-0.03937007874
 74
     0
  0
LTYPE
  5
27AE
330
5
100
AcDbSymbolTableRecord
100
AcDbLinetypeTableRecord
  2
ACANSTGL
 70
     0
  3
_ _ _ _ _
 72
    65
 73
     2
 40
0.11811023622
 49
0.07874015748
 74
     0
 49
-0.03937007874
 74
     0
  0
ENDTAB
  0
TABLE
  2
LAYER
  5
2
102
{ACAD_XDICTIONARY
360
2744
102
}
330
0
100
AcDbSymbolTable
 70
     8
  0
LAYER
  5
E
330
2
100
AcDbSymbolTableRecord
100
AcDbLayerTableRecord
  2
0
 70
     0
 62
     7
  6
CONTINUOUS
370
    -3
390
1BB3
  0
LAYER
  5
177
330
2
100
AcDbSymbolTableRecord
100
AcDbLayerTableRecord
  2
DISEGNO
 70
     0
 62
     7
  6
CONTINUOUS
370
    -3
390
1BB3
  0
LAYER
  5
179
330
2
100
AcDbSymbolTableRecord
100
AcDbLayerTableRecord
  2
ASSI
 70
     0
 62
     2
  6
CENTER
370
    -3
390
1BB3
  0
LAYER
  5
17A
330
2
100
AcDbSymbolTableRecord
100
AcDbLayerTableRecord
  2
NORMALI
 70
     0
 62
     6
  6
CONTINUOUS
370
    -3
390
1BB3
  0
LAYER
  5
17B
330
2
100
AcDbSymbolTableRecord
100
AcDbLayerTableRecord
  2
NORM_TR
 70
     0
 62
     6
  6
DASHED
370
    -3
390
1BB3
  0
LAYER
  5
1C23
330
2
100
AcDbSymbolTableRecord
100
AcDbLayerTableRecord
  2
Defpoints
 70
     0
 62
     7
  6
CONTINUOUS
290
     0
370
    -3
390
1BB3
  0
LAYER
  5
2F70
330
2
100
AcDbSymbolTableRecord
100
AcDbLayerTableRecord
  2
4360018_C-TLM TCR_S 220_280 ø32 ø25.iam.1-Spigoli visibili
 70
     0
 62
     7
  6
CONTINUOUS
370
    30
390
1BB3
  0
LAYER
  5
2F71
330
2
100
AcDbSymbolTableRecord
100
AcDbLayerTableRecord
  2
9180143-Complessivo di montaggio.iam.1-Spigoli visibili
 70
     0
 62
     7
  6
CONTINUOUS
370
    30
390
1BB3
  0
ENDTAB
  0
TABLE
  2
STYLE
  5
3
330
0
100
AcDbSymbolTable
 70
     7
  0
STYLE
  5
F
330
3
100
AcDbSymbolTableRecord
100
AcDbTextStyleTableRecord
  2
STANDARD
 70
     0
 40
0.0
 41
1.0
 50
0.0
 71
     0
 42
2.5
  3
txt
  4

  0
STYLE
  5
180
330
3
100
AcDbSymbolTableRecord
100
AcDbTextStyleTableRecord
  2
SIMPLEX
 70
     0
 40
0.0
 41
1.0
 50
0.0
 71
     0
 42
3.0
  3
SIMPLEX.shx
  4

  0
STYLE
  5
1BE5
330
3
100
AcDbSymbolTableRecord
100
AcDbTextStyleTableRecord
  2

 70
     1
 40
0.0
 41
1.0
 50
0.0
 71
     0
 42
2.5
  3
ltypeshp.shx
  4

  0
STYLE
  5
1BE7
330
3
100
AcDbSymbolTableRecord
100
AcDbTextStyleTableRecord
  2
ACISOTS
 70
     0
 40
1.0
 41
1.0
 50
0.0
 71
     0
 42
2.5
  3
isocp.shx
  4

  0
STYLE
  5
1BF3
330
3
100
AcDbSymbolTableRecord
100
AcDbTextStyleTableRecord
  2
ACISOGDT
 70
     0
 40
0.0
 41
1.0
 50
0.0
 71
     0
 42
2.5
  3
amgdt.shx
  4

  0
STYLE
  5
27B1
330
3
100
AcDbSymbolTableRecord
100
AcDbTextStyleTableRecord
  2
ACANSTS
 70
     0
 40
1.0
 41
1.0
 50
0.0
 71
     0
 42
0.2
  3
romans.shx
  4

  0
STYLE
  5
27B2
330
3
100
AcDbSymbolTableRecord
100
AcDbTextStyleTableRecord
  2
ACANSGDT
 70
     0
 40
0.0
 41
1.0
 50
0.0
 71
     0
 42
0.2
  3
amgdtans.shx
  4

  0
ENDTAB
  0
TABLE
  2
VIEW
  5
6
330
0
100
AcDbSymbolTable
 70
     0
  0
ENDTAB
  0
TABLE
  2
UCS
  5
7
330
0
100
AcDbSymbolTable
 70
     0
  0
ENDTAB
  0
TABLE
  2
APPID
  5
9
330
0
100
AcDbSymbolTable
 70
     8
  0
APPID
  5
10
330
9
100
AcDbSymbolTableRecord
100
AcDbRegAppTableRecord
  2
ACAD
 70
     0
  0
APPID
  5
20
330
9
100
AcDbSymbolTableRecord
100
AcDbRegAppTableRecord
  2
ZIMM
 70
     0
  0
APPID
  5
182
330
9
100
AcDbSymbolTableRecord
100
AcDbRegAppTableRecord
  2
COMAU_ACADLIB
 70
     0
  0
APPID
  5
1BC0
330
9
100
AcDbSymbolTableRecord
100
AcDbRegAppTableRecord
  2
MCAD_NO_VIS
 70
     0
  0
APPID
  5
1BC1
330
9
100
AcDbSymbolTableRecord
100
AcDbRegAppTableRecord
  2
ACAD_TEMP_GRAPHIC
 70
     0
  0
APPID
  5
1BD2
330
9
100
AcDbSymbolTableRecord
100
AcDbRegAppTableRecord
  2
ACATTRIBSERVICES
 70
     0
  0
APPID
  5
3039
330
9
100
AcDbSymbolTableRecord
100
AcDbRegAppTableRecord
  2
DCO15
 70
     0
  0
APPID
  5
30F0
330
9
100
AcDbSymbolTableRecord
100
AcDbRegAppTableRecord
  2
ACAD_MLEADERVER
 70
     0
  0
ENDTAB
  0
TABLE
  2
DIMSTYLE
  5
A
330
0
100
AcDbSymbolTable
 70
    15
100
AcDbDimStyleTable
 71
     1
340
181
  0
DIMSTYLE
105
1D
330
A
100
AcDbSymbolTableRecord
100
AcDbDimStyleTableRecord
  2
STANDARD
 70
     0
340
F
  0
DIMSTYLE
105
181
330
A
100
AcDbSymbolTableRecord
100
AcDbDimStyleTableRecord
  2
SCALA2_5
 70
     0
 40
2.5
 41
3.0
 42
1.0
 43
1.0
 44
1.0
 73
     0
 74
     0
 77
     1
 78
    12
140
3.0
146
0.2
147
1.0
172
     1
176
     1
177
     1
178
     7
271
     2
340
180
  0
DIMSTYLE
105
1BFA
330
A
100
AcDbSymbolTableRecord
100
AcDbDimStyleTableRecord
  2
AM_ISO
 70
     0
  4
"
 41
2.5
 42
1.0
 43
10.0
 44
1.0
 47
0.1
 48
0.1
 73
     0
 74
     0
 77
     1
 78
     8
 79
     2
140
3.5
141
0.0
143
0.0393701
146
0.71
147
1.5
172
     1
176
   256
177
   256
178
     2
271
     2
272
     3
274
     4
283
     0
284
     8
340
F
371
    -1
372
    -1
  0
DIMSTYLE
105
1BFB
330
A
100
AcDbSymbolTableRecord
100
AcDbDimStyleTableRecord
  2
AM_ISO$3
 70
     0
  4
"
 41
2.5
 42
1.0
 43
10.0
 44
1.0
 47
0.1
 48
0.1
 73
     0
 77
     1
 78
     8
 79
     2
140
3.5
141
0.0
143
0.0393701
146
0.71
147
1.5
176
   256
177
   256
178
     2
271
     2
272
     3
274
     4
283
     0
284
     8
288
     1
289
     0
340
F
371
    -1
372
    -1
  0
DIMSTYLE
105
1BFC
330
A
100
AcDbSymbolTableRecord
100
AcDbDimStyleTableRecord
  2
AM_ISO$4
 70
     0
  4
"
 41
2.5
 42
1.0
 43
10.0
 44
1.0
 47
0.1
 48
0.1
 73
     0
 77
     1
 78
     8
 79
     2
140
3.5
141
0.0
143
0.0393701
146
0.71
147
1.5
176
   256
177
   256
178
     2
271
     2
272
     3
274
     4
283
     0
284
     8
288
     1
289
     0
340
F
371
    -1
372
    -1
  0
DIMSTYLE
105
1BFD
330
A
100
AcDbSymbolTableRecord
100
AcDbDimStyleTableRecord
  2
AM_ISO$6
 70
     0
  4
"
 41
2.5
 42
1.0
 43
10.0
 44
1.0
 47
0.1
 48
0.1
 73
     0
 74
     0
 78
     8
 79
     2
140
3.5
141
0.0
143
0.0393701
146
0.71
147
1.5
172
     1
176
   256
177
   256
178
     2
271
     2
272
     3
274
     4
283
     0
284
     8
340
F
371
    -1
372
    -1
  0
DIMSTYLE
105
1BFE
330
A
100
AcDbSymbolTableRecord
100
AcDbDimStyleTableRecord
  2
AM_ISO$7
 70
     0
  4
"
 41
2.5
 42
1.0
 43
10.0
 44
1.0
 47
0.1
 48
0.1
 73
     0
 74
     0
 77
     1
 78
     8
 79
     2
140
5.0
141
0.0
143
0.0393701
146
0.71
147
1.5
172
     1
176
   256
177
   256
178
     2
271
     2
272
     3
274
     4
283
     0
284
     8
340
F
371
    -1
372
    -1
  0
DIMSTYLE
105
1BFF
330
A
100
AcDbSymbolTableRecord
100
AcDbDimStyleTableRecord
  2
AM_ISO$SF
 70
     0
  4
"
 41
2.5
 42
1.0
 43
10.0
 44
1.0
 47
0.1
 48
0.1
 73
     0
 74
     0
 75
     1
 76
     1
 77
     1
 78
     8
 79
     2
140
3.5
141
0.0
143
0.0393701
146
0.71
147
1.5
172
     1
176
   256
177
   256
178
     2
271
     2
272
     3
274
     4
283
     0
284
     8
340
F
371
    -1
372
    -1
  0
DIMSTYLE
105
1C04
330
A
100
AcDbSymbolTableRecord
100
AcDbDimStyleTableRecord
  2
AM_ISO$SH
 70
     0
  4
"
 41
2.5
 42
1.0
 43
10.0
 44
1.0
 47
0.1
 48
0.1
 73
     0
 74
     0
 75
     1
 76
     1
 77
     1
 78
     8
 79
     2
140
3.5
141
0.0
143
0.0393701
144
2.0
146
0.71
147
1.5
172
     1
173
     1
176
   256
177
   256
178
     2
271
     2
272
     3
274
     4
283
     0
284
     8
340
F
341
1C00
343
1C00
371
    -1
372
    -1
  0
DIMSTYLE
105
27B3
330
A
100
AcDbSymbolTableRecord
100
AcDbDimStyleTableRecord
  2
AM_ANSI
 70
     0
  4
mm
 41
0.1
 42
0.05
 43
0.5
 44
0.1
 47
0.1
 48
0.1
 78
     7
 79
     2
140
0.12
141
0.0
146
0.71
147
0.06
176
   256
177
   256
178
     2
274
     4
284
     7
340
F
371
    -1
372
    -1
  0
DIMSTYLE
105
27B4
330
A
100
AcDbSymbolTableRecord
100
AcDbDimStyleTableRecord
  2
AM_ANSI$3
 70
     0
  4
mm
 41
0.1
 42
0.05
 43
0.5
 44
0.1
 47
0.1
 48
0.1
 78
     7
 79
     2
140
0.12
141
0.0
146
0.71
147
0.06
176
   256
177
   256
178
     2
274
     4
284
     7
288
     1
289
     0
340
F
371
    -1
372
    -1
  0
DIMSTYLE
105
27B5
330
A
100
AcDbSymbolTableRecord
100
AcDbDimStyleTableRecord
  2
AM_ANSI$4
 70
     0
  4
mm
 41
0.1
 42
0.05
 43
0.5
 44
0.1
 47
0.1
 48
0.1
 78
     7
 79
     2
140
0.12
141
0.0
146
0.71
147
0.06
176
   256
177
   256
178
     2
274
     4
284
     7
288
     1
289
     0
340
F
371
    -1
372
    -1
  0
DIMSTYLE
105
27B6
330
A
100
AcDbSymbolTableRecord
100
AcDbDimStyleTableRecord
  2
AM_ANSI$7
 70
     0
  4
mm
 41
0.1
 42
0.05
 43
0.5
 44
0.1
 47
0.1
 48
0.1
 78
     7
 79
     2
140
0.24
141
0.0
146
0.71
147
0.06
176
   256
177
   256
178
     2
274
     4
284
     7
340
F
371
    -1
372
    -1
  0
DIMSTYLE
105
27B7
330
A
100
AcDbSymbolTableRecord
100
AcDbDimStyleTableRecord
  2
AM_ANSI$SF
 70
     0
  4
mm
 41
0.1
 42
0.05
 43
0.5
 44
0.1
 47
0.1
 48
0.1
 75
     1
 76
     1
 78
     7
 79
     2
140
0.12
141
0.0
146
0.71
147
0.06
176
   256
177
   256
178
     2
274
     4
284
     7
340
F
371
    -1
372
    -1
  0
DIMSTYLE
105
27B8
330
A
100
AcDbSymbolTableRecord
100
AcDbDimStyleTableRecord
  2
AM_ANSI$SH
 70
     0
  4
mm
 41
0.1
 42
0.05
 43
0.5
 44
0.1
 47
0.1
 48
0.1
 75
     1
 76
     1
 78
     7
 79
     2
140
0.12
141
0.0
146
0.71
147
0.06
173
     1
176
   256
177
   256
178
     2
274
     4
284
     7
340
F
343
1C00
371
    -1
372
    -1
  0
ENDTAB
  0
TABLE
  2
BLOCK_RECORD
  5
1
330
0
100
AcDbSymbolTable
 70
     1
  0
BLOCK_RECORD
  5
18
102
{ACAD_XDICTIONARY
360
1C71
102
}
330
1
100
AcDbSymbolTableRecord
100
AcDbBlockTableRecord
  2
*MODEL_SPACE
340
1BB6
  0
BLOCK_RECORD
  5
15
102
{ACAD_XDICTIONARY
360
1CAC
102
}
330
1
100
AcDbSymbolTableRecord
100
AcDbBlockTableRecord
  2
*PAPER_SPACE
340
1BB7
  0
BLOCK_RECORD
  5
1C00
330
1
100
AcDbSymbolTableRecord
100
AcDbBlockTableRecord
  2
GENAXEH
340
0
  0
ENDTAB
  0
ENDSEC
  0
SECTION
  2
BLOCKS
  0
BLOCK
  5
19
330
18
100
AcDbEntity
  8
0
100
AcDbBlockBegin
  2
*MODEL_SPACE
 70
     0
 10
0.0
 20
0.0
 30
0.0
  3
*MODEL_SPACE
  1

  0
ENDBLK
  5
1A
330
18
100
AcDbEntity
  8
0
100
AcDbBlockEnd
  0
BLOCK
  5
16
330
15
100
AcDbEntity
 67
     1
  8
0
100
AcDbBlockBegin
  2
*PAPER_SPACE
 70
     0
 10
0.0
 20
0.0
 30
0.0
  3
*PAPER_SPACE
  1

  0
ENDBLK
  5
17
330
15
100
AcDbEntity
 67
     1
  8
0
100
AcDbBlockEnd
  0
BLOCK
  5
1C02
330
1C00
100
AcDbEntity
  8
0
100
AcDbBlockBegin
  2
GENAXEH
 70
     0
 10
0.0
 20
0.0
 30
0.0
  3
GENAXEH
  1

  0
LINE
  5
1C01
330
1C00
100
AcDbEntity
  8
0
100
AcDbLine
 10
-1.0
 20
0.0
 30
0.0
 11
1.0
 21
0.0
 31
0.0
  0
ENDBLK
  5
1C03
330
1C00
100
AcDbEntity
  8
0
100
AcDbBlockEnd
  0
ENDSEC
  0
SECTION
  2
ENTITIES
  0
LINE
  5
505
330
18
100
AcDbEntity
  8
DISEGNO
100
AcDbLine
 10
2077.664163477686
 20
609.6799382796945
 30
0.0
 11
1932.554717911635
 21
609.6799382796936
 31
0.0
  0
LINE
  5
506
330
18
100
AcDbEntity
  8
DISEGNO
100
AcDbLine
 10
1852.664163477687
 20
634.6799382796927
 30
0.0
 11
2077.664163477686
 21
634.6799382796917
 31
0.0
  0
LINE
  5
50A
330
18
100
AcDbEntity
  8
DISEGNO
100
AcDbLine
 10
1109.840514998265
 20
-225.0000000000001
 30
0.0
 11
1011.249144096647
 21
-225.0000000000001
 31
0.0
  0
LINE
  5
50B
330
18
100
AcDbEntity
  8
DISEGNO
100
AcDbLine
 10
482.8405149982663
 20
-225.0000000000001
 30
0.0
 11
1122.840514998266
 21
-225.0000000000001
 31
0.0
  0
LINE
  5
50D
330
18
100
AcDbEntity
  8
DISEGNO
100
AcDbLine
 10
298.2231947542402
 20
140.0000000000005
 30
0.0
 11
298.2231947542402
 21
37.49999999999966
 31
0.0
  0
LINE
  5
50E
330
18
100
AcDbEntity
  8
DISEGNO
100
AcDbLine
 10
283.2231947542402
 20
-139.9999999999991
 30
0.0
 11
283.2231947542402
 21
140.0000000000009
 31
0.0
  0
LINE
  5
50F
330
18
100
AcDbEntity
  8
DISEGNO
100
AcDbLine
 10
477.8405149982663
 20
-219.9999999999999
 30
0.0
 11
477.8405149982654
 21
219.7880000000004
 31
0.0
  0
LINE
  5
510
330
18
100
AcDbEntity
  8
DISEGNO
100
AcDbLine
 10
451.8030563355742
 20
-140.0000000000001
 30
0.0
 11
477.8405149982663
 21
-140.0000000000001
 31
0.0
  0
LINE
  5
511
330
18
100
AcDbEntity
  8
NORMALI
100
AcDbLine
 10
445.2657639835206
 20
-145.7499999999983
 30
0.0
 11
477.8405149982663
 21
-145.7499999999983
 31
0.0
  0
LINE
  5
512
330
18
100
AcDbEntity
  8
DISEGNO
100
AcDbLine
 10
451.8030563355742
 20
-140.0000000000001
 30
0.0
 11
477.8405149982663
 21
-140.0000000000001
 31
0.0
  0
LINE
  5
513
330
18
100
AcDbEntity
  8
NORMALI
100
AcDbLine
 10
455.9403013435039
 20
-156.0000000000003
 30
0.0
 11
477.8405149982663
 21
-156.0000000000001
 31
0.0
  0
LINE
  5
514
330
18
100
AcDbEntity
  8
DISEGNO
100
AcDbLine
 10
283.2231947542402
 20
-139.9999999999991
 30
0.0
 11
298.2231947542402
 21
-139.9999999999991
 31
0.0
  0
LINE
  5
515
330
18
100
AcDbEntity
  8
DISEGNO
100
AcDbLine
 10
283.2230947542437
 20
-139.9999999999997
 30
0.0
 11
298.2230947542437
 21
-139.9999999999997
 31
0.0
  0
LINE
  5
516
330
18
100
AcDbEntity
  8
NORMALI
100
AcDbLine
 10
298.2231947542402
 20
-145.7499999999996
 30
0.0
 11
445.2657639835206
 21
-145.7499999999983
 31
0.0
  0
LINE
  5
517
330
18
100
AcDbEntity
  8
NORMALI
100
AcDbLine
 10
298.2231947542412
 20
-156.0000000000003
 30
0.0
 11
455.9403013435039
 21
-156.0000000000003
 31
0.0
  0
LINE
  5
518
330
18
100
AcDbEntity
  8
DISEGNO
100
AcDbLine
 10
298.2230947542437
 20
-140.0000000000002
 30
0.0
 11
451.8030563355742
 21
-140.0000000000001
 31
0.0
  0
LINE
  5
519
330
18
100
AcDbEntity
  8
NORMALI
100
AcDbLine
 10
298.2231947542402
 20
-139.9999999999991
 30
0.0
 11
298.2231947542412
 21
-155.9999999999991
 31
0.0
  0
LINE
  5
51C
330
18
100
AcDbEntity
  8
DISEGNO
100
AcDbLine
 10
477.8405149982663
 20
126.2499999999999
 30
0.0
 11
358.9459682722142
 21
126.2499999999999
 31
0.0
  0
LINE
  5
51D
330
18
100
AcDbEntity
  8
NORMALI
100
AcDbLine
 10
357.3637164443905
 20
155.9999999999996
 30
0.0
 11
477.8405149982663
 21
155.9999999999999
 31
0.0
  0
LINE
  5
51E
330
18
100
AcDbEntity
  8
NORMALI
100
AcDbLine
 10
354.0408946505129
 20
145.7499999999985
 30
0.0
 11
477.8405149982663
 21
145.749999999998
 31
0.0
  0
LINE
  5
51F
330
18
100
AcDbEntity
  8
DISEGNO
100
AcDbLine
 10
361.5009614523203
 20
139.9999999999996
 30
0.0
 11
477.8405149982663
 21
139.9999999999999
 31
0.0
  0
LINE
  5
520
330
18
100
AcDbEntity
  8
DISEGNO
100
AcDbLine
 10
361.5009614523194
 20
139.9999999999996
 30
0.0
 11
477.8405149982663
 21
139.9999999999999
 31
0.0
  0
LINE
  5
521
330
18
100
AcDbEntity
  8
DISEGNO
100
AcDbLine
 10
362.0902462348438
 20
113.7499999999999
 30
0.0
 11
477.8405149982672
 21
113.7499999999999
 31
0.0
  0
LINE
  5
523
330
18
100
AcDbEntity
  8
DISEGNO
100
AcDbLine
 10
370.8097627201612
 20
103.9999999999994
 30
0.0
 11
477.8405149982663
 21
103.9999999999999
 31
0.0
  0
LINE
  5
524
330
18
100
AcDbEntity
  8
DISEGNO
100
AcDbLine
 10
367.0582054157983
 20
94.00000000000011
 30
0.0
 11
477.8405149982663
 21
93.99999999999989
 31
0.0
  0
LINE
  5
528
330
18
100
AcDbEntity
  8
DISEGNO
100
AcDbLine
 10
477.8405149982663
 20
-126.2500000000001
 30
0.0
 11
440.3606903618192
 21
-126.2499999999999
 31
0.0
  0
LINE
  5
529
330
18
100
AcDbEntity
  8
DISEGNO
100
AcDbLine
 10
442.4942550677323
 20
-104.0000000000003
 30
0.0
 11
477.8405149982663
 21
-104.0000000000001
 31
0.0
  0
LINE
  5
52D
330
18
100
AcDbEntity
  8
ASSI
100
AcDbLine
 10
192.2231947542402
 20
-91.11218985053909
 30
0.0
 11
192.2231947542402
 21
91.11218985054922
 31
0.0
  0
LINE
  5
534
330
18
100
AcDbEntity
  8
DISEGNO
100
AcDbLine
 10
440.3606903618192
 20
-126.2499999999999
 30
0.0
 11
298.22319475424
 21
-126.2500000000005
 31
0.0
  0
LINE
  5
535
330
18
100
AcDbEntity
  8
DISEGNO
100
AcDbLine
 10
298.2230947542428
 20
-104.0000000000003
 30
0.0
 11
442.4942550677323
 21
-104.0000000000003
 31
0.0
  0
LINE
  5
536
330
18
100
AcDbEntity
  8
DISEGNO
100
AcDbLine
 10
298.2231947542402
 20
-113.7500000000004
 30
0.0
 11
477.8405149982661
 21
-113.7500000000001
 31
0.0
  0
LINE
  5
53E
330
18
100
AcDbEntity
  8
DISEGNO
100
AcDbLine
 10
298.2231947542402
 20
-94.00000000000034
 30
0.0
 11
477.8405149982661
 21
-94.00000000000039
 31
0.0
  0
LINE
  5
54B
330
18
100
AcDbEntity
  8
NORMALI
100
AcDbLine
 10
477.8405149982659
 20
-37.50000000000009
 30
0.0
 11
294.8677983949328
 21
-37.50000000000034
 31
0.0
  0
LINE
  5
54C
330
18
100
AcDbEntity
  8
NORMALI
100
AcDbLine
 10
477.8405149982658
 20
37.4999999999997
 30
0.0
 11
283.2231947542402
 21
37.49999999999966
 31
0.0
  0
LINE
  5
550
330
18
100
AcDbEntity
  8
NORMALI
100
AcDbLine
 10
317.2230947542437
 20
72.50055443394774
 30
0.0
 11
318.2230947542437
 21
71.50055443394774
 31
0.0
  0
LINE
  5
556
330
18
100
AcDbEntity
  8
DISEGNO
100
AcDbLine
 10
298.2231947542402
 20
93.99999999999966
 30
0.0
 11
367.0582054157983
 21
94.00000000000011
 31
0.0
  0
LINE
  5
557
330
18
100
AcDbEntity
  8
DISEGNO
100
AcDbLine
 10
298.2230947542428
 20
103.9999999999996
 30
0.0
 11
370.8097627201612
 21
103.9999999999994
 31
0.0
  0
LINE
  5
558
330
18
100
AcDbEntity
  8
NORMALI
100
AcDbLine
 10
317.2230947542437
 20
47.50055443394865
 30
0.0
 11
317.2230947542437
 21
72.50055443394774
 31
0.0
  0
LINE
  5
559
330
18
100
AcDbEntity
  8
NORMALI
100
AcDbLine
 10
318.2230947542437
 20
71.50055443394774
 30
0.0
 11
318.2230947542428
 21
48.50055443394865
 31
0.0
  0
LINE
  5
55A
330
18
100
AcDbEntity
  8
NORMALI
100
AcDbLine
 10
318.2230947542428
 20
48.50055443394865
 30
0.0
 11
317.2230947542427
 21
47.50055443394865
 31
0.0
  0
LINE
  5
55B
330
18
100
AcDbEntity
  8
NORMALI
100
AcDbLine
 10
317.2230947542437
 20
47.50055443394773
 30
0.0
 11
298.2230947542437
 21
47.50055443394773
 31
0.0
  0
LINE
  5
55C
330
18
100
AcDbEntity
  8
DISEGNO
100
AcDbLine
 10
358.9459682722142
 20
126.2499999999999
 30
0.0
 11
298.2231947542402
 21
126.2499999999995
 31
0.0
  0
LINE
  5
55D
330
18
100
AcDbEntity
  8
DISEGNO
100
AcDbLine
 10
298.2231947542402
 20
113.7499999999995
 30
0.0
 11
362.0902462348438
 21
113.7499999999999
 31
0.0
  0
LINE
  5
55E
330
18
100
AcDbEntity
  8
DISEGNO
100
AcDbLine
 10
283.2231947542402
 20
140.0000000000009
 30
0.0
 11
298.2231947542402
 21
140.0000000000009
 31
0.0
  0
LINE
  5
55F
330
18
100
AcDbEntity
  8
DISEGNO
100
AcDbLine
 10
283.2230947542437
 20
140.0000000000002
 30
0.0
 11
298.2230947542437
 21
140.0000000000002
 31
0.0
  0
LINE
  5
560
330
18
100
AcDbEntity
  8
NORMALI
100
AcDbLine
 10
298.2231947542402
 20
139.9999999999996
 30
0.0
 11
298.2231947542402
 21
155.9999999999996
 31
0.0
  0
LINE
  5
561
330
18
100
AcDbEntity
  8
NORMALI
100
AcDbLine
 10
298.2231947542398
 20
145.7499999999988
 30
0.0
 11
354.0408946505129
 21
145.7499999999985
 31
0.0
  0
LINE
  5
562
330
18
100
AcDbEntity
  8
DISEGNO
100
AcDbLine
 10
298.2230947542437
 20
139.9999999999996
 30
0.0
 11
361.5009614523194
 21
139.9999999999996
 31
0.0
  0
LINE
  5
563
330
18
100
AcDbEntity
  8
NORMALI
100
AcDbLine
 10
317.2230947542437
 20
72.50055443394774
 30
0.0
 11
298.2230947542437
 21
72.50055443394774
 31
0.0
  0
LINE
  5
564
330
18
100
AcDbEntity
  8
NORMALI
100
AcDbLine
 10
298.2231947542402
 20
155.9999999999996
 30
0.0
 11
357.3637164443905
 21
155.9999999999996
 31
0.0
  0
LINE
  5
5C3
330
18
100
AcDbEntity
  8
DISEGNO
100
AcDbLine
 10
1712.664163477687
 20
419.680038279692
 30
0.0
 11
1852.664163477687
 21
419.680038279692
 31
0.0
  0
LINE
  5
5C5
330
18
100
AcDbEntity
  8
DISEGNO
100
AcDbLine
 10
1852.664163477687
 20
634.6799382796927
 30
0.0
 11
1627.664163477687
 21
634.6799382796927
 31
0.0
  0
LINE
  5
5C6
330
18
100
AcDbEntity
  8
DISEGNO
100
AcDbLine
 10
1304.220207753778
 20
-110.4998499999977
 30
0.0
 11
1304.220207753778
 21
-139.9999999999994
 31
0.0
  0
ARC
  5
5C7
330
18
100
AcDbEntity
  8
DISEGNO
100
AcDbCircle
 10
1435.220207753779
 20
-134.9999999999994
 30
0.0
 40
5.0
100
AcDbArc
 50
270.0
 51
0.000000000000007
  0
LINE
  5
5C8
330
18
100
AcDbEntity
  8
ASSI
100
AcDbLine
 10
1333.220207753778
 20
166.355313628054
 30
0.0
 11
1333.220207753778
 21
-166.3553136280528
 31
0.0
  0
LINE
  5
5C9
330
18
100
AcDbEntity
  8
DISEGNO
100
AcDbLine
 10
1248.220207753778
 20
140.0000000000005
 30
0.0
 11
1248.220207753778
 21
-139.9999999999994
 31
0.0
  0
LINE
  5
5CA
330
18
100
AcDbEntity
  8
DISEGNO
100
AcDbLine
 10
1127.840514998266
 20
-220.0000000000001
 30
0.0
 11
1127.840514998266
 21
-50.00000000000011
 31
0.0
  0
LINE
  5
5CB
330
18
100
AcDbEntity
  8
DISEGNO
100
AcDbLine
 10
1712.664163477689
 20
588.6805382796912
 30
0.0
 11
1712.664163477689
 21
552.9304382796928
 31
0.0
  0
LINE
  5
5CC
330
18
100
AcDbEntity
  8
DISEGNO
100
AcDbLine
 10
1712.664163477687
 20
419.680038279692
 30
0.0
 11
1712.664163477682
 21
588.6800382796919
 31
0.0
  0
LINE
  5
5CD
330
18
100
AcDbEntity
  8
NORMALI
100
AcDbLine
 10
1632.876786119198
 20
596.6800382796919
 30
0.0
 11
1632.876786119198
 21
536.680038279692
 31
0.0
  0
LINE
  5
5D1
330
18
100
AcDbEntity
  8
NORMALI
100
AcDbLine
 10
1692.8887861192
 20
583.6800382796929
 30
0.0
 11
1688.544020161752
 21
566.6800382796928
 31
0.0
  0
LINE
  5
5D2
330
18
100
AcDbEntity
  8
NORMALI
100
AcDbLine
 10
1702.5997861192
 20
569.3100382796939
 30
0.0
 11
1705.781786119201
 21
572.4900382796923
 31
0.0
  0
LINE
  5
5D3
330
18
100
AcDbEntity
  8
NORMALI
100
AcDbLine
 10
1705.226302501897
 20
566.6800382796928
 30
0.0
 11
1691.9397861192
 21
579.9700382796937
 31
0.0
  0
LINE
  5
5D6
330
18
100
AcDbEntity
  8
DISEGNO
100
AcDbLine
 10
1435.220207753779
 20
-139.9999999999994
 30
0.0
 11
1127.840514998266
 21
-140.0000000000001
 31
0.0
  0
LINE
  5
5D8
330
18
100
AcDbEntity
  8
NORMALI
100
AcDbLine
 10
1674.668786119199
 20
518.7500382796925
 30
0.0
 11
1666.743456319434
 21
526.680038279693
 31
0.0
  0
LINE
  5
5DB
330
18
100
AcDbEntity
  8
NORMALI
100
AcDbLine
 10
1656.131786119199
 20
526.680038279693
 30
0.0
 11
1707.195786119197
 21
526.6800382796929
 31
0.0
  0
LINE
  5
5DC
330
18
100
AcDbEntity
  8
NORMALI
100
AcDbLine
 10
1656.131786119199
 20
566.6800382796928
 30
0.0
 11
1707.195786119197
 21
566.6800382796928
 31
0.0
  0
ARC
  5
5DD
330
18
100
AcDbEntity
  8
NORMALI
100
AcDbCircle
 10
1653.965786119197
 20
539.7700382796926
 30
0.0
 40
14.722
100
AcDbArc
 50
205.5108999999687
 51
244.4889999999952
  0
LINE
  5
5DE
330
18
100
AcDbEntity
  8
NORMALI
100
AcDbLine
 10
1640.373786119198
 20
531.8300382796926
 30
0.0
 11
1646.0307861192
 21
526.180038279693
 31
0.0
  0
LINE
  5
5DF
330
18
100
AcDbEntity
  8
NORMALI
100
AcDbLine
 10
1641.0807861192
 20
521.230038279694
 30
0.0
 11
1646.3847861192
 21
526.5300382796933
 31
0.0
  0
LINE
  5
5E0
330
18
100
AcDbEntity
  8
NORMALI
100
AcDbLine
 10
1638.879786119199
 20
543.9300382796919
 30
0.0
 11
1659.131786119199
 21
523.6800382796929
 31
0.0
  0
LINE
  5
5E1
330
18
100
AcDbEntity
  8
NORMALI
100
AcDbLine
 10
1638.3507861192
 20
534.560038279694
 30
0.0
 11
1648.7607861192
 21
524.1500382796923
 31
0.0
  0
LINE
  5
5E2
330
18
100
AcDbEntity
  8
NORMALI
100
AcDbLine
 10
1638.879786119199
 20
536.680038279692
 30
0.0
 11
1648.505786119199
 21
534.310038279694
 31
0.0
  0
LINE
  5
5E3
330
18
100
AcDbEntity
  8
NORMALI
100
AcDbLine
 10
1638.879786119199
 20
549.430038279692
 30
0.0
 11
1659.132133945287
 21
569.6800382796928
 31
0.0
  0
LINE
  5
5E4
330
18
100
AcDbEntity
  8
NORMALI
100
AcDbLine
 10
1642.932786119198
 20
535.6800382796929
 30
0.0
 11
1640.682786119199
 21
533.4300382796929
 31
0.0
  0
ARC
  5
5E5
330
18
100
AcDbEntity
  8
NORMALI
100
AcDbCircle
 10
1641.163786119198
 20
537.3800382796932
 30
0.0
 40
3.978
100
AcDbArc
 50
190.1349843385921
 51
263.0045000000001
  0
LINE
  5
5E6
330
18
100
AcDbEntity
  8
NORMALI
100
AcDbLine
 10
1636.130786119199
 20
526.180038279693
 30
0.0
 11
1636.130786119199
 21
524.7600382796929
 31
0.0
  0
LINE
  5
5E7
330
18
100
AcDbEntity
  8
NORMALI
100
AcDbLine
 10
1635.4237861192
 20
526.8800382796937
 30
0.0
 11
1635.4237861192
 21
525.4700382796938
 31
0.0
  0
LINE
  5
5E8
330
18
100
AcDbEntity
  8
NORMALI
100
AcDbLine
 10
1640.373786119198
 20
532.5400382796935
 30
0.0
 11
1640.373786119198
 21
531.8300382796926
 31
0.0
  0
LINE
  5
5E9
330
18
100
AcDbEntity
  8
NORMALI
100
AcDbLine
 10
1639.666786119199
 20
521.230038279694
 30
0.0
 11
1641.0807861192
 21
521.230038279694
 31
0.0
  0
LINE
  5
5EA
330
18
100
AcDbEntity
  8
NORMALI
100
AcDbLine
 10
1640.373786119198
 20
530.4200382796928
 30
0.0
 11
1644.6167861192
 21
526.180038279693
 31
0.0
  0
LINE
  5
5EB
330
18
100
AcDbEntity
  8
NORMALI
100
AcDbLine
 10
1644.6167861192
 20
526.180038279693
 30
0.0
 11
1640.373786119198
 21
521.9300382796929
 31
0.0
  0
LINE
  5
5EC
330
18
100
AcDbEntity
  8
NORMALI
100
AcDbLine
 10
1635.4237861192
 20
525.4700382796938
 30
0.0
 11
1639.666786119199
 21
521.230038279694
 31
0.0
  0
LINE
  5
5ED
330
18
100
AcDbEntity
  8
NORMALI
100
AcDbLine
 10
1638.9597861192
 20
521.9300382796929
 30
0.0
 11
1640.373786119198
 21
521.9300382796929
 31
0.0
  0
LINE
  5
5EE
330
18
100
AcDbEntity
  8
NORMALI
100
AcDbLine
 10
1635.4237861192
 20
526.8800382796937
 30
0.0
 11
1640.727786119201
 21
532.1900382796932
 31
0.0
  0
LINE
  5
5EF
330
18
100
AcDbEntity
  8
NORMALI
100
AcDbLine
 10
1636.130786119199
 20
526.180038279693
 30
0.0
 11
1640.373786119198
 21
530.4200382796928
 31
0.0
  0
LINE
  5
5F0
330
18
100
AcDbEntity
  8
NORMALI
100
AcDbLine
 10
1640.373786119198
 20
530.4200382796928
 30
0.0
 11
1638.9597861192
 21
521.9300382796929
 31
0.0
  0
LINE
  5
5F1
330
18
100
AcDbEntity
  8
NORMALI
100
AcDbLine
 10
1636.130786119199
 20
524.7600382796929
 30
0.0
 11
1644.6167861192
 21
526.180038279693
 31
0.0
  0
LINE
  5
5F3
330
18
100
AcDbEntity
  8
NORMALI
100
AcDbLine
 10
1638.879786119199
 20
536.680038279692
 30
0.0
 11
1632.876786119198
 21
536.680038279692
 31
0.0
  0
LINE
  5
5F5
330
18
100
AcDbEntity
  8
NORMALI
100
AcDbLine
 10
1638.879786119199
 20
549.430038279692
 30
0.0
 11
1638.879786119199
 21
543.9300382796919
 31
0.0
  0
LINE
  5
5F6
330
18
100
AcDbEntity
  8
NORMALI
100
AcDbLine
 10
1646.628786119199
 20
534.7700382796931
 30
0.0
 11
1653.003786119198
 21
528.4000382796923
 31
0.0
  0
ARC
  5
5F7
330
18
100
AcDbEntity
  8
NORMALI
100
AcDbCircle
 10
1637.388786119199
 20
523.1900382796927
 30
0.0
 40
14.722
100
AcDbArc
 50
25.51099999996984
 51
52.20800000000323
  0
ARC
  5
5F8
330
18
100
AcDbEntity
  8
NORMALI
100
AcDbCircle
 10
1650.190786119199
 20
525.5800382796929
 30
0.0
 40
3.978
100
AcDbArc
 50
7.020000000001675
 51
83.00500000000486
  0
LINE
  5
5F9
330
18
100
AcDbEntity
  8
NORMALI
100
AcDbLine
 10
1654.133786119199
 20
526.060038279694
 30
0.0
 11
1651.092786119198
 21
523.0200382796931
 31
0.0
  0
LINE
  5
5FA
330
18
100
AcDbEntity
  8
NORMALI
100
AcDbLine
 10
1650.6717861192
 20
529.5300382796933
 30
0.0
 11
1647.630786119199
 21
526.4900382796924
 31
0.0
  0
ARC
  5
5FB
330
18
100
AcDbEntity
  8
NORMALI
100
AcDbCircle
 10
1651.573786119197
 20
526.9700382796933
 30
0.0
 40
3.978
100
AcDbArc
 50
186.9953400000023
 51
262.9796999999947
  0
LINE
  5
5FC
330
18
100
AcDbEntity
  8
NORMALI
100
AcDbLine
 10
1646.0307861192
 20
526.180038279693
 30
0.0
 11
1646.738786119199
 21
526.180038279693
 31
0.0
  0
LINE
  5
5FD
330
18
100
AcDbEntity
  8
NORMALI
100
AcDbLine
 10
1653.4557861192
 20
527.9400382796932
 30
0.0
 11
1654.162786119198
 21
528.6500382796923
 31
0.0
  0
LINE
  5
5FE
330
18
100
AcDbEntity
  8
NORMALI
100
AcDbLine
 10
1665.62892729567
 20
526.6800382796929
 30
0.0
 11
1662.628786119199
 21
523.6800382796928
 31
0.0
  0
LINE
  5
5FF
330
18
100
AcDbEntity
  8
NORMALI
100
AcDbLine
 10
1659.131786119199
 20
523.6800382796929
 30
0.0
 11
1662.628786119199
 21
523.6800382796928
 31
0.0
  0
LINE
  5
600
330
18
100
AcDbEntity
  8
NORMALI
100
AcDbLine
 10
1662.628786119199
 20
569.6800382796928
 30
0.0
 11
1665.62892729567
 21
566.6800382796928
 31
0.0
  0
LINE
  5
601
330
18
100
AcDbEntity
  8
NORMALI
100
AcDbLine
 10
1662.628786119199
 20
569.6800382796928
 30
0.0
 11
1659.132133945287
 21
569.6800382796928
 31
0.0
  0
LINE
  5
602
330
18
100
AcDbEntity
  8
DISEGNO
100
AcDbLine
 10
1712.664163477689
 20
540.4305382796902
 30
0.0
 11
1712.664163477687
 21
462.6800382796919
 31
0.0
  0
LINE
  5
603
330
18
100
AcDbEntity
  8
NORMALI
100
AcDbLine
 10
1705.781786119201
 20
520.8700382796934
 30
0.0
 11
1686.6897861192
 21
501.7800382796933
 31
0.0
  0
LINE
  5
605
330
18
100
AcDbEntity
  8
NORMALI
100
AcDbLine
 10
1705.22550747705
 20
526.6800382796929
 30
0.0
 11
1678.911786119198
 21
500.3700382796933
 31
0.0
  0
LINE
  5
607
330
18
100
AcDbEntity
  8
NORMALI
100
AcDbLine
 10
1667.597786119199
 20
511.6800382796928
 30
0.0
 11
1678.911786119198
 21
500.3700382796933
 31
0.0
  0
LINE
  5
608
330
18
100
AcDbEntity
  8
NORMALI
100
AcDbLine
 10
1667.597786119199
 20
511.6800382796928
 30
0.0
 11
1682.599907759932
 21
526.6800382796929
 31
0.0
  0
LINE
  5
609
330
18
100
AcDbEntity
  8
NORMALI
100
AcDbLine
 10
1686.6897861192
 20
501.7800382796933
 30
0.0
 11
1683.507786119199
 21
504.9600382796935
 31
0.0
  0
LINE
  5
60D
330
18
100
AcDbEntity
  8
NORMALI
100
AcDbLine
 10
1706.6647861192
 20
529.180038279691
 30
0.0
 11
1696.664786119199
 21
539.1800382796929
 31
0.0
  0
LINE
  5
60F
330
18
100
AcDbEntity
  8
NORMALI
100
AcDbLine
 10
1707.195286083842
 20
528.6495383150515
 30
0.0
 11
1706.6647861192
 21
529.180038279691
 31
0.0
  0
LINE
  5
610
330
18
100
AcDbEntity
  8
NORMALI
100
AcDbLine
 10
1707.195786119197
 20
528.6500382796922
 30
0.0
 11
1707.195786119197
 21
526.6800382796929
 31
0.0
  0
LINE
  5
611
330
18
100
AcDbEntity
  8
NORMALI
100
AcDbLine
 10
1702.5997861192
 20
524.0600382796939
 30
0.0
 11
1705.781786119201
 21
520.8700382796934
 31
0.0
  0
LINE
  5
612
330
18
100
AcDbEntity
  8
NORMALI
100
AcDbLine
 10
1712.664273540583
 20
529.1800382796928
 30
0.0
 11
1706.664786119199
 21
529.1800382796928
 31
0.0
  0
LINE
  5
613
330
18
100
AcDbEntity
  8
DISEGNO
100
AcDbLine
 10
1712.664163477689
 20
556.6804382796927
 30
0.0
 11
1712.664163477689
 21
552.9304382796928
 31
0.0
  0
LINE
  5
614
330
18
100
AcDbEntity
  8
DISEGNO
100
AcDbLine
 10
1712.664163477689
 20
540.4304382796928
 30
0.0
 11
1712.664163477689
 21
536.6804382796927
 31
0.0
  0
LINE
  5
616
330
18
100
AcDbEntity
  8
NORMALI
100
AcDbLine
 10
1706.664786119199
 20
564.1800382796929
 30
0.0
 11
1707.195286184737
 21
564.7105383452318
 31
0.0
  0
LINE
  5
617
330
18
100
AcDbEntity
  8
NORMALI
100
AcDbLine
 10
1707.195786119197
 20
564.7100382796935
 30
0.0
 11
1707.195786119197
 21
566.6800382796928
 31
0.0
  0
LINE
  5
618
330
18
100
AcDbEntity
  8
NORMALI
100
AcDbLine
 10
1696.664786119199
 20
539.1800382796929
 30
0.0
 11
1694.064791169962
 21
541.780033228929
 31
0.0
  0
LINE
  5
619
330
18
100
AcDbEntity
  8
NORMALI
100
AcDbLine
 10
1696.664786119199
 20
539.1800382796929
 30
0.0
 11
1696.664786119199
 21
554.1800382796928
 31
0.0
  0
LINE
  5
61A
330
18
100
AcDbEntity
  8
NORMALI
100
AcDbLine
 10
1694.064791169959
 20
551.5800433304549
 30
0.0
 11
1696.664786119199
 21
554.1800382796947
 31
0.0
  0
ARC
  5
61B
330
18
100
AcDbEntity
  8
NORMALI
100
AcDbCircle
 10
1699.063786119199
 20
546.6800382796924
 30
0.0
 40
7.0
100
AcDbArc
 50
134.9999999999954
 51
224.9999000000026
  0
LINE
  5
61C
330
18
100
AcDbEntity
  8
NORMALI
100
AcDbLine
 10
1696.664786119199
 20
554.1800382796947
 30
0.0
 11
1706.664786119199
 21
564.1800382796929
 31
0.0
  0
LINE
  5
61D
330
18
100
AcDbEntity
  8
NORMALI
100
AcDbLine
 10
1712.664273540583
 20
564.1800382796929
 30
0.0
 11
1706.664786119199
 21
564.1800382796929
 31
0.0
  0
LINE
  5
61E
330
18
100
AcDbEntity
  8
DISEGNO
100
AcDbLine
 10
1632.876786119198
 20
596.6800382796947
 30
0.0
 11
1702.876786119198
 21
596.6800382796947
 31
0.0
  0
LINE
  5
620
330
18
100
AcDbEntity
  8
DISEGNO
100
AcDbLine
 10
1627.664163477687
 20
609.6799382796936
 30
0.0
 11
1772.773609043733
 21
609.6799382796936
 31
0.0
  0
LINE
  5
621
330
18
100
AcDbEntity
  8
DISEGNO
100
AcDbLine
 10
1632.876786119198
 20
609.6799382796936
 30
0.0
 11
1632.876786119198
 21
596.6800382796919
 31
0.0
1001
ACAD
1000
ASC_BOUNDS
1002
{
1070
    19
1002
}
  0
LINE
  5
623
330
18
100
AcDbEntity
  8
DISEGNO
100
AcDbLine
 10
1627.664163477687
 20
634.6799382796927
 30
0.0
 11
1627.664163477687
 21
609.6799382796936
 31
0.0
  0
LINE
  5
628
330
18
100
AcDbEntity
  8
DISEGNO
100
AcDbLine
 10
1702.876786119198
 20
609.6799382796936
 30
0.0
 11
1702.876786119198
 21
596.6800382796929
 31
0.0
1001
ACAD
1000
ASC_BOUNDS
1002
{
1070
    19
1002
}
  0
LINE
  5
629
330
18
100
AcDbEntity
  8
NORMALI
100
AcDbLine
 10
1705.781786119201
 20
572.4900382796923
 30
0.0
 11
1692.8887861192
 21
585.3861210086316
 31
0.0
  0
LINE
  5
62B
330
18
100
AcDbEntity
  8
NORMALI
100
AcDbLine
 10
1692.8887861192
 20
596.6800382796929
 30
0.0
 11
1692.8887861192
 21
583.6800382796929
 31
0.0
  0
LINE
  5
62C
330
18
100
AcDbEntity
  8
0
100
AcDbLine
 10
1925.164163477692
 20
476.8906381298461
 30
0.0
 11
1925.164163477692
 21
604.6800382797037
 31
0.0
  0
LINE
  5
62D
330
18
100
AcDbEntity
  8
0
100
AcDbLine
 10
1780.164163477691
 20
476.8906381298457
 30
0.0
 11
1780.164163477691
 21
604.6800382797024
 31
0.0
  0
LINE
  5
631
330
18
100
AcDbEntity
  8
DISEGNO
100
AcDbLine
 10
1992.664163477687
 20
419.680038279692
 30
0.0
 11
1992.664163477686
 21
588.6800382796919
 31
0.0
  0
LINE
  5
634
330
18
100
AcDbEntity
  8
NORMALI
100
AcDbLine
 10
2072.451540836176
 20
596.6800382796919
 30
0.0
 11
2072.451540836176
 21
536.6800382796919
 31
0.0
  0
LINE
  5
636
330
18
100
AcDbEntity
  8
NORMALI
100
AcDbLine
 10
2012.439540836174
 20
583.6800382796929
 30
0.0
 11
2016.784306793622
 21
566.6800382796928
 31
0.0
  0
LINE
  5
637
330
18
100
AcDbEntity
  8
NORMALI
100
AcDbLine
 10
2000.102024453477
 20
566.6800382796928
 30
0.0
 11
2013.388540836174
 21
579.9700382796937
 31
0.0
  0
LINE
  5
638
330
18
100
AcDbEntity
  8
NORMALI
100
AcDbLine
 10
2002.728540836174
 20
569.3100382796939
 30
0.0
 11
1999.546540836173
 21
572.4900382796923
 31
0.0
  0
LINE
  5
63B
330
18
100
AcDbEntity
  8
ASSI
100
AcDbLine
 10
1852.664163477687
 20
670.9792843546985
 30
0.0
 11
1852.664163477687
 21
382.5254788448202
 31
0.0
  0
LINE
  5
63C
330
18
100
AcDbEntity
  8
DISEGNO
100
AcDbLine
 10
1780.164163477691
 20
476.8906381298457
 30
0.0
 11
1925.164163477692
 21
476.8906381298457
 31
0.0
  0
LINE
  5
63D
330
18
100
AcDbEntity
  8
DISEGNO
100
AcDbLine
 10
1852.664163477687
 20
419.680038279692
 30
0.0
 11
1941.414163477687
 21
419.680038279692
 31
0.0
  0
LINE
  5
63E
330
18
100
AcDbEntity
  8
DISEGNO
100
AcDbLine
 10
1992.664163477687
 20
419.680038279692
 30
0.0
 11
1852.664163477687
 21
419.680038279692
 31
0.0
  0
LINE
  5
640
330
18
100
AcDbEntity
  8
DISEGNO
100
AcDbLine
 10
1107.840514998265
 20
-50.00000000000011
 30
0.0
 11
1107.840514998265
 21
49.99999999999989
 31
0.0
  0
LINE
  5
642
330
18
100
AcDbEntity
  8
DISEGNO
100
AcDbLine
 10
1440.220207753779
 20
135.0000000000005
 30
0.0
 11
1440.220207753779
 21
-134.9999999999994
 31
0.0
  0
LINE
  5
648
330
18
100
AcDbEntity
  8
DISEGNO
100
AcDbLine
 10
1300.220207753778
 20
-106.4998499999977
 30
0.0
 11
1248.220207753778
 21
-106.4998499999977
 31
0.0
  0
LINE
  5
649
330
18
100
AcDbEntity
  8
DISEGNO
100
AcDbLine
 10
1300.220207753778
 20
-107.4998499999977
 30
0.0
 11
1248.220207753778
 21
-107.4998499999977
 31
0.0
  0
LINE
  5
64A
330
18
100
AcDbEntity
  8
DISEGNO
100
AcDbLine
 10
1300.220207753778
 20
-132.4998499999977
 30
0.0
 11
1248.220207753778
 21
-132.4998499999977
 31
0.0
  0
LINE
  5
64B
330
18
100
AcDbEntity
  8
NORMALI
100
AcDbLine
 10
1228.220207753778
 20
-131.4998499999977
 30
0.0
 11
1228.220207753778
 21
-108.4998499999995
 31
0.0
  0
LINE
  5
64C
330
18
100
AcDbEntity
  8
NORMALI
100
AcDbLine
 10
1229.220207753778
 20
-132.4998499999977
 30
0.0
 11
1248.220207753778
 21
-132.4998499999977
 31
0.0
  0
LINE
  5
64D
330
18
100
AcDbEntity
  8
NORMALI
100
AcDbLine
 10
1229.220207753778
 20
-132.4998499999977
 30
0.0
 11
1228.220207753778
 21
-131.4998499999977
 31
0.0
  0
LINE
  5
650
330
18
100
AcDbEntity
  8
NORMALI
100
AcDbLine
 10
1229.22020775378
 20
-107.4998499999977
 30
0.0
 11
1248.220207753778
 21
-107.4998499999977
 31
0.0
  0
LINE
  5
651
330
18
100
AcDbEntity
  8
NORMALI
100
AcDbLine
 10
1228.220207753778
 20
-108.4998499999995
 30
0.0
 11
1229.220207753778
 21
-107.4998499999995
 31
0.0
  0
LINE
  5
652
330
18
100
AcDbEntity
  8
NORMALI
100
AcDbLine
 10
1229.220207753778
 20
-107.4998499999995
 30
0.0
 11
1229.220207753778
 21
-132.4998499999977
 31
0.0
  0
LINE
  5
657
330
18
100
AcDbEntity
  8
DISEGNO
100
AcDbLine
 10
1303.220207753778
 20
-110.4998499999977
 30
0.0
 11
1303.220207753778
 21
-129.4998499999977
 31
0.0
  0
ARC
  5
659
330
18
100
AcDbEntity
  8
DISEGNO
100
AcDbCircle
 10
1300.220207753778
 20
-129.4998499999977
 30
0.0
 40
3.0
100
AcDbArc
 50
270.0
 51
0.000000000000007
  0
ARC
  5
65A
330
18
100
AcDbEntity
  8
DISEGNO
100
AcDbCircle
 10
1300.220207753778
 20
-110.4998499999977
 30
0.0
 40
4.0
100
AcDbArc
 50
0.000000000000007
 51
90.0
  0
ARC
  5
65B
330
18
100
AcDbEntity
  8
DISEGNO
100
AcDbCircle
 10
1300.220207753778
 20
-110.4998499999977
 30
0.0
 40
3.0
100
AcDbArc
 50
0.000000000000007
 51
90.0
  0
LINE
  5
65F
330
18
100
AcDbEntity
  8
DISEGNO
100
AcDbLine
 10
1127.840514998266
 20
-50.00000000000011
 30
0.0
 11
1107.840514998265
 21
-50.00000000000011
 31
0.0
  0
LINE
  5
670
330
18
100
AcDbEntity
  8
NORMALI
100
AcDbLine
 10
1127.840514998265
 20
-37.49999999999995
 30
0.0
 11
1248.220207753778
 21
-37.49999999999943
 31
0.0
  0
LINE
  5
6BA
330
18
100
AcDbEntity
  8
NORMALI
100
AcDbLine
 10
1127.840514998265
 20
37.50000000000006
 30
0.0
 11
1248.220207753778
 21
37.50000000000057
 31
0.0
  0
LINE
  5
6BC
330
18
100
AcDbEntity
  8
DISEGNO
100
AcDbLine
 10
1852.664163477687
 20
419.680038279692
 30
0.0
 11
1763.914163477687
 21
419.680038279692
 31
0.0
  0
LINE
  5
6BD
330
18
100
AcDbEntity
  8
NORMALI
100
AcDbLine
 10
1229.220207753778
 20
132.4998499999989
 30
0.0
 11
1228.220207753778
 21
131.4998499999989
 31
0.0
  0
ARC
  5
6BF
330
18
100
AcDbEntity
  8
DISEGNO
100
AcDbCircle
 10
1300.220207753778
 20
129.4998499999989
 30
0.0
 40
3.0
100
AcDbArc
 50
0.000000000000007
 51
90.0
  0
LINE
  5
6C0
330
18
100
AcDbEntity
  8
DISEGNO
100
AcDbLine
 10
1304.220207753778
 20
110.4998499999989
 30
0.0
 11
1304.220207753778
 21
140.0000000000005
 31
0.0
  0
LINE
  5
6C1
330
18
100
AcDbEntity
  8
DISEGNO
100
AcDbLine
 10
1127.840514998266
 20
-50.00000000000011
 30
0.0
 11
1127.840514998266
 21
220.0
 31
0.0
  0
LINE
  5
6C3
330
18
100
AcDbEntity
  8
DISEGNO
100
AcDbLine
 10
1127.840514998265
 20
49.99999999999989
 30
0.0
 11
1107.840514998265
 21
49.99999999999897
 31
0.0
  0
LINE
  5
6CB
330
18
100
AcDbEntity
  8
DISEGNO
100
AcDbLine
 10
1300.220207753778
 20
107.4998499999989
 30
0.0
 11
1248.220207753778
 21
107.4998499999989
 31
0.0
  0
LINE
  5
6CC
330
18
100
AcDbEntity
  8
DISEGNO
100
AcDbLine
 10
1300.220207753778
 20
106.4998499999989
 30
0.0
 11
1248.220207753778
 21
106.4998499999989
 31
0.0
  0
LINE
  5
6CD
330
18
100
AcDbEntity
  8
NORMALI
100
AcDbLine
 10
1229.220207753778
 20
107.4998500000007
 30
0.0
 11
1229.220207753778
 21
132.4998499999989
 31
0.0
  0
LINE
  5
6CE
330
18
100
AcDbEntity
  8
NORMALI
100
AcDbLine
 10
1228.220207753778
 20
131.4998499999989
 30
0.0
 11
1228.220207753778
 21
108.4998500000007
 31
0.0
  0
LINE
  5
6CF
330
18
100
AcDbEntity
  8
NORMALI
100
AcDbLine
 10
1229.220207753778
 20
107.4998499999989
 30
0.0
 11
1248.220207753778
 21
107.4998499999989
 31
0.0
  0
LINE
  5
6D0
330
18
100
AcDbEntity
  8
NORMALI
100
AcDbLine
 10
1228.220207753778
 20
108.4998500000007
 30
0.0
 11
1229.220207753778
 21
107.4998500000007
 31
0.0
  0
ARC
  5
6D6
330
18
100
AcDbEntity
  8
DISEGNO
100
AcDbCircle
 10
1300.220207753778
 20
110.4998499999989
 30
0.0
 40
3.0
100
AcDbArc
 50
270.0
 51
0.000000000000007
  0
ARC
  5
6D7
330
18
100
AcDbEntity
  8
DISEGNO
100
AcDbCircle
 10
1300.220207753778
 20
110.4998499999989
 30
0.0
 40
4.0
100
AcDbArc
 50
270.0
 51
0.000000000000007
  0
LINE
  5
6DB
330
18
100
AcDbEntity
  8
DISEGNO
100
AcDbLine
 10
1303.220207753778
 20
110.4998499999989
 30
0.0
 11
1303.220207753778
 21
129.4998499999989
 31
0.0
  0
LINE
  5
6DF
330
18
100
AcDbEntity
  8
DISEGNO
100
AcDbLine
 10
1435.220207753779
 20
140.0000000000005
 30
0.0
 11
1127.840514998266
 21
139.9999999999999
 31
0.0
  0
LINE
  5
6E0
330
18
100
AcDbEntity
  8
DISEGNO
100
AcDbLine
 10
1300.220207753778
 20
132.4998499999989
 30
0.0
 11
1248.220207753778
 21
132.4998499999989
 31
0.0
  0
LINE
  5
6E1
330
18
100
AcDbEntity
  8
NORMALI
100
AcDbLine
 10
1229.220207753778
 20
132.4998499999989
 30
0.0
 11
1248.220207753778
 21
132.4998499999989
 31
0.0
  0
ARC
  5
6E2
330
18
100
AcDbEntity
  8
DISEGNO
100
AcDbCircle
 10
1435.220207753779
 20
135.0000000000005
 30
0.0
 40
5.0
100
AcDbArc
 50
0.000000000000007
 51
90.0
  0
LINE
  5
6E3
330
18
100
AcDbEntity
  8
NORMALI
100
AcDbLine
 10
2037.730540836175
 20
511.6800382796928
 30
0.0
 11
2026.416540836176
 21
500.3700382796933
 31
0.0
  0
LINE
  5
6E4
330
18
100
AcDbEntity
  8
NORMALI
100
AcDbLine
 10
2037.730540836175
 20
511.6800382796928
 30
0.0
 11
2022.728419195441
 21
526.6800382796929
 31
0.0
  0
LINE
  5
6E5
330
18
100
AcDbEntity
  8
NORMALI
100
AcDbLine
 10
2049.196540836175
 20
566.6800382796928
 30
0.0
 11
1998.132540836176
 21
566.6800382796928
 31
0.0
  0
LINE
  5
6E6
330
18
100
AcDbEntity
  8
NORMALI
100
AcDbLine
 10
2049.196540836175
 20
526.6800382796928
 30
0.0
 11
1998.132540836176
 21
526.6800382796929
 31
0.0
  0
LINE
  5
6EB
330
18
100
AcDbEntity
  8
NORMALI
100
AcDbLine
 10
1999.546540836173
 20
520.8700382796934
 30
0.0
 11
2018.638540836174
 21
501.7800382796933
 31
0.0
  0
LINE
  5
6EC
330
18
100
AcDbEntity
  8
NORMALI
100
AcDbLine
 10
2000.102819478324
 20
526.6800382796929
 30
0.0
 11
2026.416540836176
 21
500.3700382796933
 31
0.0
  0
LINE
  5
6ED
330
18
100
AcDbEntity
  8
NORMALI
100
AcDbLine
 10
1998.663540836173
 20
529.180038279691
 30
0.0
 11
2008.663540836176
 21
539.1800382796929
 31
0.0
  0
LINE
  5
6EE
330
18
100
AcDbEntity
  8
NORMALI
100
AcDbLine
 10
2008.663540836174
 20
554.1800382796947
 30
0.0
 11
1998.663540836175
 21
564.1800382796929
 31
0.0
  0
LINE
  5
6EF
330
18
100
AcDbEntity
  8
NORMALI
100
AcDbLine
 10
2002.728540836174
 20
524.0600382796939
 30
0.0
 11
1999.546540836173
 21
520.8700382796934
 31
0.0
  0
LINE
  5
6F0
330
18
100
AcDbEntity
  8
NORMALI
100
AcDbLine
 10
1992.664053414791
 20
529.1800382796928
 30
0.0
 11
1998.663540836175
 21
529.1800382796928
 31
0.0
  0
LINE
  5
6F1
330
18
100
AcDbEntity
  8
NORMALI
100
AcDbLine
 10
1998.132540836176
 20
528.6500382796922
 30
0.0
 11
1998.132540836176
 21
526.6800382796929
 31
0.0
  0
LINE
  5
6F2
330
18
100
AcDbEntity
  8
NORMALI
100
AcDbLine
 10
1998.133040871532
 20
528.6495383150515
 30
0.0
 11
1998.663540836173
 21
529.180038279691
 31
0.0
  0
LINE
  5
6F6
330
18
100
AcDbEntity
  8
NORMALI
100
AcDbLine
 10
1992.664053414791
 20
564.1800382796929
 30
0.0
 11
1998.663540836175
 21
564.1800382796929
 31
0.0
  0
LINE
  5
6F7
330
18
100
AcDbEntity
  8
NORMALI
100
AcDbLine
 10
1998.132540836176
 20
564.7100382796935
 30
0.0
 11
1998.132540836176
 21
566.6800382796928
 31
0.0
  0
LINE
  5
6F8
330
18
100
AcDbEntity
  8
NORMALI
100
AcDbLine
 10
1998.663540836175
 20
564.1800382796929
 30
0.0
 11
1998.133040770636
 21
564.7105383452318
 31
0.0
  0
LINE
  5
6FC
330
18
100
AcDbEntity
  8
NORMALI
100
AcDbLine
 10
2018.638540836174
 20
501.7800382796933
 30
0.0
 11
2021.820540836175
 21
504.9600382796935
 31
0.0
  0
ARC
  5
6FE
330
18
100
AcDbEntity
  8
NORMALI
100
AcDbCircle
 10
2006.264540836175
 20
546.6800382796924
 30
0.0
 40
7.0
100
AcDbArc
 50
315.0000999999974
 51
45.0000000000046
  0
LINE
  5
6FF
330
18
100
AcDbEntity
  8
NORMALI
100
AcDbLine
 10
2008.663540836176
 20
539.1800382796929
 30
0.0
 11
2008.663540836176
 21
554.1800382796928
 31
0.0
  0
LINE
  5
700
330
18
100
AcDbEntity
  8
NORMALI
100
AcDbLine
 10
2008.663540836176
 20
539.1800382796929
 30
0.0
 11
2011.263535785412
 21
541.780033228929
 31
0.0
  0
LINE
  5
701
330
18
100
AcDbEntity
  8
NORMALI
100
AcDbLine
 10
2011.263535785415
 20
551.5800433304549
 30
0.0
 11
2008.663540836174
 21
554.1800382796947
 31
0.0
  0
LINE
  5
704
330
18
100
AcDbEntity
  8
NORMALI
100
AcDbLine
 10
2058.699540836176
 20
534.7700382796928
 30
0.0
 11
2052.324540836176
 21
528.4000382796921
 31
0.0
  0
LINE
  5
705
330
18
100
AcDbEntity
  8
NORMALI
100
AcDbLine
 10
2051.194540836174
 20
526.0600382796938
 30
0.0
 11
2054.235540836176
 21
523.0200382796929
 31
0.0
  0
ARC
  5
706
330
18
100
AcDbEntity
  8
NORMALI
100
AcDbCircle
 10
2055.137540836175
 20
525.5800382796929
 30
0.0
 40
3.978
100
AcDbArc
 50
96.99499999999513
 51
172.9799999999983
  0
LINE
  5
707
330
18
100
AcDbEntity
  8
NORMALI
100
AcDbLine
 10
2066.448540836175
 20
543.9300382796919
 30
0.0
 11
2046.196540836175
 21
523.6800382796928
 31
0.0
  0
LINE
  5
708
330
18
100
AcDbEntity
  8
NORMALI
100
AcDbLine
 10
2066.448540836175
 20
549.430038279692
 30
0.0
 11
2046.196193010087
 21
569.6800382796928
 31
0.0
  0
LINE
  5
709
330
18
100
AcDbEntity
  8
NORMALI
100
AcDbLine
 10
2039.699399659704
 20
526.6800382796929
 30
0.0
 11
2042.699540836176
 21
523.6800382796928
 31
0.0
  0
LINE
  5
70A
330
18
100
AcDbEntity
  8
NORMALI
100
AcDbLine
 10
2046.196540836175
 20
523.6800382796928
 30
0.0
 11
2042.699540836176
 21
523.6800382796928
 31
0.0
  0
LINE
  5
70B
330
18
100
AcDbEntity
  8
NORMALI
100
AcDbLine
 10
2051.872540836174
 20
527.940038279693
 30
0.0
 11
2051.165540836176
 21
528.6500382796921
 31
0.0
  0
LINE
  5
70C
330
18
100
AcDbEntity
  8
NORMALI
100
AcDbLine
 10
2030.659540836174
 20
518.7500382796925
 30
0.0
 11
2038.58487063594
 21
526.6800382796928
 31
0.0
  0
LINE
  5
70D
330
18
100
AcDbEntity
  8
NORMALI
100
AcDbLine
 10
2042.699540836176
 20
569.6800382796928
 30
0.0
 11
2039.699399659704
 21
566.6800382796928
 31
0.0
  0
LINE
  5
70E
330
18
100
AcDbEntity
  8
NORMALI
100
AcDbLine
 10
2042.699540836176
 20
569.6800382796928
 30
0.0
 11
2046.196193010087
 21
569.6800382796928
 31
0.0
  0
LINE
  5
70F
330
18
100
AcDbEntity
  8
NORMALI
100
AcDbLine
 10
2062.395540836175
 20
535.6800382796928
 30
0.0
 11
2064.645540836175
 21
533.4300382796928
 31
0.0
  0
ARC
  5
710
330
18
100
AcDbEntity
  8
NORMALI
100
AcDbCircle
 10
2064.164540836177
 20
537.380038279693
 30
0.0
 40
3.978
100
AcDbArc
 50
276.9954999999999
 51
349.8650156614079
  0
ARC
  5
711
330
18
100
AcDbEntity
  8
NORMALI
100
AcDbCircle
 10
2067.939540836174
 20
523.1900382796925
 30
0.0
 40
14.722
100
AcDbArc
 50
127.7919999999967
 51
154.4890000000301
  0
LINE
  5
712
330
18
100
AcDbEntity
  8
NORMALI
100
AcDbLine
 10
2066.977540836174
 20
534.5600382796938
 30
0.0
 11
2056.567540836174
 21
524.1500382796921
 31
0.0
  0
LINE
  5
713
330
18
100
AcDbEntity
  8
NORMALI
100
AcDbLine
 10
2060.711540836174
 20
526.1800382796927
 30
0.0
 11
2064.954540836176
 21
521.9300382796927
 31
0.0
  0
LINE
  5
714
330
18
100
AcDbEntity
  8
NORMALI
100
AcDbLine
 10
2069.197540836175
 20
524.7600382796926
 30
0.0
 11
2060.711540836174
 21
526.1800382796927
 31
0.0
  0
LINE
  5
715
330
18
100
AcDbEntity
  8
NORMALI
100
AcDbLine
 10
2064.954540836176
 20
530.4200382796925
 30
0.0
 11
2060.711540836174
 21
526.1800382796927
 31
0.0
  0
LINE
  5
716
330
18
100
AcDbEntity
  8
NORMALI
100
AcDbLine
 10
2064.954540836176
 20
530.4200382796925
 30
0.0
 11
2066.368540836174
 21
521.9300382796927
 31
0.0
  0
LINE
  5
717
330
18
100
AcDbEntity
  8
NORMALI
100
AcDbLine
 10
2069.197540836175
 20
526.1800382796927
 30
0.0
 11
2064.954540836176
 21
530.4200382796925
 31
0.0
  0
LINE
  5
718
330
18
100
AcDbEntity
  8
NORMALI
100
AcDbLine
 10
2069.904540836174
 20
526.8800382796935
 30
0.0
 11
2064.600540836174
 21
532.190038279693
 31
0.0
  0
LINE
  5
719
330
18
100
AcDbEntity
  8
NORMALI
100
AcDbLine
 10
2069.904540836174
 20
526.8800382796935
 30
0.0
 11
2069.904540836174
 21
525.4700382796936
 31
0.0
  0
LINE
  5
71A
330
18
100
AcDbEntity
  8
NORMALI
100
AcDbLine
 10
2069.197540836175
 20
526.1800382796927
 30
0.0
 11
2069.197540836175
 21
524.7600382796926
 31
0.0
  0
LINE
  5
71B
330
18
100
AcDbEntity
  8
NORMALI
100
AcDbLine
 10
2065.661540836175
 20
521.2300382796938
 30
0.0
 11
2064.247540836174
 21
521.2300382796938
 31
0.0
  0
LINE
  5
71C
330
18
100
AcDbEntity
  8
NORMALI
100
AcDbLine
 10
2066.368540836174
 20
521.9300382796927
 30
0.0
 11
2064.954540836176
 21
521.9300382796927
 31
0.0
  0
LINE
  5
71D
330
18
100
AcDbEntity
  8
NORMALI
100
AcDbLine
 10
2069.904540836174
 20
525.4700382796936
 30
0.0
 11
2065.661540836175
 21
521.2300382796938
 31
0.0
  0
LINE
  5
71E
330
18
100
AcDbEntity
  8
NORMALI
100
AcDbLine
 10
2064.954540836176
 20
532.5400382796933
 30
0.0
 11
2064.954540836176
 21
531.8300382796924
 31
0.0
  0
LINE
  5
71F
330
18
100
AcDbEntity
  8
NORMALI
100
AcDbLine
 10
2059.297540836174
 20
526.1800382796927
 30
0.0
 11
2058.589540836175
 21
526.1800382796927
 31
0.0
  0
ARC
  5
720
330
18
100
AcDbEntity
  8
NORMALI
100
AcDbCircle
 10
2053.754540836177
 20
526.9700382796932
 30
0.0
 40
3.978
100
AcDbArc
 50
277.0203000000053
 51
353.0046599999976
  0
LINE
  5
721
330
18
100
AcDbEntity
  8
NORMALI
100
AcDbLine
 10
2054.656540836174
 20
529.5300382796931
 30
0.0
 11
2057.697540836175
 21
526.4900382796922
 31
0.0
  0
LINE
  5
722
330
18
100
AcDbEntity
  8
NORMALI
100
AcDbLine
 10
2064.247540836174
 20
521.2300382796938
 30
0.0
 11
2058.943540836174
 21
526.5300382796931
 31
0.0
  0
LINE
  5
723
330
18
100
AcDbEntity
  8
NORMALI
100
AcDbLine
 10
2064.954540836176
 20
531.8300382796924
 30
0.0
 11
2059.297540836174
 21
526.1800382796927
 31
0.0
  0
ARC
  5
724
330
18
100
AcDbEntity
  8
NORMALI
100
AcDbCircle
 10
2051.362540836177
 20
539.7700382796925
 30
0.0
 40
14.722
100
AcDbArc
 50
295.5110000000049
 51
334.4891000000313
  0
LINE
  5
726
330
18
100
AcDbEntity
  8
NORMALI
100
AcDbLine
 10
2066.448540836175
 20
536.6800382796919
 30
0.0
 11
2072.451540836176
 21
536.6800382796919
 31
0.0
  0
LINE
  5
727
330
18
100
AcDbEntity
  8
NORMALI
100
AcDbLine
 10
2066.448540836175
 20
549.430038279692
 30
0.0
 11
2066.448540836175
 21
543.9300382796919
 31
0.0
  0
LINE
  5
729
330
18
100
AcDbEntity
  8
NORMALI
100
AcDbLine
 10
2066.448540836175
 20
536.6800382796919
 30
0.0
 11
2056.822540836175
 21
534.3100382796937
 31
0.0
  0
LINE
  5
72A
330
18
100
AcDbEntity
  8
DISEGNO
100
AcDbLine
 10
1780.164163477691
 20
604.680038279702
 30
0.0
 11
1925.164163477692
 21
604.6800382797037
 31
0.0
  0
LINE
  5
72D
330
18
100
AcDbEntity
  8
ASSI
100
AcDbLine
 10
1903.10837656376
 20
623.677096276294
 30
0.0
 11
1852.664163477687
 21
623.677096276294
 31
0.0
  0
LINE
  5
72E
330
18
100
AcDbEntity
  8
ASSI
100
AcDbLine
 10
1801.719950391613
 20
623.677096276294
 30
0.0
 11
1852.164163477687
 21
623.677096276294
 31
0.0
  0
LINE
  5
737
330
18
100
AcDbEntity
  8
DISEGNO
100
AcDbLine
 10
1802.664163477686
 20
629.6795382796932
 30
0.0
 11
1802.664163477686
 21
634.6799382796927
 31
0.0
  0
LINE
  5
73E
330
18
100
AcDbEntity
  8
ASSI
100
AcDbLine
 10
1811.164163477687
 20
609.0686962822675
 30
0.0
 11
1811.164163477687
 21
639.8526886304372
 31
0.0
  0
LINE
  5
741
330
18
100
AcDbEntity
  8
ASSI
100
AcDbLine
 10
1826.664163477687
 20
617.0282140136397
 30
0.0
 11
1826.664163477687
 21
630.3259785389483
 31
0.0
  0
LINE
  5
748
330
18
100
AcDbEntity
  8
ASSI
100
AcDbLine
 10
1894.164163477687
 20
609.0686962822675
 30
0.0
 11
1894.164163477687
 21
639.8526886304372
 31
0.0
  0
LINE
  5
749
330
18
100
AcDbEntity
  8
ASSI
100
AcDbLine
 10
1878.664163477687
 20
617.0282140136397
 30
0.0
 11
1878.664163477687
 21
630.3259785389483
 31
0.0
  0
LINE
  5
74D
330
18
100
AcDbEntity
  8
DISEGNO
100
AcDbLine
 10
1902.664163477687
 20
629.6795382796932
 30
0.0
 11
1902.664163477687
 21
634.6799382796927
 31
0.0
  0
LINE
  5
755
330
18
100
AcDbEntity
  8
DISEGNO
100
AcDbLine
 10
2072.451540836176
 20
596.6800382796947
 30
0.0
 11
2002.451540836176
 21
596.6800382796947
 31
0.0
  0
LINE
  5
756
330
18
100
AcDbEntity
  8
NORMALI
100
AcDbLine
 10
1999.546540836173
 20
572.4900382796923
 30
0.0
 11
2012.439540836174
 21
585.3861210086316
 31
0.0
  0
LINE
  5
757
330
18
100
AcDbEntity
  8
DISEGNO
100
AcDbLine
 10
2002.451540836176
 20
609.6799382796936
 30
0.0
 11
2002.451540836176
 21
596.6800382796929
 31
0.0
1001
ACAD
1000
ASC_BOUNDS
1002
{
1070
    19
1002
}
  0
LINE
  5
759
330
18
100
AcDbEntity
  8
NORMALI
100
AcDbLine
 10
2012.439540836174
 20
596.6800382796929
 30
0.0
 11
2012.439540836174
 21
583.6800382796929
 31
0.0
  0
LINE
  5
75E
330
18
100
AcDbEntity
  8
DISEGNO
100
AcDbLine
 10
2072.451540836176
 20
609.6799382796936
 30
0.0
 11
2072.451540836176
 21
596.6800382796919
 31
0.0
1001
ACAD
1000
ASC_BOUNDS
1002
{
1070
    19
1002
}
  0
LINE
  5
760
330
18
100
AcDbEntity
  8
0
100
AcDbLine
 10
1122.840514998266
 20
224.9999999999999
 30
0.0
 11
482.8405149982654
 21
224.9999999999999
 31
0.0
  0
LINE
  5
761
330
18
100
AcDbEntity
  8
ASSI
100
AcDbLine
 10
106.8452917538099
 20
540.8906381298445
 30
0.0
 11
275.7696756966634
 21
540.8906381298445
 31
0.0
  0
LINE
  5
762
330
18
100
AcDbEntity
  8
NORMALI
100
AcDbLine
 10
1100.84051499827
 20
569.8907381298452
 30
0.0
 11
1014.84051499827
 21
569.8907381298452
 31
0.0
  0
LINE
  5
763
330
18
100
AcDbEntity
  8
DISEGNO
100
AcDbLine
 10
1127.840514998274
 20
596.7533975474601
 30
0.0
 11
987.8405149982718
 21
596.7533975474601
 31
0.0
  0
LINE
  5
764
330
18
100
AcDbEntity
  8
DISEGNO
100
AcDbLine
 10
1091.702646715034
 20
589.8910381298352
 30
0.0
 11
1100.84051499827
 21
589.891038129835
 31
0.0
  0
LINE
  5
766
330
18
100
AcDbEntity
  8
NORMALI
100
AcDbLine
 10
1106.84051499827
 20
523.8907381298453
 30
0.0
 11
1008.84051499827
 21
523.8907381298453
 31
0.0
  0
LINE
  5
767
330
18
100
AcDbEntity
  8
NORMALI
100
AcDbLine
 10
1100.84051499827
 20
546.8907381298452
 30
0.0
 11
1014.84051499827
 21
546.8907381298452
 31
0.0
  0
LINE
  5
768
330
18
100
AcDbEntity
  8
NORMALI
100
AcDbLine
 10
1100.84051499827
 20
545.1407381298452
 30
0.0
 11
1014.84051499827
 21
545.1407381298452
 31
0.0
  0
LINE
  5
769
330
18
100
AcDbEntity
  8
NORMALI
100
AcDbLine
 10
1100.84051499827
 20
548.6407381298453
 30
0.0
 11
1014.84051499827
 21
548.6407381298453
 31
0.0
  0
ELLIPSE
  5
76A
330
18
100
AcDbEntity
  8
NORMALI
100
AcDbEllipse
 10
1078.844819805828
 20
579.0592957550692
 30
0.0
 11
-20.00000005274159
 21
0.0000000000016079
 31
0.0
210
0.0
220
0.0
230
1.0
 40
0.7070721241810537
 41
3.141592653589905
 42
6.283185307179699
  0
ELLIPSE
  5
76B
330
18
100
AcDbEntity
  8
NORMALI
100
AcDbEllipse
 10
1078.844819805828
 20
567.74740341639
 30
0.0
 11
20.00000005274088
 21
-0.0000000000000057
 31
0.0
210
0.0
220
0.0
230
1.0
 40
0.7071667356727611
 41
0.1521299263250988
 42
2.989462727264694
  0
LINE
  5
76C
330
18
100
AcDbEntity
  8
DISEGNO
100
AcDbLine
 10
1248.220207753778
 20
444.1406381298428
 30
0.0
 11
447.8041873715929
 21
444.140638129843
 31
0.0
  0
LINE
  5
76D
330
18
100
AcDbEntity
  8
DISEGNO
100
AcDbLine
 10
477.8405149982672
 20
609.8906381298409
 30
0.0
 11
1127.840514998269
 21
609.8906381298413
 31
0.0
  0
LINE
  5
76E
330
18
100
AcDbEntity
  8
DISEGNO
100
AcDbLine
 10
477.8405149982672
 20
634.8906381298409
 30
0.0
 11
1127.840514998269
 21
634.8906381298413
 31
0.0
  0
LINE
  5
76F
330
18
100
AcDbEntity
  8
DISEGNO
100
AcDbLine
 10
1425.220207753779
 20
450.8906381298428
 30
0.0
 11
455.224403249781
 21
450.8906381298421
 31
0.0
  0
LINE
  5
770
330
18
100
AcDbEntity
  8
DISEGNO
100
AcDbLine
 10
1425.220207753779
 20
462.8906381298428
 30
0.0
 11
441.8792229820037
 21
462.8906381298417
 31
0.0
  0
LINE
  5
771
330
18
100
AcDbEntity
  8
ASSI
100
AcDbLine
 10
459.3280592152214
 20
437.8906381298419
 30
0.0
 11
1248.220207753778
 21
437.8906381298419
 31
0.0
  0
LINE
  5
772
330
18
100
AcDbEntity
  8
DISEGNO
100
AcDbLine
 10
451.754163631319
 20
431.640638129841
 30
0.0
 11
1248.220207753778
 21
431.6406381298419
 31
0.0
  0
LINE
  5
773
330
18
100
AcDbEntity
  8
DISEGNO
100
AcDbLine
 10
465.0100443981382
 20
419.8906381298437
 30
0.0
 11
1425.220207753779
 21
419.8906381298428
 31
0.0
  0
LINE
  5
777
330
18
100
AcDbEntity
  8
DISEGNO
100
AcDbLine
 10
283.2230947542432
 20
604.8906381298555
 30
0.0
 11
283.2230947542441
 21
455.8906381298563
 31
0.0
  0
LINE
  5
77B
330
18
100
AcDbEntity
  8
ASSI
100
AcDbLine
 10
192.223094754245
 20
618.6313994159952
 30
0.0
 11
192.223094754245
 21
441.5113806866117
 31
0.0
  0
LINE
  5
77C
330
18
100
AcDbEntity
  8
DISEGNO
100
AcDbLine
 10
298.2230947542428
 20
589.8910381298381
 30
0.0
 11
298.2230947542455
 21
419.890638129844
 31
0.0
  0
LINE
  5
77D
330
18
100
AcDbEntity
  8
DISEGNO
100
AcDbLine
 10
283.2230947542441
 20
626.8911381298424
 30
0.0
 11
283.2230947542441
 21
419.8906381298447
 31
0.0
  0
LINE
  5
77E
330
18
100
AcDbEntity
  8
DISEGNO
100
AcDbLine
 10
283.2230947542441
 20
595.8906381298445
 30
0.0
 11
283.2230947542441
 21
455.8906381298448
 31
0.0
  0
LINE
  5
77F
330
18
100
AcDbEntity
  8
DISEGNO
100
AcDbLine
 10
298.2230947542441
 20
629.8911381298433
 30
0.0
 11
298.2230947542441
 21
419.8906381298447
 31
0.0
  0
LINE
  5
780
330
18
100
AcDbEntity
  8
NORMALI
100
AcDbLine
 10
477.8405149982663
 20
596.8907381298447
 30
0.0
 11
477.8405149982663
 21
536.8907381298448
 31
0.0
  0
LINE
  5
782
330
18
100
AcDbEntity
  8
NORMALI
100
AcDbLine
 10
504.8405149982663
 20
596.8907381298447
 30
0.0
 11
504.8405149982663
 21
536.8907381298448
 31
0.0
  0
LINE
  5
784
330
18
100
AcDbEntity
  8
NORMALI
100
AcDbLine
 10
590.8405149982663
 20
596.8907381298447
 30
0.0
 11
590.8405149982663
 21
536.8907381298448
 31
0.0
  0
LINE
  5
785
330
18
100
AcDbEntity
  8
NORMALI
100
AcDbLine
 10
617.8405149982664
 20
536.8907381298448
 30
0.0
 11
617.8405149982664
 21
596.8907381298447
 31
0.0
  0
ELLIPSE
  5
786
330
18
100
AcDbEntity
  8
NORMALI
100
AcDbEllipse
 10
547.835556894677
 20
514.7073502911907
 30
0.0
 11
20.00000005274069
 21
-0.0000000000001608
 31
0.0
210
0.0
220
0.0
230
1.0
 40
0.7068306062033844
 41
3.141592653589868
 42
6.283185307179661
  0
ELLIPSE
  5
787
330
18
100
AcDbEntity
  8
NORMALI
100
AcDbEllipse
 10
1057.845473101859
 20
514.7073502911921
 30
0.0
 11
-20.00000005274069
 21
0.0000000000019301
 31
0.0
210
0.0
220
0.0
230
-1.0
 40
0.7068306062033844
 41
3.141592653589721
 42
6.283185307179513
  0
LINE
  5
789
330
18
100
AcDbEntity
  8
NORMALI
100
AcDbLine
 10
987.84051499827
 20
536.8907381298453
 30
0.0
 11
987.84051499827
 21
596.8907381298452
 31
0.0
  0
LINE
  5
78A
330
18
100
AcDbEntity
  8
NORMALI
100
AcDbLine
 10
1014.84051499827
 20
596.8907381298452
 30
0.0
 11
1014.84051499827
 21
536.8907381298453
 31
0.0
  0
LINE
  5
78C
330
18
100
AcDbEntity
  8
NORMALI
100
AcDbLine
 10
477.8405149982681
 20
564.3911381298409
 30
0.0
 11
469.3961721801324
 21
564.3911381298419
 31
0.0
  0
LINE
  5
78E
330
18
100
AcDbEntity
  8
NORMALI
100
AcDbLine
 10
467.7052102734242
 20
539.3911381298449
 30
0.0
 11
477.8405149982672
 21
539.3911381298448
 31
0.0
  0
LINE
  5
78F
330
18
100
AcDbEntity
  8
NORMALI
100
AcDbLine
 10
462.9652387617524
 20
554.3911381298446
 30
0.0
 11
477.8405149982672
 21
554.3911381298446
 31
0.0
  0
LINE
  5
790
330
18
100
AcDbEntity
  8
DISEGNO
100
AcDbLine
 10
283.2230947542441
 20
419.890638129844
 30
0.0
 11
465.0100443981382
 21
419.8906381298437
 31
0.0
  0
LINE
  5
798
330
18
100
AcDbEntity
  8
DISEGNO
100
AcDbLine
 10
298.2230947542441
 20
539.8906381298446
 30
0.0
 11
298.2230947542441
 21
419.8906381298447
 31
0.0
  0
LINE
  5
7B5
330
18
100
AcDbEntity
  8
DISEGNO
100
AcDbLine
 10
447.8041873715929
 20
444.140638129843
 30
0.0
 11
298.2230947542455
 21
444.1406381298428
 31
0.0
  0
LINE
  5
7B6
330
18
100
AcDbEntity
  8
DISEGNO
100
AcDbLine
 10
298.2230947542455
 20
431.640638129841
 30
0.0
 11
451.754163631319
 21
431.640638129841
 31
0.0
  0
LINE
  5
7B7
330
18
100
AcDbEntity
  8
ASSI
100
AcDbLine
 10
298.2230947542455
 20
437.8906381298419
 30
0.0
 11
459.3280592152214
 21
437.8906381298419
 31
0.0
  0
LINE
  5
7B8
330
18
100
AcDbEntity
  8
DISEGNO
100
AcDbLine
 10
441.8792229820037
 20
462.8906381298417
 30
0.0
 11
298.2230947542451
 21
462.8906381298418
 31
0.0
  0
LINE
  5
7B9
330
18
100
AcDbEntity
  8
DISEGNO
100
AcDbLine
 10
455.224403249781
 20
450.8906381298421
 30
0.0
 11
298.2230947542459
 21
450.8906381298422
 31
0.0
  0
LINE
  5
7D8
330
18
100
AcDbEntity
  8
NORMALI
100
AcDbLine
 10
318.2230947542418
 20
529.391138129842
 30
0.0
 11
318.2230947542418
 21
564.3911381298419
 31
0.0
  0
LINE
  5
7D9
330
18
100
AcDbEntity
  8
NORMALI
100
AcDbLine
 10
318.2230947542418
 20
539.3911381298448
 30
0.0
 11
467.7052102734242
 21
539.3911381298449
 31
0.0
  0
LINE
  5
7DA
330
18
100
AcDbEntity
  8
NORMALI
100
AcDbLine
 10
494.8497098651251
 20
529.3893621285838
 30
0.0
 11
318.2230947542418
 21
529.391138129842
 31
0.0
  0
LINE
  5
7DB
330
18
100
AcDbEntity
  8
NORMALI
100
AcDbLine
 10
469.3961721801324
 20
564.3911381298419
 30
0.0
 11
318.2230947542418
 21
564.3911381298419
 31
0.0
  0
LINE
  5
7DC
330
18
100
AcDbEntity
  8
NORMALI
100
AcDbLine
 10
318.2230947542418
 20
554.3911381298446
 30
0.0
 11
462.9652387617524
 21
554.3911381298446
 31
0.0
  0
LINE
  5
7DD
330
18
100
AcDbEntity
  8
DISEGNO
100
AcDbLine
 10
318.2230947542418
 20
540.6411381298429
 30
0.0
 11
298.2230947542428
 21
540.6411381298429
 31
0.0
  0
LINE
  5
7DE
330
18
100
AcDbEntity
  8
DISEGNO
100
AcDbLine
 10
298.2230947542428
 20
553.1411381298428
 30
0.0
 11
318.2230947542418
 21
553.1411381298428
 31
0.0
  0
LINE
  5
7E0
330
18
100
AcDbEntity
  8
NORMALI
100
AcDbLine
 10
617.8405149982664
 20
554.3911381298446
 30
0.0
 11
987.84051499827
 21
554.3911381298451
 31
0.0
  0
LINE
  5
7E1
330
18
100
AcDbEntity
  8
NORMALI
100
AcDbLine
 10
987.8405149982704
 20
564.3911381298415
 30
0.0
 11
617.8405149982664
 21
564.3911381298409
 31
0.0
  0
LINE
  5
7E2
330
18
100
AcDbEntity
  8
NORMALI
100
AcDbLine
 10
617.8405149982664
 20
539.3911381298448
 30
0.0
 11
987.84051499827
 21
539.3911381298452
 31
0.0
  0
LINE
  5
7E3
330
18
100
AcDbEntity
  8
NORMALI
100
AcDbLine
 10
1004.845028759344
 20
529.3911381298425
 30
0.0
 11
600.8360012371922
 21
529.391138129842
 31
0.0
  0
LINE
  5
7E4
330
18
100
AcDbEntity
  8
NORMALI
100
AcDbLine
 10
617.8405149982664
 20
536.8907381298448
 30
0.0
 11
590.8405149982663
 21
536.8907381298448
 31
0.0
  0
LINE
  5
7E7
330
18
100
AcDbEntity
  8
NORMALI
100
AcDbLine
 10
498.8405149982663
 20
523.8907381298449
 30
0.0
 11
596.8405149982664
 21
523.8907381298449
 31
0.0
  0
ELLIPSE
  5
7E8
330
18
100
AcDbEntity
  8
NORMALI
100
AcDbEllipse
 10
526.8362101907075
 20
579.0592957550687
 30
0.0
 11
20.00000005274159
 21
-0.0000000000016079
 31
0.0
210
0.0
220
0.0
230
-1.0
 40
0.7070721241810537
 41
3.141592653589679
 42
6.283185307179472
  0
ELLIPSE
  5
7E9
330
18
100
AcDbEntity
  8
NORMALI
100
AcDbEllipse
 10
526.8362101907078
 20
567.7474034163895
 30
0.0
 11
-20.00000005274088
 21
-0.0000000000000057
 31
0.0
210
0.0
220
0.0
230
-1.0
 40
0.7071667356727611
 41
0.1521299263250988
 42
2.989462727264694
  0
LINE
  5
7EA
330
18
100
AcDbEntity
  8
NORMALI
100
AcDbLine
 10
506.8362101379661
 20
569.8907381298448
 30
0.0
 11
506.8362101379661
 21
579.0592957550687
 31
0.0
  0
LINE
  5
7EB
330
18
100
AcDbEntity
  8
NORMALI
100
AcDbLine
 10
504.8405149982663
 20
536.8907381298448
 30
0.0
 11
477.8405149982663
 21
536.8907381298448
 31
0.0
  0
LINE
  5
7EC
330
18
100
AcDbEntity
  8
NORMALI
100
AcDbLine
 10
498.8405149982663
 20
526.8907381298448
 30
0.0
 11
494.8500987851221
 21
526.8907381298448
 31
0.0
  0
LINE
  5
7ED
330
18
100
AcDbEntity
  8
NORMALI
100
AcDbLine
 10
494.8485422484155
 20
536.8907381298448
 30
0.0
 11
494.8500987851221
 21
526.8907381298448
 31
0.0
  0
LINE
  5
7EE
330
18
100
AcDbEntity
  8
NORMALI
100
AcDbLine
 10
498.8405149982663
 20
536.8907381298448
 30
0.0
 11
498.8405149982663
 21
523.8907381298449
 31
0.0
  0
ELLIPSE
  5
7EF
330
18
100
AcDbEntity
  8
NORMALI
100
AcDbEllipse
 10
568.8357392187281
 20
567.7474034163895
 30
0.0
 11
20.00000005274088
 21
-0.0000000000000057
 31
0.0
210
0.0
220
0.0
230
1.0
 40
0.7071667356727611
 41
0.1521299263250988
 42
2.989462727264694
  0
LINE
  5
7F0
330
18
100
AcDbEntity
  8
NORMALI
100
AcDbLine
 10
546.8362102434493
 20
569.8907381298448
 30
0.0
 11
546.8362102434493
 21
579.0592957550687
 31
0.0
  0
LINE
  5
7F1
330
18
100
AcDbEntity
  8
NORMALI
100
AcDbLine
 10
548.8357391659883
 20
569.8907381298448
 30
0.0
 11
548.8357391659883
 21
579.0592957550687
 31
0.0
  0
LINE
  5
7F2
330
18
100
AcDbEntity
  8
NORMALI
100
AcDbLine
 10
588.8357392714697
 20
569.8907381298448
 30
0.0
 11
588.8357392714697
 21
579.0592957550687
 31
0.0
  0
ELLIPSE
  5
7F3
330
18
100
AcDbEntity
  8
NORMALI
100
AcDbEllipse
 10
568.8357392187278
 20
579.0592957550687
 30
0.0
 11
-20.00000005274159
 21
-0.0000000000016079
 31
0.0
210
0.0
220
0.0
230
1.0
 40
0.7070721241810537
 41
3.141592653589679
 42
6.283185307179472
  0
LINE
  5
7F4
330
18
100
AcDbEntity
  8
NORMALI
100
AcDbLine
 10
600.8360012371922
 20
536.8907381298448
 30
0.0
 11
600.8360012371922
 21
526.8907381298448
 31
0.0
  0
LINE
  5
7F5
330
18
100
AcDbEntity
  8
NORMALI
100
AcDbLine
 10
596.8405149982664
 20
536.8907381298448
 30
0.0
 11
596.8405149982664
 21
523.8907381298449
 31
0.0
  0
LINE
  5
7F6
330
18
100
AcDbEntity
  8
NORMALI
100
AcDbLine
 10
596.8405149982664
 20
526.8907381298448
 30
0.0
 11
600.8360012371922
 21
526.8907381298448
 31
0.0
  0
LINE
  5
7F7
330
18
100
AcDbEntity
  8
NORMALI
100
AcDbLine
 10
504.8405149982663
 20
548.6407381298448
 30
0.0
 11
590.8405149982663
 21
548.6407381298448
 31
0.0
  0
LINE
  5
7F8
330
18
100
AcDbEntity
  8
NORMALI
100
AcDbLine
 10
504.8405149982663
 20
545.1407381298448
 30
0.0
 11
590.8405149982663
 21
545.1407381298448
 31
0.0
  0
LINE
  5
7F9
330
18
100
AcDbEntity
  8
NORMALI
100
AcDbLine
 10
504.8405149982663
 20
546.8907381298448
 30
0.0
 11
590.8405149982663
 21
546.8907381298448
 31
0.0
  0
ELLIPSE
  5
7FA
330
18
100
AcDbEntity
  8
NORMALI
100
AcDbEllipse
 10
547.8355568946772
 20
526.027350253913
 30
0.0
 11
20.00000005274101
 21
-0.0000000000009249
 31
0.0
210
0.0
220
0.0
230
1.0
 40
0.7068306062033731
 41
3.293314399514226
 42
6.131463561255218
  0
LINE
  5
7FB
330
18
100
AcDbEntity
  8
NORMALI
100
AcDbLine
 10
504.8405149982663
 20
569.8907381298447
 30
0.0
 11
590.8405149982663
 21
569.8907381298447
 31
0.0
  0
LINE
  5
7FD
330
18
100
AcDbEntity
  8
NORMALI
100
AcDbLine
 10
527.8357120091095
 20
523.8907381298449
 30
0.0
 11
527.8363789342474
 21
514.7073502911917
 31
0.0
  0
LINE
  5
7FE
330
18
100
AcDbEntity
  8
NORMALI
100
AcDbLine
 10
567.8357121145909
 20
523.8907381298449
 30
0.0
 11
567.8363790397289
 21
514.7073502911917
 31
0.0
  0
LINE
  5
801
330
18
100
AcDbEntity
  8
NORMALI
100
AcDbLine
 10
987.84051499827
 20
536.8907381298453
 30
0.0
 11
1014.84051499827
 21
536.8907381298453
 31
0.0
  0
ELLIPSE
  5
802
330
18
100
AcDbEntity
  8
NORMALI
100
AcDbEllipse
 10
1036.845290777808
 20
567.74740341639
 30
0.0
 11
-20.00000005274088
 21
-0.0000000000000057
 31
0.0
210
0.0
220
0.0
230
-1.0
 40
0.7071667356727611
 41
0.1521299263250988
 42
2.989462727264694
  0
LINE
  5
803
330
18
100
AcDbEntity
  8
NORMALI
100
AcDbLine
 10
1016.845290725066
 20
569.8907381298453
 30
0.0
 11
1016.845290725066
 21
579.0592957550692
 31
0.0
  0
LINE
  5
804
330
18
100
AcDbEntity
  8
NORMALI
100
AcDbLine
 10
1058.844819753087
 20
569.8907381298453
 30
0.0
 11
1058.844819753087
 21
579.0592957550692
 31
0.0
  0
LINE
  5
805
330
18
100
AcDbEntity
  8
NORMALI
100
AcDbLine
 10
1056.845290830548
 20
569.8907381298453
 30
0.0
 11
1056.845290830548
 21
579.0592957550692
 31
0.0
  0
ELLIPSE
  5
806
330
18
100
AcDbEntity
  8
NORMALI
100
AcDbEllipse
 10
1036.845290777808
 20
579.0592957550692
 30
0.0
 11
20.00000005274159
 21
0.0000000000016079
 31
0.0
210
0.0
220
0.0
230
-1.0
 40
0.7070721241810537
 41
3.141592653589905
 42
6.283185307179699
  0
LINE
  5
807
330
18
100
AcDbEntity
  8
NORMALI
100
AcDbLine
 10
1004.845028759344
 20
536.8907381298453
 30
0.0
 11
1004.845028759344
 21
526.8907381298453
 31
0.0
  0
LINE
  5
808
330
18
100
AcDbEntity
  8
NORMALI
100
AcDbLine
 10
1008.84051499827
 20
536.8907381298453
 30
0.0
 11
1008.84051499827
 21
523.8907381298453
 31
0.0
  0
LINE
  5
809
330
18
100
AcDbEntity
  8
NORMALI
100
AcDbLine
 10
1008.84051499827
 20
526.8907381298453
 30
0.0
 11
1004.845028759344
 21
526.8907381298453
 31
0.0
  0
ELLIPSE
  5
80A
330
18
100
AcDbEntity
  8
NORMALI
100
AcDbEllipse
 10
1057.845473101859
 20
526.0273502539134
 30
0.0
 11
-20.00000005274101
 21
-0.0000000000009249
 31
0.0
210
0.0
220
0.0
230
-1.0
 40
0.7068306062033731
 41
3.293314399514226
 42
6.131463561255218
  0
LINE
  5
80C
330
18
100
AcDbEntity
  8
NORMALI
100
AcDbLine
 10
1037.845317881945
 20
523.8907381298454
 30
0.0
 11
1037.844650956807
 21
514.7073502911921
 31
0.0
  0
LINE
  5
80D
330
18
100
AcDbEntity
  8
NORMALI
100
AcDbLine
 10
1077.845317987427
 20
523.8907381298454
 30
0.0
 11
1077.844651062289
 21
514.7073502911921
 31
0.0
  0
LINE
  5
80F
330
18
100
AcDbEntity
  8
DISEGNO
100
AcDbLine
 10
461.3467247375856
 20
589.8910381298366
 30
0.0
 11
477.8405149982663
 21
589.8910381298366
 31
0.0
  0
LINE
  5
810
330
18
100
AcDbEntity
  8
NORMALI
100
AcDbLine
 10
451.0363420571902
 20
592.1410381298366
 30
0.0
 11
477.8405149982663
 21
592.1410381298362
 31
0.0
  0
LINE
  5
813
330
18
100
AcDbEntity
  8
DISEGNO
100
AcDbLine
 10
286.2230947542378
 20
629.8911381298424
 30
0.0
 11
298.2230947542441
 21
629.8911381298433
 31
0.0
  0
ARC
  5
816
330
18
100
AcDbEntity
  8
DISEGNO
100
AcDbCircle
 10
286.2230947542378
 20
626.8911381298424
 30
0.0
 40
3.0
100
AcDbArc
 50
90.0
 51
180.0
  0
LINE
  5
817
330
18
100
AcDbEntity
  8
NORMALI
100
AcDbLine
 10
298.2230947542437
 20
592.1410381298385
 30
0.0
 11
451.0363420571902
 21
592.1410381298366
 31
0.0
  0
LINE
  5
818
330
18
100
AcDbEntity
  8
DISEGNO
100
AcDbLine
 10
298.2230947542432
 20
589.8910381298381
 30
0.0
 11
461.3467247375856
 21
589.8910381298366
 31
0.0
  0
LINE
  5
819
330
18
100
AcDbEntity
  8
DISEGNO
100
AcDbLine
 10
617.8405149982664
 20
589.8910381298362
 30
0.0
 11
987.8405149982695
 21
589.8910381298353
 31
0.0
  0
LINE
  5
81B
330
18
100
AcDbEntity
  8
DISEGNO
100
AcDbLine
 10
477.8405149982618
 20
596.7533975474595
 30
0.0
 11
617.8405149982645
 21
596.7533975474595
 31
0.0
  0
LINE
  5
81E
330
18
100
AcDbEntity
  8
DISEGNO
100
AcDbLine
 10
477.8405149982672
 20
634.8906381298409
 30
0.0
 11
477.8405149982663
 21
596.8907381298447
 31
0.0
  0
LINE
  5
821
330
18
100
AcDbEntity
  8
DISEGNO
100
AcDbLine
 10
504.8405149982663
 20
589.8910381298365
 30
0.0
 11
513.9783832815035
 21
589.8910381298363
 31
0.0
  0
LINE
  5
825
330
18
100
AcDbEntity
  8
DISEGNO
100
AcDbLine
 10
581.6935661279322
 20
589.8910381298362
 30
0.0
 11
590.8405149982672
 21
589.8910381298362
 31
0.0
  0
LINE
  5
826
330
18
100
AcDbEntity
  8
0
100
AcDbLine
 10
580.799753422545
 20
590.3914885696083
 30
0.0
 11
580.7997534225456
 21
596.7533975474595
 31
0.0
  0
LINE
  5
828
330
18
100
AcDbEntity
  8
DISEGNO
100
AcDbLine
 10
617.8405149982491
 20
596.8907381298447
 30
0.0
 11
617.8405149982491
 21
609.8906381298409
 31
0.0
  0
LINE
  5
82A
330
18
100
AcDbEntity
  8
DISEGNO
100
AcDbLine
 10
987.8405149982873
 20
596.8907381298452
 30
0.0
 11
987.8405149982873
 21
609.8906381298411
 31
0.0
  0
LINE
  5
82C
330
18
100
AcDbEntity
  8
DISEGNO
100
AcDbLine
 10
1014.840514998269
 20
589.8910381298353
 30
0.0
 11
1023.987463868603
 21
589.8910381298353
 31
0.0
  0
LINE
  5
82F
330
18
100
AcDbEntity
  8
0
100
AcDbLine
 10
1024.881276573991
 20
590.3914885696081
 30
0.0
 11
1024.88127657399
 21
596.7533975474595
 31
0.0
  0
LINE
  5
830
330
18
100
AcDbEntity
  8
ASSI
100
AcDbLine
 10
1333.220207753778
 20
609.5372820303841
 30
0.0
 11
1333.220207753779
 21
407.0977451277879
 31
0.0
  0
LINE
  5
832
330
18
100
AcDbEntity
  8
NORMALI
100
AcDbLine
 10
1100.84051499827
 20
596.8907381298452
 30
0.0
 11
1100.84051499827
 21
536.8907381298453
 31
0.0
  0
LINE
  5
833
330
18
100
AcDbEntity
  8
NORMALI
100
AcDbLine
 10
1127.84051499827
 20
596.8907381298452
 30
0.0
 11
1127.84051499827
 21
536.8907381298453
 31
0.0
  0
ARC
  5
835
330
18
100
AcDbEntity
  8
DISEGNO
100
AcDbCircle
 10
1435.220207753779
 20
584.8910381298426
 30
0.0
 40
5.0
100
AcDbArc
 50
0.000000000000007
 51
90.0
  0
LINE
  5
836
330
18
100
AcDbEntity
  8
DISEGNO
100
AcDbLine
 10
1248.220207753779
 20
629.8910381298407
 30
0.0
 11
1248.220207753778
 21
419.8906381298428
 31
0.0
  0
LINE
  5
837
330
18
100
AcDbEntity
  8
DISEGNO
100
AcDbLine
 10
1440.220207753779
 20
594.8910381298426
 30
0.0
 11
1440.220207753779
 21
424.8906381298438
 31
0.0
  0
LINE
  5
838
330
18
100
AcDbEntity
  8
DISEGNO
100
AcDbLine
 10
1425.220207753779
 20
589.8910381298426
 30
0.0
 11
1425.220207753779
 21
419.8906381298428
 31
0.0
  0
LINE
  5
83B
330
18
100
AcDbEntity
  8
ASSI
100
AcDbLine
 10
1248.220207753778
 20
437.8906381298428
 30
0.0
 11
1436.429807013361
 21
437.8906381298428
 31
0.0
  0
LINE
  5
83C
330
18
100
AcDbEntity
  8
DISEGNO
100
AcDbLine
 10
1248.220207753778
 20
431.6406381298419
 30
0.0
 11
1425.220207753779
 21
431.6406381298428
 31
0.0
  0
LINE
  5
83D
330
18
100
AcDbEntity
  8
DISEGNO
100
AcDbLine
 10
1425.220207753779
 20
444.1406381298428
 30
0.0
 11
1248.220207753778
 21
444.1406381298428
 31
0.0
  0
ARC
  5
83E
330
18
100
AcDbEntity
  8
DISEGNO
100
AcDbCircle
 10
1435.220207753779
 20
424.8906381298438
 30
0.0
 40
5.0
100
AcDbArc
 50
270.0
 51
0.000000000000007
  0
LINE
  5
83F
330
18
100
AcDbEntity
  8
DISEGNO
100
AcDbLine
 10
1425.220207753779
 20
419.8906381298428
 30
0.0
 11
1435.220207753779
 21
419.8906381298437
 31
0.0
  0
LINE
  5
840
330
18
100
AcDbEntity
  8
DISEGNO
100
AcDbLine
 10
1425.220207753779
 20
553.1411381298428
 30
0.0
 11
1273.1636377371
 21
553.1441381298425
 31
0.0
  0
ARC
  5
843
330
18
100
AcDbEntity
  8
DISEGNO
100
AcDbCircle
 10
1268.220207753779
 20
541.391138129842
 30
0.0
 40
5.0
100
AcDbArc
 50
270.0
 51
351.4078427082985
  0
LINE
  5
844
330
18
100
AcDbEntity
  8
NORMALI
100
AcDbLine
 10
1127.840514998271
 20
529.3911381298429
 30
0.0
 11
1127.840514998271
 21
564.3911381298428
 31
0.0
  0
LINE
  5
845
330
18
100
AcDbEntity
  8
DISEGNO
100
AcDbLine
 10
1268.220207753779
 20
536.391138129842
 30
0.0
 11
1248.220207753778
 21
536.3911381298411
 31
0.0
  0
LINE
  5
846
330
18
100
AcDbEntity
  8
NORMALI
100
AcDbLine
 10
1098.84481985857
 20
569.8907381298453
 30
0.0
 11
1098.84481985857
 21
579.0592957550692
 31
0.0
  0
LINE
  5
847
330
18
100
AcDbEntity
  8
NORMALI
100
AcDbLine
 10
1100.84051499827
 20
536.8907381298453
 30
0.0
 11
1127.84051499827
 21
536.8907381298453
 31
0.0
  0
LINE
  5
848
330
18
100
AcDbEntity
  8
NORMALI
100
AcDbLine
 10
1110.831320407852
 20
529.3911381298425
 30
0.0
 11
1127.840514998271
 21
529.3911381298429
 31
0.0
  0
LINE
  5
849
330
18
100
AcDbEntity
  8
NORMALI
100
AcDbLine
 10
1106.84051499827
 20
526.8907381298453
 30
0.0
 11
1110.830931211414
 21
526.8907381298453
 31
0.0
  0
LINE
  5
84A
330
18
100
AcDbEntity
  8
NORMALI
100
AcDbLine
 10
1106.84051499827
 20
536.8907381298453
 30
0.0
 11
1106.84051499827
 21
523.8907381298453
 31
0.0
  0
LINE
  5
84B
330
18
100
AcDbEntity
  8
NORMALI
100
AcDbLine
 10
1110.832487748121
 20
536.8907381298453
 30
0.0
 11
1110.830931211414
 21
526.8907381298453
 31
0.0
  0
LINE
  5
84C
330
18
100
AcDbEntity
  8
NORMALI
100
AcDbLine
 10
1127.84051499827
 20
539.3911381298452
 30
0.0
 11
1127.840514998271
 21
539.3911381298456
 31
0.0
  0
LINE
  5
84D
330
18
100
AcDbEntity
  8
DISEGNO
100
AcDbLine
 10
1248.220207753779
 20
557.3941381298425
 30
0.0
 11
1268.220207753779
 21
557.3941381298425
 31
0.0
  0
LINE
  5
84E
330
18
100
AcDbEntity
  8
DISEGNO
100
AcDbLine
 10
1127.840514998271
 20
540.6411381298438
 30
0.0
 11
1248.220207753779
 21
540.6411381298438
 31
0.0
  0
LINE
  5
84F
330
18
100
AcDbEntity
  8
DISEGNO
100
AcDbLine
 10
1248.220207753779
 20
553.1411381298437
 30
0.0
 11
1127.840514998271
 21
553.1411381298437
 31
0.0
  0
LINE
  5
850
330
18
100
AcDbEntity
  8
NORMALI
100
AcDbLine
 10
1127.84051499827
 20
554.3911381298451
 30
0.0
 11
1127.840514998271
 21
554.3911381298455
 31
0.0
  0
LINE
  5
852
330
18
100
AcDbEntity
  8
NORMALI
100
AcDbLine
 10
1127.84051499827
 20
564.3911381298415
 30
0.0
 11
1127.840514998271
 21
564.3911381298428
 31
0.0
  0
ARC
  5
853
330
18
100
AcDbEntity
  8
DISEGNO
100
AcDbCircle
 10
1268.220207753779
 20
552.3941381298425
 30
0.0
 40
5.0
100
AcDbArc
 50
8.626926558676631
 51
90.0
  0
LINE
  5
854
330
18
100
AcDbEntity
  8
DISEGNO
100
AcDbLine
 10
2077.664163477686
 20
634.6799382796936
 30
0.0
 11
2077.664163477686
 21
609.6799382796945
 31
0.0
  0
LINE
  5
855
330
18
100
AcDbEntity
  8
DISEGNO
100
AcDbLine
 10
1435.220207753779
 20
599.8910381298426
 30
0.0
 11
1303.220207753778
 21
599.8910381298426
 31
0.0
  0
LINE
  5
856
330
18
100
AcDbEntity
  8
DISEGNO
100
AcDbLine
 10
1440.220207753779
 20
589.8910381298426
 30
0.0
 11
1127.84051499827
 21
589.8910381298349
 31
0.0
  0
LINE
  5
857
330
18
100
AcDbEntity
  8
DISEGNO
100
AcDbLine
 10
1127.840514998271
 20
596.7533975474601
 30
0.0
 11
1127.840514998269
 21
634.8906381298413
 31
0.0
  0
LINE
  5
85F
330
18
100
AcDbEntity
  8
NORMALI
100
AcDbLine
 10
1127.84051499827
 20
592.1410381298349
 30
0.0
 11
1248.220207753779
 21
592.141038129835
 31
0.0
  0
LINE
  5
864
330
18
100
AcDbEntity
  8
DISEGNO
100
AcDbLine
 10
1303.220207753778
 20
589.8910381298398
 30
0.0
 11
1303.220207753778
 21
626.8910381298399
 31
0.0
  0
ARC
  5
867
330
18
100
AcDbEntity
  8
DISEGNO
100
AcDbCircle
 10
1435.220207753779
 20
594.8910381298426
 30
0.0
 40
5.0
100
AcDbArc
 50
0.000000000000007
 51
90.0
  0
LINE
  5
D3D
330
18
100
AcDbEntity
  8
DISEGNO
100
AcDbLine
 10
1991.664163477686
 20
589.680038279692
 30
0.0
 11
1942.554717911635
 21
589.680038279692
 31
0.0
  0
LINE
  5
D3F
330
18
100
AcDbEntity
  8
DISEGNO
100
AcDbLine
 10
1713.664163477682
 20
589.680038279692
 30
0.0
 11
1762.773609043733
 21
589.680038279692
 31
0.0
  0
ARC
  5
D40
330
18
100
AcDbEntity
  8
DISEGNO
100
AcDbCircle
 10
1713.664163477682
 20
588.6800382796919
 30
0.0
 40
1.0
100
AcDbArc
 50
89.99999999999998
 51
180.0
  0
LINE
  5
D43
330
18
100
AcDbEntity
  8
DISEGNO
100
AcDbLine
 10
1772.773609043733
 20
624.6795382796932
 30
0.0
 11
1772.773609043733
 21
599.6800382796924
 31
0.0
  0
LINE
  5
D44
330
18
100
AcDbEntity
  8
DISEGNO
100
AcDbLine
 10
1812.773609043733
 20
604.6800382797024
 30
0.0
 11
1812.773609043733
 21
624.6795382796932
 31
0.0
  0
ARC
  5
D48
330
18
100
AcDbEntity
  8
DISEGNO
100
AcDbCircle
 10
1762.773609043733
 20
599.6800382796924
 30
0.0
 40
10.0
100
AcDbArc
 50
270.0
 51
0.0
  0
LINE
  5
D49
330
18
100
AcDbEntity
  8
DISEGNO
100
AcDbLine
 10
1777.773609043733
 20
629.6795382796932
 30
0.0
 11
1807.773609043733
 21
629.6795382796932
 31
0.0
  0
LINE
  5
D4B
330
18
100
AcDbEntity
  8
DISEGNO
100
AcDbLine
 10
1772.773609043733
 20
624.6795382796932
 30
0.0
 11
1777.773609043733
 21
629.6795382796932
 31
0.0
  0
LINE
  5
D4C
330
18
100
AcDbEntity
  8
DISEGNO
100
AcDbLine
 10
1807.773609043733
 20
629.6795382796932
 30
0.0
 11
1812.773609043733
 21
624.6795382796932
 31
0.0
  0
LINE
  5
D4D
330
18
100
AcDbEntity
  8
DISEGNO
100
AcDbLine
 10
1897.554717911635
 20
629.6795382796932
 30
0.0
 11
1892.554717911635
 21
624.6795382796932
 31
0.0
  0
LINE
  5
D50
330
18
100
AcDbEntity
  8
DISEGNO
100
AcDbLine
 10
1892.554717911635
 20
604.6800382797036
 30
0.0
 11
1892.554717911635
 21
624.6795382796932
 31
0.0
  0
LINE
  5
D53
330
18
100
AcDbEntity
  8
DISEGNO
100
AcDbLine
 10
1932.554717911635
 20
624.6795382796932
 30
0.0
 11
1932.554717911635
 21
599.6800382796924
 31
0.0
  0
ARC
  5
D56
330
18
100
AcDbEntity
  8
DISEGNO
100
AcDbCircle
 10
1942.554717911635
 20
599.6800382796924
 30
0.0
 40
10.0
100
AcDbArc
 50
180.0
 51
270.0
  0
LINE
  5
D58
330
18
100
AcDbEntity
  8
DISEGNO
100
AcDbLine
 10
1946.664163477684
 20
589.6799382796944
 30
0.0
 11
1944.952163477685
 21
589.6799382796944
 31
0.0
  0
LINE
  5
D59
330
18
100
AcDbEntity
  8
DISEGNO
100
AcDbLine
 10
1927.554717911635
 20
629.6795382796932
 30
0.0
 11
1897.554717911635
 21
629.6795382796932
 31
0.0
  0
LINE
  5
D5A
330
18
100
AcDbEntity
  8
DISEGNO
100
AcDbLine
 10
1932.554717911635
 20
624.6795382796932
 30
0.0
 11
1927.554717911635
 21
629.6795382796932
 31
0.0
  0
ARC
  5
D5B
330
18
100
AcDbEntity
  8
DISEGNO
100
AcDbCircle
 10
1991.664163477686
 20
588.6800382796919
 30
0.0
 40
1.0
100
AcDbArc
 50
0.0
 51
89.99999999999998
  0
LINE
  5
DD4
330
18
100
AcDbEntity
  8
NORMALI
100
AcDbLine
 10
318.2230947542437
 20
-71.5005544339466
 30
0.0
 11
318.2230947542428
 21
-48.50055443394751
 31
0.0
  0
LINE
  5
DD5
330
18
100
AcDbEntity
  8
NORMALI
100
AcDbLine
 10
317.2230947542437
 20
-47.5005544339466
 30
0.0
 11
298.2230947542437
 21
-47.5005544339466
 31
0.0
  0
LINE
  5
DD8
330
18
100
AcDbEntity
  8
NORMALI
100
AcDbLine
 10
318.2230947542428
 20
-48.50055443394751
 30
0.0
 11
317.2230947542427
 21
-47.50055443394751
 31
0.0
  0
LINE
  5
DD9
330
18
100
AcDbEntity
  8
NORMALI
100
AcDbLine
 10
317.2230947542437
 20
-72.50055443394661
 30
0.0
 11
298.2230947542437
 21
-72.50055443394661
 31
0.0
  0
LINE
  5
DDA
330
18
100
AcDbEntity
  8
NORMALI
100
AcDbLine
 10
317.2230947542437
 20
-72.50055443394661
 30
0.0
 11
317.2230947542419
 21
-47.5005544339466
 31
0.0
  0
LINE
  5
DDB
330
18
100
AcDbEntity
  8
NORMALI
100
AcDbLine
 10
317.2230947542437
 20
-72.50055443394661
 30
0.0
 11
318.2230947542437
 21
-71.5005544339466
 31
0.0
  0
LINE
  5
DFE
330
18
100
AcDbEntity
  8
NORMALI
100
AcDbLine
 10
318.2230947542437
 20
628.8911381298428
 30
0.0
 11
317.2230947542437
 21
629.8911381298428
 31
0.0
  0
LINE
  5
DFF
330
18
100
AcDbEntity
  8
NORMALI
100
AcDbLine
 10
317.2230947542437
 20
629.8911381298428
 30
0.0
 11
317.2230947542437
 21
619.9884595844653
 31
0.0
  0
LINE
  5
E00
330
18
100
AcDbEntity
  8
NORMALI
100
AcDbLine
 10
318.2230947542437
 20
600.8911381298437
 30
0.0
 11
318.2230947542437
 21
628.8911381298428
 31
0.0
  0
LINE
  5
E01
330
18
100
AcDbEntity
  8
NORMALI
100
AcDbLine
 10
317.2230947542437
 20
599.8911381298437
 30
0.0
 11
317.2230947542437
 21
609.7938166752213
 31
0.0
  0
LINE
  5
E02
330
18
100
AcDbEntity
  8
NORMALI
100
AcDbLine
 10
317.2230947542437
 20
599.8911381298437
 30
0.0
 11
318.2230947542437
 21
600.8911381298437
 31
0.0
  0
LINE
  5
E03
330
18
100
AcDbEntity
  8
NORMALI
100
AcDbLine
 10
317.2230947542437
 20
629.8911381298433
 30
0.0
 11
298.2230947542437
 21
629.8911381298437
 31
0.0
  0
LINE
  5
E04
330
18
100
AcDbEntity
  8
NORMALI
100
AcDbLine
 10
317.2230947542437
 20
599.8911381298437
 30
0.0
 11
298.2230947542437
 21
599.8911381298437
 31
0.0
  0
ARC
  5
1ABD
330
18
100
AcDbEntity
  8
DISEGNO
100
AcDbCircle
 10
1300.220207753779
 20
626.8910381298399
 30
0.0
 40
3.0
100
AcDbArc
 50
0.000000000000007
 51
89.99999999999992
  0
LINE
  5
1ABE
330
18
100
AcDbEntity
  8
DISEGNO
100
AcDbLine
 10
1300.220207753779
 20
629.8910381298399
 30
0.0
 11
1248.220207753779
 21
629.8910381298407
 31
0.0
  0
LINE
  5
1AC0
330
18
100
AcDbEntity
  8
NORMALI
100
AcDbLine
 10
1229.220207753779
 20
599.8911381298415
 30
0.0
 11
1229.220207753779
 21
609.793816675219
 31
0.0
  0
LINE
  5
1AC1
330
18
100
AcDbEntity
  8
NORMALI
100
AcDbLine
 10
1229.22020775378
 20
599.8911381298407
 30
0.0
 11
1248.220207753779
 21
599.8911381298406
 31
0.0
  0
LINE
  5
1AC2
330
18
100
AcDbEntity
  8
NORMALI
100
AcDbLine
 10
1228.220207753779
 20
600.8911381298416
 30
0.0
 11
1229.220207753779
 21
599.8911381298415
 31
0.0
  0
LINE
  5
1AC3
330
18
100
AcDbEntity
  8
NORMALI
100
AcDbLine
 10
1229.220207753779
 20
629.8911381298406
 30
0.0
 11
1229.220207753779
 21
619.9884595844631
 31
0.0
  0
LINE
  5
1AC5
330
18
100
AcDbEntity
  8
NORMALI
100
AcDbLine
 10
1229.220207753779
 20
629.8911381298406
 30
0.0
 11
1248.220207753779
 21
629.8911381298406
 31
0.0
  0
LINE
  5
1AC6
330
18
100
AcDbEntity
  8
NORMALI
100
AcDbLine
 10
1229.220207753779
 20
629.8911381298406
 30
0.0
 11
1228.220207753779
 21
628.8911381298406
 31
0.0
  0
LINE
  5
1AC8
330
18
100
AcDbEntity
  8
NORMALI
100
AcDbLine
 10
1228.220207753779
 20
628.8911381298399
 30
0.0
 11
1228.220207753779
 21
600.8911381298416
 31
0.0
  0
LINE
  5
1D37
330
18
100
AcDbEntity
  8
DISEGNO
100
AcDbLine
 10
1127.840514998266
 20
220.0000000000005
 30
0.0
 11
1122.840514998266
 21
225.0000000000005
 31
0.0
  0
LINE
  5
1D3F
330
18
100
AcDbEntity
  8
DISEGNO
100
AcDbLine
 10
477.8405149982663
 20
220.0000000000006
 30
0.0
 11
482.8405149982663
 21
225.0000000000006
 31
0.0
  0
LINE
  5
1D47
330
18
100
AcDbEntity
  8
DISEGNO
100
AcDbLine
 10
1127.840514998266
 20
-220.0000000000001
 30
0.0
 11
1122.840514998266
 21
-225.0000000000001
 31
0.0
  0
LINE
  5
1D4F
330
18
100
AcDbEntity
  8
DISEGNO
100
AcDbLine
 10
477.8405149982663
 20
-220.0000000000001
 30
0.0
 11
482.8405149982663
 21
-225.0000000000001
 31
0.0
  0
LINE
  5
1D55
330
18
100
AcDbEntity
  8
DISEGNO
100
AcDbLine
 10
1187.751835303833
 20
94.00000000000011
 30
0.0
 11
1127.840514998265
 21
93.99999999999989
 31
0.0
  0
LINE
  5
1D56
330
18
100
AcDbEntity
  8
DISEGNO
100
AcDbLine
 10
1209.435772637921
 20
103.9999999999994
 30
0.0
 11
1127.840514998265
 21
103.9999999999999
 31
0.0
  0
LINE
  5
1D57
330
18
100
AcDbEntity
  8
DISEGNO
100
AcDbLine
 10
1192.719794484788
 20
113.7499999999999
 30
0.0
 11
1127.840514998264
 21
113.7499999999999
 31
0.0
  0
LINE
  5
1D58
330
18
100
AcDbEntity
  8
DISEGNO
100
AcDbLine
 10
1127.840514998265
 20
126.2499999999999
 30
0.0
 11
1195.864072447417
 21
126.2499999999999
 31
0.0
  0
LINE
  5
1D59
330
18
100
AcDbEntity
  8
DISEGNO
100
AcDbLine
 10
1127.840514998266
 20
-126.2499999999999
 30
0.0
 11
1228.220207753778
 21
-126.2500000000005
 31
0.0
  0
LINE
  5
1D5A
330
18
100
AcDbEntity
  8
DISEGNO
100
AcDbLine
 10
1228.220207753778
 20
-113.7500000000004
 30
0.0
 11
1127.840514998265
 21
-113.7500000000001
 31
0.0
  0
LINE
  5
1D5B
330
18
100
AcDbEntity
  8
DISEGNO
100
AcDbLine
 10
1248.220207753778
 20
-104.0000000000003
 30
0.0
 11
1163.186774928799
 21
-104.0000000000003
 31
0.0
  0
LINE
  5
1D5C
330
18
100
AcDbEntity
  8
DISEGNO
100
AcDbLine
 10
1248.220207753778
 20
-94.00000000000034
 30
0.0
 11
1127.840514998265
 21
-94.00000000000039
 31
0.0
  0
LINE
  5
1D5D
330
18
100
AcDbEntity
  8
DISEGNO
100
AcDbLine
 10
1163.186774928799
 20
-104.0000000000003
 30
0.0
 11
1127.840514998265
 21
-104.0000000000001
 31
0.0
  0
LINE
  5
1D5E
330
18
100
AcDbEntity
  8
DISEGNO
100
AcDbLine
 10
1248.220207753778
 20
93.99999999999966
 30
0.0
 11
1187.751835303833
 21
94.00000000000011
 31
0.0
  0
LINE
  5
1D5F
330
18
100
AcDbEntity
  8
DISEGNO
100
AcDbLine
 10
1248.220207753778
 20
103.9999999999996
 30
0.0
 11
1209.435772637921
 21
103.9999999999994
 31
0.0
  0
LINE
  5
1D60
330
18
100
AcDbEntity
  8
DISEGNO
100
AcDbLine
 10
1228.220207753778
 20
113.7499999999995
 30
0.0
 11
1192.719794484788
 21
113.7499999999999
 31
0.0
  0
LINE
  5
1D61
330
18
100
AcDbEntity
  8
DISEGNO
100
AcDbLine
 10
1195.864072447417
 20
126.2499999999999
 30
0.0
 11
1228.220207753778
 21
126.2499999999997
 31
0.0
  0
LINE
  5
2273
330
18
100
AcDbEntity
  8
DISEGNO
100
AcDbLine
 10
-161.0246979665316
 20
432.3906381298455
 30
0.0
 11
-283.0246979665316
 21
432.3906381298455
 31
0.0
  0
LINE
  5
2274
330
18
100
AcDbEntity
  8
DISEGNO
100
AcDbLine
 10
-286.0246979665316
 20
562.8911381298437
 30
0.0
 11
-158.0246979665316
 21
562.8911381298437
 31
0.0
  0
LINE
  5
2279
330
18
100
AcDbEntity
  8
DISEGNO
100
AcDbLine
 10
2.9753020334702
 20
609.8910381298471
 30
0.0
 11
-172.0246979665316
 21
609.8910381298467
 31
0.0
  0
LINE
  5
227B
330
18
100
AcDbEntity
  8
DISEGNO
100
AcDbLine
 10
-133.2746979665316
 20
419.8906381298455
 30
0.0
 11
-310.7746979665316
 21
419.8906381298455
 31
0.0
  0
LINE
  5
227C
330
18
100
AcDbEntity
  8
DISEGNO
100
AcDbLine
 10
-300.7456979665312
 20
575.3911381298437
 30
0.0
 11
-143.303697966532
 21
575.3911381298437
 31
0.0
  0
LINE
  5
227D
330
18
100
AcDbEntity
  8
DISEGNO
100
AcDbLine
 10
-143.3038434632325
 20
575.3911381298474
 30
0.0
 11
-178.5246979665316
 21
575.3911381298474
 31
0.0
  0
LINE
  5
2281
330
18
100
AcDbEntity
  8
DISEGNO
100
AcDbLine
 10
-447.0246979665297
 20
634.8910381298471
 30
0.0
 11
2.9753020334702
 21
634.8910381298463
 31
0.0
  0
LINE
  5
2287
330
18
100
AcDbEntity
  8
ASSI
100
AcDbLine
 10
-222.0246979665316
 20
399.9511015398418
 30
0.0
 11
-222.0246979665316
 21
668.7283844954806
 31
0.0
  0
LINE
  5
22C0
330
18
100
AcDbEntity
  8
DISEGNO
100
AcDbLine
 10
-341.0246979665316
 20
526.8910381298463
 30
0.0
 11
-343.0246979665316
 21
526.8910381298463
 31
0.0
  0
LINE
  5
22C1
330
18
100
AcDbEntity
  8
DISEGNO
100
AcDbLine
 10
-332.7746979665316
 20
570.8911381298437
 30
0.0
 11
-351.2746979665316
 21
570.8911381298437
 31
0.0
  0
ARC
  5
22C2
330
18
100
AcDbEntity
  8
DISEGNO
100
AcDbCircle
 10
-355.0236979665332
 20
452.005638129847
 30
0.0
 40
20.0
100
AcDbArc
 50
7.975899999999204
 51
64.62529999997967
  0
LINE
  5
22C3
330
18
100
AcDbEntity
  8
DISEGNO
100
AcDbLine
 10
-323.2746979665316
 20
419.8906381298455
 30
0.0
 11
-361.0246979665316
 21
419.8906381298455
 31
0.0
  0
LINE
  5
22C6
330
18
100
AcDbEntity
  8
DISEGNO
100
AcDbLine
 10
-272.0246979665316
 20
609.8910381298463
 30
0.0
 11
-447.0246979665297
 21
609.8910381298463
 31
0.0
  0
LINE
  5
22C7
330
18
100
AcDbEntity
  8
DISEGNO
100
AcDbLine
 10
-362.0246979665316
 20
589.8911381298437
 30
0.0
 11
-311.8520071636121
 21
589.8911381298437
 31
0.0
  0
LINE
  5
22C8
330
18
100
AcDbEntity
  8
DISEGNO
100
AcDbLine
 10
-361.0246979665334
 20
589.8909381298442
 30
0.0
 11
-311.9152524004821
 21
589.8909381298442
 31
0.0
  0
LINE
  5
22C9
330
18
100
AcDbEntity
  8
NORMALI
100
AcDbLine
 10
-368.9070753250143
 20
521.081138129846
 30
0.0
 11
-387.9990753250149
 21
501.9911381298459
 31
0.0
  0
LINE
  5
22CA
330
18
100
AcDbEntity
  8
NORMALI
100
AcDbLine
 10
-369.4633539671649
 20
526.8911381298456
 30
0.0
 11
-395.7770753250169
 21
500.581138129846
 31
0.0
  0
LINE
  5
22CB
330
18
100
AcDbEntity
  8
DISEGNO
100
AcDbLine
 10
-351.0246979665316
 20
518.8906381298454
 30
0.0
 11
-351.0246979665316
 21
477.3046381298461
 31
0.0
  0
LINE
  5
22CC
330
18
100
AcDbEntity
  8
DISEGNO
100
AcDbLine
 10
-362.0246979665298
 20
540.6411381298437
 30
0.0
 11
-362.0246979665316
 21
462.8906381298454
 31
0.0
  0
LINE
  5
22CE
330
18
100
AcDbEntity
  8
NORMALI
100
AcDbLine
 10
-407.0910753250154
 20
511.8911381298455
 30
0.0
 11
-395.7770753250169
 21
500.581138129846
 31
0.0
  0
LINE
  5
22CF
330
18
100
AcDbEntity
  8
DISEGNO
100
AcDbLine
 10
-355.0246979665316
 20
448.1406381298454
 30
0.0
 11
-355.0246979665316
 21
444.1406381298454
 31
0.0
  0
LINE
  5
22D0
330
18
100
AcDbEntity
  8
DISEGNO
100
AcDbLine
 10
-355.0246979665316
 20
448.1406381298454
 30
0.0
 11
-344.0246979665316
 21
448.1406381298454
 31
0.0
  0
ARC
  5
22D1
330
18
100
AcDbEntity
  8
DISEGNO
100
AcDbCircle
 10
-344.0246979665334
 20
447.1406381298455
 30
0.0
 40
1.0
100
AcDbArc
 50
0.0
 51
90.0
  0
ARC
  5
22D2
330
18
100
AcDbEntity
  8
DISEGNO
100
AcDbCircle
 10
-343.0246979665334
 20
477.3046381298461
 30
0.0
 40
8.0
100
AcDbArc
 50
180.0
 51
244.6249999999917
  0
LINE
  5
22D3
330
18
100
AcDbEntity
  8
DISEGNO
100
AcDbLine
 10
-344.0246979665316
 20
427.6406381298454
 30
0.0
 11
-355.0246979665316
 21
427.6406381298454
 31
0.0
  0
LINE
  5
22D4
330
18
100
AcDbEntity
  8
DISEGNO
100
AcDbLine
 10
-355.0246979665316
 20
431.6406381298454
 30
0.0
 11
-355.0246979665316
 21
427.6406381298454
 31
0.0
  0
ARC
  5
22D5
330
18
100
AcDbEntity
  8
DISEGNO
100
AcDbCircle
 10
-344.0246979665334
 20
428.6406381298454
 30
0.0
 40
1.0
100
AcDbArc
 50
270.0
 51
0.0
  0
LINE
  5
22D6
330
18
100
AcDbEntity
  8
DISEGNO
100
AcDbLine
 10
-343.0246979665316
 20
447.1406381298455
 30
0.0
 11
-343.0246979665316
 21
428.6406381298454
 31
0.0
  0
LINE
  5
22D7
330
18
100
AcDbEntity
  8
NORMALI
100
AcDbLine
 10
-387.9990753250149
 20
501.9911381298459
 30
0.0
 11
-391.1810753250156
 21
505.1711381298462
 31
0.0
  0
LINE
  5
22D8
330
18
100
AcDbEntity
  8
DISEGNO
100
AcDbLine
 10
-362.0246979665316
 20
444.1406381298454
 30
0.0
 11
-362.0246979665316
 21
450.8906381298454
 31
0.0
  0
LINE
  5
22D9
330
18
100
AcDbEntity
  8
DISEGNO
100
AcDbLine
 10
-359.0246979665316
 20
450.8906381298454
 30
0.0
 11
-362.0246979665316
 21
450.8906381298454
 31
0.0
  0
LINE
  5
22DA
330
18
100
AcDbEntity
  8
DISEGNO
100
AcDbLine
 10
-359.0246979665316
 20
462.8906381298454
 30
0.0
 11
-362.0246979665316
 21
462.8906381298454
 31
0.0
  0
LINE
  5
22DB
330
18
100
AcDbEntity
  8
DISEGNO
100
AcDbLine
 10
-359.0246979665316
 20
450.8906381298454
 30
0.0
 11
-359.0246979665316
 21
462.8906381298454
 31
0.0
  0
LINE
  5
22DC
330
18
100
AcDbEntity
  8
DISEGNO
100
AcDbLine
 10
-362.0246979665316
 20
420.8906381298454
 30
0.0
 11
-362.0246979665316
 21
431.6406381298454
 31
0.0
  0
ARC
  5
22DD
330
18
100
AcDbEntity
  8
DISEGNO
100
AcDbCircle
 10
-361.0246979665334
 20
420.8906381298454
 30
0.0
 40
1.0
100
AcDbArc
 50
180.0
 51
270.0
  0
LINE
  5
22DE
330
18
100
AcDbEntity
  8
DISEGNO
100
AcDbLine
 10
-362.0246979665316
 20
444.1406381298454
 30
0.0
 11
-355.0246979665316
 21
444.1406381298454
 31
0.0
  0
LINE
  5
22DF
330
18
100
AcDbEntity
  8
DISEGNO
100
AcDbLine
 10
-355.0246979665316
 20
431.6406381298454
 30
0.0
 11
-362.0246979665316
 21
431.6406381298454
 31
0.0
  0
LINE
  5
22E1
330
18
100
AcDbEntity
  8
NORMALI
100
AcDbLine
 10
-435.8090753250161
 20
549.6411381298456
 30
0.0
 11
-415.5567274989279
 21
569.8911381298455
 31
0.0
  0
LINE
  5
22E2
330
18
100
AcDbEntity
  8
NORMALI
100
AcDbLine
 10
-424.0170753250149
 20
529.7411381298458
 30
0.0
 11
-427.0580753250159
 21
526.7011381298459
 31
0.0
  0
ARC
  5
22E3
330
18
100
AcDbEntity
  8
NORMALI
100
AcDbCircle
 10
-437.3000753250143
 20
523.4011381298457
 30
0.0
 40
14.722
100
AcDbArc
 50
25.51099999996117
 51
52.20800000001639
  0
LINE
  5
22E4
330
18
100
AcDbEntity
  8
NORMALI
100
AcDbLine
 10
-428.0600753250164
 20
534.9811381298457
 30
0.0
 11
-421.6850753250163
 21
528.6111381298458
 31
0.0
  0
ARC
  5
22E5
330
18
100
AcDbEntity
  8
NORMALI
100
AcDbCircle
 10
-423.1150753250166
 20
527.1811381298464
 30
0.0
 40
3.978
100
AcDbArc
 50
186.9953400000027
 51
262.9797000000083
  0
LINE
  5
22E6
330
18
100
AcDbEntity
  8
NORMALI
100
AcDbLine
 10
-436.3380753250147
 20
534.7711381298466
 30
0.0
 11
-425.9280753250149
 21
524.3611381298458
 31
0.0
  0
LINE
  5
22E7
330
18
100
AcDbEntity
  8
NORMALI
100
AcDbLine
 10
-435.8090753250161
 20
544.1411381298455
 30
0.0
 11
-415.5570753250158
 21
523.8911381298455
 31
0.0
  0
LINE
  5
22ED
330
18
100
AcDbEntity
  8
DISEGNO
100
AcDbLine
 10
-441.8120753250168
 20
596.8911381298482
 30
0.0
 11
-371.8120753250168
 21
596.8911381298482
 31
0.0
  0
LINE
  5
22EF
330
18
100
AcDbEntity
  8
NORMALI
100
AcDbLine
 10
-439.2650753250144
 20
527.0911381298462
 30
0.0
 11
-439.2650753250144
 21
525.6811381298464
 31
0.0
  0
LINE
  5
22F1
330
18
100
AcDbEntity
  8
NORMALI
100
AcDbLine
 10
-434.3150753250173
 20
530.6311381298463
 30
0.0
 11
-430.0720753250152
 21
526.3911381298455
 31
0.0
  0
LINE
  5
22F2
330
18
100
AcDbEntity
  8
NORMALI
100
AcDbLine
 10
-434.3150753250173
 20
532.0411381298461
 30
0.0
 11
-428.6580753250145
 21
526.3911381298455
 31
0.0
  0
ARC
  5
22F3
330
18
100
AcDbEntity
  8
NORMALI
100
AcDbCircle
 10
-420.7230753250168
 20
539.9811381298457
 30
0.0
 40
14.722
100
AcDbArc
 50
205.510899999966
 51
244.4889999999952
  0
LINE
  5
22F4
330
18
100
AcDbEntity
  8
NORMALI
100
AcDbLine
 10
-434.3150753250173
 20
532.7511381298461
 30
0.0
 11
-434.3150753250173
 21
532.0411381298461
 31
0.0
  0
LINE
  5
22F5
330
18
100
AcDbEntity
  8
NORMALI
100
AcDbLine
 10
-428.6580753250145
 20
526.3911381298455
 30
0.0
 11
-427.9500753250157
 21
526.3911381298455
 31
0.0
  0
LINE
  5
22F6
330
18
100
AcDbEntity
  8
NORMALI
100
AcDbLine
 10
-431.7560753250162
 20
535.8911381298455
 30
0.0
 11
-434.0060753250162
 21
533.6411381298455
 31
0.0
  0
LINE
  5
22F7
330
18
100
AcDbEntity
  8
NORMALI
100
AcDbLine
 10
-438.558075325016
 20
526.3911381298455
 30
0.0
 11
-434.3150753250173
 21
530.6311381298463
 31
0.0
  0
LINE
  5
22F8
330
18
100
AcDbEntity
  8
NORMALI
100
AcDbLine
 10
-439.2650753250144
 20
527.0911381298462
 30
0.0
 11
-433.9610753250144
 21
532.4011381298458
 31
0.0
  0
LINE
  5
22F9
330
18
100
AcDbEntity
  8
NORMALI
100
AcDbLine
 10
-435.8090753250161
 20
536.8911381298455
 30
0.0
 11
-426.1830753250159
 21
534.5211381298465
 31
0.0
  0
ARC
  5
22FA
330
18
100
AcDbEntity
  8
NORMALI
100
AcDbCircle
 10
-433.5250753250165
 20
537.5911381298463
 30
0.0
 40
3.978
100
AcDbArc
 50
190.1349843385985
 51
263.004500000013
  0
LINE
  5
22FB
330
18
100
AcDbEntity
  8
NORMALI
100
AcDbLine
 10
-435.8090753250161
 20
549.6411381298456
 30
0.0
 11
-435.8090753250161
 21
544.1411381298455
 31
0.0
  0
LINE
  5
22FD
330
18
100
AcDbEntity
  8
NORMALI
100
AcDbLine
 10
-435.0220753250159
 20
521.4411381298466
 30
0.0
 11
-433.6080753250152
 21
521.4411381298466
 31
0.0
  0
LINE
  5
22FE
330
18
100
AcDbEntity
  8
NORMALI
100
AcDbLine
 10
-435.7290753250144
 20
522.1411381298455
 30
0.0
 11
-434.3150753250173
 21
522.1411381298455
 31
0.0
  0
LINE
  5
22FF
330
18
100
AcDbEntity
  8
NORMALI
100
AcDbLine
 10
-438.558075325016
 20
526.3911381298455
 30
0.0
 11
-438.558075325016
 21
524.9711381298464
 31
0.0
  0
LINE
  5
2300
330
18
100
AcDbEntity
  8
NORMALI
100
AcDbLine
 10
-430.0720753250152
 20
526.3911381298455
 30
0.0
 11
-434.3150753250173
 21
522.1411381298455
 31
0.0
  0
LINE
  5
2301
330
18
100
AcDbEntity
  8
NORMALI
100
AcDbLine
 10
-433.6080753250152
 20
521.4411381298466
 30
0.0
 11
-428.3040753250151
 21
526.7411381298459
 31
0.0
  0
LINE
  5
2302
330
18
100
AcDbEntity
  8
NORMALI
100
AcDbLine
 10
-434.3150753250173
 20
530.6311381298463
 30
0.0
 11
-435.7290753250144
 21
522.1411381298455
 31
0.0
  0
LINE
  5
2303
330
18
100
AcDbEntity
  8
NORMALI
100
AcDbLine
 10
-438.558075325016
 20
524.9711381298464
 30
0.0
 11
-430.0720753250152
 21
526.3911381298455
 31
0.0
  0
LINE
  5
2304
330
18
100
AcDbEntity
  8
NORMALI
100
AcDbLine
 10
-439.2650753250144
 20
525.6811381298464
 30
0.0
 11
-435.0220753250159
 21
521.4411381298466
 31
0.0
  0
LINE
  5
2308
330
18
100
AcDbEntity
  8
NORMALI
100
AcDbLine
 10
-441.8120753250168
 20
596.8911381298455
 30
0.0
 11
-441.8120753250168
 21
536.8911381298455
 31
0.0
  0
LINE
  5
2309
330
18
100
AcDbEntity
  8
DISEGNO
100
AcDbLine
 10
-447.0246979665297
 20
634.8910381298467
 30
0.0
 11
-447.0246979665297
 21
609.8910381298463
 31
0.0
  0
LINE
  5
230A
330
18
100
AcDbEntity
  8
DISEGNO
100
AcDbLine
 10
-441.8120753250168
 20
609.8910381298463
 30
0.0
 11
-441.8120753250168
 21
596.8911381298455
 31
0.0
1001
ACAD
1000
ASC_BOUNDS
1002
{
1070
    19
1002
}
  0
LINE
  5
230B
330
18
100
AcDbEntity
  8
NORMALI
100
AcDbLine
 10
-435.8090753250161
 20
536.8911381298455
 30
0.0
 11
-441.8120753250168
 21
536.8911381298455
 31
0.0
  0
LINE
  5
230C
330
18
100
AcDbEntity
  8
DISEGNO
100
AcDbLine
 10
-343.0246979665316
 20
556.1411381298437
 30
0.0
 11
-343.0246979665316
 21
537.6411381298437
 31
0.0
  0
LINE
  5
230D
330
18
100
AcDbEntity
  8
NORMALI
100
AcDbLine
 10
-343.7246979665232
 20
537.8911381298455
 30
0.0
 11
-343.7246979665269
 21
555.8911381298456
 31
0.0
  0
LINE
  5
230F
330
18
100
AcDbEntity
  8
DISEGNO
100
AcDbLine
 10
-344.0246979665316
 20
536.6411381298437
 30
0.0
 11
-355.0246979665316
 21
536.6411381298437
 31
0.0
  0
ARC
  5
2310
330
18
100
AcDbEntity
  8
DISEGNO
100
AcDbCircle
 10
-344.0246979665334
 20
537.6411381298437
 30
0.0
 40
1.0
100
AcDbArc
 50
270.0
 51
0.0
  0
LINE
  5
2311
330
18
100
AcDbEntity
  8
NORMALI
100
AcDbLine
 10
-344.7246979665233
 20
536.8911381298455
 30
0.0
 11
-343.7246979665232
 21
537.8911381298455
 31
0.0
  0
LINE
  5
2312
330
18
100
AcDbEntity
  8
NORMALI
100
AcDbLine
 10
-355.0246979665262
 20
536.8911381298455
 30
0.0
 11
-344.7246979665233
 21
536.8911381298455
 31
0.0
  0
LINE
  5
2313
330
18
100
AcDbEntity
  8
DISEGNO
100
AcDbLine
 10
-355.0246979665316
 20
540.6411381298437
 30
0.0
 11
-355.0246979665316
 21
536.6411381298437
 31
0.0
  0
ARC
  5
2318
330
18
100
AcDbEntity
  8
DISEGNO
100
AcDbCircle
 10
-343.0246979665334
 20
518.8906381298454
 30
0.0
 40
8.0
100
AcDbArc
 50
89.99998927061241
 51
180.0
  0
LINE
  5
2319
330
18
100
AcDbEntity
  8
DISEGNO
100
AcDbLine
 10
-352.2746979665316
 20
571.8911381298437
 30
0.0
 11
-352.2746979665316
 21
582.8911381298437
 31
0.0
  0
LINE
  5
231A
330
18
100
AcDbEntity
  8
DISEGNO
100
AcDbLine
 10
-352.2746979665316
 20
582.8911381298437
 30
0.0
 11
-348.2746979665334
 21
582.8911381298437
 31
0.0
  0
LINE
  5
231B
330
18
100
AcDbEntity
  8
DISEGNO
100
AcDbLine
 10
-348.2746979665316
 20
582.8911381298437
 30
0.0
 11
-348.2746979665316
 21
589.8911381298437
 31
0.0
  0
LINE
  5
231C
330
18
100
AcDbEntity
  8
DISEGNO
100
AcDbLine
 10
-355.0246979665316
 20
557.1411381298474
 30
0.0
 11
-355.0246979665316
 21
553.1410381298463
 31
0.0
  0
ARC
  5
231D
330
18
100
AcDbEntity
  8
DISEGNO
100
AcDbCircle
 10
-351.2746979665335
 20
571.8911381298437
 30
0.0
 40
1.0
100
AcDbArc
 50
180.0
 51
270.0
  0
LINE
  5
231E
330
18
100
AcDbEntity
  8
DISEGNO
100
AcDbLine
 10
-355.0246979665316
 20
557.1411381298474
 30
0.0
 11
-344.0246979665316
 21
557.1411381298437
 31
0.0
  0
ARC
  5
231F
330
18
100
AcDbEntity
  8
DISEGNO
100
AcDbCircle
 10
-344.0246979665334
 20
556.1411381298437
 30
0.0
 40
1.0
100
AcDbArc
 50
0.0
 51
90.0
  0
LINE
  5
2320
330
18
100
AcDbEntity
  8
NORMALI
100
AcDbLine
 10
-355.0246979665262
 20
556.8911381298455
 30
0.0
 11
-344.7246979665269
 21
556.8911381298455
 31
0.0
  0
LINE
  5
2321
330
18
100
AcDbEntity
  8
NORMALI
100
AcDbLine
 10
-343.7246979665269
 20
555.8911381298456
 30
0.0
 11
-344.7246979665269
 21
556.8911381298455
 31
0.0
  0
LINE
  5
2323
330
18
100
AcDbEntity
  8
NORMALI
100
AcDbLine
 10
-368.9070753250143
 20
572.7011381298459
 30
0.0
 11
-381.8000753250144
 21
585.5972208587852
 31
0.0
  0
LINE
  5
2324
330
18
100
AcDbEntity
  8
NORMALI
100
AcDbLine
 10
-369.4625589423176
 20
566.8911381298455
 30
0.0
 11
-382.7490753250149
 21
580.1811381298464
 31
0.0
  0
LINE
  5
2325
330
18
100
AcDbEntity
  8
NORMALI
100
AcDbLine
 10
-368.0240753250145
 20
529.3911381298446
 30
0.0
 11
-378.0240753250163
 21
539.3911381298464
 31
0.0
  0
LINE
  5
2327
330
18
100
AcDbEntity
  8
NORMALI
100
AcDbLine
 10
-372.089075325015
 20
569.5211381298466
 30
0.0
 11
-368.9070753250143
 21
572.7011381298459
 31
0.0
  0
LINE
  5
2328
330
18
100
AcDbEntity
  8
NORMALI
100
AcDbLine
 10
-378.0240753250154
 20
554.3911381298474
 30
0.0
 11
-368.0240753250163
 21
564.3911381298464
 31
0.0
  0
LINE
  5
232C
330
18
100
AcDbEntity
  8
NORMALI
100
AcDbLine
 10
-372.089075325015
 20
524.2711381298465
 30
0.0
 11
-368.9070753250143
 21
521.081138129846
 31
0.0
  0
ARC
  5
232F
330
18
100
AcDbEntity
  8
NORMALI
100
AcDbCircle
 10
-375.6250753250151
 20
546.8911381298455
 30
0.0
 40
7.0
100
AcDbArc
 50
135.0000000000092
 51
224.999900000021
  0
LINE
  5
2330
330
18
100
AcDbEntity
  8
NORMALI
100
AcDbLine
 10
-378.0240753250163
 20
539.3911381298456
 30
0.0
 11
-378.0240753250163
 21
554.3911381298455
 31
0.0
  0
LINE
  5
2336
330
18
100
AcDbEntity
  8
NORMALI
100
AcDbLine
 10
-378.0240753250163
 20
539.3911381298464
 30
0.0
 11
-380.6240702742524
 21
541.9911330790825
 31
0.0
  0
LINE
  5
233D
330
18
100
AcDbEntity
  8
NORMALI
100
AcDbLine
 10
-381.8000753250144
 20
583.8911381298455
 30
0.0
 11
-386.1448412824629
 21
566.8911381298455
 31
0.0
  0
LINE
  5
2348
330
18
100
AcDbEntity
  8
NORMALI
100
AcDbLine
 10
-381.8000753250144
 20
596.8911381298455
 30
0.0
 11
-381.8000753250144
 21
583.8911381298455
 31
0.0
  0
LINE
  5
234B
330
18
100
AcDbEntity
  8
NORMALI
100
AcDbLine
 10
-380.6240702742561
 20
551.7911431806076
 30
0.0
 11
-378.0240753250154
 21
554.3911381298474
 31
0.0
  0
LINE
  5
234D
330
18
100
AcDbEntity
  8
DISEGNO
100
AcDbLine
 10
-371.8120753250168
 20
609.8910381298463
 30
0.0
 11
-371.8120753250168
 21
596.8911381298455
 31
0.0
1001
ACAD
1000
ASC_BOUNDS
1002
{
1070
    19
1002
}
  0
LINE
  5
2351
330
18
100
AcDbEntity
  8
NORMALI
100
AcDbLine
 10
-360.5246979665261
 20
550.8911381298455
 30
0.0
 11
-360.5246979665261
 21
553.1411381298455
 31
0.0
  0
LINE
  5
2353
330
18
100
AcDbEntity
  8
DISEGNO
100
AcDbLine
 10
-362.0246979665298
 20
540.6410381298463
 30
0.0
 11
-362.0246979665298
 21
536.8910381298462
 31
0.0
  0
LINE
  5
2354
330
18
100
AcDbEntity
  8
NORMALI
100
AcDbLine
 10
-362.0245879036319
 20
529.3911381298455
 30
0.0
 11
-368.0240753250163
 21
529.3911381298455
 31
0.0
  0
LINE
  5
2356
330
18
100
AcDbEntity
  8
NORMALI
100
AcDbLine
 10
-367.4930753250173
 20
528.8611381298458
 30
0.0
 11
-367.4930753250173
 21
526.8911381298456
 31
0.0
  0
LINE
  5
2357
330
18
100
AcDbEntity
  8
NORMALI
100
AcDbLine
 10
-367.4935753603731
 20
528.8606381652041
 30
0.0
 11
-368.0240753250145
 21
529.3911381298446
 31
0.0
  0
LINE
  5
2358
330
18
100
AcDbEntity
  8
NORMALI
100
AcDbLine
 10
-363.7246979665233
 20
542.8911381298455
 30
0.0
 11
-363.7246979665233
 21
550.8911381298455
 31
0.0
  0
LINE
  5
2359
330
18
100
AcDbEntity
  8
NORMALI
100
AcDbLine
 10
-365.2246728093577
 20
542.8911381298455
 30
0.0
 11
-365.2247231238197
 21
550.8911381298455
 31
0.0
  0
LINE
  5
235A
330
18
100
AcDbEntity
  8
NORMALI
100
AcDbLine
 10
-365.2247231238197
 20
550.8911381298455
 30
0.0
 11
-360.5246979665261
 21
550.8911381298455
 31
0.0
  0
LINE
  5
235B
330
18
100
AcDbEntity
  8
NORMALI
100
AcDbLine
 10
-365.2246728093541
 20
542.8911381298455
 30
0.0
 11
-360.5246979665261
 21
542.8911381298455
 31
0.0
  0
LINE
  5
235C
330
18
100
AcDbEntity
  8
NORMALI
100
AcDbLine
 10
-360.5246979665261
 20
540.6411381298455
 30
0.0
 11
-360.5246979665261
 21
542.8911381298455
 31
0.0
  0
LINE
  5
235D
330
18
100
AcDbEntity
  8
DISEGNO
100
AcDbLine
 10
-362.0246979665298
 20
588.8911381298437
 30
0.0
 11
-362.0246979665298
 21
553.1410381298463
 31
0.0
  0
ARC
  5
235E
330
18
100
AcDbEntity
  8
DISEGNO
100
AcDbCircle
 10
-361.0246979665334
 20
588.8911381298437
 30
0.0
 40
1.0
100
AcDbArc
 50
90.0
 51
180.0
  0
LINE
  5
235F
330
18
100
AcDbEntity
  8
DISEGNO
100
AcDbLine
 10
-362.0246979665298
 20
556.8910381298462
 30
0.0
 11
-362.0246979665298
 21
553.1410381298463
 31
0.0
  0
LINE
  5
2360
330
18
100
AcDbEntity
  8
NORMALI
100
AcDbLine
 10
-362.0245879036319
 20
564.3911381298456
 30
0.0
 11
-368.0240753250163
 21
564.3911381298456
 31
0.0
  0
LINE
  5
2361
330
18
100
AcDbEntity
  8
NORMALI
100
AcDbLine
 10
-367.4935752594774
 20
564.9216381953854
 30
0.0
 11
-369.4625589423176
 21
566.8911381298455
 31
0.0
  0
LINE
  5
2362
330
18
100
AcDbEntity
  8
NORMALI
100
AcDbLine
 10
-367.4930753250173
 20
564.9211381298462
 30
0.0
 11
-367.4930753250173
 21
566.8911381298455
 31
0.0
  0
LINE
  5
2363
330
18
100
AcDbEntity
  8
NORMALI
100
AcDbLine
 10
-368.0240753250163
 20
564.3911381298464
 30
0.0
 11
-367.4935752594774
 21
564.9216381953854
 31
0.0
  0
LINE
  5
2364
330
18
100
AcDbEntity
  8
DISEGNO
100
AcDbLine
 10
-355.0246979665316
 20
540.6411381298437
 30
0.0
 11
-362.0246979665316
 21
540.6411381298437
 31
0.0
  0
LINE
  5
2369
330
18
100
AcDbEntity
  8
DISEGNO
100
AcDbLine
 10
-362.0246979665316
 20
553.1410381298463
 30
0.0
 11
-355.0246979665316
 21
553.1410381298463
 31
0.0
  0
LINE
  5
236B
330
18
100
AcDbEntity
  8
NORMALI
100
AcDbLine
 10
-415.5570753250158
 20
523.8911381298455
 30
0.0
 11
-412.0600753250164
 21
523.8911381298455
 31
0.0
  0
ARC
  5
236C
330
18
100
AcDbEntity
  8
NORMALI
100
AcDbCircle
 10
-424.4980753250146
 20
525.7911381298461
 30
0.0
 40
3.978
100
AcDbArc
 50
7.020000000000938
 51
83.00499999996606
  0
LINE
  5
236D
330
18
100
AcDbEntity
  8
NORMALI
100
AcDbLine
 10
-421.2330753250152
 20
528.1511381298457
 30
0.0
 11
-420.5260753250167
 21
528.8611381298458
 31
0.0
  0
LINE
  5
236E
330
18
100
AcDbEntity
  8
NORMALI
100
AcDbLine
 10
-420.5550753250153
 20
526.2711381298466
 30
0.0
 11
-423.5960753250164
 21
523.2311381298456
 31
0.0
  0
LINE
  5
236F
330
18
100
AcDbEntity
  8
NORMALI
100
AcDbLine
 10
-400.0200753250155
 20
518.9611381298461
 30
0.0
 11
-408.505075325016
 21
527.4511381298459
 31
0.0
  0
LINE
  5
2370
330
18
100
AcDbEntity
  8
NORMALI
100
AcDbLine
 10
-409.0599341485448
 20
526.8911381298456
 30
0.0
 11
-412.0600753250164
 21
523.8911381298455
 31
0.0
  0
LINE
  5
237B
330
18
100
AcDbEntity
  8
NORMALI
100
AcDbLine
 10
-412.0600753250164
 20
569.8911381298455
 30
0.0
 11
-415.5567274989279
 21
569.8911381298455
 31
0.0
  0
LINE
  5
2387
330
18
100
AcDbEntity
  8
NORMALI
100
AcDbLine
 10
-412.0600753250164
 20
569.8911381298455
 30
0.0
 11
-409.0599341485448
 21
566.8911381298455
 31
0.0
  0
LINE
  5
238E
330
18
100
AcDbEntity
  8
NORMALI
100
AcDbLine
 10
-418.5570753250157
 20
526.8911381298456
 30
0.0
 11
-367.4930753250173
 21
526.8911381298456
 31
0.0
  0
LINE
  5
238F
330
18
100
AcDbEntity
  8
NORMALI
100
AcDbLine
 10
-418.5570753250157
 20
566.8911381298455
 30
0.0
 11
-367.4930753250173
 21
566.8911381298455
 31
0.0
  0
LINE
  5
2392
330
18
100
AcDbEntity
  8
NORMALI
100
AcDbLine
 10
-407.0910753250154
 20
511.8911381298455
 30
0.0
 11
-392.0889536842823
 21
526.8911381298456
 31
0.0
  0
LINE
  5
2395
330
18
100
AcDbEntity
  8
DISEGNO
100
AcDbLine
 10
-304.0246979665316
 20
553.8911381298437
 30
0.0
 11
-304.0246979665316
 21
455.8906381298454
 31
0.0
  0
LINE
  5
2396
330
18
100
AcDbEntity
  8
DISEGNO
100
AcDbLine
 10
-298.0246979665316
 20
550.8911381298437
 30
0.0
 11
-298.0246979665316
 21
447.3906381298454
 31
0.0
  0
ARC
  5
23AA
330
18
100
AcDbEntity
  8
DISEGNO
100
AcDbCircle
 10
-283.0246979665334
 20
447.3906381298454
 30
0.0
 40
15.0
100
AcDbArc
 50
180.0
 51
270.0
  0
ARC
  5
23AB
330
18
100
AcDbEntity
  8
DISEGNO
100
AcDbCircle
 10
-312.0246979665334
 20
455.8906381298454
 30
0.0
 40
8.0
100
AcDbArc
 50
270.0
 51
0.0
  0
LINE
  5
23AC
330
18
100
AcDbEntity
  8
DISEGNO
100
AcDbLine
 10
-310.7746979665298
 20
426.8906381298454
 30
0.0
 11
-310.7746979665298
 21
419.8906381298455
 31
0.0
  0
ARC
  5
23AE
330
18
100
AcDbEntity
  8
DISEGNO
100
AcDbCircle
 10
-307.7746979665298
 20
437.8906381298454
 30
0.0
 40
1.0
100
AcDbArc
 50
0.0
 51
90.0
  0
LINE
  5
23AF
330
18
100
AcDbEntity
  8
DISEGNO
100
AcDbLine
 10
-306.7746979665298
 20
437.8906381298454
 30
0.0
 11
-306.7746979665298
 21
426.8906381298454
 31
0.0
  0
ARC
  5
23B3
330
18
100
AcDbEntity
  8
DISEGNO
100
AcDbCircle
 10
-327.294697966532
 20
455.8906381298454
 30
0.0
 40
8.0
100
AcDbArc
 50
187.9760000000085
 51
270.0
  0
LINE
  5
23B4
330
18
100
AcDbEntity
  8
DISEGNO
100
AcDbLine
 10
-323.2746979665298
 20
419.8906381298455
 30
0.0
 11
-323.2746979665298
 21
426.8906381298454
 31
0.0
  0
ARC
  5
23B6
330
18
100
AcDbEntity
  8
DISEGNO
100
AcDbCircle
 10
-326.2746979665298
 20
437.8906381298454
 30
0.0
 40
1.0
100
AcDbArc
 50
90.0
 51
180.0
  0
LINE
  5
23B7
330
18
100
AcDbEntity
  8
DISEGNO
100
AcDbLine
 10
-327.2746979665298
 20
426.8906381298454
 30
0.0
 11
-327.2746979665298
 21
437.8906381298454
 31
0.0
  0
LINE
  5
23B9
330
18
100
AcDbEntity
  8
DISEGNO
100
AcDbLine
 10
-327.2946979665302
 20
447.8906381298454
 30
0.0
 11
-312.0246979665316
 21
447.8906381298454
 31
0.0
  0
LINE
  5
23BB
330
18
100
AcDbEntity
  8
DISEGNO
100
AcDbLine
 10
-327.2746979665298
 20
426.8906381298454
 30
0.0
 11
-323.2746979665298
 21
426.8906381298454
 31
0.0
  0
LINE
  5
23BC
330
18
100
AcDbEntity
  8
DISEGNO
100
AcDbLine
 10
-326.2746979665298
 20
438.8906381298454
 30
0.0
 11
-307.7746979665298
 21
438.8906381298454
 31
0.0
  0
ARC
  5
23C9
330
18
100
AcDbEntity
  8
DISEGNO
100
AcDbCircle
 10
-251.9152524004821
 20
585.890438129845
 30
0.0
 40
10.0
100
AcDbArc
 50
194.178287944085
 51
270.0
  0
LINE
  5
23CA
330
18
100
AcDbEntity
  8
ASSI
100
AcDbLine
 10
-171.5804848804582
 20
623.8910381298453
 30
0.0
 11
-272.4689110526051
 21
623.8910381298453
 31
0.0
  0
LINE
  5
23CC
330
18
100
AcDbEntity
  8
DISEGNO
100
AcDbLine
 10
-172.0246979665316
 20
583.4410381298428
 30
0.0
 11
-272.0246979665316
 21
583.4410381298428
 31
0.0
  0
LINE
  5
23CD
330
18
100
AcDbEntity
  8
DISEGNO
100
AcDbLine
 10
-272.0246979665316
 20
592.1440341298455
 30
0.0
 11
-172.0246979665316
 21
592.1440341298537
 31
0.0
  0
LINE
  5
23DD
330
18
100
AcDbEntity
  8
ASSI
100
AcDbLine
 10
-263.5246979665316
 20
609.4130741568676
 30
0.0
 11
-263.5246979665325
 21
639.6753063711273
 31
0.0
  0
ARC
  5
23EF
330
18
100
AcDbEntity
  8
DISEGNO
100
AcDbCircle
 10
-286.0246979665334
 20
550.8911381298437
 30
0.0
 40
12.0
100
AcDbArc
 50
89.99999999515374
 51
180.0
  0
LINE
  5
23F0
330
18
100
AcDbEntity
  8
DISEGNO
100
AcDbLine
 10
-313.4466979665321
 20
589.3910381298463
 30
0.0
 11
-307.6736979665311
 21
579.3910381298462
 31
0.0
  0
ARC
  5
23F1
330
18
100
AcDbEntity
  8
DISEGNO
100
AcDbCircle
 10
-300.7456979665312
 20
583.3910381298462
 30
0.0
 40
8.0
100
AcDbArc
 50
210.0000000000078
 51
270.0
  0
ARC
  5
23F2
330
18
100
AcDbEntity
  8
DISEGNO
100
AcDbCircle
 10
-312.0246979665334
 20
553.8911381298437
 30
0.0
 40
8.0
100
AcDbArc
 50
0.0
 51
89.99998927050819
  0
LINE
  5
23F3
330
18
100
AcDbEntity
  8
DISEGNO
100
AcDbLine
 10
-272.0246979665307
 20
583.4410381298428
 30
0.0
 11
-272.0246979665325
 21
634.8910381298463
 31
0.0
  0
ARC
  5
23F9
330
18
100
AcDbEntity
  8
DISEGNO
100
AcDbCircle
 10
-311.9152524004821
 20
599.8909381298447
 30
0.0
 40
10.0
100
AcDbArc
 50
270.0
 51
0.0
  0
LINE
  5
23FC
330
18
100
AcDbEntity
  8
DISEGNO
100
AcDbLine
 10
-301.9152524004821
 20
609.8910381298467
 30
0.0
 11
-301.9152524004821
 21
599.8909381298447
 31
0.0
  0
LINE
  5
23FD
330
18
100
AcDbEntity
  8
DISEGNO
100
AcDbLine
 10
-300.7455524698307
 20
575.3911381298474
 30
0.0
 11
-265.5246979665316
 21
575.3911381298474
 31
0.0
  0
LINE
  5
2403
330
18
100
AcDbEntity
  8
DISEGNO
100
AcDbLine
 10
-333.0246979665316
 20
553.8911381298437
 30
0.0
 11
-333.0246979665316
 21
534.8910381298463
 31
0.0
  0
ARC
  5
2404
330
18
100
AcDbEntity
  8
DISEGNO
100
AcDbCircle
 10
-341.0246979665334
 20
534.8910381298463
 30
0.0
 40
8.0
100
AcDbArc
 50
270.0
 51
0.0
  0
ARC
  5
2405
330
18
100
AcDbEntity
  8
DISEGNO
100
AcDbCircle
 10
-325.0246979665334
 20
553.8911381298437
 30
0.0
 40
8.0
100
AcDbArc
 50
89.99998927050819
 51
180.0
  0
LINE
  5
2406
330
18
100
AcDbEntity
  8
DISEGNO
100
AcDbLine
 10
-331.7746979665316
 20
582.8910381298462
 30
0.0
 11
-331.7746979665316
 21
571.8910381298463
 31
0.0
  0
LINE
  5
2407
330
18
100
AcDbEntity
  8
DISEGNO
100
AcDbLine
 10
-335.7746979665316
 20
589.8911381298437
 30
0.0
 11
-335.7746979665316
 21
582.8911381298437
 31
0.0
  0
LINE
  5
2408
330
18
100
AcDbEntity
  8
DISEGNO
100
AcDbLine
 10
-335.7746979665316
 20
582.8911381298437
 30
0.0
 11
-331.7746979665334
 21
582.8911381298437
 31
0.0
  0
ARC
  5
2409
330
18
100
AcDbEntity
  8
DISEGNO
100
AcDbCircle
 10
-332.7746979665334
 20
571.8911381298437
 30
0.0
 40
1.0
100
AcDbArc
 50
270.0
 51
0.0
  0
LINE
  5
240A
330
18
100
AcDbEntity
  8
DISEGNO
100
AcDbLine
 10
-316.0246979665316
 20
584.8910381298463
 30
0.0
 11
-326.0246979665316
 21
584.8910381298463
 31
0.0
  0
LINE
  5
240B
330
18
100
AcDbEntity
  8
DISEGNO
100
AcDbLine
 10
-326.0246979665316
 20
589.8911381298437
 30
0.0
 11
-326.0246979665316
 21
584.8910381298463
 31
0.0
  0
LINE
  5
240C
330
18
100
AcDbEntity
  8
DISEGNO
100
AcDbLine
 10
-316.0246979665316
 20
589.8910381298462
 30
0.0
 11
-316.0246979665316
 21
584.8910381298463
 31
0.0
  0
ARC
  5
240D
330
18
100
AcDbEntity
  8
DISEGNO
100
AcDbCircle
 10
-314.3126979665321
 20
588.8910381298463
 30
0.0
 40
1.0
100
AcDbArc
 50
30.00000000000782
 51
90.0
  0
LINE
  5
240E
330
18
100
AcDbEntity
  8
DISEGNO
100
AcDbLine
 10
-312.0246979665316
 20
561.8911381298437
 30
0.0
 11
-325.0246979665316
 21
561.8911381298437
 31
0.0
  0
LINE
  5
2419
330
18
100
AcDbEntity
  8
ASSI
100
AcDbLine
 10
-180.5246979665316
 20
609.2826381358188
 30
0.0
 11
-180.5246979665316
 21
640.0666304839885
 31
0.0
  0
LINE
  5
241A
330
18
100
AcDbEntity
  8
DISEGNO
100
AcDbLine
 10
-172.0246979665316
 20
583.4410381298428
 30
0.0
 11
-172.0246979665316
 21
634.8910381298463
 31
0.0
  0
LINE
  5
2438
330
18
100
AcDbEntity
  8
ASSI
100
AcDbLine
 10
-196.0246979665316
 20
617.242155867191
 30
0.0
 11
-196.0246979665316
 21
630.5399203924996
 31
0.0
  0
ARC
  5
243E
330
18
100
AcDbEntity
  8
DISEGNO
100
AcDbCircle
 10
-192.1341435325802
 20
585.890438129845
 30
0.0
 40
10.0
100
AcDbArc
 50
270.0
 51
345.821712055915
  0
LINE
  5
2440
330
18
100
AcDbEntity
  8
ASSI
100
AcDbLine
 10
-248.0246979665316
 20
617.242155867191
 30
0.0
 11
-248.0246979665316
 21
630.5399203924996
 31
0.0
  0
LINE
  5
2444
330
18
100
AcDbEntity
  8
DISEGNO
100
AcDbLine
 10
-251.9152524004821
 20
575.890438129845
 30
0.0
 11
-192.1341435325802
 21
575.890438129845
 31
0.0
  0
LINE
  5
2451
330
18
100
AcDbEntity
  8
ASSI
100
AcDbLine
 10
-453.8847405614514
 20
546.8911381298455
 30
0.0
 11
1.141324442235656
 21
546.8911381298455
 31
0.0
  0
LINE
  5
2455
330
18
100
AcDbEntity
  8
NORMALI
100
AcDbLine
 10
-36.95832060804418
 20
511.8911381298455
 30
0.0
 11
-48.27232060804266
 21
500.581138129846
 31
0.0
  0
LINE
  5
2456
330
18
100
AcDbEntity
  8
DISEGNO
100
AcDbLine
 10
-140.0246979665316
 20
553.8911381298437
 30
0.0
 11
-140.0246979665316
 21
455.8906381298454
 31
0.0
  0
LINE
  5
2457
330
18
100
AcDbEntity
  8
DISEGNO
100
AcDbLine
 10
-93.02469796653161
 20
518.8906381298454
 30
0.0
 11
-93.02469796653161
 21
477.3046381298461
 31
0.0
  0
LINE
  5
2458
330
18
100
AcDbEntity
  8
DISEGNO
100
AcDbLine
 10
-82.02469796653344
 20
540.6411381298437
 30
0.0
 11
-82.02469796653161
 21
462.8906381298454
 31
0.0
  0
LINE
  5
2459
330
18
100
AcDbEntity
  8
NORMALI
100
AcDbLine
 10
-75.14232060804528
 20
521.081138129846
 30
0.0
 11
-56.05032060804473
 21
501.9911381298459
 31
0.0
  0
LINE
  5
245A
330
18
100
AcDbEntity
  8
NORMALI
100
AcDbLine
 10
-74.58604196589471
 20
526.8911381298456
 30
0.0
 11
-48.27232060804266
 21
500.581138129846
 31
0.0
  0
LINE
  5
245B
330
18
100
AcDbEntity
  8
DISEGNO
100
AcDbLine
 10
-146.0246979665316
 20
550.8911381298437
 30
0.0
 11
-146.0246979665316
 21
447.3906381298454
 31
0.0
  0
LINE
  5
245E
330
18
100
AcDbEntity
  8
DISEGNO
100
AcDbLine
 10
-82.02469796653161
 20
444.1406381298454
 30
0.0
 11
-89.02469796653162
 21
444.1406381298454
 31
0.0
  0
LINE
  5
245F
330
18
100
AcDbEntity
  8
DISEGNO
100
AcDbLine
 10
-89.02469796653162
 20
431.6406381298454
 30
0.0
 11
-82.02469796653161
 21
431.6406381298454
 31
0.0
  0
LINE
  5
2460
330
18
100
AcDbEntity
  8
DISEGNO
100
AcDbLine
 10
-120.7746979665316
 20
419.8906381298455
 30
0.0
 11
-83.02469796653161
 21
419.8906381298455
 31
0.0
  0
LINE
  5
2462
330
18
100
AcDbEntity
  8
DISEGNO
100
AcDbLine
 10
-89.02469796653162
 20
448.1406381298454
 30
0.0
 11
-89.02469796653162
 21
444.1406381298454
 31
0.0
  0
ARC
  5
2463
330
18
100
AcDbEntity
  8
DISEGNO
100
AcDbCircle
 10
-101.0246979665298
 20
477.3046381298461
 30
0.0
 40
8.0
100
AcDbArc
 50
295.3750000000082
 51
0.0
  0
ARC
  5
2464
330
18
100
AcDbEntity
  8
DISEGNO
100
AcDbCircle
 10
-100.0246979665298
 20
447.1406381298455
 30
0.0
 40
1.0
100
AcDbArc
 50
90.0
 51
180.0
  0
LINE
  5
2465
330
18
100
AcDbEntity
  8
DISEGNO
100
AcDbLine
 10
-89.02469796653162
 20
448.1406381298454
 30
0.0
 11
-100.0246979665316
 21
448.1406381298454
 31
0.0
  0
LINE
  5
2466
330
18
100
AcDbEntity
  8
DISEGNO
100
AcDbLine
 10
-89.02469796653162
 20
431.6406381298454
 30
0.0
 11
-89.02469796653162
 21
427.6406381298454
 31
0.0
  0
ARC
  5
2467
330
18
100
AcDbEntity
  8
DISEGNO
100
AcDbCircle
 10
-100.0246979665298
 20
428.6406381298454
 30
0.0
 40
1.0
100
AcDbArc
 50
180.0
 51
270.0
  0
LINE
  5
2468
330
18
100
AcDbEntity
  8
DISEGNO
100
AcDbLine
 10
-100.0246979665316
 20
427.6406381298454
 30
0.0
 11
-89.02469796653162
 21
427.6406381298454
 31
0.0
  0
LINE
  5
2469
330
18
100
AcDbEntity
  8
DISEGNO
100
AcDbLine
 10
-101.0246979665316
 20
447.1406381298455
 30
0.0
 11
-101.0246979665316
 21
428.6406381298454
 31
0.0
  0
LINE
  5
246A
330
18
100
AcDbEntity
  8
DISEGNO
100
AcDbLine
 10
-116.754697966533
 20
447.8906381298454
 30
0.0
 11
-132.0246979665316
 21
447.8906381298454
 31
0.0
  0
LINE
  5
246B
330
18
100
AcDbEntity
  8
DISEGNO
100
AcDbLine
 10
-116.7746979665334
 20
426.8906381298454
 30
0.0
 11
-120.7746979665334
 21
426.8906381298454
 31
0.0
  0
LINE
  5
246D
330
18
100
AcDbEntity
  8
DISEGNO
100
AcDbLine
 10
-117.7746979665334
 20
438.8906381298454
 30
0.0
 11
-136.2746979665334
 21
438.8906381298454
 31
0.0
  0
ARC
  5
246E
330
18
100
AcDbEntity
  8
DISEGNO
100
AcDbCircle
 10
-132.0246979665298
 20
455.8906381298454
 30
0.0
 40
8.0
100
AcDbArc
 50
180.0
 51
270.0
  0
LINE
  5
246F
330
18
100
AcDbEntity
  8
DISEGNO
100
AcDbLine
 10
-133.2746979665334
 20
426.8906381298454
 30
0.0
 11
-133.2746979665334
 21
419.8906381298455
 31
0.0
  0
ARC
  5
2471
330
18
100
AcDbEntity
  8
DISEGNO
100
AcDbCircle
 10
-136.2746979665334
 20
437.8906381298454
 30
0.0
 40
1.0
100
AcDbArc
 50
90.0
 51
180.0
  0
LINE
  5
2472
330
18
100
AcDbEntity
  8
DISEGNO
100
AcDbLine
 10
-137.2746979665334
 20
437.8906381298454
 30
0.0
 11
-137.2746979665334
 21
426.8906381298454
 31
0.0
  0
ARC
  5
2474
330
18
100
AcDbEntity
  8
DISEGNO
100
AcDbCircle
 10
-116.7546979665312
 20
455.8906381298454
 30
0.0
 40
8.0
100
AcDbArc
 50
270.0
 51
352.0239999999915
  0
LINE
  5
2475
330
18
100
AcDbEntity
  8
DISEGNO
100
AcDbLine
 10
-120.7746979665334
 20
419.8906381298455
 30
0.0
 11
-120.7746979665334
 21
426.8906381298454
 31
0.0
  0
ARC
  5
2477
330
18
100
AcDbEntity
  8
DISEGNO
100
AcDbCircle
 10
-117.7746979665334
 20
437.8906381298454
 30
0.0
 40
1.0
100
AcDbArc
 50
0.0
 51
90.0
  0
LINE
  5
2478
330
18
100
AcDbEntity
  8
DISEGNO
100
AcDbLine
 10
-116.7746979665334
 20
426.8906381298454
 30
0.0
 11
-116.7746979665334
 21
437.8906381298454
 31
0.0
  0
ARC
  5
2479
330
18
100
AcDbEntity
  8
DISEGNO
100
AcDbCircle
 10
-89.02569796653001
 20
452.005638129847
 30
0.0
 40
20.0
100
AcDbArc
 50
115.3747000000203
 51
172.0241000000008
  0
ARC
  5
247C
330
18
100
AcDbEntity
  8
DISEGNO
100
AcDbCircle
 10
-161.0246979665298
 20
447.3906381298454
 30
0.0
 40
15.0
100
AcDbArc
 50
270.0
 51
0.0
  0
LINE
  5
247D
330
18
100
AcDbEntity
  8
NORMALI
100
AcDbLine
 10
-56.05032060804473
 20
501.9911381298459
 30
0.0
 11
-52.86832060804403
 21
505.1711381298462
 31
0.0
  0
LINE
  5
247E
330
18
100
AcDbEntity
  8
DISEGNO
100
AcDbLine
 10
-85.02469796653162
 20
462.8906381298454
 30
0.0
 11
-82.02469796653161
 21
462.8906381298454
 31
0.0
  0
LINE
  5
247F
330
18
100
AcDbEntity
  8
DISEGNO
100
AcDbLine
 10
-85.02469796653162
 20
450.8906381298454
 30
0.0
 11
-82.02469796653161
 21
450.8906381298454
 31
0.0
  0
LINE
  5
2480
330
18
100
AcDbEntity
  8
DISEGNO
100
AcDbLine
 10
-85.02469796653162
 20
450.8906381298454
 30
0.0
 11
-85.02469796653162
 21
462.8906381298454
 31
0.0
  0
LINE
  5
2481
330
18
100
AcDbEntity
  8
DISEGNO
100
AcDbLine
 10
-82.02469796653161
 20
444.1406381298454
 30
0.0
 11
-82.02469796653161
 21
450.8906381298454
 31
0.0
  0
LINE
  5
2482
330
18
100
AcDbEntity
  8
DISEGNO
100
AcDbLine
 10
-82.02469796653161
 20
420.8906381298454
 30
0.0
 11
-82.02469796653161
 21
431.6406381298454
 31
0.0
  0
ARC
  5
2483
330
18
100
AcDbEntity
  8
DISEGNO
100
AcDbCircle
 10
-83.0246979665298
 20
420.8906381298454
 30
0.0
 40
1.0
100
AcDbArc
 50
270.0
 51
0.0
  0
LINE
  5
2484
330
18
100
AcDbEntity
  8
DISEGNO
100
AcDbLine
 10
-89.02469796653162
 20
540.6411381298437
 30
0.0
 11
-82.02469796653161
 21
540.6411381298437
 31
0.0
  0
LINE
  5
2489
330
18
100
AcDbEntity
  8
DISEGNO
100
AcDbLine
 10
-82.02469796653161
 20
553.1410381298463
 30
0.0
 11
-89.02469796653162
 21
553.1410381298463
 31
0.0
  0
LINE
  5
248A
330
18
100
AcDbEntity
  8
DISEGNO
100
AcDbLine
 10
-82.02469796653161
 20
589.8911381298437
 30
0.0
 11
-132.2116026182647
 21
589.8911381298437
 31
0.0
  0
LINE
  5
248B
330
18
100
AcDbEntity
  8
DISEGNO
100
AcDbLine
 10
-101.0246979665316
 20
556.1411381298437
 30
0.0
 11
-101.0246979665316
 21
537.6411381298437
 31
0.0
  0
LINE
  5
248C
330
18
100
AcDbEntity
  8
NORMALI
100
AcDbLine
 10
-100.3246979665363
 20
537.8911381298455
 30
0.0
 11
-100.3246979665327
 21
555.8911381298456
 31
0.0
  0
LINE
  5
248D
330
18
100
AcDbEntity
  8
DISEGNO
100
AcDbLine
 10
-89.02469796653162
 20
540.6411381298437
 30
0.0
 11
-89.02469796653162
 21
536.6411381298437
 31
0.0
  0
LINE
  5
248E
330
18
100
AcDbEntity
  8
DISEGNO
100
AcDbLine
 10
-103.0246979665316
 20
526.8910381298463
 30
0.0
 11
-101.0246979665316
 21
526.8910381298463
 31
0.0
  0
ARC
  5
248F
330
18
100
AcDbEntity
  8
DISEGNO
100
AcDbCircle
 10
-100.0246979665298
 20
537.6411381298437
 30
0.0
 40
1.0
100
AcDbArc
 50
180.0
 51
270.0
  0
LINE
  5
2490
330
18
100
AcDbEntity
  8
NORMALI
100
AcDbLine
 10
-99.32469796653634
 20
536.8911381298455
 30
0.0
 11
-100.3246979665363
 21
537.8911381298455
 31
0.0
  0
LINE
  5
2495
330
18
100
AcDbEntity
  8
DISEGNO
100
AcDbLine
 10
-100.0246979665316
 20
536.6411381298437
 30
0.0
 11
-89.02469796653162
 21
536.6411381298437
 31
0.0
  0
LINE
  5
2496
330
18
100
AcDbEntity
  8
NORMALI
100
AcDbLine
 10
-89.02469796653344
 20
536.8911381298455
 30
0.0
 11
-99.32469796653634
 21
536.8911381298455
 31
0.0
  0
ARC
  5
2497
330
18
100
AcDbEntity
  8
DISEGNO
100
AcDbCircle
 10
-101.0246979665298
 20
518.8906381298454
 30
0.0
 40
8.0
100
AcDbArc
 50
0.0
 51
90.00001072938756
  0
LINE
  5
2498
330
18
100
AcDbEntity
  8
DISEGNO
100
AcDbLine
 10
-91.77469796653161
 20
571.8911381298437
 30
0.0
 11
-91.77469796653161
 21
582.8911381298437
 31
0.0
  0
LINE
  5
2499
330
18
100
AcDbEntity
  8
DISEGNO
100
AcDbLine
 10
-95.77469796653161
 20
582.8911381298437
 30
0.0
 11
-95.77469796653161
 21
589.8911381298437
 31
0.0
  0
LINE
  5
249A
330
18
100
AcDbEntity
  8
DISEGNO
100
AcDbLine
 10
-91.77469796653161
 20
582.8911381298437
 30
0.0
 11
-95.7746979665298
 21
582.8911381298437
 31
0.0
  0
LINE
  5
249B
330
18
100
AcDbEntity
  8
DISEGNO
100
AcDbLine
 10
-89.02469796653162
 20
557.1411381298474
 30
0.0
 11
-89.02469796653162
 21
553.1410381298463
 31
0.0
  0
ARC
  5
249C
330
18
100
AcDbEntity
  8
DISEGNO
100
AcDbCircle
 10
-92.77469796652979
 20
571.8911381298437
 30
0.0
 40
1.0
100
AcDbArc
 50
270.0
 51
0.0
  0
ARC
  5
249D
330
18
100
AcDbEntity
  8
DISEGNO
100
AcDbCircle
 10
-100.0246979665298
 20
556.1411381298437
 30
0.0
 40
1.0
100
AcDbArc
 50
90.0
 51
180.0
  0
LINE
  5
249E
330
18
100
AcDbEntity
  8
NORMALI
100
AcDbLine
 10
-100.3246979665327
 20
555.8911381298456
 30
0.0
 11
-99.32469796653272
 21
556.8911381298455
 31
0.0
  0
LINE
  5
249F
330
18
100
AcDbEntity
  8
DISEGNO
100
AcDbLine
 10
-89.02469796653162
 20
557.1411381298474
 30
0.0
 11
-100.0246979665316
 21
557.1411381298437
 31
0.0
  0
LINE
  5
24A0
330
18
100
AcDbEntity
  8
NORMALI
100
AcDbLine
 10
-89.02469796653344
 20
556.8911381298455
 30
0.0
 11
-99.32469796653272
 21
556.8911381298455
 31
0.0
  0
LINE
  5
24A2
330
18
100
AcDbEntity
  8
DISEGNO
100
AcDbLine
 10
-111.0246979665316
 20
553.8911381298437
 30
0.0
 11
-111.0246979665316
 21
534.8910381298463
 31
0.0
  0
LINE
  5
24A3
330
18
100
AcDbEntity
  8
DISEGNO
100
AcDbLine
 10
-128.0246979665316
 20
584.8910381298463
 30
0.0
 11
-118.0246979665316
 21
584.8910381298463
 31
0.0
  0
LINE
  5
24A4
330
18
100
AcDbEntity
  8
DISEGNO
100
AcDbLine
 10
-132.0246979665316
 20
561.8911381298437
 30
0.0
 11
-119.0246979665316
 21
561.8911381298437
 31
0.0
  0
ARC
  5
24A5
330
18
100
AcDbEntity
  8
DISEGNO
100
AcDbCircle
 10
-143.303697966532
 20
583.3910381298462
 30
0.0
 40
8.0
100
AcDbArc
 50
270.0
 51
329.9999999999922
  0
LINE
  5
24A6
330
18
100
AcDbEntity
  8
DISEGNO
100
AcDbLine
 10
-128.0246979665316
 20
589.8910381298462
 30
0.0
 11
-128.0246979665316
 21
584.8910381298463
 31
0.0
  0
LINE
  5
24A7
330
18
100
AcDbEntity
  8
DISEGNO
100
AcDbLine
 10
-130.6026979665311
 20
589.3910381298463
 30
0.0
 11
-136.3756979665322
 21
579.3910381298462
 31
0.0
  0
ARC
  5
24A8
330
18
100
AcDbEntity
  8
DISEGNO
100
AcDbCircle
 10
-129.7366979665311
 20
588.8910381298463
 30
0.0
 40
1.0
100
AcDbArc
 50
90.0
 51
149.9999999999922
  0
ARC
  5
24A9
330
18
100
AcDbEntity
  8
DISEGNO
100
AcDbCircle
 10
-132.0246979665298
 20
553.8911381298437
 30
0.0
 40
8.0
100
AcDbArc
 50
90.00001072949181
 51
180.0
  0
LINE
  5
24AA
330
18
100
AcDbEntity
  8
DISEGNO
100
AcDbLine
 10
-112.2746979665316
 20
582.8910381298462
 30
0.0
 11
-112.2746979665316
 21
571.8910381298463
 31
0.0
  0
LINE
  5
24AB
330
18
100
AcDbEntity
  8
DISEGNO
100
AcDbLine
 10
-108.2746979665316
 20
582.8911381298437
 30
0.0
 11
-112.2746979665298
 21
582.8911381298437
 31
0.0
  0
LINE
  5
24AC
330
18
100
AcDbEntity
  8
DISEGNO
100
AcDbLine
 10
-118.0246979665316
 20
589.8911381298437
 30
0.0
 11
-118.0246979665316
 21
584.8910381298463
 31
0.0
  0
LINE
  5
24AD
330
18
100
AcDbEntity
  8
DISEGNO
100
AcDbLine
 10
-108.2746979665316
 20
589.8911381298437
 30
0.0
 11
-108.2746979665316
 21
582.8911381298437
 31
0.0
  0
ARC
  5
24AE
330
18
100
AcDbEntity
  8
DISEGNO
100
AcDbCircle
 10
-111.2746979665298
 20
571.8911381298437
 30
0.0
 40
1.0
100
AcDbArc
 50
180.0
 51
270.0
  0
ARC
  5
24AF
330
18
100
AcDbEntity
  8
DISEGNO
100
AcDbCircle
 10
-119.0246979665298
 20
553.8911381298437
 30
0.0
 40
8.0
100
AcDbArc
 50
0.0
 51
90.00001072949181
  0
ARC
  5
24B1
330
18
100
AcDbEntity
  8
DISEGNO
100
AcDbCircle
 10
-132.1341435325802
 20
599.8908381298463
 30
0.0
 40
10.0
100
AcDbArc
 50
180.0
 51
270.0
  0
LINE
  5
24B2
330
18
100
AcDbEntity
  8
DISEGNO
100
AcDbLine
 10
-142.1341435325811
 20
609.8910381298467
 30
0.0
 11
-142.1341435325811
 21
599.8908381298463
 31
0.0
  0
ARC
  5
24B3
330
18
100
AcDbEntity
  8
DISEGNO
100
AcDbCircle
 10
-103.0246979665298
 20
534.8910381298463
 30
0.0
 40
8.0
100
AcDbArc
 50
180.0
 51
270.0
  0
LINE
  5
24B4
330
18
100
AcDbEntity
  8
DISEGNO
100
AcDbLine
 10
-111.2746979665316
 20
570.8911381298437
 30
0.0
 11
-92.77469796653162
 21
570.8911381298437
 31
0.0
  0
ARC
  5
24BA
330
18
100
AcDbEntity
  8
DISEGNO
100
AcDbCircle
 10
-158.0246979665298
 20
550.8911381298437
 30
0.0
 40
12.0
100
AcDbArc
 50
0.0
 51
90.00000000484623
  0
LINE
  5
24BD
330
18
100
AcDbEntity
  8
NORMALI
100
AcDbLine
 10
-2.237320608042807
 20
596.8911381298455
 30
0.0
 11
-2.237320608042807
 21
536.8911381298455
 31
0.0
  0
ARC
  5
24BE
330
18
100
AcDbEntity
  8
NORMALI
100
AcDbCircle
 10
-10.52432060804307
 20
537.5911381298463
 30
0.0
 40
3.978
100
AcDbArc
 50
276.995499999987
 51
349.8650156614015
  0
LINE
  5
24BF
330
18
100
AcDbEntity
  8
NORMALI
100
AcDbLine
 10
-8.240320608043418
 20
536.8911381298455
 30
0.0
 11
-17.86632060804362
 21
534.5211381298465
 31
0.0
  0
LINE
  5
24C0
330
18
100
AcDbEntity
  8
NORMALI
100
AcDbLine
 10
-4.784320608045106
 20
527.0911381298462
 30
0.0
 11
-10.08832060804519
 21
532.4011381298458
 31
0.0
  0
LINE
  5
24C1
330
18
100
AcDbEntity
  8
NORMALI
100
AcDbLine
 10
-5.491320608043622
 20
526.3911381298455
 30
0.0
 11
-9.734320608042196
 21
530.6311381298463
 31
0.0
  0
LINE
  5
24C2
330
18
100
AcDbEntity
  8
NORMALI
100
AcDbLine
 10
-12.2933206080433
 20
535.8911381298455
 30
0.0
 11
-10.0433206080433
 21
533.6411381298455
 31
0.0
  0
LINE
  5
24C3
330
18
100
AcDbEntity
  8
NORMALI
100
AcDbLine
 10
-15.39132060804508
 20
526.3911381298455
 30
0.0
 11
-16.0993206080438
 21
526.3911381298455
 31
0.0
  0
LINE
  5
24C4
330
18
100
AcDbEntity
  8
NORMALI
100
AcDbLine
 10
-9.734320608042196
 20
532.7511381298461
 30
0.0
 11
-9.734320608042196
 21
532.0411381298461
 31
0.0
  0
ARC
  5
24C5
330
18
100
AcDbEntity
  8
NORMALI
100
AcDbCircle
 10
-23.32632060804275
 20
539.9811381298457
 30
0.0
 40
14.722
100
AcDbArc
 50
295.5110000000049
 51
334.489100000034
  0
LINE
  5
24C6
330
18
100
AcDbEntity
  8
NORMALI
100
AcDbLine
 10
-9.734320608042196
 20
532.0411381298461
 30
0.0
 11
-15.39132060804508
 21
526.3911381298455
 31
0.0
  0
LINE
  5
24C7
330
18
100
AcDbEntity
  8
NORMALI
100
AcDbLine
 10
-9.734320608042196
 20
530.6311381298463
 30
0.0
 11
-13.97732060804441
 21
526.3911381298455
 31
0.0
  0
ARC
  5
24C8
330
18
100
AcDbEntity
  8
NORM_TR
100
AcDbCircle
 10
-7.740320608043418
 20
537.3911381298455
 30
0.0
 40
0.5
100
AcDbArc
 50
180.0
 51
270.0
  0
LINE
  5
24C9
330
18
100
AcDbEntity
  8
NORMALI
100
AcDbLine
 10
-4.784320608045106
 20
527.0911381298462
 30
0.0
 11
-4.784320608045106
 21
525.6811381298464
 31
0.0
  0
LINE
  5
24CA
330
18
100
AcDbEntity
  8
NORMALI
100
AcDbLine
 10
-8.240320608043418
 20
549.6411381298456
 30
0.0
 11
-8.240320608043418
 21
544.1411381298455
 31
0.0
  0
LINE
  5
24CB
330
18
100
AcDbEntity
  8
NORM_TR
100
AcDbLine
 10
-8.240320608043418
 20
544.1411381298455
 30
0.0
 11
-8.240320608043418
 21
537.3911381298455
 31
0.0
  0
LINE
  5
24CC
330
18
100
AcDbEntity
  8
NORMALI
100
AcDbLine
 10
-8.240320608043418
 20
536.8911381298455
 30
0.0
 11
-2.237320608042807
 21
536.8911381298455
 31
0.0
  0
LINE
  5
24CD
330
18
100
AcDbEntity
  8
NORMALI
100
AcDbLine
 10
-8.320320608045165
 20
522.1411381298455
 30
0.0
 11
-9.734320608042196
 21
522.1411381298455
 31
0.0
  0
LINE
  5
24CE
330
18
100
AcDbEntity
  8
NORMALI
100
AcDbLine
 10
-9.02732060804368
 20
521.4411381298466
 30
0.0
 11
-10.44132060804435
 21
521.4411381298466
 31
0.0
  0
LINE
  5
24CF
330
18
100
AcDbEntity
  8
NORMALI
100
AcDbLine
 10
-7.711320608044786
 20
534.7711381298466
 30
0.0
 11
-18.12132060804464
 21
524.3611381298458
 31
0.0
  0
LINE
  5
24D0
330
18
100
AcDbEntity
  8
NORMALI
100
AcDbLine
 10
-4.784320608045106
 20
525.6811381298464
 30
0.0
 11
-9.02732060804368
 21
521.4411381298466
 31
0.0
  0
LINE
  5
24D1
330
18
100
AcDbEntity
  8
NORMALI
100
AcDbLine
 10
-5.491320608043622
 20
524.9711381298464
 30
0.0
 11
-13.97732060804441
 21
526.3911381298455
 31
0.0
  0
LINE
  5
24D2
330
18
100
AcDbEntity
  8
NORMALI
100
AcDbLine
 10
-9.734320608042196
 20
530.6311381298463
 30
0.0
 11
-8.320320608045165
 21
522.1411381298455
 31
0.0
  0
LINE
  5
24D3
330
18
100
AcDbEntity
  8
NORMALI
100
AcDbLine
 10
-10.44132060804435
 20
521.4411381298466
 30
0.0
 11
-15.74532060804443
 21
526.7411381298459
 31
0.0
  0
LINE
  5
24D4
330
18
100
AcDbEntity
  8
NORMALI
100
AcDbLine
 10
-13.97732060804441
 20
526.3911381298455
 30
0.0
 11
-9.734320608042196
 21
522.1411381298455
 31
0.0
  0
LINE
  5
24D5
330
18
100
AcDbEntity
  8
NORMALI
100
AcDbLine
 10
-5.491320608043622
 20
526.3911381298455
 30
0.0
 11
-5.491320608043622
 21
524.9711381298464
 31
0.0
  0
LINE
  5
24DA
330
18
100
AcDbEntity
  8
DISEGNO
100
AcDbLine
 10
-2.237320608042807
 20
609.8910381298471
 30
0.0
 11
-2.237320608042807
 21
596.8911381298455
 31
0.0
1001
ACAD
1000
ASC_BOUNDS
1002
{
1070
    19
1002
}
  0
LINE
  5
24E0
330
18
100
AcDbEntity
  8
NORMALI
100
AcDbLine
 10
-36.95832060804418
 20
511.8911381298455
 30
0.0
 11
-51.96044224877727
 21
526.8911381298456
 31
0.0
  0
LINE
  5
24E1
330
18
100
AcDbEntity
  8
NORMALI
100
AcDbLine
 10
-44.02932060804409
 20
518.9611381298461
 30
0.0
 11
-35.54432060804351
 21
527.4511381298459
 31
0.0
  0
LINE
  5
24F7
330
18
100
AcDbEntity
  8
NORMALI
100
AcDbLine
 10
-22.81632060804435
 20
528.1511381298457
 30
0.0
 11
-23.52332060804287
 21
528.8611381298458
 31
0.0
  0
ARC
  5
24F8
330
18
100
AcDbEntity
  8
NORMALI
100
AcDbCircle
 10
-19.55132060804493
 20
525.7911381298461
 30
0.0
 40
3.978
100
AcDbArc
 50
96.99500000003395
 51
172.979999999999
  0
LINE
  5
24F9
330
18
100
AcDbEntity
  8
NORMALI
100
AcDbLine
 10
-28.49232060804382
 20
523.8911381298455
 30
0.0
 11
-31.98932060804322
 21
523.8911381298455
 31
0.0
  0
LINE
  5
24FA
330
18
100
AcDbEntity
  8
NORMALI
100
AcDbLine
 10
-34.98946178451473
 20
526.8911381298456
 30
0.0
 11
-31.98932060804322
 21
523.8911381298455
 31
0.0
  0
LINE
  5
24FB
330
18
100
AcDbEntity
  8
NORMALI
100
AcDbLine
 10
-23.49432060804423
 20
526.2711381298466
 30
0.0
 11
-20.45332060804316
 21
523.2311381298456
 31
0.0
  0
LINE
  5
250D
330
18
100
AcDbEntity
  8
NORMALI
100
AcDbLine
 10
-31.98932060804322
 20
569.8911381298455
 30
0.0
 11
-28.49266843413165
 21
569.8911381298455
 31
0.0
  0
LINE
  5
250E
330
18
100
AcDbEntity
  8
NORMALI
100
AcDbLine
 10
-31.98932060804322
 20
569.8911381298455
 30
0.0
 11
-34.98946178451473
 21
566.8911381298455
 31
0.0
  0
LINE
  5
2516
330
18
100
AcDbEntity
  8
NORMALI
100
AcDbLine
 10
-8.240320608043418
 20
549.6411381298456
 30
0.0
 11
-28.49266843413165
 21
569.8911381298455
 31
0.0
  0
LINE
  5
2517
330
18
100
AcDbEntity
  8
NORMALI
100
AcDbLine
 10
-15.98932060804321
 20
534.9811381298457
 30
0.0
 11
-22.36432060804322
 21
528.6111381298458
 31
0.0
  0
ARC
  5
2518
330
18
100
AcDbEntity
  8
NORMALI
100
AcDbCircle
 10
-6.749320608045252
 20
523.4011381298457
 30
0.0
 40
14.722
100
AcDbArc
 50
127.7919999999836
 51
154.4890000000388
  0
LINE
  5
2519
330
18
100
AcDbEntity
  8
NORMALI
100
AcDbLine
 10
-20.0323206080447
 20
529.7411381298458
 30
0.0
 11
-16.99132060804362
 21
526.7011381298459
 31
0.0
  0
ARC
  5
251A
330
18
100
AcDbEntity
  8
NORMALI
100
AcDbCircle
 10
-20.93432060804293
 20
527.1811381298464
 30
0.0
 40
3.978
100
AcDbArc
 50
277.0202999999916
 51
353.0046599999973
  0
LINE
  5
251B
330
18
100
AcDbEntity
  8
NORMALI
100
AcDbLine
 10
-8.240320608043418
 20
544.1411381298455
 30
0.0
 11
-28.49232060804382
 21
523.8911381298455
 31
0.0
  0
ARC
  5
2520
330
18
100
AcDbEntity
  8
NORMALI
100
AcDbCircle
 10
-68.42432060804452
 20
546.8911381298455
 30
0.0
 40
7.0
100
AcDbArc
 50
315.0000999999789
 51
44.99999999999078
  0
LINE
  5
2523
330
18
100
AcDbEntity
  8
NORMALI
100
AcDbLine
 10
-66.02532060804327
 20
539.3911381298456
 30
0.0
 11
-66.02532060804327
 21
554.3911381298455
 31
0.0
  0
LINE
  5
2525
330
18
100
AcDbEntity
  8
NORMALI
100
AcDbLine
 10
-83.52469796653343
 20
550.8911381298455
 30
0.0
 11
-83.52469796653343
 21
553.1411381298455
 31
0.0
  0
LINE
  5
2526
330
18
100
AcDbEntity
  8
NORMALI
100
AcDbLine
 10
-78.82467280923987
 20
550.8911381298455
 30
0.0
 11
-83.52469796653343
 21
550.8911381298455
 31
0.0
  0
LINE
  5
2527
330
18
100
AcDbEntity
  8
NORMALI
100
AcDbLine
 10
-78.82472312370549
 20
542.8911381298455
 30
0.0
 11
-83.52469796653343
 21
542.8911381298455
 31
0.0
  0
LINE
  5
2528
330
18
100
AcDbEntity
  8
NORMALI
100
AcDbLine
 10
-83.52469796653343
 20
540.6411381298455
 30
0.0
 11
-83.52469796653343
 21
542.8911381298455
 31
0.0
  0
LINE
  5
252A
330
18
100
AcDbEntity
  8
NORMALI
100
AcDbLine
 10
-76.55582057268651
 20
528.8606381652041
 30
0.0
 11
-76.02532060804509
 21
529.3911381298446
 31
0.0
  0
LINE
  5
252B
330
18
100
AcDbEntity
  8
NORMALI
100
AcDbLine
 10
-76.55632060804231
 20
528.8611381298458
 30
0.0
 11
-76.55632060804231
 21
526.8911381298456
 31
0.0
  0
LINE
  5
252E
330
18
100
AcDbEntity
  8
NORMALI
100
AcDbLine
 10
-76.02532060804509
 20
529.3911381298446
 30
0.0
 11
-66.02532060804327
 21
539.3911381298464
 31
0.0
  0
LINE
  5
252F
330
18
100
AcDbEntity
  8
NORMALI
100
AcDbLine
 10
-78.82472312370186
 20
542.8911381298455
 30
0.0
 11
-78.82467280923987
 21
550.8911381298455
 31
0.0
  0
LINE
  5
2532
330
18
100
AcDbEntity
  8
NORMALI
100
AcDbLine
 10
-66.02532060804327
 20
539.3911381298464
 30
0.0
 11
-63.42532565880714
 21
541.9911330790825
 31
0.0
  0
LINE
  5
2533
330
18
100
AcDbEntity
  8
DISEGNO
100
AcDbLine
 10
-82.02469796653344
 20
540.6410381298463
 30
0.0
 11
-82.02469796653344
 21
536.8910381298462
 31
0.0
  0
LINE
  5
2534
330
18
100
AcDbEntity
  8
NORMALI
100
AcDbLine
 10
-80.32469796653634
 20
542.8911381298455
 30
0.0
 11
-80.32469796653634
 21
550.8911381298455
 31
0.0
  0
LINE
  5
2535
330
18
100
AcDbEntity
  8
NORMALI
100
AcDbLine
 10
-82.02480802942767
 20
529.3911381298455
 30
0.0
 11
-76.02532060804327
 21
529.3911381298455
 31
0.0
  0
LINE
  5
2536
330
18
100
AcDbEntity
  8
NORMALI
100
AcDbLine
 10
-71.96032060804459
 20
524.2711381298465
 30
0.0
 11
-75.14232060804528
 21
521.081138129846
 31
0.0
  0
LINE
  5
2537
330
18
100
AcDbEntity
  8
NORMALI
100
AcDbLine
 10
-75.14232060804528
 20
572.7011381298459
 30
0.0
 11
-62.24932060804525
 21
585.5972208587852
 31
0.0
  0
LINE
  5
2538
330
18
100
AcDbEntity
  8
NORMALI
100
AcDbLine
 10
-74.58683699074203
 20
566.8911381298455
 30
0.0
 11
-61.30032060804473
 21
580.1811381298464
 31
0.0
  0
LINE
  5
253A
330
18
100
AcDbEntity
  8
NORMALI
100
AcDbLine
 10
-62.24932060804525
 20
596.8911381298455
 30
0.0
 11
-62.24932060804525
 21
583.8911381298455
 31
0.0
  0
LINE
  5
253B
330
18
100
AcDbEntity
  8
NORMALI
100
AcDbLine
 10
-63.4253256588035
 20
551.7911431806076
 30
0.0
 11
-66.02532060804418
 21
554.3911381298474
 31
0.0
  0
LINE
  5
253F
330
18
100
AcDbEntity
  8
NORMALI
100
AcDbLine
 10
-76.02532060804327
 20
564.3911381298464
 30
0.0
 11
-76.55582067358221
 21
564.9216381953854
 31
0.0
  0
LINE
  5
2540
330
18
100
AcDbEntity
  8
NORMALI
100
AcDbLine
 10
-66.02532060804418
 20
554.3911381298474
 30
0.0
 11
-76.02532060804327
 21
564.3911381298464
 31
0.0
  0
LINE
  5
2541
330
18
100
AcDbEntity
  8
NORMALI
100
AcDbLine
 10
-76.55632060804231
 20
564.9211381298462
 30
0.0
 11
-76.55632060804231
 21
566.8911381298455
 31
0.0
  0
LINE
  5
2543
330
18
100
AcDbEntity
  8
NORMALI
100
AcDbLine
 10
-71.96032060804459
 20
569.5211381298466
 30
0.0
 11
-75.14232060804528
 21
572.7011381298459
 31
0.0
  0
LINE
  5
2544
330
18
100
AcDbEntity
  8
DISEGNO
100
AcDbLine
 10
-82.02469796653344
 20
588.8911381298437
 30
0.0
 11
-82.02469796653344
 21
553.1410381298463
 31
0.0
  0
ARC
  5
2545
330
18
100
AcDbEntity
  8
DISEGNO
100
AcDbCircle
 10
-83.0246979665298
 20
588.8911381298437
 30
0.0
 40
1.0
100
AcDbArc
 50
0.0
 51
90.0
  0
LINE
  5
2546
330
18
100
AcDbEntity
  8
DISEGNO
100
AcDbLine
 10
-82.02469796653344
 20
556.8910381298462
 30
0.0
 11
-82.02469796653344
 21
553.1410381298463
 31
0.0
  0
LINE
  5
2547
330
18
100
AcDbEntity
  8
NORMALI
100
AcDbLine
 10
-82.02480802942767
 20
564.3911381298456
 30
0.0
 11
-76.02532060804327
 21
564.3911381298456
 31
0.0
  0
LINE
  5
2548
330
18
100
AcDbEntity
  8
DISEGNO
100
AcDbLine
 10
-72.2373206080428
 20
609.8910381298471
 30
0.0
 11
-72.2373206080428
 21
596.8911381298455
 31
0.0
1001
ACAD
1000
ASC_BOUNDS
1002
{
1070
    19
1002
}
  0
LINE
  5
254B
330
18
100
AcDbEntity
  8
DISEGNO
100
AcDbLine
 10
-2.237320608042807
 20
596.8911381298482
 30
0.0
 11
-72.2373206080428
 21
596.8911381298482
 31
0.0
  0
LINE
  5
254C
330
18
100
AcDbEntity
  8
NORMALI
100
AcDbLine
 10
-25.49232060804383
 20
526.8911381298456
 30
0.0
 11
-76.55632060804231
 21
526.8911381298456
 31
0.0
  0
LINE
  5
254D
330
18
100
AcDbEntity
  8
NORMALI
100
AcDbLine
 10
-25.49232060804383
 20
566.8911381298455
 30
0.0
 11
-76.55632060804231
 21
566.8911381298455
 31
0.0
  0
LINE
  5
2551
330
18
100
AcDbEntity
  8
NORMALI
100
AcDbLine
 10
-62.24932060804525
 20
583.8911381298455
 30
0.0
 11
-57.90455465059671
 21
566.8911381298455
 31
0.0
  0
LINE
  5
2554
330
18
100
AcDbEntity
  8
DISEGNO
100
AcDbLine
 10
2.9753020334702
 20
634.8910381298463
 30
0.0
 11
2.9753020334702
 21
609.8910381298471
 31
0.0
  0
LINE
  5
26DF
330
18
100
AcDbEntity
  8
DISEGNO
100
AcDbLine
 10
-310.7746979665298
 20
426.8906381298454
 30
0.0
 11
-306.7746979665298
 21
426.8906381298454
 31
0.0
  0
LINE
  5
26E0
330
18
100
AcDbEntity
  8
DISEGNO
100
AcDbLine
 10
-133.2746979665334
 20
426.8906381298454
 30
0.0
 11
-137.2746979665334
 21
426.8906381298454
 31
0.0
  0
LINE
  5
2700
330
18
100
AcDbEntity
  8
ASSI
100
AcDbLine
 10
-373.239798245123
 20
437.8906381298472
 30
0.0
 11
-330.9061967224579
 21
437.8906381298472
 31
0.0
  0
LINE
  5
2701
330
18
100
AcDbEntity
  8
ASSI
100
AcDbLine
 10
-342.0246979665316
 20
561.7590362190567
 30
0.0
 11
-342.0246979665316
 21
604.9398586425859
 31
0.0
  0
LINE
  5
2703
330
18
100
AcDbEntity
  8
ASSI
100
AcDbLine
 10
-102.0246979665316
 20
561.7590362190567
 30
0.0
 11
-102.0246979665316
 21
604.9398586425859
 31
0.0
  0
LINE
  5
2704
330
18
100
AcDbEntity
  8
ASSI
100
AcDbLine
 10
-317.0246979665298
 20
452.5015328849876
 30
0.0
 11
-317.0246979665298
 21
410.0345792362313
 31
0.0
  0
LINE
  5
2705
330
18
100
AcDbEntity
  8
ASSI
100
AcDbLine
 10
-127.0246979665334
 20
452.5015328849876
 30
0.0
 11
-127.0246979665334
 21
410.0345792362313
 31
0.0
  0
LINE
  5
2706
330
18
100
AcDbEntity
  8
ASSI
100
AcDbLine
 10
293.6919707532151
 20
546.8923705127804
 30
0.0
 11
1435.459568080407
 21
546.8923705127808
 31
0.0
  0
LINE
  5
2707
330
18
100
AcDbEntity
  8
ASSI
100
AcDbLine
 10
1255.385295577243
 20
540.8906381298449
 30
0.0
 11
1452.105488331423
 21
540.8906381298449
 31
0.0
  0
LINE
  5
2737
330
18
100
AcDbEntity
  8
ASSI
100
AcDbLine
 10
-110.7841530420501
 20
437.8906381298472
 30
0.0
 11
-72.21413000016673
 21
437.8906381298472
 31
0.0
  0
LINE
  5
2742
330
18
100
AcDbEntity
  8
ASSI
100
AcDbLine
 10
2088.219837813088
 20
546.6800382796919
 30
0.0
 11
1618.113623920432
 21
546.6800382796919
 31
0.0
  0
LINE
  5
2A74
330
18
100
AcDbEntity
  8
ASSI
100
AcDbLine
 10
607.840514998265
 20
-209.0662289691245
 30
0.0
 11
607.840514998265
 21
-160.7217710308759
 31
0.0
  0
LINE
  5
2A7A
330
18
100
AcDbEntity
  8
ASSI
100
AcDbLine
 10
487.840514998265
 20
-209.0662289691245
 30
0.0
 11
487.840514998265
 21
-160.7217710308759
 31
0.0
1001
ACAD
1000
ASC_BOUNDS
1002
{
1070
    19
1002
}
  0
LINE
  5
2A82
330
18
100
AcDbEntity
  8
ASSI
100
AcDbLine
 10
475.9975671611759
 20
-184.8940000000002
 30
0.0
 11
619.6991338848242
 21
-184.8940000000002
 31
0.0
  0
LINE
  5
2A85
330
18
100
AcDbEntity
  8
ASSI
100
AcDbLine
 10
478.6682860291407
 20
-199.8940000000002
 30
0.0
 11
497.0127439673892
 21
-199.8940000000002
 31
0.0
  0
LINE
  5
2A97
330
18
100
AcDbEntity
  8
ASSI
100
AcDbLine
 10
617.0127439673892
 20
-199.8940000000002
 30
0.0
 11
598.6682860291407
 21
-199.8940000000002
 31
0.0
  0
LINE
  5
2A9F
330
18
100
AcDbEntity
  8
DISEGNO
100
AcDbLine
 10
477.8405149982659
 20
26.39400000000023
 30
0.0
 11
477.8405149982659
 21
-34.62212250445373
 31
0.0
  0
LINE
  5
2AA1
330
18
100
AcDbEntity
  8
DISEGNO
100
AcDbLine
 10
497.8405149982659
 20
-46.10600000000022
 30
0.0
 11
497.8405149982668
 21
45.89399999999932
 31
0.0
  0
LINE
  5
2AA2
330
18
100
AcDbEntity
  8
DISEGNO
100
AcDbLine
 10
477.8405149982659
 20
48.89400000000023
 30
0.0
 11
477.8405149982659
 21
-49.10599999999977
 31
0.0
  0
LINE
  5
2AA3
330
18
100
AcDbEntity
  8
ASSI
100
AcDbLine
 10
478.6682860291407
 20
-169.8940000000002
 30
0.0
 11
497.0127439673892
 21
-169.8940000000002
 31
0.0
  0
LINE
  5
2AA9
330
18
100
AcDbEntity
  8
DISEGNO
100
AcDbLine
 10
477.840514998265
 20
-50.10599999999977
 30
0.0
 11
493.8405149982659
 21
-50.10600000000022
 31
0.0
  0
LINE
  5
2AB3
330
18
100
AcDbEntity
  8
ASSI
100
AcDbLine
 10
528.6045971918715
 20
-41.60599999999976
 30
0.0
 11
474.06300987026
 21
-41.60599999999976
 31
0.0
  0
ARC
  5
2ACB
330
18
100
AcDbEntity
  8
DISEGNO
100
AcDbCircle
 10
493.8405149982659
 20
-46.10600000000022
 30
0.0
 40
4.0
100
AcDbArc
 50
270.0
 51
0.0
  0
LINE
  5
2B53
330
18
100
AcDbEntity
  8
DISEGNO
100
AcDbLine
 10
477.8405149982659
 20
49.89400000000023
 30
0.0
 11
493.8405149982668
 21
49.89399999999932
 31
0.0
  0
LINE
  5
2B5C
330
18
100
AcDbEntity
  8
ASSI
100
AcDbLine
 10
528.6045971918715
 20
41.39400000000023
 30
0.0
 11
474.06300987026
 21
41.39400000000023
 31
0.0
  0
ARC
  5
2B68
330
18
100
AcDbEntity
  8
DISEGNO
100
AcDbCircle
 10
493.8405149982668
 20
45.89399999999932
 30
0.0
 40
4.0
100
AcDbArc
 50
0.0
 51
90.0
  0
LINE
  5
2B6C
330
18
100
AcDbEntity
  8
ASSI
100
AcDbLine
 10
575.0378359025794
 20
-38.12519537800108
 30
0.0
 11
575.0378359025794
 21
-22.08680462202028
 31
0.0
  0
LINE
  5
2B78
330
18
100
AcDbEntity
  8
ASSI
100
AcDbLine
 10
617.0127439673892
 20
-169.8940000000002
 30
0.0
 11
598.6682860291407
 21
-169.8940000000002
 31
0.0
  0
LINE
  5
2B80
330
18
100
AcDbEntity
  8
ASSI
100
AcDbLine
 10
575.0378359025794
 20
37.91319537797972
 30
0.0
 11
575.0378359025794
 21
21.87480462199892
 31
0.0
  0
LINE
  5
2B85
330
18
100
AcDbEntity
  8
ASSI
100
AcDbLine
 10
583.0570312805698
 20
29.89399999998932
 30
0.0
 11
567.018640524589
 21
29.89399999998932
 31
0.0
  0
LINE
  5
2B87
330
18
100
AcDbEntity
  8
ASSI
100
AcDbLine
 10
583.0570312805698
 20
-30.10600000001068
 30
0.0
 11
567.018640524589
 21
-30.10600000001068
 31
0.0
  0
LINE
  5
2B94
330
18
100
AcDbEntity
  8
ASSI
100
AcDbLine
 10
475.9975671611759
 20
184.6820000000007
 30
0.0
 11
619.6991338848242
 21
184.6820000000007
 31
0.0
  0
LINE
  5
2B9C
330
18
100
AcDbEntity
  8
ASSI
100
AcDbLine
 10
487.840514998265
 20
208.8542289691249
 30
0.0
 11
487.840514998265
 21
160.5097710308764
 31
0.0
1001
ACAD
1000
ASC_BOUNDS
1002
{
1070
    19
1002
}
  0
LINE
  5
2B9D
330
18
100
AcDbEntity
  8
ASSI
100
AcDbLine
 10
478.6682860291407
 20
169.6820000000007
 30
0.0
 11
497.0127439673892
 21
169.6820000000007
 31
0.0
  0
LINE
  5
2BA3
330
18
100
AcDbEntity
  8
ASSI
100
AcDbLine
 10
478.6682860291407
 20
199.6820000000007
 30
0.0
 11
497.0127439673892
 21
199.6820000000007
 31
0.0
  0
LINE
  5
2BAE
330
18
100
AcDbEntity
  8
ASSI
100
AcDbLine
 10
607.840514998265
 20
208.8542289691249
 30
0.0
 11
607.840514998265
 21
160.5097710308764
 31
0.0
  0
LINE
  5
2BBA
330
18
100
AcDbEntity
  8
ASSI
100
AcDbLine
 10
617.0127439673892
 20
169.6820000000007
 30
0.0
 11
598.6682860291407
 21
169.6820000000007
 31
0.0
  0
LINE
  5
2BC2
330
18
100
AcDbEntity
  8
ASSI
100
AcDbLine
 10
617.0127439673892
 20
199.6820000000007
 30
0.0
 11
598.6682860291407
 21
199.6820000000007
 31
0.0
  0
LINE
  5
2E0B
330
18
100
AcDbEntity
  8
ASSI
100
AcDbLine
 10
532.5143462380024
 20
41.39400000000023
 30
0.0
 11
476.0485751269857
 21
41.39400000000023
 31
0.0
  0
LINE
  5
2E0C
330
18
100
AcDbEntity
  8
ASSI
100
AcDbLine
 10
512.1505081920887
 20
26.39400000000069
 30
0.0
 11
476.3485751269866
 21
26.39400000000046
 31
0.0
  0
LINE
  5
2E65
330
18
100
AcDbEntity
  8
ASSI
100
AcDbLine
 10
512.1505081920887
 20
-26.60599999999931
 30
0.0
 11
476.3485751269866
 21
-26.60599999999954
 31
0.0
  0
LINE
  5
2E96
330
18
100
AcDbEntity
  8
ASSI
100
AcDbLine
 10
528.6045971918706
 20
-41.60599999999988
 30
0.0
 11
474.0630098702591
 21
-41.60599999999988
 31
0.0
  0
LINE
  5
2E99
330
18
100
AcDbEntity
  8
ASSI
100
AcDbLine
 10
532.5143462380016
 20
-41.60599999999988
 30
0.0
 11
476.0485751269849
 21
-41.60599999999988
 31
0.0
  0
LINE
  5
2EA2
330
18
100
AcDbEntity
  8
ASSI
100
AcDbLine
 10
988.6682860291434
 20
199.6820000000007
 30
0.0
 11
1007.012743967392
 21
199.6820000000007
 31
0.0
  0
LINE
  5
2EA3
330
18
100
AcDbEntity
  8
ASSI
100
AcDbLine
 10
988.6682860291434
 20
169.6820000000007
 30
0.0
 11
1007.012743967392
 21
169.6820000000007
 31
0.0
  0
LINE
  5
2EA4
330
18
100
AcDbEntity
  8
ASSI
100
AcDbLine
 10
1129.683462835356
 20
184.6820000000007
 30
0.0
 11
985.9818961117085
 21
184.6820000000007
 31
0.0
  0
LINE
  5
2EA5
330
18
100
AcDbEntity
  8
ASSI
100
AcDbLine
 10
1127.012743967392
 20
169.6820000000007
 30
0.0
 11
1108.668286029143
 21
169.6820000000007
 31
0.0
  0
LINE
  5
2EA6
330
18
100
AcDbEntity
  8
ASSI
100
AcDbLine
 10
1127.012743967392
 20
199.6820000000007
 30
0.0
 11
1108.668286029143
 21
199.6820000000007
 31
0.0
  0
LINE
  5
2EA7
330
18
100
AcDbEntity
  8
ASSI
100
AcDbLine
 10
1117.840514998268
 20
208.8542289691249
 30
0.0
 11
1117.840514998268
 21
160.5097710308764
 31
0.0
1001
ACAD
1000
ASC_BOUNDS
1002
{
1070
    19
1002
}
  0
LINE
  5
2EA8
330
18
100
AcDbEntity
  8
ASSI
100
AcDbLine
 10
997.8405149982677
 20
208.8542289691249
 30
0.0
 11
997.8405149982677
 21
160.5097710308764
 31
0.0
  0
LINE
  5
2EA9
330
18
100
AcDbEntity
  8
DISEGNO
100
AcDbLine
 10
1127.840514998267
 20
26.39400000000023
 30
0.0
 11
1127.840514998267
 21
-34.62212250445373
 31
0.0
  0
LINE
  5
2EAB
330
18
100
AcDbEntity
  8
DISEGNO
100
AcDbLine
 10
1107.840514998267
 20
-46.10600000000022
 30
0.0
 11
1107.840514998266
 21
45.89399999999932
 31
0.0
  0
LINE
  5
2EAC
330
18
100
AcDbEntity
  8
DISEGNO
100
AcDbLine
 10
1127.840514998267
 20
48.89400000000023
 30
0.0
 11
1127.840514998267
 21
-49.10599999999977
 31
0.0
  0
LINE
  5
2EAF
330
18
100
AcDbEntity
  8
ASSI
100
AcDbLine
 10
65.34983576454123
 20
-0.122122504442018
 30
0.0
 11
1496.479597564287
 21
-0.122122504442018
 31
0.0
  0
LINE
  5
2EB3
330
18
100
AcDbEntity
  8
ASSI
100
AcDbLine
 10
1077.076432804661
 20
-41.60599999999976
 30
0.0
 11
1131.618020126273
 21
-41.60599999999976
 31
0.0
  0
LINE
  5
2EB4
330
18
100
AcDbEntity
  8
ASSI
100
AcDbLine
 10
1077.076432804662
 20
-41.60599999999988
 30
0.0
 11
1131.618020126273
 21
-41.60599999999988
 31
0.0
  0
LINE
  5
2EB7
330
18
100
AcDbEntity
  8
ASSI
100
AcDbLine
 10
1073.166683758531
 20
-41.60599999999988
 30
0.0
 11
1129.632454869548
 21
-41.60599999999988
 31
0.0
  0
LINE
  5
2EC3
330
18
100
AcDbEntity
  8
ASSI
100
AcDbLine
 10
1093.530521804444
 20
-26.60599999999931
 30
0.0
 11
1129.332454869546
 21
-26.60599999999954
 31
0.0
  0
LINE
  5
2EF1
330
18
100
AcDbEntity
  8
ASSI
100
AcDbLine
 10
1022.623998715963
 20
-30.10600000001068
 30
0.0
 11
1038.662389471944
 21
-30.10600000001068
 31
0.0
  0
LINE
  5
2EF2
330
18
100
AcDbEntity
  8
ASSI
100
AcDbLine
 10
1030.643194093953
 20
-38.12519537800108
 30
0.0
 11
1030.643194093953
 21
-22.08680462202028
 31
0.0
  0
LINE
  5
2EF9
330
18
100
AcDbEntity
  8
ASSI
100
AcDbLine
 10
1077.076432804661
 20
41.39400000000023
 30
0.0
 11
1131.618020126273
 21
41.39400000000023
 31
0.0
  0
LINE
  5
2EFC
330
18
100
AcDbEntity
  8
ASSI
100
AcDbLine
 10
1073.16668375853
 20
41.39400000000023
 30
0.0
 11
1129.632454869547
 21
41.39400000000023
 31
0.0
  0
LINE
  5
2F01
330
18
100
AcDbEntity
  8
ASSI
100
AcDbLine
 10
1093.530521804444
 20
26.39400000000069
 30
0.0
 11
1129.332454869546
 21
26.39400000000046
 31
0.0
  0
LINE
  5
2F2C
330
18
100
AcDbEntity
  8
ASSI
100
AcDbLine
 10
1030.643194093953
 20
37.91319537797972
 30
0.0
 11
1030.643194093953
 21
21.87480462199892
 31
0.0
  0
LINE
  5
2F2D
330
18
100
AcDbEntity
  8
ASSI
100
AcDbLine
 10
1022.623998715963
 20
29.89399999998932
 30
0.0
 11
1038.662389471944
 21
29.89399999998932
 31
0.0
  0
LINE
  5
2F2E
330
18
100
AcDbEntity
  8
ASSI
100
AcDbLine
 10
997.8405149982677
 20
-209.0662289691245
 30
0.0
 11
997.8405149982677
 21
-160.7217710308759
 31
0.0
  0
LINE
  5
2F2F
330
18
100
AcDbEntity
  8
ASSI
100
AcDbLine
 10
1117.840514998268
 20
-209.0662289691245
 30
0.0
 11
1117.840514998268
 21
-160.7217710308759
 31
0.0
1001
ACAD
1000
ASC_BOUNDS
1002
{
1070
    19
1002
}
  0
LINE
  5
2F30
330
18
100
AcDbEntity
  8
ASSI
100
AcDbLine
 10
988.6682860291434
 20
-199.8940000000002
 30
0.0
 11
1007.012743967392
 21
-199.8940000000002
 31
0.0
  0
LINE
  5
2F31
330
18
100
AcDbEntity
  8
ASSI
100
AcDbLine
 10
1127.012743967392
 20
-199.8940000000002
 30
0.0
 11
1108.668286029143
 21
-199.8940000000002
 31
0.0
  0
LINE
  5
2F32
330
18
100
AcDbEntity
  8
ASSI
100
AcDbLine
 10
988.6682860291434
 20
-169.8940000000002
 30
0.0
 11
1007.012743967392
 21
-169.8940000000002
 31
0.0
  0
LINE
  5
2F33
330
18
100
AcDbEntity
  8
ASSI
100
AcDbLine
 10
1129.683462835356
 20
-184.8940000000002
 30
0.0
 11
985.9818961117085
 21
-184.8940000000002
 31
0.0
  0
LINE
  5
2F34
330
18
100
AcDbEntity
  8
ASSI
100
AcDbLine
 10
1127.012743967392
 20
-169.8940000000002
 30
0.0
 11
1108.668286029143
 21
-169.8940000000002
 31
0.0
  0
LINE
  5
2F48
330
18
100
AcDbEntity
  8
DISEGNO
100
AcDbLine
 10
555.9779123095252
 20
589.8910381298362
 30
0.0
 11
539.6940370999102
 21
589.8910381298362
 31
0.0
  0
LINE
  5
2F49
330
18
100
AcDbEntity
  8
DISEGNO
100
AcDbLine
 10
1065.986992896622
 20
589.8910381298352
 30
0.0
 11
1049.703117687015
 21
589.8910381298352
 31
0.0
  0
LINE
  5
2FD0
330
18
100
AcDbEntity
  8
9180143-Complessivo di montaggio.iam.1-Spigoli visibili
  6
Continuous
 62
     7
 48
0.0
370
    30
100
AcDbLine
 10
105.0375539320214
 20
594.8906381298456
 30
0.0
 11
105.0375539320214
 21
486.8906381298456
 31
0.0
  0
LINE
  5
2FD1
330
18
100
AcDbEntity
  8
ASSI
100
AcDbLine
 10
117.0375539320214
 20
476.6810870292387
 30
0.0
 11
117.0375539320214
 21
499.7212966392612
 31
0.0
  0
LINE
  5
2FD2
330
18
100
AcDbEntity
  8
ASSI
100
AcDbLine
 10
192.0375539320214
 20
477.6263872708893
 30
0.0
 11
192.0375539320214
 21
597.9601129552008
 31
0.0
  0
LINE
  5
2FD3
330
18
100
AcDbEntity
  8
9180143-Complessivo di montaggio.iam.1-Spigoli visibili
  6
Continuous
 62
     7
 48
0.0
370
    30
100
AcDbLine
 10
115.0375539320214
 20
476.8906381298457
 30
0.0
 11
283.0375539320214
 21
476.8906381298457
 31
0.0
  0
ARC
  5
2FD4
330
18
100
AcDbEntity
  8
9180143-Complessivo di montaggio.iam.1-Spigoli visibili
  6
Continuous
 62
     7
 48
0.0
370
    30
100
AcDbCircle
 10
115.0375539320213
 20
486.8906381298456
 30
0.0
 40
9.999999999999996
100
AcDbArc
 50
180.0
 51
270.0
  0
LINE
  5
2FD5
330
18
100
AcDbEntity
  8
ASSI
100
AcDbLine
 10
127.491006788809
 20
488.8906381298447
 30
0.0
 11
106.3427483374394
 21
488.8906381298447
 31
0.0
  0
LINE
  5
2FD6
330
18
100
AcDbEntity
  8
9180143-Complessivo di montaggio.iam.1-Spigoli visibili
  6
Continuous
 62
     7
 48
0.0
370
    30
100
AcDbLine
 10
283.0375539320214
 20
604.8906381298457
 30
0.0
 11
115.0375539320214
 21
604.8906381298457
 31
0.0
  0
CIRCLE
  5
2FD7
330
18
100
AcDbEntity
  8
DISEGNO
100
AcDbCircle
 10
192.0375539320214
 20
540.8906381298445
 30
0.0
 40
35.0
  0
CIRCLE
  5
2FD8
330
18
100
AcDbEntity
  8
NORMALI
100
AcDbCircle
 10
192.0375539320214
 20
540.8906381298445
 30
0.0
 40
12.5
  0
LINE
  5
2FD9
330
18
100
AcDbEntity
  8
ASSI
100
AcDbLine
 10
253.3163491074131
 20
540.8906381298445
 30
0.0
 11
131.129840401077
 21
540.8906381298445
 31
0.0
  0
ARC
  5
2FDA
330
18
100
AcDbEntity
  8
9180143-Complessivo di montaggio.iam.1-Spigoli visibili
  6
Continuous
 62
     7
 48
0.0
370
    30
100
AcDbCircle
 10
115.0375539320214
 20
594.8906381298456
 30
0.0
 40
10.0
100
AcDbArc
 50
90.0
 51
180.0
  0
LINE
  5
2FDB
330
18
100
AcDbEntity
  8
ASSI
100
AcDbLine
 10
117.0375539320214
 20
580.6810870292387
 30
0.0
 11
117.0375539320214
 21
603.7212966392612
 31
0.0
  0
LINE
  5
2FDC
330
18
100
AcDbEntity
  8
ASSI
100
AcDbLine
 10
127.491006788809
 20
592.8906381298447
 30
0.0
 11
106.3427483374394
 21
592.8906381298447
 31
0.0
  0
LINE
  5
2FDD
330
18
100
AcDbEntity
  8
ASSI
100
AcDbLine
 10
267.0375539320214
 20
498.6810870292388
 30
0.0
 11
267.0375539320214
 21
521.7212966392613
 31
0.0
  0
LINE
  5
2FDE
330
18
100
AcDbEntity
  8
ASSI
100
AcDbLine
 10
277.491006788809
 20
510.8906381298445
 30
0.0
 11
256.3427483374394
 21
510.8906381298445
 31
0.0
  0
LINE
  5
2FDF
330
18
100
AcDbEntity
  8
9180143-Complessivo di montaggio.iam.1-Spigoli visibili
  6
Continuous
 62
     7
 48
0.0
370
    30
100
AcDbLine
 10
283.0375539320214
 20
580.8906381298429
 30
0.0
 11
283.0375539320214
 21
601.8906381298448
 31
0.0
  0
LINE
  5
2FE0
330
18
100
AcDbEntity
  8
DISEGNO
100
AcDbLine
 10
283.0375539320214
 20
595.8906381298445
 30
0.0
 11
283.0375539320214
 21
585.2406381298449
 31
0.0
  0
LINE
  5
2FE1
330
18
100
AcDbEntity
  8
ASSI
100
AcDbLine
 10
267.0375539320214
 20
558.6810870292388
 30
0.0
 11
267.0375539320214
 21
581.7212966392612
 31
0.0
  0
LINE
  5
2FE2
330
18
100
AcDbEntity
  8
ASSI
100
AcDbLine
 10
277.491006788809
 20
570.8906381298445
 30
0.0
 11
256.3427483374394
 21
570.8906381298445
 31
0.0
  0
LINE
  5
2FE3
330
18
100
AcDbEntity
  8
9180143-Complessivo di montaggio.iam.1-Spigoli visibili
  6
Continuous
 62
     7
 48
0.0
370
    30
100
AcDbLine
 10
283.0375539320214
 20
580.8906381298429
 30
0.0
 11
283.0375539320214
 21
575.890638129842
 31
0.0
  0
LINE
  5
2FE4
330
18
100
AcDbEntity
  8
9180143-Complessivo di montaggio.iam.1-Spigoli visibili
  6
Continuous
 62
     7
 48
0.0
370
    30
100
AcDbLine
 10
283.0375539320214
 20
573.8906381298356
 30
0.0
 11
283.0375539320214
 21
575.8906381298365
 31
0.0
  0
LINE
  5
2FE5
330
18
100
AcDbEntity
  8
DISEGNO
100
AcDbLine
 10
105.2231947542411
 20
-0.1221225044419043
 30
0.0
 11
105.2231947542411
 21
-54.6221225044419
 31
0.0
  0
LINE
  5
2FE6
330
18
100
AcDbEntity
  8
DISEGNO
100
AcDbLine
 10
283.2231947542407
 20
-0.1221225044419043
 30
0.0
 11
283.2231947542407
 21
-54.6221225044419
 31
0.0
  0
LINE
  5
2FE9
330
18
100
AcDbEntity
  8
DISEGNO
100
AcDbLine
 10
115.2231947542402
 20
-54.6221225044419
 30
0.0
 11
283.2231947542407
 21
-54.6221225044419
 31
0.0
  0
LINE
  5
2FEA
330
18
100
AcDbEntity
  8
DISEGNO
100
AcDbLine
 10
115.2231947542402
 20
-72.6221225044419
 30
0.0
 11
283.2231947542407
 21
-72.6221225044419
 31
0.0
  0
LINE
  5
2FEB
330
18
100
AcDbEntity
  8
DISEGNO
100
AcDbLine
 10
115.2231947542411
 20
-54.6221225044419
 30
0.0
 11
283.2231947542407
 21
-54.6221225044419
 31
0.0
  0
LINE
  5
2FEC
330
18
100
AcDbEntity
  8
DISEGNO
100
AcDbLine
 10
105.2231947542402
 20
-54.6221225044419
 30
0.0
 11
105.2231947542402
 21
-69.6221225044419
 31
0.0
  0
ARC
  5
2FED
330
18
100
AcDbEntity
  8
DISEGNO
100
AcDbCircle
 10
108.2231947542402
 20
-69.6221225044419
 30
0.0
 40
2.999999999999999
100
AcDbArc
 50
180.0
 51
270.0
  0
LINE
  5
2FEE
330
18
100
AcDbEntity
  8
DISEGNO
100
AcDbLine
 10
115.2231947542402
 20
-72.6221225044419
 30
0.0
 11
108.2231947542402
 21
-72.6221225044419
 31
0.0
  0
LINE
  5
2FEF
330
18
100
AcDbEntity
  8
DISEGNO
100
AcDbLine
 10
105.2231947542402
 20
-54.6221225044419
 30
0.0
 11
115.2231947542402
 21
-54.6221225044419
 31
0.0
  0
LINE
  5
2FF0
330
18
100
AcDbEntity
  8
DISEGNO
100
AcDbLine
 10
115.2231947542402
 20
-54.6221225044419
 30
0.0
 11
105.2231947542411
 21
-54.6221225044419
 31
0.0
  0
LINE
  5
2FF2
330
18
100
AcDbEntity
  8
4360018_C-TLM TCR_S 220_280 ø32 ø25.iam.1-Spigoli visibili
  6
Continuous
 62
     7
 48
0.0
370
    30
100
AcDbLine
 10
283.2231947542407
 20
-54.6221225044419
 30
0.0
 11
283.2231947542407
 21
-69.6221225044419
 31
0.0
  0
LINE
  5
2FF3
330
18
100
AcDbEntity
  8
4360018_C-TLM TCR_S 220_280 ø32 ø25.iam.1-Spigoli visibili
  6
Continuous
 62
     7
 48
0.0
370
    30
100
AcDbLine
 10
283.2231947542407
 20
-69.6221225044419
 30
0.0
 11
283.2231947542407
 21
-72.6221225044419
 31
0.0
  0
LINE
  5
2FF7
330
18
100
AcDbEntity
  8
4360018_C-TLM TCR_S 220_280 ø32 ø25.iam.1-Spigoli visibili
  6
Continuous
 62
     7
 48
0.0
370
    30
100
AcDbLine
 10
159.9741637610466
 20
72.3778774955581
 30
0.0
 11
224.4722257474348
 21
72.3778774955581
 31
0.0
  0
LINE
  5
2FF8
330
18
100
AcDbEntity
  8
DISEGNO
100
AcDbLine
 10
115.2231947542402
 20
54.37787749555809
 30
0.0
 11
283.2231947542407
 21
54.37787749555809
 31
0.0
  0
LINE
  5
2FF9
330
18
100
AcDbEntity
  8
4360018_C-TLM TCR_S 220_280 ø32 ø25.iam.1-Spigoli visibili
  6
Continuous
 62
     7
 48
0.0
370
    30
100
AcDbLine
 10
115.2231947542402
 20
-0.1221225044419043
 30
0.0
 11
283.2231947542402
 21
-0.1221225044419043
 31
0.0
  0
LINE
  5
2FFA
330
18
100
AcDbEntity
  8
DISEGNO
100
AcDbLine
 10
283.2231947542402
 20
54.37787749555809
 30
0.0
 11
115.2231947542402
 21
54.37787749555809
 31
0.0
  0
LINE
  5
2FFB
330
18
100
AcDbEntity
  8
4360018_C-TLM TCR_S 220_280 ø32 ø25.iam.1-Spigoli visibili
  6
Continuous
 62
     7
 48
0.0
370
    30
100
AcDbLine
 10
115.2231947542402
 20
-0.1221225044419043
 30
0.0
 11
283.2231947542407
 21
-0.1221225044419043
 31
0.0
  0
LINE
  5
2FFC
330
18
100
AcDbEntity
  8
DISEGNO
100
AcDbLine
 10
105.2231947542402
 20
54.37787749555809
 30
0.0
 11
105.2231947542402
 21
-0.1221225044419043
 31
0.0
  0
LINE
  5
2FFD
330
18
100
AcDbEntity
  8
4360018_C-TLM TCR_S 220_280 ø32 ø25.iam.1-Spigoli visibili
  6
Continuous
 62
     7
 48
0.0
370
    30
100
AcDbLine
 10
115.2231947542402
 20
-0.1221225044419043
 30
0.0
 11
105.2231947542402
 21
-0.1221225044419043
 31
0.0
  0
LINE
  5
2FFE
330
18
100
AcDbEntity
  8
4360018_C-TLM TCR_S 220_280 ø32 ø25.iam.1-Spigoli visibili
  6
Continuous
 62
     7
 48
0.0
370
    30
100
AcDbLine
 10
105.2231947542411
 20
-0.1221225044419043
 30
0.0
 11
115.2231947542402
 21
-0.1221225044419043
 31
0.0
  0
LINE
  5
2FFF
330
18
100
AcDbEntity
  8
4360018_C-TLM TCR_S 220_280 ø32 ø25.iam.1-Spigoli visibili
  6
Continuous
 62
     7
 48
0.0
370
    30
100
AcDbLine
 10
159.9741637610466
 20
72.3778774955581
 30
0.0
 11
115.2231947542402
 21
72.3778774955581
 31
0.0
  0
LINE
  5
3000
330
18
100
AcDbEntity
  8
DISEGNO
100
AcDbLine
 10
105.2231947542402
 20
69.37787749555809
 30
0.0
 11
105.2231947542402
 21
54.37787749555809
 31
0.0
  0
LINE
  5
3001
330
18
100
AcDbEntity
  8
DISEGNO
100
AcDbLine
 10
115.2231947542402
 20
54.37787749555809
 30
0.0
 11
105.2231947542402
 21
54.37787749555809
 31
0.0
  0
LINE
  5
3002
330
18
100
AcDbEntity
  8
DISEGNO
100
AcDbLine
 10
105.2231947542402
 20
54.37787749555809
 30
0.0
 11
115.2231947542402
 21
54.37787749555809
 31
0.0
  0
ARC
  5
3003
330
18
100
AcDbEntity
  8
DISEGNO
100
AcDbCircle
 10
108.2231947542402
 20
69.37787749555809
 30
0.0
 40
3.000000000000007
100
AcDbArc
 50
90.0
 51
180.0
  0
LINE
  5
3004
330
18
100
AcDbEntity
  8
DISEGNO
100
AcDbLine
 10
108.2231947542402
 20
72.3778774955581
 30
0.0
 11
115.2231947542402
 21
72.3778774955581
 31
0.0
  0
LINE
  5
3005
330
18
100
AcDbEntity
  8
DISEGNO
100
AcDbLine
 10
283.4231947542405
 20
36.3778774955581
 30
0.0
 11
283.4231947542405
 21
-36.6221225044419
 31
0.0
  0
LINE
  5
3006
330
18
100
AcDbEntity
  8
DISEGNO
100
AcDbLine
 10
295.3574860603455
 20
36.3778774955581
 30
0.0
 11
295.3574860603455
 21
-36.6221225044419
 31
0.0
  0
LINE
  5
3007
330
18
100
AcDbEntity
  8
DISEGNO
100
AcDbLine
 10
283.2231947542402
 20
-0.1221225044419043
 30
0.0
 11
283.2231947542402
 21
54.37787749555809
 31
0.0
  0
ARC
  5
3008
330
18
100
AcDbEntity
  8
DISEGNO
100
AcDbCircle
 10
283.7231947542402
 20
-29.52212250444154
 30
0.0
 40
1.900000000000012
100
AcDbArc
 50
270.0
 51
0.0
  0
LINE
  5
3009
330
18
100
AcDbEntity
  8
DISEGNO
100
AcDbLine
 10
283.7231947542402
 20
-31.42212250444209
 30
0.0
 11
283.4231947542405
 21
-31.42212250444209
 31
0.0
  0
ELLIPSE
  5
300A
330
18
100
AcDbEntity
  8
DISEGNO
100
AcDbEllipse
 10
294.41779343956
 20
-36.6221225044419
 30
0.0
 11
-0.0000000000000011
 21
-0.9999999999999953
 31
0.0
210
0.0
220
0.0
230
1.0
 40
0.9396926207859086
 41
0.0
 42
1.570796326794897
  0
LINE
  5
300B
330
18
100
AcDbEntity
  8
DISEGNO
100
AcDbLine
 10
283.4231947542405
 20
-37.62212250444191
 30
0.0
 11
284.0811746109146
 21
-37.62212250444191
 31
0.0
  0
LINE
  5
300C
330
18
100
AcDbEntity
  8
DISEGNO
100
AcDbLine
 10
283.4231947542405
 20
-36.6221225044419
 30
0.0
 11
283.4231947542405
 21
-37.62212250444191
 31
0.0
  0
LINE
  5
300D
330
18
100
AcDbEntity
  8
DISEGNO
100
AcDbLine
 10
283.2231947542402
 20
-37.62212250444191
 30
0.0
 11
283.4231947542405
 21
-37.62212250444191
 31
0.0
  0
LINE
  5
300E
330
18
100
AcDbEntity
  8
DISEGNO
100
AcDbLine
 10
284.0811746109146
 20
-37.62212250444191
 30
0.0
 11
294.41779343956
 21
-37.62212250444191
 31
0.0
  0
LINE
  5
300F
330
18
100
AcDbEntity
  8
DISEGNO
100
AcDbLine
 10
285.6231947542403
 20
-25.72212250444136
 30
0.0
 11
285.6231947542403
 21
-29.52212250444154
 31
0.0
  0
ARC
  5
3010
330
18
100
AcDbEntity
  8
DISEGNO
100
AcDbCircle
 10
283.7231947542402
 20
-25.72212250444136
 30
0.0
 40
1.900000000000013
100
AcDbArc
 50
0.0
 51
90.0
  0
LINE
  5
3011
330
18
100
AcDbEntity
  8
DISEGNO
100
AcDbLine
 10
283.7231947542402
 20
-23.82212250444172
 30
0.0
 11
283.4231947542405
 21
-23.82212250444172
 31
0.0
  0
ARC
  5
3015
330
18
100
AcDbEntity
  8
DISEGNO
100
AcDbCircle
 10
283.7231947542402
 20
29.27787749555773
 30
0.0
 40
1.900000000000013
100
AcDbArc
 50
0.0
 51
90.0
  0
LINE
  5
3016
330
18
100
AcDbEntity
  8
DISEGNO
100
AcDbLine
 10
283.7231947542402
 20
31.17787749555828
 30
0.0
 11
283.4231947542405
 21
31.17787749555828
 31
0.0
  0
ARC
  5
3017
330
18
100
AcDbEntity
  8
DISEGNO
100
AcDbCircle
 10
283.7231947542402
 20
25.47787749555846
 30
0.0
 40
1.900000000000012
100
AcDbArc
 50
270.0
 51
0.0
  0
LINE
  5
3018
330
18
100
AcDbEntity
  8
DISEGNO
100
AcDbLine
 10
283.7231947542402
 20
23.57787749555791
 30
0.0
 11
283.4231947542405
 21
23.57787749555791
 31
0.0
  0
LINE
  5
3019
330
18
100
AcDbEntity
  8
DISEGNO
100
AcDbLine
 10
285.6231947542403
 20
29.27787749555773
 30
0.0
 11
285.6231947542403
 21
25.47787749555846
 31
0.0
  0
ELLIPSE
  5
301A
330
18
100
AcDbEntity
  8
DISEGNO
100
AcDbEllipse
 10
294.41779343956
 20
36.3778774955581
 30
0.0
 11
0.0000000000000006
 21
0.999999999999998
 31
0.0
210
0.0
220
0.0
230
1.0
 40
0.9396926207859092
 41
4.712388980384689
 42
6.283185307179585
  0
LINE
  5
301B
330
18
100
AcDbEntity
  8
DISEGNO
100
AcDbLine
 10
283.4231947542405
 20
37.3778774955581
 30
0.0
 11
284.081174610915
 21
37.3778774955581
 31
0.0
  0
LINE
  5
301C
330
18
100
AcDbEntity
  8
DISEGNO
100
AcDbLine
 10
283.4231947542405
 20
37.3778774955581
 30
0.0
 11
283.2231947542402
 21
37.3778774955581
 31
0.0
  0
LINE
  5
301D
330
18
100
AcDbEntity
  8
DISEGNO
100
AcDbLine
 10
283.4231947542405
 20
37.3778774955581
 30
0.0
 11
283.4231947542405
 21
36.3778774955581
 31
0.0
  0
LINE
  5
301E
330
18
100
AcDbEntity
  8
DISEGNO
100
AcDbLine
 10
284.081174610915
 20
37.3778774955581
 30
0.0
 11
294.41779343956
 21
37.3778774955581
 31
0.0
  0
LINE
  5
301F
330
18
100
AcDbEntity
  8
DISEGNO
100
AcDbLine
 10
283.2231947542407
 20
72.3778774955581
 30
0.0
 11
224.4722257474348
 21
72.3778774955581
 31
0.0
  0
LINE
  5
3020
330
18
100
AcDbEntity
  8
4360018_C-TLM TCR_S 220_280 ø32 ø25.iam.1-Spigoli visibili
  6
Continuous
 62
     7
 48
0.0
370
    30
100
AcDbLine
 10
283.2231947542407
 20
54.37787749555809
 30
0.0
 11
283.2231947542407
 21
69.37787749555809
 31
0.0
  0
LINE
  5
3021
330
18
100
AcDbEntity
  8
4360018_C-TLM TCR_S 220_280 ø32 ø25.iam.1-Spigoli visibili
  6
Continuous
 62
     7
 48
0.0
370
    30
100
AcDbLine
 10
283.2231947542407
 20
72.3778774955581
 30
0.0
 11
283.2231947542407
 21
69.37787749555809
 31
0.0
  0
LINE
  5
3036
330
18
100
AcDbEntity
  8
DISEGNO
100
AcDbLine
 10
298.2231947542402
 20
-37.50000000000034
 30
0.0
 11
298.2231947542402
 21
-139.9999999999993
 31
0.0
  0
LINE
  5
3096
330
18
100
AcDbEntity
  8
0
100
AcDbLine
 10
1798.164163477691
 20
476.8906381298457
 30
0.0
 11
1798.164163477691
 21
604.6800382797024
 31
0.0
  0
LINE
  5
309C
330
18
100
AcDbEntity
  8
0
100
AcDbLine
 10
1907.164163477692
 20
476.8906381298461
 30
0.0
 11
1907.164163477692
 21
604.6800382797037
 31
0.0
  0
ENDSEC
  0
SECTION
  2
OBJECTS
  0
DICTIONARY
  5
C
330
0
100
AcDbDictionary
281
     1
  3
ACAD_COLOR
350
30C9
  3
ACAD_GROUP
350
D
  3
ACAD_LAYOUT
350
1BB4
  3
ACAD_MATERIAL
350
309F
  3
ACAD_MLEADERSTYLE
350
30EE
  3
ACAD_MLINESTYLE
350
1B
  3
ACAD_PLOTSETTINGS
350
1BB5
  3
ACAD_PLOTSTYLENAME
350
1BB2
  3
ACAD_SCALELIST
350
30CC
  3
ACAD_TABLESTYLE
350
30CA
  3
ACAD_VISUALSTYLE
350
30B8
  3
ACDB_RECOMPOSE_DATA
350
30FD
  3
AcDbVariableDictionary
350
1CC5
  3
ACGREF_MASTER
350
1BCF
  3
ACGREFACAD_MASTER
350
1BD3
  3
AcmDictionary
350
1BD5
  3
ACME_BOM_MANAGER_NAME
350
1CD8
  3
ACME_COMMAND_HISTORY
350
1CD3
  3
ACME_SCOPE_NAME
350
1CD2
  3
ACMESTATEMGR
350
1CDD
  3
AcmeSysVarManager
350
1CD4
  3
AcmSystemVariableManager
350
1CE4
  3
AMG
350
1BBB
  3
AMGSNAPSETTINGS
350
1C08
  3
AMI_MASTER
350
1BD4
  3
ASE_INDEX_DICTIONARY
350
3038
  0
DICTIONARY
  5
2744
330
2
100
AcDbDictionary
280
     1
281
     1
  3
ACAD_LAYERFILTERS
360
2745
  0
DICTIONARY
  5
1C71
330
18
100
AcDbDictionary
280
     1
281
     1
  3
ACAD_INDEX
360
26E5
  3
ACAD_LAYOUTSELFREF
360
1CAE
  0
DICTIONARY
  5
1CAC
330
15
100
AcDbDictionary
280
     1
281
     1
  3
ACAD_LAYOUTSELFREF
360
1CAD
  0
DICTIONARY
  5
30C9
102
{ACAD_REACTORS
330
C
102
}
330
C
100
AcDbDictionary
281
     1
  0
DICTIONARY
  5
D
102
{ACAD_REACTORS
330
C
102
}
330
C
100
AcDbDictionary
281
     1
  0
DICTIONARY
  5
1BB4
102
{ACAD_REACTORS
330
C
102
}
330
C
100
AcDbDictionary
281
     1
  3
Layout1
350
1BB7
  3
Model
350
1BB6
  0
DICTIONARY
  5
309F
102
{ACAD_REACTORS
330
C
102
}
330
C
100
AcDbDictionary
281
     1
  3
ByBlock
350
30A8
  3
ByLayer
350
30A0
  3
Global
350
30B0
  0
DICTIONARY
  5
30EE
102
{ACAD_REACTORS
330
C
102
}
330
C
100
AcDbDictionary
281
     1
  3
Standard
350
30EF
  0
DICTIONARY
  5
1B
102
{ACAD_REACTORS
330
C
102
}
330
C
100
AcDbDictionary
281
     1
  3
STANDARD
350
1C
  0
DICTIONARY
  5
1BB5
102
{ACAD_REACTORS
330
C
102
}
330
C
100
AcDbDictionary
281
     1
  0
ACDBDICTIONARYWDFLT
  5
1BB2
102
{ACAD_REACTORS
330
C
102
}
330
C
100
AcDbDictionary
281
     1
  3
Normal
350
1BB3
100
AcDbDictionaryWithDefault
340
1BB3
  0
DICTIONARY
  5
30CC
102
{ACAD_REACTORS
330
C
102
}
330
C
100
AcDbDictionary
281
     1
  3
A0
350
30CD
  3
A1
350
30CE
  3
A2
350
30CF
  3
A3
350
30D0
  3
A4
350
30D1
  3
A5
350
30D2
  3
A6
350
30D3
  3
A7
350
30D4
  3
A8
350
30D5
  3
A9
350
30D6
  3
B0
350
30D7
  3
B1
350
30D8
  3
B2
350
30D9
  3
B3
350
30DA
  3
B4
350
30DB
  3
B5
350
30DC
  3
B6
350
30DD
  3
B7
350
30DE
  3
B8
350
30DF
  3
B9
350
30E0
  3
C0
350
30E1
  3
C1
350
30E2
  3
C2
350
30E3
  3
C3
350
30E4
  3
C4
350
30E5
  3
C5
350
30E6
  3
C6
350
30E7
  3
C7
350
30E8
  3
C8
350
30E9
  3
C9
350
30EA
  3
D0
350
30EB
  3
D1
350
30EC
  3
D2
350
30ED
  0
DICTIONARY
  5
30CA
102
{ACAD_REACTORS
330
C
102
}
330
C
100
AcDbDictionary
281
     1
  3
Standard
350
30CB
  0
DICTIONARY
  5
30B8
102
{ACAD_REACTORS
330
C
102
}
330
C
100
AcDbDictionary
281
     1
  3
2dWireframe
350
30BE
  3
3D Hidden
350
30C0
  3
3dWireframe
350
30BF
  3
Basic
350
30BD
  3
Brighten
350
30C4
  3
ColorChange
350
30C8
  3
Conceptual
350
30C1
  3
Dim
350
30C3
  3
Facepattern
350
30C7
  3
Flat
350
30B9
  3
FlatWithEdges
350
30BA
  3
Gouraud
350
30BB
  3
GouraudWithEdges
350
30BC
  3
Linepattern
350
30C6
  3
Realistic
350
30C2
  3
Thicken
350
30C5
  0
XRECORD
  5
30FD
102
{ACAD_REACTORS
330
C
102
}
330
C
100
AcDbXrecord
280
     1
 90
        1
330
30CB
  0
DICTIONARY
  5
1CC5
102
{ACAD_REACTORS
330
C
102
}
330
C
100
AcDbDictionary
281
     1
  3
CANNOSCALE
350
30FA
  3
CMLEADERSTYLE
350
30F9
  3
CTABLESTYLE
350
30F8
  3
DIMASSOC
350
1CC7
  3
INDEXCTL
350
1CC6
  0
ACAD_PROXY_OBJECT
  5
1BCF
102
{ACAD_REACTORS
330
C
102
}
330
C
100
AcDbProxyObject
 90
      499
 91
      517
 95
   851991
 70
     0
 93
       34
310
040000428C
 94
        0
  0
ACAD_PROXY_OBJECT
  5
1BD3
102
{ACAD_REACTORS
330
C
102
}
330
C
100
AcDbProxyObject
 90
      499
 91
      520
 95
   851991
 70
     0
 93
      114
310
04000041C00000000000000000000C
 94
        0
  0
DICTIONARY
  5
1BD5
102
{ACAD_REACTORS
330
C
102
}
330
C
100
AcDbDictionary
281
     1
  3
AcmBOMDATA
350
1CE1
  3
AcmStdDictionary
350
1BDB
  0
ACAD_PROXY_OBJECT
  5
1CD8
102
{ACAD_REACTORS
330
C
102
}
330
C
100
AcDbProxyObject
 90
      499
 91
      511
 95
   851991
 70
     0
 93
       50
310
0001004040000C
330
0
330
0
330
1CD9
 94
        0
  0
ACAD_PROXY_OBJECT
  5
1CD3
102
{ACAD_REACTORS
330
C
102
}
330
C
100
AcDbProxyObject
 90
      499
 91
      507
 95
   851991
 70
     0
 93
     2722
310
4780504554E444F80504554E444F80504554E444F805044C494E4540405184D5347202D20436F6D6D616E642043414E43454C4C45442E0141D4D514915510D22014151549054D1601411693D3D36014154155491D1601415454D055916014115539113E014115539113E014115539113E014115539113E014115539113E014
310
2511253531253915054A014151549054D160142511253531253915054A0141D4D514915510D220141D4D514915510D22014151549054D16014251125353125391505490101461354D1C80B4810DBDB5B585B990810D05390D1531311510B80504554E444F80504554E444F80504554E444F805064F464653455440405184D5
310
347202D20436F6D6D616E642043414E43454C4C45442E014193D19194D15510101461354D1C80B4810DBDB5B585B990810D05390D1531311510B80504554E444F805045A4F4F4D8050550555247458050551534156458C
 94
        0
  0
ACAD_PROXY_OBJECT
  5
1CD2
102
{ACAD_REACTORS
330
C
102
}
330
C
100
AcDbProxyObject
 90
      499
 91
      506
 95
   851991
 70
     0
 93
      218
310
060000444000000000000000000010641E000000000000AAA406AA8C
360
1CD5
360
1CD6
360
1CD7
360
1CD9
360
1CE5
360
1DF4
 94
        0
  0
ACAD_PROXY_OBJECT
  5
1CDD
102
{ACAD_REACTORS
330
C
102
}
330
C
100
AcDbProxyObject
 90
      499
 91
      516
 95
   851991
 70
     0
 93
       50
310
0600004164128C
 94
        0
  0
ACAD_PROXY_OBJECT
  5
1CD4
102
{ACAD_REACTORS
330
C
102
}
330
C
100
AcDbProxyObject
 90
      499
 91
      508
 95
   851991
 70
     0
 93
       48
310
90341200000004
330
1CD5
330
1CD6
330
1CD7
 94
        0
  0
ACAD_PROXY_OBJECT
  5
1CE4
102
{ACAD_REACTORS
330
C
102
}
330
C
100
AcDbProxyObject
 90
      499
 91
      508
 95
   851991
 70
     0
 93
       32
310
90140A00FB
330
1CE5
 94
        0
  0
DICTIONARY
  5
1BBB
102
{ACAD_REACTORS
330
C
102
}
330
C
100
AcDbDictionary
281
     1
  3
AcMgSettings
350
1BBC
  3
AMGLAYCFG
350
1CE7
  0
DICTIONARY
  5
1C08
102
{ACAD_REACTORS
330
C
102
}
330
C
100
AcDbDictionary
281
     1
  0
ACAD_PROXY_OBJECT
  5
1BD4
102
{ACAD_REACTORS
330
C
102
}
330
C
100
AcDbProxyObject
 90
      499
 91
      521
 95
   851991
 70
     0
 93
       34
310
050000428C
 94
        0
  0
DICTIONARY
  5
3038
102
{ACAD_REACTORS
330
C
102
}
330
C
100
AcDbDictionary
281
     1
  3
ASEBlockHierarchyIndexRecord
350
303A
1001
DCO15
1040
1478520143.976
  0
DICTIONARY
  5
2745
102
{ACAD_REACTORS
330
2744
102
}
330
2744
100
AcDbDictionary
280
     1
281
     1
  3
PIPPO
360
2746
  0
DICTIONARY
  5
26E5
102
{ACAD_REACTORS
330
1C71
102
}
330
1C71
100
AcDbDictionary
281
     1
  3
*A1
350
26E6
  0
XRECORD
  5
1CAE
102
{ACAD_REACTORS
330
1C71
102
}
330
1C71
100
AcDbXrecord
280
     1
340
18
  0
XRECORD
  5
1CAD
102
{ACAD_REACTORS
330
1CAC
102
}
330
1CAC
100
AcDbXrecord
280
     1
340
15
  0
LAYOUT
  5
1BB7
102
{ACAD_REACTORS
330
1BB4
102
}
330
1BB4
100
AcDbPlotSettings
  1

  2
C:\Programmi\Acadm 6\plotters\Cadjet 2.pc3
  4

  6

 40
0.0
 41
0.0
 42
0.0
 43
0.0
 44
0.0
 45
0.0
 46
0.0
 47
0.0
 48
0.0
 49
0.0
140
0.0
141
0.0
142
1.0
143
1.0
 70
   688
 72
     0
 73
     0
 74
     5
  7

 75
    16
147
1.0
 76
     0
 77
     2
 78
   300
148
0.0
149
0.0
100
AcDbLayout
  1
Layout1
 70
     1
 71
     1
 10
0.0
 20
0.0
 11
420.0
 21
297.0
 12
0.0
 22
0.0
 32
0.0
 14
1.000000000000000E+20
 24
1.000000000000000E+20
 34
1.000000000000000E+20
 15
-1.000000000000000E+20
 25
-1.000000000000000E+20
 35
-1.000000000000000E+20
146
0.0
 13
0.0
 23
0.0
 33
0.0
 16
1.0
 26
0.0
 36
0.0
 17
0.0
 27
1.0
 37
0.0
 76
     0
330
15
  0
LAYOUT
  5
1BB6
102
{ACAD_REACTORS
330
1BB4
102
}
330
1BB4
100
AcDbPlotSettings
  1

  2
C:\Programmi\Acadm 6\plotters\Cadjet 2.pc3
  4

  6

 40
0.0
 41
0.0
 42
0.0
 43
0.0
 44
0.0
 45
0.0
 46
0.0
 47
0.0
 48
0.0
 49
0.0
140
0.0
141
0.0
142
1.0
143
1.0
 70
  1712
 72
     0
 73
     0
 74
     0
  7

 75
     0
147
1.0
 76
     0
 77
     2
 78
   300
148
0.0
149
0.0
100
AcDbLayout
  1
Model
 70
     1
 71
     0
 10
0.0
 20
0.0
 11
12.0
 21
9.0
 12
0.0
 22
0.0
 32
0.0
 14
0.0
 24
0.0
 34
0.0
 15
0.0
 25
0.0
 35
0.0
146
0.0
 13
0.0
 23
0.0
 33
0.0
 16
1.0
 26
0.0
 36
0.0
 17
0.0
 27
1.0
 37
0.0
 76
     0
330
18
331
309D
  0
MATERIAL
  5
30A8
102
{ACAD_XDICTIONARY
360
30A9
102
}
102
{ACAD_REACTORS
330
309F
102
}
330
309F
100
AcDbMaterial
  1
ByBlock
 72
     0
 43
0.0208333333333333
 43
0.0
 43
0.0
 43
0.0
 43
0.0
 43
0.0208333333333333
 43
0.0
 43
0.0
 43
0.0
 43
0.0
 43
1.0
 43
0.0
 43
0.0
 43
0.0
 43
0.0
 43
1.0
 77
     0
 47
0.0208333333333333
 47
0.0
 47
0.0
 47
0.0
 47
0.0
 47
0.0208333333333333
 47
0.0
 47
0.0
 47
0.0
 47
0.0
 47
1.0
 47
0.0
 47
0.0
 47
0.0
 47
0.0
 47
1.0
171
     0
 49
0.0208333333333333
 49
0.0
 49
0.0
 49
0.0
 49
0.0
 49
0.0208333333333333
 49
0.0
 49
0.0
 49
0.0
 49
0.0
 49
1.0
 49
0.0
 49
0.0
 49
0.0
 49
0.0
 49
1.0
175
     0
142
0.0208333333333333
142
0.0
142
0.0
142
0.0
142
0.0
142
0.0208333333333333
142
0.0
142
0.0
142
0.0
142
0.0
142
1.0
142
0.0
142
0.0
142
0.0
142
0.0
142
1.0
179
     0
144
0.0208333333333333
144
0.0
144
0.0
144
0.0
144
0.0
144
0.0208333333333333
144
0.0
144
0.0
144
0.0
144
0.0
144
1.0
144
0.0
144
0.0
144
0.0
144
0.0
144
1.0
147
0.0208333333333333
147
0.0
147
0.0
147
0.0
147
0.0
147
0.0208333333333333
147
0.0
147
0.0
147
0.0
147
0.0
147
1.0
147
0.0
147
0.0
147
0.0
147
0.0
147
1.0
  0
MATERIAL
  5
30A0
102
{ACAD_XDICTIONARY
360
30A1
102
}
102
{ACAD_REACTORS
330
309F
102
}
330
309F
100
AcDbMaterial
  1
ByLayer
 72
     0
 43
0.0208333333333333
 43
0.0
 43
0.0
 43
0.0
 43
0.0
 43
0.0208333333333333
 43
0.0
 43
0.0
 43
0.0
 43
0.0
 43
1.0
 43
0.0
 43
0.0
 43
0.0
 43
0.0
 43
1.0
 77
     0
 47
0.0208333333333333
 47
0.0
 47
0.0
 47
0.0
 47
0.0
 47
0.0208333333333333
 47
0.0
 47
0.0
 47
0.0
 47
0.0
 47
1.0
 47
0.0
 47
0.0
 47
0.0
 47
0.0
 47
1.0
171
     0
 49
0.0208333333333333
 49
0.0
 49
0.0
 49
0.0
 49
0.0
 49
0.0208333333333333
 49
0.0
 49
0.0
 49
0.0
 49
0.0
 49
1.0
 49
0.0
 49
0.0
 49
0.0
 49
0.0
 49
1.0
175
     0
142
0.0208333333333333
142
0.0
142
0.0
142
0.0
142
0.0
142
0.0208333333333333
142
0.0
142
0.0
142
0.0
142
0.0
142
1.0
142
0.0
142
0.0
142
0.0
142
0.0
142
1.0
179
     0
144
0.0208333333333333
144
0.0
144
0.0
144
0.0
144
0.0
144
0.0208333333333333
144
0.0
144
0.0
144
0.0
144
0.0
144
1.0
144
0.0
144
0.0
144
0.0
144
0.0
144
1.0
147
0.0208333333333333
147
0.0
147
0.0
147
0.0
147
0.0
147
0.0208333333333333
147
0.0
147
0.0
147
0.0
147
0.0
147
1.0
147
0.0
147
0.0
147
0.0
147
0.0
147
1.0
  0
MATERIAL
  5
30B0
102
{ACAD_XDICTIONARY
360
30B1
102
}
102
{ACAD_REACTORS
330
309F
102
}
330
309F
100
AcDbMaterial
  1
Global
 72
     0
 43
0.0208333333333333
 43
0.0
 43
0.0
 43
0.0
 43
0.0
 43
0.0208333333333333
 43
0.0
 43
0.0
 43
0.0
 43
0.0
 43
1.0
 43
0.0
 43
0.0
 43
0.0
 43
0.0
 43
1.0
 77
     0
 47
0.0208333333333333
 47
0.0
 47
0.0
 47
0.0
 47
0.0
 47
0.0208333333333333
 47
0.0
 47
0.0
 47
0.0
 47
0.0
 47
1.0
 47
0.0
 47
0.0
 47
0.0
 47
0.0
 47
1.0
171
     0
 49
0.0208333333333333
 49
0.0
 49
0.0
 49
0.0
 49
0.0
 49
0.0208333333333333
 49
0.0
 49
0.0
 49
0.0
 49
0.0
 49
1.0
 49
0.0
 49
0.0
 49
0.0
 49
0.0
 49
1.0
175
     0
142
0.0208333333333333
142
0.0
142
0.0
142
0.0
142
0.0
142
0.0208333333333333
142
0.0
142
0.0
142
0.0
142
0.0
142
1.0
142
0.0
142
0.0
142
0.0
142
0.0
142
1.0
179
     0
144
0.0208333333333333
144
0.0
144
0.0
144
0.0
144
0.0
144
0.0208333333333333
144
0.0
144
0.0
144
0.0
144
0.0
144
1.0
144
0.0
144
0.0
144
0.0
144
0.0
144
1.0
147
0.0208333333333333
147
0.0
147
0.0
147
0.0
147
0.0
147
0.0208333333333333
147
0.0
147
0.0
147
0.0
147
0.0
147
1.0
147
0.0
147
0.0
147
0.0
147
0.0
147
1.0
  0
MLEADERSTYLE
  5
30EF
102
{ACAD_REACTORS
330
30EE
102
}
330
30EE
100
AcDbMLeaderStyle
170
     2
171
     1
172
     0
 90
        2
 40
0.0
 41
0.0
173
     1
 91
-1056964608
340
12
 92
       -2
290
     1
 42
2.0
291
     1
 43
0.36
  3
Standard
 44
4.0
300

342
F
174
     1
178
     6
175
     1
176
     0
 93
-1056964608
 45
4.0
292
     0
297
     0
 46
4.0
 94
-1056964608
 47
1.0
 49
1.0
140
1.0
293
     1
141
0.0
294
     1
177
     0
142
1.0
295
     0
296
     0
143
0.125
1001
ACAD_MLEADERVER
1070
     2
  0
MLINESTYLE
  5
1C
102
{ACAD_REACTORS
330
1B
102
}
330
1B
100
AcDbMlineStyle
  2
STANDARD
 70
     0
  3

 62
   256
 51
90.0
 52
90.0
 71
     2
 49
0.5
 62
   256
  6
BYLAYER
 49
-0.5
 62
   256
  6
BYLAYER
  0
ACDBPLACEHOLDER
  5
1BB3
102
{ACAD_REACTORS
330
1BB2
102
}
330
1BB2
  0
SCALE
  5
30CD
102
{ACAD_REACTORS
330
30CC
102
}
330
30CC
100
AcDbScale
 70
     0
300
1:1
140
1.0
141
1.0
290
     1
  0
SCALE
  5
30CE
102
{ACAD_REACTORS
330
30CC
102
}
330
30CC
100
AcDbScale
 70
     0
300
1:2
140
1.0
141
2.0
290
     0
  0
SCALE
  5
30CF
102
{ACAD_REACTORS
330
30CC
102
}
330
30CC
100
AcDbScale
 70
     0
300
1:4
140
1.0
141
4.0
290
     0
  0
SCALE
  5
30D0
102
{ACAD_REACTORS
330
30CC
102
}
330
30CC
100
AcDbScale
 70
     0
300
1:5
140
1.0
141
5.0
290
     0
  0
SCALE
  5
30D1
102
{ACAD_REACTORS
330
30CC
102
}
330
30CC
100
AcDbScale
 70
     0
300
1:8
140
1.0
141
8.0
290
     0
  0
SCALE
  5
30D2
102
{ACAD_REACTORS
330
30CC
102
}
330
30CC
100
AcDbScale
 70
     0
300
1:10
140
1.0
141
10.0
290
     0
  0
SCALE
  5
30D3
102
{ACAD_REACTORS
330
30CC
102
}
330
30CC
100
AcDbScale
 70
     0
300
1:16
140
1.0
141
16.0
290
     0
  0
SCALE
  5
30D4
102
{ACAD_REACTORS
330
30CC
102
}
330
30CC
100
AcDbScale
 70
     0
300
1:20
140
1.0
141
20.0
290
     0
  0
SCALE
  5
30D5
102
{ACAD_REACTORS
330
30CC
102
}
330
30CC
100
AcDbScale
 70
     0
300
1:30
140
1.0
141
30.0
290
     0
  0
SCALE
  5
30D6
102
{ACAD_REACTORS
330
30CC
102
}
330
30CC
100
AcDbScale
 70
     0
300
1:40
140
1.0
141
40.0
290
     0
  0
SCALE
  5
30D7
102
{ACAD_REACTORS
330
30CC
102
}
330
30CC
100
AcDbScale
 70
     0
300
1:50
140
1.0
141
50.0
290
     0
  0
SCALE
  5
30D8
102
{ACAD_REACTORS
330
30CC
102
}
330
30CC
100
AcDbScale
 70
     0
300
1:100
140
1.0
141
100.0
290
     0
  0
SCALE
  5
30D9
102
{ACAD_REACTORS
330
30CC
102
}
330
30CC
100
AcDbScale
 70
     0
300
2:1
140
2.0
141
1.0
290
     0
  0
SCALE
  5
30DA
102
{ACAD_REACTORS
330
30CC
102
}
330
30CC
100
AcDbScale
 70
     0
300
4:1
140
4.0
141
1.0
290
     0
  0
SCALE
  5
30DB
102
{ACAD_REACTORS
330
30CC
102
}
330
30CC
100
AcDbScale
 70
     0
300
8:1
140
8.0
141
1.0
290
     0
  0
SCALE
  5
30DC
102
{ACAD_REACTORS
330
30CC
102
}
330
30CC
100
AcDbScale
 70
     0
300
10:1
140
10.0
141
1.0
290
     0
  0
SCALE
  5
30DD
102
{ACAD_REACTORS
330
30CC
102
}
330
30CC
100
AcDbScale
 70
     0
300
100:1
140
100.0
141
1.0
290
     0
  0
SCALE
  5
30DE
102
{ACAD_REACTORS
330
30CC
102
}
330
30CC
100
AcDbScale
 70
     0
300
1/128" = 1'-0"
140
0.0078125
141
12.0
290
     0
  0
SCALE
  5
30DF
102
{ACAD_REACTORS
330
30CC
102
}
330
30CC
100
AcDbScale
 70
     0
300
1/64" = 1'-0"
140
0.015625
141
12.0
290
     0
  0
SCALE
  5
30E0
102
{ACAD_REACTORS
330
30CC
102
}
330
30CC
100
AcDbScale
 70
     0
300
1/32" = 1'-0"
140
0.03125
141
12.0
290
     0
  0
SCALE
  5
30E1
102
{ACAD_REACTORS
330
30CC
102
}
330
30CC
100
AcDbScale
 70
     0
300
1/16" = 1'-0"
140
0.0625
141
12.0
290
     0
  0
SCALE
  5
30E2
102
{ACAD_REACTORS
330
30CC
102
}
330
30CC
100
AcDbScale
 70
     0
300
3/32" = 1'-0"
140
0.09375
141
12.0
290
     0
  0
SCALE
  5
30E3
102
{ACAD_REACTORS
330
30CC
102
}
330
30CC
100
AcDbScale
 70
     0
300
1/8" = 1'-0"
140
0.125
141
12.0
290
     0
  0
SCALE
  5
30E4
102
{ACAD_REACTORS
330
30CC
102
}
330
30CC
100
AcDbScale
 70
     0
300
3/16" = 1'-0"
140
0.1875
141
12.0
290
     0
  0
SCALE
  5
30E5
102
{ACAD_REACTORS
330
30CC
102
}
330
30CC
100
AcDbScale
 70
     0
300
1/4" = 1'-0"
140
0.25
141
12.0
290
     0
  0
SCALE
  5
30E6
102
{ACAD_REACTORS
330
30CC
102
}
330
30CC
100
AcDbScale
 70
     0
300
3/8" = 1'-0"
140
0.375
141
12.0
290
     0
  0
SCALE
  5
30E7
102
{ACAD_REACTORS
330
30CC
102
}
330
30CC
100
AcDbScale
 70
     0
300
1/2" = 1'-0"
140
0.5
141
12.0
290
     0
  0
SCALE
  5
30E8
102
{ACAD_REACTORS
330
30CC
102
}
330
30CC
100
AcDbScale
 70
     0
300
3/4" = 1'-0"
140
0.75
141
12.0
290
     0
  0
SCALE
  5
30E9
102
{ACAD_REACTORS
330
30CC
102
}
330
30CC
100
AcDbScale
 70
     0
300
1" = 1'-0"
140
1.0
141
12.0
290
     0
  0
SCALE
  5
30EA
102
{ACAD_REACTORS
330
30CC
102
}
330
30CC
100
AcDbScale
 70
     0
300
1-1/2" = 1'-0"
140
1.5
141
12.0
290
     0
  0
SCALE
  5
30EB
102
{ACAD_REACTORS
330
30CC
102
}
330
30CC
100
AcDbScale
 70
     0
300
3" = 1'-0"
140
3.0
141
12.0
290
     0
  0
SCALE
  5
30EC
102
{ACAD_REACTORS
330
30CC
102
}
330
30CC
100
AcDbScale
 70
     0
300
6" = 1'-0"
140
6.0
141
12.0
290
     0
  0
SCALE
  5
30ED
102
{ACAD_REACTORS
330
30CC
102
}
330
30CC
100
AcDbScale
 70
     0
300
1'-0" = 1'-0"
140
12.0
141
12.0
290
     0
  0
TABLESTYLE
  5
30CB
102
{ACAD_XDICTIONARY
360
30FB
102
}
102
{ACAD_REACTORS
330
30CA
102
}
330
30CA
100
AcDbTableStyle
  3
Standard
 70
     0
 71
     0
 40
1.5
 41
1.5
280
     0
281
     0
  7
STANDARD
140
4.5
170
     2
 62
     0
 63
     7
283
     0
274
    -2
284
     1
 64
     0
275
    -2
285
     1
 65
     0
276
    -2
286
     1
 66
     0
277
    -2
287
     1
 67
     0
278
    -2
288
     1
 68
     0
279
    -2
289
     1
 69
     0
  7
STANDARD
140
6.0
170
     5
 62
     0
 63
     7
283
     0
274
    -2
284
     1
 64
     0
275
    -2
285
     1
 65
     0
276
    -2
286
     1
 66
     0
277
    -2
287
     1
 67
     0
278
    -2
288
     1
 68
     0
279
    -2
289
     1
 69
     0
  7
STANDARD
140
4.5
170
     5
 62
     0
 63
     7
283
     0
274
    -2
284
     1
 64
     0
275
    -2
285
     1
 65
     0
276
    -2
286
     1
 66
     0
277
    -2
287
     1
 67
     0
278
    -2
288
     1
 68
     0
279
    -2
289
     1
 69
     0
  0
VISUALSTYLE
  5
30BE
102
{ACAD_REACTORS
330
30B8
102
}
330
30B8
100
AcDbVisualStyle
  2
2dWireframe
 70
     4
 71
     0
 72
     2
 73
     0
 90
        0
 40
-0.6
 41
-30.0
 62
     5
 63
     7
421
 16777215
 74
     1
 91
        4
 64
     7
 65
   257
 75
     1
175
     1
 42
1.0
 92
        0
 66
   257
 43
1.0
 76
     1
 77
     6
 78
     2
 67
     7
 79
     5
170
     0
171
     0
290
     0
174
     0
 93
        1
 44
0.0
173
     0
291
     0
 45
0.0
1001
ACAD
1000
AcDbSavedByObjectVersion
1070
     0
  0
VISUALSTYLE
  5
30C0
102
{ACAD_REACTORS
330
30B8
102
}
330
30B8
100
AcDbVisualStyle
  2
3D Hidden
 70
     6
 71
     1
 72
     2
 73
     2
 90
        0
 40
-0.6
 41
-30.0
 62
     5
 63
     7
421
 16777215
 74
     2
 91
        2
 64
     7
 65
   257
 75
     2
175
     1
 42
40.0
 92
        0
 66
   257
 43
1.0
 76
     1
 77
     6
 78
     2
 67
     7
 79
     3
170
     0
171
     0
290
     0
174
     0
 93
        1
 44
0.0
173
     0
291
     0
 45
0.0
1001
ACAD
1000
AcDbSavedByObjectVersion
1070
     0
  0
VISUALSTYLE
  5
30BF
102
{ACAD_REACTORS
330
30B8
102
}
330
30B8
100
AcDbVisualStyle
  2
3dWireframe
 70
     5
 71
     0
 72
     2
 73
     0
 90
        0
 40
-0.6
 41
-30.0
 62
     5
 63
     7
421
 16777215
 74
     1
 91
        4
 64
     7
 65
   257
 75
     1
175
     1
 42
1.0
 92
        0
 66
   257
 43
1.0
 76
     1
 77
     6
 78
     2
 67
     7
 79
     5
170
     0
171
     0
290
     0
174
     0
 93
        1
 44
0.0
173
     0
291
     0
 45
0.0
1001
ACAD
1000
AcDbSavedByObjectVersion
1070
     0
  0
VISUALSTYLE
  5
30BD
102
{ACAD_REACTORS
330
30B8
102
}
330
30B8
100
AcDbVisualStyle
  2
Basic
 70
     7
 71
     1
 72
     0
 73
     1
 90
        0
 40
-0.6
 41
-30.0
 62
     5
 63
     7
421
 16777215
 74
     0
 91
        4
 64
     7
 65
   257
 75
     1
175
     1
 42
1.0
 92
        8
 66
     7
 43
1.0
 76
     1
 77
     6
 78
     2
 67
     7
 79
     5
170
     0
171
     0
290
     0
174
     0
 93
        1
 44
0.0
173
     0
291
     1
 45
0.0
1001
ACAD
1000
AcDbSavedByObjectVersion
1070
     0
  0
VISUALSTYLE
  5
30C4
102
{ACAD_REACTORS
330
30B8
102
}
330
30B8
100
AcDbVisualStyle
  2
Brighten
 70
    12
 71
     2
 72
     2
 73
     0
 90
        0
 40
-0.6
 41
-30.0
 62
     5
 63
     7
421
 16777215
 74
     1
 91
        4
 64
     7
 65
   257
 75
     1
175
     1
 42
1.0
 92
        8
 66
     7
 43
1.0
 76
     1
 77
     6
 78
     2
 67
     7
 79
     5
170
     0
171
     0
290
     0
174
     0
 93
        1
 44
50.0
173
     0
291
     1
 45
0.0
1001
ACAD
1000
AcDbSavedByObjectVersion
1070
     0
  0
VISUALSTYLE
  5
30C8
102
{ACAD_REACTORS
330
30B8
102
}
330
30B8
100
AcDbVisualStyle
  2
ColorChange
 70
    16
 71
     2
 72
     2
 73
     3
 90
        0
 40
-0.6
 41
-30.0
 62
     5
 63
     8
421
  8421504
 74
     1
 91
        4
 64
     7
 65
   257
 75
     1
175
     1
 42
1.0
 92
        8
 66
     8
424
  8421504
 43
1.0
 76
     1
 77
     6
 78
     2
 67
     7
 79
     5
170
     0
171
     0
290
     0
174
     0
 93
        1
 44
0.0
173
     0
291
     1
 45
0.0
1001
ACAD
1000
AcDbSavedByObjectVersion
1070
     0
  0
VISUALSTYLE
  5
30C1
102
{ACAD_REACTORS
330
30B8
102
}
330
30B8
100
AcDbVisualStyle
  2
Conceptual
 70
     9
 71
     3
 72
     2
 73
     0
 90
        0
 40
-0.6
 41
-30.0
 62
     5
 63
     7
421
 16777215
 74
     2
 91
        2
 64
     7
 65
   257
 75
     1
175
     1
 42
40.0
 92
        8
 66
     7
 43
1.0
 76
     1
 77
     6
 78
     2
 67
     7
 79
     3
170
     0
171
     0
290
     0
174
     0
 93
        1
 44
0.0
173
     0
291
     0
 45
0.0
1001
ACAD
1000
AcDbSavedByObjectVersion
1070
     0
  0
VISUALSTYLE
  5
30C3
102
{ACAD_REACTORS
330
30B8
102
}
330
30B8
100
AcDbVisualStyle
  2
Dim
 70
    11
 71
     2
 72
     2
 73
     0
 90
        0
 40
-0.6
 41
-30.0
 62
     5
 63
     7
421
 16777215
 74
     1
 91
        4
 64
     7
 65
   257
 75
     1
175
     1
 42
1.0
 92
        8
 66
     7
 43
1.0
 76
     1
 77
     6
 78
     2
 67
     7
 79
     5
170
     0
171
     0
290
     0
174
     0
 93
        1
 44
-50.0
173
     0
291
     1
 45
0.0
1001
ACAD
1000
AcDbSavedByObjectVersion
1070
     0
  0
VISUALSTYLE
  5
30C7
102
{ACAD_REACTORS
330
30B8
102
}
330
30B8
100
AcDbVisualStyle
  2
Facepattern
 70
    15
 71
     2
 72
     2
 73
     0
 90
        0
 40
-0.6
 41
-30.0
 62
     5
 63
     7
421
 16777215
 74
     1
 91
        4
 64
     7
 65
   257
 75
     1
175
     1
 42
1.0
 92
        8
 66
     7
 43
1.0
 76
     1
 77
     6
 78
     2
 67
     7
 79
     5
170
     0
171
     0
290
     0
174
     0
 93
        1
 44
0.0
173
     0
291
     1
 45
0.0
1001
ACAD
1000
AcDbSavedByObjectVersion
1070
     0
  0
VISUALSTYLE
  5
30B9
102
{ACAD_REACTORS
330
30B8
102
}
330
30B8
100
AcDbVisualStyle
  2
Flat
 70
     0
 71
     2
 72
     1
 73
     1
 90
        2
 40
-0.6
 41
30.0
 62
     5
 63
     7
421
 16777215
 74
     0
 91
        4
 64
     7
 65
   257
 75
     1
175
     1
 42
1.0
 92
        8
 66
     7
 43
1.0
 76
     1
 77
     6
 78
     2
 67
     7
 79
     5
170
     0
171
     0
290
     0
174
     0
 93
       13
 44
0.0
173
     0
291
     1
 45
0.0
1001
ACAD
1000
AcDbSavedByObjectVersion
1070
     0
  0
VISUALSTYLE
  5
30BA
102
{ACAD_REACTORS
330
30B8
102
}
330
30B8
100
AcDbVisualStyle
  2
FlatWithEdges
 70
     1
 71
     2
 72
     1
 73
     1
 90
        2
 40
-0.6
 41
30.0
 62
     5
 63
     7
421
 16777215
 74
     1
 91
        4
 64
     7
 65
   257
 75
     1
175
     1
 42
1.0
 92
        0
 66
   257
 43
1.0
 76
     1
 77
     6
 78
     2
 67
     7
 79
     5
170
     0
171
     0
290
     0
174
     0
 93
       13
 44
0.0
173
     0
291
     1
 45
0.0
1001
ACAD
1000
AcDbSavedByObjectVersion
1070
     0
  0
VISUALSTYLE
  5
30BB
102
{ACAD_REACTORS
330
30B8
102
}
330
30B8
100
AcDbVisualStyle
  2
Gouraud
 70
     2
 71
     2
 72
     2
 73
     1
 90
        2
 40
-0.6
 41
30.0
 62
     5
 63
     7
421
 16777215
 74
     0
 91
        4
 64
     7
 65
   257
 75
     1
175
     1
 42
1.0
 92
        0
 66
     7
 43
1.0
 76
     1
 77
     6
 78
     2
 67
     7
 79
     5
170
     0
171
     0
290
     0
174
     0
 93
       13
 44
0.0
173
     0
291
     1
 45
0.0
1001
ACAD
1000
AcDbSavedByObjectVersion
1070
     0
  0
VISUALSTYLE
  5
30BC
102
{ACAD_REACTORS
330
30B8
102
}
330
30B8
100
AcDbVisualStyle
  2
GouraudWithEdges
 70
     3
 71
     2
 72
     2
 73
     1
 90
        2
 40
-0.6
 41
30.0
 62
     5
 63
     7
421
 16777215
 74
     1
 91
        4
 64
     7
 65
   257
 75
     1
175
     1
 42
1.0
 92
        0
 66
   257
 43
1.0
 76
     1
 77
     6
 78
     2
 67
     7
 79
     5
170
     0
171
     0
290
     0
174
     0
 93
       13
 44
0.0
173
     0
291
     1
 45
0.0
1001
ACAD
1000
AcDbSavedByObjectVersion
1070
     0
  0
VISUALSTYLE
  5
30C6
102
{ACAD_REACTORS
330
30B8
102
}
330
30B8
100
AcDbVisualStyle
  2
Linepattern
 70
    14
 71
     2
 72
     2
 73
     0
 90
        0
 40
-0.6
 41
-30.0
 62
     5
 63
     7
421
 16777215
 74
     1
 91
        4
 64
     7
 65
   257
 75
     7
175
     7
 42
1.0
 92
        8
 66
     7
 43
1.0
 76
     1
 77
     6
 78
     2
 67
     7
 79
     5
170
     0
171
     0
290
     0
174
     0
 93
        1
 44
0.0
173
     0
291
     1
 45
0.0
1001
ACAD
1000
AcDbSavedByObjectVersion
1070
     0
  0
VISUALSTYLE
  5
30C2
102
{ACAD_REACTORS
330
30B8
102
}
330
30B8
100
AcDbVisualStyle
  2
Realistic
 70
     8
 71
     2
 72
     2
 73
     0
 90
        0
 40
-0.6
 41
-30.0
 62
     5
 63
     7
421
 16777215
 74
     1
 91
        0
 64
     7
 65
   257
 75
     1
175
     1
 42
1.0
 92
        8
 66
     8
424
  7895160
 43
1.0
 76
     1
 77
     6
 78
     2
 67
     7
 79
     5
170
     0
171
     0
290
     0
174
     0
 93
       13
 44
0.0
173
     0
291
     0
 45
0.0
1001
ACAD
1000
AcDbSavedByObjectVersion
1070
     0
  0
VISUALSTYLE
  5
30C5
102
{ACAD_REACTORS
330
30B8
102
}
330
30B8
100
AcDbVisualStyle
  2
Thicken
 70
    13
 71
     2
 72
     2
 73
     0
 90
        0
 40
-0.6
 41
-30.0
 62
     5
 63
     7
421
 16777215
 74
     1
 91
        4
 64
     7
 65
   257
 75
     1
175
     1
 42
1.0
 92
       12
 66
     7
 43
1.0
 76
     1
 77
     6
 78
     2
 67
     7
 79
     5
170
     0
171
     0
290
     0
174
     0
 93
        1
 44
0.0
173
     0
291
     1
 45
0.0
1001
ACAD
1000
AcDbSavedByObjectVersion
1070
     0
  0
DICTIONARYVAR
  5
30FA
102
{ACAD_REACTORS
330
1CC5
102
}
330
1CC5
100
DictionaryVariables
280
     0
  1
1:1
  0
DICTIONARYVAR
  5
30F9
102
{ACAD_REACTORS
330
1CC5
102
}
330
1CC5
100
DictionaryVariables
280
     0
  1
STANDARD
  0
DICTIONARYVAR
  5
30F8
102
{ACAD_REACTORS
330
1CC5
102
}
330
1CC5
100
DictionaryVariables
280
     0
  1
STANDARD
  0
DICTIONARYVAR
  5
1CC7
102
{ACAD_REACTORS
330
1CC5
102
}
330
1CC5
100
DictionaryVariables
280
     0
  1
1
  0
DICTIONARYVAR
  5
1CC6
102
{ACAD_REACTORS
330
1CC5
102
}
330
1CC5
100
DictionaryVariables
280
     0
  1
1
  0
ACAD_PROXY_OBJECT
  5
1CE1
102
{ACAD_REACTORS
330
1BD5
102
}
330
1BD5
100
AcDbProxyObject
 90
      499
 91
      522
 95
   851991
 70
     0
 93
      118
310
405010040CA904C415CD5B07571098
350
1CE2
 94
        0
  0
DICTIONARY
  5
1BDB
102
{ACAD_REACTORS
330
1BD5
102
}
330
1BD5
100
AcDbDictionary
281
     1
  3
ANSI
350
2A4E
  3
ISO
350
1CE6
  0
ACAD_PROXY_OBJECT
  5
1CD5
330
0
100
AcDbProxyObject
 90
      499
 91
      509
 95
   851991
 70
     0
 93
      156
310
00010143D050D351505391D5531054925390D49C
330
1CD2
 94
        0
  0
ACAD_PROXY_OBJECT
  5
1CD6
330
0
100
AcDbProxyObject
 90
      499
 91
      509
 95
   851991
 70
     0
 93
      148
310
000101439050D351531253915054925390D49C
330
1CD2
 94
        0
  0
ACAD_PROXY_OBJECT
  5
1CD7
330
0
100
AcDbProxyObject
 90
      499
 91
      510
 95
   851991
 70
     0
 93
      156
310
000101439050D35154D6535093D314D25691508C
330
1CD2
 94
        0
  0
ACAD_PROXY_OBJECT
  5
1CD9
330
0
100
AcDbProxyObject
 90
      499
 91
      512
 95
   851991
 70
     0
 93
      216
310
00010145111A5CDD1A5B9D184818DBDB5C1BDB995B9D1A4C402B004C
330
1CD2
330
0
330
0
 94
        0
  0
ACAD_PROXY_OBJECT
  5
1CE5
330
0
100
AcDbProxyObject
 90
      499
 91
      524
 95
   851991
 70
     0
 93
      140
310
00010142105350D55494D5110050349534FC
330
1CD2
 94
        0
  0
ACAD_PROXY_OBJECT
  5
1DF4
330
0
100
AcDbProxyObject
 90
      499
 91
      543
 95
   851991
 70
     0
 93
       28
310
0001406C
330
1CD2
 94
        0
  0
DICTIONARY
  5
1BBC
102
{ACAD_REACTORS
330
1BBB
102
}
330
1BBB
100
AcDbDictionary
281
     1
  3
DWGSETTINGS
350
1CCF
  3
TRANSSETTINGS
350
1CD0
  0
ACAD_PROXY_OBJECT
  5
1CE7
102
{ACAD_REACTORS
330
1BBB
102
}
330
1BBB
100
AcDbProxyObject
 90
      499
 91
      526
 95
   851991
 70
     0
 93
    12938
310
41102491013041105357CC1074CA404C504414D5F31439329013241105357CC9054CA404CD04414D5F33419199013441105357CD103466404D504414D5F3540D199013641105357CD90248E404DD04414D5F37411199013841105357CE101466404E504414D5F397F641102324141505357CC4C1074CA408D10505414D5F31
310
3140D19902495041505357CC4C9074C902408C13905414D5F304E41D32902314E41505357CC5390E4CA408C93905414D5F324E41532902334E41505357CCD3906466408D13905414D5F344E40D19902354E41505357CD53903466408D93905414D5F364E40923902374E41505357CDD3904466408E13905414D5F384E40519
310
902394E41505357CE539FD90440CC9053906414D5F31304E41D3290334414E41905357CC4C5390346640D25413906414D5F31324E41D32409044B4C494E41505357D0D3101465094112539193D08414D5F50415245464111942D055241484D3541905357D093D49074C9094115925155D08414D5F56494557534051942D064
310
24548494E4441905357D253959FD90D415514905253105414D5F545240D194250348494441905357D212511074650940D59254D06414D5F56495341D324250650415244494D42505357D410549112535034650941949151911253509414D5F52454644494D4111942553411092139590139CFFFFFFFF415092139594D06424
310
548494E44CFFFFFFFF411093D48C9055241484D3540519411093D48CD055241484D3540923411093D48D5055241484D35CFFFFFFFF4110D0530C90134CFFFFFFFF4110D0530CD0134409234110D0530D5013441D324110D0530DD0134479464110D1539390137CFFFFFFFF4110D15395D0137CFFFFFFFF4110D312539044B4
310
C494ECFFFFFFFF4110D3D38C50130CFFFFFFFF4110D3D38C90131CFFFFFFFF4110D3D38CD0132CFFFFFFFF4110D3D38D10132CFFFFFFFF411111551050134CFFFFFFFF4111125051D0135CFFFFFFFF411112531250135CFFFFFFFF411112535410650415244494DCFFFFFFFF411112535490652454644494DCFFFFFFFF4111
310
91535390138CFFFFFFFF4151915354139013840CFFFFFFFF4151915354D41023441CFFFFFFFF4151915354D5102344140D1941519153559390132CFFFFFFFF4151915355951013240D194112105510D0138CFFFFFFFF411212511390133CFFFFFFFF4112125115D0133CFFFFFFFF411213125390134CFFFFFFFF411213D0D3
310
90137CFFFFFFFF411213D0D5D0137CFFFFFFFF4112539193D04494E464FCFFFFFFFF411311505110135CFFFFFFFF419397D0921395902394ECFFFFFFFF419397D0D3D38C502304ECFFFFFFFF419397D0D3D38C902314ECFFFFFFFF419397D0D3D38CD02324ECFFFFFFFF419397D0D3D38D102324ECFFFFFFFF419397D0D153
310
93902374ECFFFFFFFF419397D0D15395D02374ECFFFFFFFF419397D1125312502354ECFFFFFFFF419397D2105510D02384ECFFFFFFFF419397D2125113902334ECFFFFFFFF419397D2125115D02334ECFFFFFFFF419397D3115051102354ECFFFFFFFF419397D391D25410349504ECFFFFFFFF419397D412105390334414EC
310
FFFFFFFF419397D510D3D3902304ECFFFFFFFF419397D5121312502344ECFFFFFFFF419397D5131153902304ECFFFFFFFF419397D594131250332414ECFFFFFFFF411391D2541024950CFFFFFFFF411410530C9055241484D3540519411410530CD055241484D3540923411410530D5055241484D35CFFFFFFFF4114121053
310
9023441CFFFFFFFF411413D4D390135CFFFFFFFF411490D1D390137CFFFFFFFF411490D1D5D0137CFFFFFFFF4114D09492D0134CFFFFFFFF4114D150D510134CFFFFFFFF4114D6508CD013540923411354D6535013540923411510D3D390130CFFFFFFFF411512131250134CFFFFFFFF411512550C9055241484D354051941
310
1512550CD055241484D3540923411512550D5055241484D35CFFFFFFFF411513115390130CFFFFFFFF415514905253105545241494CCFFFFFFFF411514931250134CFFFFFFFF411516150C5013640D19411516150C9013640D19411516150CD0136CFFFFFFFF411516150D5013641D32411516150DD0136479464115925155
310
D0456494557CFFFFFFFF4115915112103484944CFFFFFFFF4115915115903564953CFFFFFFFF41159413125023241CFFFFFFFF411692569050134CFFFFFFFFAA9FD404FE429014650248D0346504465054C906465074C90E4C91E519FD8C
340
14
340
14
340
14
340
1BDE
340
14
340
14
340
14
340
1BDF
340
14
340
14
340
1BDF
340
1BE0
340
14
340
14
340
14
340
14
340
1BDE
340
14
340
14
340
14
340
1BDF
340
14
340
14
340
1BDF
340
1BE0
340
14
340
1BE1
340
14
340
14
340
14
340
14
340
14
340
1BDE
340
14
340
14
340
14
340
13
340
13
340
13
340
13
340
13
340
13
340
13
340
13
340
13
340
1BE2
340
13
340
13
340
13
340
13
340
13
340
13
340
13
340
13
340
13
340
13
340
13
340
13
340
13
340
14
340
13
340
13
340
13
340
13
340
1BE3
340
13
340
13
340
1BE2
340
13
340
13
340
13
340
13
340
13
340
13
340
13
340
13
340
1BE2
340
13
340
13
340
13
340
1BE3
340
13
340
13
340
13
340
13
340
13
340
13
340
13
340
13
340
13
340
13
340
13
340
13
340
13
340
13
340
1BE2
340
13
340
13
340
13
340
13
340
13
340
13
340
13
340
13
340
13
340
13
340
13
340
13
340
13
340
13
340
13
340
13
340
13
340
13
340
13
340
13
340
13
340
13
340
1BE6
 94
        0
  0
XRECORD
  5
303A
102
{ACAD_REACTORS
330
3038
102
}
330
3038
100
AcDbXrecord
280
     1
  0
XRECORD
  5
2746
102
{ACAD_REACTORS
330
2745
102
}
330
2745
100
AcDbXrecord
280
     1
  1
PIPPO
  1
*
  1
7
  1
*
 70
     0
  1
*
  1
*
  0
LAYER_INDEX
  5
26E6
102
{ACAD_REACTORS
330
26E5
102
}
330
26E5
100
AcDbIndex
 40
2455404.435680474
100
AcDbLayerIndex
  8
0
360
26E7
 90
        7
  8
DISEGNO
360
26E8
 90
      402
  8
ASSI
360
26EA
 90
       92
  8
NORMALI
360
26EB
 90
      402
  8
NORM_TR
360
26EC
 90
        2
  8
Defpoints
360
26EF
 90
        0
  8
4360018_C-TLM TCR_S 220_280 ø32 ø25.iam.1-Spigoli visibili
360
26EE
 90
       10
  8
9180143-Complessivo di montaggio.iam.1-Spigoli visibili
360
26ED
 90
        8
  0
DICTIONARY
  5
30A9
330
30A8
100
AcDbDictionary
280
     1
281
     1
  3
ACAD_XREC_ROUNDTRIP
360
30FF
  3
BUMPTILE
360
30AB
  3
DIFFUSETILE
360
30AA
  3
OPACITYTILE
360
30AE
  3
REFLECTIONTILE
360
30AD
  3
REFRACTIONTILE
360
30AF
  3
SPECULARTILE
360
30AC
  0
DICTIONARY
  5
30A1
330
30A0
100
AcDbDictionary
280
     1
281
     1
  3
ACAD_XREC_ROUNDTRIP
360
30FE
  3
BUMPTILE
360
30A3
  3
DIFFUSETILE
360
30A2
  3
OPACITYTILE
360
30A6
  3
REFLECTIONTILE
360
30A5
  3
REFRACTIONTILE
360
30A7
  3
SPECULARTILE
360
30A4
  0
DICTIONARY
  5
30B1
330
30B0
100
AcDbDictionary
280
     1
281
     1
  3
ACAD_XREC_ROUNDTRIP
360
3100
  3
BUMPTILE
360
30B3
  3
DIFFUSETILE
360
30B2
  3
OPACITYTILE
360
30B6
  3
REFLECTIONTILE
360
30B5
  3
REFRACTIONTILE
360
30B7
  3
SPECULARTILE
360
30B4
  0
DICTIONARY
  5
30FB
330
30CB
100
AcDbDictionary
280
     1
281
     1
  3
ACAD_ROUNDTRIP_2008_TABLESTYLE_CELLSTYLEMAP
360
30FC
  3
ACAD_XREC_ROUNDTRIP
360
3101
  0
ACAD_PROXY_OBJECT
  5
1CE2
102
{ACAD_REACTORS
330
1CE1
102
}
330
1CE1
100
AcDbProxyObject
 90
      499
 91
      523
 95
   851991
 70
     0
 93
      139
310
057356C1D5C406406AA8FFFFFFFF0AE2404C
330
18
330
0
330
0
 94
        0
  0
ACAD_PROXY_OBJECT
  5
2A4E
102
{ACAD_REACTORS
330
1BDB
102
}
330
1BDB
100
AcDbProxyObject
 90
      499
 91
      551
 95
   851991
 70
     0
 93
     2109
310
570B81E85EB51B8BE3FD04414E5349405901409022E07A17AD46E2F8FD2208721C82C6DAA6EAE4CCA8CAF0E8A6E8C88120284A0B1B6A321A329BA3220480A1A82C6DAAECAD8C8D2DCCEA6E8C8812028420B1B6A4B229BA3220480A1682C6DA88C2E8EADAA6E8C88120284A0B1B6A127A6A9BA3220480A2082DAC8E888CAE8C
310
2D2D8A6F2DAA6E8C88120288A0B6B23A29B2B1BA34B7B729BCB6A9BA3220480A2282DAC8E886CADCE8CAE498D2DCCAA6E8C88120285A0B6B23A2737BA32A9BA3220480A1682C682DACE98C2F2A6E8C88120285A0B1A0B6B3A234B6A9BA3220480A2282C682DACE90DED8CA86D0C2E4E8A6E8C88120286A0B1A0B6B3AA34BA3
310
632A9BA3220480A02814
340
27B1
360
2A4F
360
2A50
360
2A51
360
2A52
360
2A53
360
2A54
360
2A55
360
2A56
360
2A57
360
2A58
360
2A59
360
2A5A
360
2A5B
360
2A5C
 94
        0
  0
ACAD_PROXY_OBJECT
  5
1CE6
102
{ACAD_REACTORS
330
1BDB
102
}
330
1BDB
100
AcDbProxyObject
 90
      499
 91
      525
 95
   851991
 70
     0
 93
     2211
310
5700000000000000C40D0349534F405901409020000000000000310322287A1682DAC8E88AC8CECAA6E8C8812028720B1B6A9BAB9332A32BC3A29BA3220480A1282C6DA8C868CA6E8C88120286A0B1B6ABB2B63234B733A9BA3220480A1082C6DA92C8A6E8C88120285A0B1B6A230BA3AB6A9BA3220480A1282C6DA849E9AA
310
6E8C8812028820B6B23A2232BA30B4B629BCB6A9BA3220480A2282DAC8E8A6CAC6E8D2DEDCA6F2DAA6E8C88120288A0B6B23A21B2B73A32B92634B732A9BA3220480A1682DAC8E89CDEE8CAA6E8C88120285A0B1A0B6B3A630BCA9BA3220480A1682C682DACE88D2DAA6E8C88120288A0B1A0B6B3A437B632A1B430B93A29B
310
A3220480A1A82C682DACEA8D2E8D8CAA6E8C881203204C
340
1BE7
360
1CE8
360
1CE9
360
1CEA
360
1CEB
360
1CEC
360
1CED
360
1CEE
360
1CEF
360
1CF0
360
1CF1
360
1CF2
360
1CF3
360
1CF4
360
1CF5
360
1CF6
 94
        0
  0
ACAD_PROXY_OBJECT
  5
1CCF
102
{ACAD_REACTORS
330
1BBC
102
}
330
1BBC
100
AcDbProxyObject
 90
      499
 91
      505
 95
   851991
 70
     0
 93
     2364
310
4050B44574753455454494E4753A1286829C8E82A4A482B282A106660F8686AF86C608321A2A720A723A0A849A1ABE1C983E18999AA0C868A9C889282940000000000000488083A1A2A72224A0A9A0A8418983E19183E199820E868A9C8892A6A894000000000000010808321A2A72622A7250000000000000122020C868A9
310
C9E8C8C940000000000000488084A1A624A720A92920ACA0A81189C2108698929C8AA8B2A082A0AB098929C8A84A22BA3AAA9A1A0A622A50A0E9882A6A89E849482A02608426A0A5A2AB24A2ABA7E8120CA0A68682988A0C00800010652455649534941501304154D0D05311505414C4E8C8B8D50954494D455354414D504A
310
08DFABAA2611A734141D5915494D253D3905414C4D4B8C0C1107B44574753455454494E4753454E447DC
 94
        0
  0
ACAD_PROXY_OBJECT
  5
1CD0
102
{ACAD_REACTORS
330
1BBC
102
}
330
1BBC
100
AcDbProxyObject
 90
      499
 91
      505
 95
   851991
 70
     0
 93
      852
310
4050D5452414E5353455454494E4753A2488A482AE929C8EA8A4829CA69882A8929E9C0C00800050D4F524947494E414C4C595F4F4E0600400008529A7AAA921A2A620A723A0A81A4AA20A12AAA0A48AA68AA4AC8A0C0080001107B44574753455454494E4753454E447DC
 94
        0
  0
IDBUFFER
  5
26E7
330
0
100
AcDbIdBuffer
330
62C
330
62D
330
760
330
826
330
82F
330
3096
330
309C
  0
IDBUFFER
  5
26E8
330
0
100
AcDbIdBuffer
330
505
330
506
330
50A
330
50B
330
50D
330
50E
330
50F
330
510
330
512
330
514
330
515
330
518
330
51C
330
51F
330
520
330
521
330
523
330
524
330
528
330
529
330
534
330
535
330
536
330
53E
330
556
330
557
330
55C
330
55D
330
55E
330
55F
330
562
330
5C3
330
5C5
330
5C6
330
5C7
330
5C9
330
5CA
330
5CB
330
5CC
330
5D6
330
602
330
613
330
614
330
61E
330
620
330
621
330
623
330
628
330
631
330
63C
330
63D
330
63E
330
640
330
642
330
648
330
649
330
64A
330
657
330
659
330
65A
330
65B
330
65F
330
6BC
330
6BF
330
6C0
330
6C1
330
6C3
330
6CB
330
6CC
330
6D6
330
6D7
330
6DB
330
6DF
330
6E0
330
6E2
330
72A
330
737
330
74D
330
755
330
757
330
75E
330
763
330
764
330
76C
330
76D
330
76E
330
76F
330
770
330
772
330
773
330
777
330
77C
330
77D
330
77E
330
77F
330
790
330
798
330
7B5
330
7B6
330
7B8
330
7B9
330
7DD
330
7DE
330
80F
330
813
330
816
330
818
330
819
330
81B
330
81E
330
821
330
825
330
828
330
82A
330
82C
330
835
330
836
330
837
330
838
330
83C
330
83D
330
83E
330
83F
330
840
330
843
330
845
330
84D
330
84E
330
84F
330
853
330
854
330
855
330
856
330
857
330
864
330
867
330
D3D
330
D3F
330
D40
330
D43
330
D44
330
D48
330
D49
330
D4B
330
D4C
330
D4D
330
D50
330
D53
330
D56
330
D58
330
D59
330
D5A
330
D5B
330
1ABD
330
1ABE
330
1D37
330
1D3F
330
1D47
330
1D4F
330
1D55
330
1D56
330
1D57
330
1D58
330
1D59
330
1D5A
330
1D5B
330
1D5C
330
1D5D
330
1D5E
330
1D5F
330
1D60
330
1D61
330
2273
330
2274
330
2279
330
227B
330
227C
330
227D
330
2281
330
22C0
330
22C1
330
22C2
330
22C3
330
22C6
330
22C7
330
22C8
330
22CB
330
22CC
330
22CF
330
22D0
330
22D1
330
22D2
330
22D3
330
22D4
330
22D5
330
22D6
330
22D8
330
22D9
330
22DA
330
22DB
330
22DC
330
22DD
330
22DE
330
22DF
330
22ED
330
2309
330
230A
330
230C
330
230F
330
2310
330
2313
330
2318
330
2319
330
231A
330
231B
330
231C
330
231D
330
231E
330
231F
330
234D
330
2353
330
235D
330
235E
330
235F
330
2364
330
2369
330
2395
330
2396
330
23AA
330
23AB
330
23AC
330
23AE
330
23AF
330
23B3
330
23B4
330
23B6
330
23B7
330
23B9
330
23BB
330
23BC
330
23C9
330
23CC
330
23CD
330
23EF
330
23F0
330
23F1
330
23F2
330
23F3
330
23F9
330
23FC
330
23FD
330
2403
330
2404
330
2405
330
2406
330
2407
330
2408
330
2409
330
240A
330
240B
330
240C
330
240D
330
240E
330
241A
330
243E
330
2444
330
2456
330
2457
330
2458
330
245B
330
245E
330
245F
330
2460
330
2462
330
2463
330
2464
330
2465
330
2466
330
2467
330
2468
330
2469
330
246A
330
246B
330
246D
330
246E
330
246F
330
2471
330
2472
330
2474
330
2475
330
2477
330
2478
330
2479
330
247C
330
247E
330
247F
330
2480
330
2481
330
2482
330
2483
330
2484
330
2489
330
248A
330
248B
330
248D
330
248E
330
248F
330
2495
330
2497
330
2498
330
2499
330
249A
330
249B
330
249C
330
249D
330
249F
330
24A2
330
24A3
330
24A4
330
24A5
330
24A6
330
24A7
330
24A8
330
24A9
330
24AA
330
24AB
330
24AC
330
24AD
330
24AE
330
24AF
330
24B1
330
24B2
330
24B3
330
24B4
330
24BA
330
24DA
330
2533
330
2544
330
2545
330
2546
330
2548
330
254B
330
2554
330
26DF
330
26E0
330
2A9F
330
2AA1
330
2AA2
330
2AA9
330
2ACB
330
2B53
330
2B68
330
2EA9
330
2EAB
330
2EAC
330
2F48
330
2F49
330
2FD7
330
2FE0
330
2FE5
330
2FE6
330
2FE9
330
2FEA
330
2FEB
330
2FEC
330
2FED
330
2FEE
330
2FEF
330
2FF0
330
2FF8
330
2FFA
330
2FFC
330
3000
330
3001
330
3002
330
3003
330
3004
330
3005
330
3006
330
3007
330
3008
330
3009
330
300A
330
300B
330
300C
330
300D
330
300E
330
300F
330
3010
330
3011
330
3015
330
3016
330
3017
330
3018
330
3019
330
301A
330
301B
330
301C
330
301D
330
301E
330
301F
330
3036
  0
IDBUFFER
  5
26EA
330
0
100
AcDbIdBuffer
330
52D
330
5C8
330
63B
330
72D
330
72E
330
73E
330
741
330
748
330
749
330
761
330
771
330
77B
330
7B7
330
830
330
83B
330
2287
330
23CA
330
23DD
330
2419
330
2438
330
2440
330
2451
330
2700
330
2701
330
2703
330
2704
330
2705
330
2706
330
2707
330
2737
330
2742
330
2A74
330
2A7A
330
2A82
330
2A85
330
2A97
330
2AA3
330
2AB3
330
2B5C
330
2B6C
330
2B78
330
2B80
330
2B85
330
2B87
330
2B94
330
2B9C
330
2B9D
330
2BA3
330
2BAE
330
2BBA
330
2BC2
330
2E0B
330
2E0C
330
2E65
330
2E96
330
2E99
330
2EA2
330
2EA3
330
2EA4
330
2EA5
330
2EA6
330
2EA7
330
2EA8
330
2EAF
330
2EB3
330
2EB4
330
2EB7
330
2EC3
330
2EF1
330
2EF2
330
2EF9
330
2EFC
330
2F01
330
2F2C
330
2F2D
330
2F2E
330
2F2F
330
2F30
330
2F31
330
2F32
330
2F33
330
2F34
330
2FD1
330
2FD2
330
2FD5
330
2FD9
330
2FDB
330
2FDC
330
2FDD
330
2FDE
330
2FE1
330
2FE2
  0
IDBUFFER
  5
26EB
330
0
100
AcDbIdBuffer
330
511
330
513
330
516
330
517
330
519
330
51D
330
51E
330
54B
330
54C
330
550
330
558
330
559
330
55A
330
55B
330
560
330
561
330
563
330
564
330
5CD
330
5D1
330
5D2
330
5D3
330
5D8
330
5DB
330
5DC
330
5DD
330
5DE
330
5DF
330
5E0
330
5E1
330
5E2
330
5E3
330
5E4
330
5E5
330
5E6
330
5E7
330
5E8
330
5E9
330
5EA
330
5EB
330
5EC
330
5ED
330
5EE
330
5EF
330
5F0
330
5F1
330
5F3
330
5F5
330
5F6
330
5F7
330
5F8
330
5F9
330
5FA
330
5FB
330
5FC
330
5FD
330
5FE
330
5FF
330
600
330
601
330
603
330
605
330
607
330
608
330
609
330
60D
330
60F
330
610
330
611
330
612
330
616
330
617
330
618
330
619
330
61A
330
61B
330
61C
330
61D
330
629
330
62B
330
634
330
636
330
637
330
638
330
64B
330
64C
330
64D
330
650
330
651
330
652
330
670
330
6BA
330
6BD
330
6CD
330
6CE
330
6CF
330
6D0
330
6E1
330
6E3
330
6E4
330
6E5
330
6E6
330
6EB
330
6EC
330
6ED
330
6EE
330
6EF
330
6F0
330
6F1
330
6F2
330
6F6
330
6F7
330
6F8
330
6FC
330
6FE
330
6FF
330
700
330
701
330
704
330
705
330
706
330
707
330
708
330
709
330
70A
330
70B
330
70C
330
70D
330
70E
330
70F
330
710
330
711
330
712
330
713
330
714
330
715
330
716
330
717
330
718
330
719
330
71A
330
71B
330
71C
330
71D
330
71E
330
71F
330
720
330
721
330
722
330
723
330
724
330
726
330
727
330
729
330
756
330
759
330
762
330
766
330
767
330
768
330
769
330
76A
330
76B
330
780
330
782
330
784
330
785
330
786
330
787
330
789
330
78A
330
78C
330
78E
330
78F
330
7D8
330
7D9
330
7DA
330
7DB
330
7DC
330
7E0
330
7E1
330
7E2
330
7E3
330
7E4
330
7E7
330
7E8
330
7E9
330
7EA
330
7EB
330
7EC
330
7ED
330
7EE
330
7EF
330
7F0
330
7F1
330
7F2
330
7F3
330
7F4
330
7F5
330
7F6
330
7F7
330
7F8
330
7F9
330
7FA
330
7FB
330
7FD
330
7FE
330
801
330
802
330
803
330
804
330
805
330
806
330
807
330
808
330
809
330
80A
330
80C
330
80D
330
810
330
817
330
832
330
833
330
844
330
846
330
847
330
848
330
849
330
84A
330
84B
330
84C
330
850
330
852
330
85F
330
DD4
330
DD5
330
DD8
330
DD9
330
DDA
330
DDB
330
DFE
330
DFF
330
E00
330
E01
330
E02
330
E03
330
E04
330
1AC0
330
1AC1
330
1AC2
330
1AC3
330
1AC5
330
1AC6
330
1AC8
330
22C9
330
22CA
330
22CE
330
22D7
330
22E1
330
22E2
330
22E3
330
22E4
330
22E5
330
22E6
330
22E7
330
22EF
330
22F1
330
22F2
330
22F3
330
22F4
330
22F5
330
22F6
330
22F7
330
22F8
330
22F9
330
22FA
330
22FB
330
22FD
330
22FE
330
22FF
330
2300
330
2301
330
2302
330
2303
330
2304
330
2308
330
230B
330
230D
330
2311
330
2312
330
2320
330
2321
330
2323
330
2324
330
2325
330
2327
330
2328
330
232C
330
232F
330
2330
330
2336
330
233D
330
2348
330
234B
330
2351
330
2354
330
2356
330
2357
330
2358
330
2359
330
235A
330
235B
330
235C
330
2360
330
2361
330
2362
330
2363
330
236B
330
236C
330
236D
330
236E
330
236F
330
2370
330
237B
330
2387
330
238E
330
238F
330
2392
330
2455
330
2459
330
245A
330
247D
330
248C
330
2490
330
2496
330
249E
330
24A0
330
24BD
330
24BE
330
24BF
330
24C0
330
24C1
330
24C2
330
24C3
330
24C4
330
24C5
330
24C6
330
24C7
330
24C9
330
24CA
330
24CC
330
24CD
330
24CE
330
24CF
330
24D0
330
24D1
330
24D2
330
24D3
330
24D4
330
24D5
330
24E0
330
24E1
330
24F7
330
24F8
330
24F9
330
24FA
330
24FB
330
250D
330
250E
330
2516
330
2517
330
2518
330
2519
330
251A
330
251B
330
2520
330
2523
330
2525
330
2526
330
2527
330
2528
330
252A
330
252B
330
252E
330
252F
330
2532
330
2534
330
2535
330
2536
330
2537
330
2538
330
253A
330
253B
330
253F
330
2540
330
2541
330
2543
330
2547
330
254C
330
254D
330
2551
330
2FD8
  0
IDBUFFER
  5
26EC
330
0
100
AcDbIdBuffer
330
24C8
330
24CB
  0
IDBUFFER
  5
26EF
330
0
100
AcDbIdBuffer
  0
IDBUFFER
  5
26EE
330
0
100
AcDbIdBuffer
330
2FF2
330
2FF3
330
2FF7
330
2FF9
330
2FFB
330
2FFD
330
2FFE
330
2FFF
330
3020
330
3021
  0
IDBUFFER
  5
26ED
330
0
100
AcDbIdBuffer
330
2FD0
330
2FD3
330
2FD4
330
2FD6
330
2FDA
330
2FDF
330
2FE3
330
2FE4
  0
XRECORD
  5
30FF
102
{ACAD_REACTORS
330
30A9
102
}
330
30A9
100
AcDbXrecord
280
     1
102
MATERIAL
148
0.0
149
0.0
149
0.0
 93
        0
 94
      127
282
     0
 72
     0
 77
     0
171
     0
175
     0
179
     0
273
     0
  0
XRECORD
  5
30AB
102
{ACAD_REACTORS
330
30A9
102
}
330
30A9
100
AcDbXrecord
280
     1
270
     1
271
     1
  0
XRECORD
  5
30AA
102
{ACAD_REACTORS
330
30A9
102
}
330
30A9
100
AcDbXrecord
280
     1
270
     1
271
     1
  0
XRECORD
  5
30AE
102
{ACAD_REACTORS
330
30A9
102
}
330
30A9
100
AcDbXrecord
280
     1
270
     1
271
     1
  0
XRECORD
  5
30AD
102
{ACAD_REACTORS
330
30A9
102
}
330
30A9
100
AcDbXrecord
280
     1
270
     1
271
     1
  0
XRECORD
  5
30AF
102
{ACAD_REACTORS
330
30A9
102
}
330
30A9
100
AcDbXrecord
280
     1
270
     1
271
     1
  0
XRECORD
  5
30AC
102
{ACAD_REACTORS
330
30A9
102
}
330
30A9
100
AcDbXrecord
280
     1
270
     1
271
     1
  0
XRECORD
  5
30FE
102
{ACAD_REACTORS
330
30A1
102
}
330
30A1
100
AcDbXrecord
280
     1
102
MATERIAL
148
0.0
149
0.0
149
0.0
 93
        0
 94
      127
282
     0
 72
     0
 77
     0
171
     0
175
     0
179
     0
273
     0
  0
XRECORD
  5
30A3
102
{ACAD_REACTORS
330
30A1
102
}
330
30A1
100
AcDbXrecord
280
     1
270
     1
271
     1
  0
XRECORD
  5
30A2
102
{ACAD_REACTORS
330
30A1
102
}
330
30A1
100
AcDbXrecord
280
     1
270
     1
271
     1
  0
XRECORD
  5
30A6
102
{ACAD_REACTORS
330
30A1
102
}
330
30A1
100
AcDbXrecord
280
     1
270
     1
271
     1
  0
XRECORD
  5
30A5
102
{ACAD_REACTORS
330
30A1
102
}
330
30A1
100
AcDbXrecord
280
     1
270
     1
271
     1
  0
XRECORD
  5
30A7
102
{ACAD_REACTORS
330
30A1
102
}
330
30A1
100
AcDbXrecord
280
     1
270
     1
271
     1
  0
XRECORD
  5
30A4
102
{ACAD_REACTORS
330
30A1
102
}
330
30A1
100
AcDbXrecord
280
     1
270
     1
271
     1
  0
XRECORD
  5
3100
102
{ACAD_REACTORS
330
30B1
102
}
330
30B1
100
AcDbXrecord
280
     1
102
MATERIAL
148
0.0
149
0.0
149
0.0
 93
        0
 94
      127
282
     0
 72
     0
 77
     0
171
     0
175
     0
179
     0
273
     0
  0
XRECORD
  5
30B3
102
{ACAD_REACTORS
330
30B1
102
}
330
30B1
100
AcDbXrecord
280
     1
270
     1
271
     1
  0
XRECORD
  5
30B2
102
{ACAD_REACTORS
330
30B1
102
}
330
30B1
100
AcDbXrecord
280
     1
270
     1
271
     1
  0
XRECORD
  5
30B6
102
{ACAD_REACTORS
330
30B1
102
}
330
30B1
100
AcDbXrecord
280
     1
270
     1
271
     1
  0
XRECORD
  5
30B5
102
{ACAD_REACTORS
330
30B1
102
}
330
30B1
100
AcDbXrecord
280
     1
270
     1
271
     1
  0
XRECORD
  5
30B7
102
{ACAD_REACTORS
330
30B1
102
}
330
30B1
100
AcDbXrecord
280
     1
270
     1
271
     1
  0
XRECORD
  5
30B4
102
{ACAD_REACTORS
330
30B1
102
}
330
30B1
100
AcDbXrecord
280
     1
270
     1
271
     1
  0
CELLSTYLEMAP
  5
30FC
102
{ACAD_REACTORS
330
30FB
102
}
330
30FB
100
AcDbCellStyleMap
 90
        3
300
CELLSTYLE
  1
TABLEFORMAT_BEGIN
 90
        5
170
     1
 91
        0
 92
    32768
 62
   257
 93
        1
300
CONTENTFORMAT
  1
CONTENTFORMAT_BEGIN
 90
        0
 91
        0
 92
      512
 93
        0
300

 40
0.0
140
1.0
 94
        5
 62
     0
340
F
144
6.0
309
CONTENTFORMAT_END
171
     1
301
MARGIN
  1
CELLMARGIN_BEGIN
 40
1.5
 40
1.5
 40
1.5
 40
1.5
 40
4.5
 40
4.5
309
CELLMARGIN_END
 94
        6
 95
        1
302
GRIDFORMAT
  1
GRIDFORMAT_BEGIN
 90
        0
 91
        1
 62
     0
 92
       -2
340
0
 93
        0
 40
1.125
309
GRIDFORMAT_END
 95
        2
302
GRIDFORMAT
  1
GRIDFORMAT_BEGIN
 90
        0
 91
        1
 62
     0
 92
       -2
340
0
 93
        0
 40
1.125
309
GRIDFORMAT_END
 95
        4
302
GRIDFORMAT
  1
GRIDFORMAT_BEGIN
 90
        0
 91
        1
 62
     0
 92
       -2
340
0
 93
        0
 40
1.125
309
GRIDFORMAT_END
 95
        8
302
GRIDFORMAT
  1
GRIDFORMAT_BEGIN
 90
        0
 91
        1
 62
     0
 92
       -2
340
0
 93
        0
 40
1.125
309
GRIDFORMAT_END
 95
       16
302
GRIDFORMAT
  1
GRIDFORMAT_BEGIN
 90
        0
 91
        1
 62
     0
 92
       -2
340
0
 93
        0
 40
1.125
309
GRIDFORMAT_END
 95
       32
302
GRIDFORMAT
  1
GRIDFORMAT_BEGIN
 90
        0
 91
        1
 62
     0
 92
       -2
340
0
 93
        0
 40
1.125
309
GRIDFORMAT_END
309
TABLEFORMAT_END
  1
CELLSTYLE_BEGIN
 90
        1
 91
        1
300
_TITLE
309
CELLSTYLE_END
300
CELLSTYLE
  1
TABLEFORMAT_BEGIN
 90
        5
170
     1
 91
        0
 92
        0
 62
   257
 93
        1
300
CONTENTFORMAT
  1
CONTENTFORMAT_BEGIN
 90
        0
 91
        0
 92
      512
 93
        0
300

 40
0.0
140
1.0
 94
        5
 62
     0
340
F
144
4.5
309
CONTENTFORMAT_END
171
     1
301
MARGIN
  1
CELLMARGIN_BEGIN
 40
1.5
 40
1.5
 40
1.5
 40
1.5
 40
4.5
 40
4.5
309
CELLMARGIN_END
 94
        6
 95
        1
302
GRIDFORMAT
  1
GRIDFORMAT_BEGIN
 90
        0
 91
        1
 62
     0
 92
       -2
340
0
 93
        0
 40
1.125
309
GRIDFORMAT_END
 95
        2
302
GRIDFORMAT
  1
GRIDFORMAT_BEGIN
 90
        0
 91
        1
 62
     0
 92
       -2
340
0
 93
        0
 40
1.125
309
GRIDFORMAT_END
 95
        4
302
GRIDFORMAT
  1
GRIDFORMAT_BEGIN
 90
        0
 91
        1
 62
     0
 92
       -2
340
0
 93
        0
 40
1.125
309
GRIDFORMAT_END
 95
        8
302
GRIDFORMAT
  1
GRIDFORMAT_BEGIN
 90
        0
 91
        1
 62
     0
 92
       -2
340
0
 93
        0
 40
1.125
309
GRIDFORMAT_END
 95
       16
302
GRIDFORMAT
  1
GRIDFORMAT_BEGIN
 90
        0
 91
        1
 62
     0
 92
       -2
340
0
 93
        0
 40
1.125
309
GRIDFORMAT_END
 95
       32
302
GRIDFORMAT
  1
GRIDFORMAT_BEGIN
 90
        0
 91
        1
 62
     0
 92
       -2
340
0
 93
        0
 40
1.125
309
GRIDFORMAT_END
309
TABLEFORMAT_END
  1
CELLSTYLE_BEGIN
 90
        2
 91
        1
300
_HEADER
309
CELLSTYLE_END
300
CELLSTYLE
  1
TABLEFORMAT_BEGIN
 90
        5
170
     1
 91
        0
 92
        0
 62
   257
 93
        1
300
CONTENTFORMAT
  1
CONTENTFORMAT_BEGIN
 90
        0
 91
        0
 92
      512
 93
        0
300

 40
0.0
140
1.0
 94
        2
 62
     0
340
F
144
4.5
309
CONTENTFORMAT_END
171
     1
301
MARGIN
  1
CELLMARGIN_BEGIN
 40
1.5
 40
1.5
 40
1.5
 40
1.5
 40
4.5
 40
4.5
309
CELLMARGIN_END
 94
        6
 95
        1
302
GRIDFORMAT
  1
GRIDFORMAT_BEGIN
 90
        0
 91
        1
 62
     0
 92
       -2
340
0
 93
        0
 40
1.125
309
GRIDFORMAT_END
 95
        2
302
GRIDFORMAT
  1
GRIDFORMAT_BEGIN
 90
        0
 91
        1
 62
     0
 92
       -2
340
0
 93
        0
 40
1.125
309
GRIDFORMAT_END
 95
        4
302
GRIDFORMAT
  1
GRIDFORMAT_BEGIN
 90
        0
 91
        1
 62
     0
 92
       -2
340
0
 93
        0
 40
1.125
309
GRIDFORMAT_END
 95
        8
302
GRIDFORMAT
  1
GRIDFORMAT_BEGIN
 90
        0
 91
        1
 62
     0
 92
       -2
340
0
 93
        0
 40
1.125
309
GRIDFORMAT_END
 95
       16
302
GRIDFORMAT
  1
GRIDFORMAT_BEGIN
 90
        0
 91
        1
 62
     0
 92
       -2
340
0
 93
        0
 40
1.125
309
GRIDFORMAT_END
 95
       32
302
GRIDFORMAT
  1
GRIDFORMAT_BEGIN
 90
        0
 91
        1
 62
     0
 92
       -2
340
0
 93
        0
 40
1.125
309
GRIDFORMAT_END
309
TABLEFORMAT_END
  1
CELLSTYLE_BEGIN
 90
        3
 91
        2
300
_DATA
309
CELLSTYLE_END
  0
XRECORD
  5
3101
102
{ACAD_REACTORS
330
30FB
102
}
330
30FB
100
AcDbXrecord
280
     1
102
ACAD_ROUNDTRIP_PRE2007_TABLESTYLE
 90
      512
 91
        0
  1

 92
      512
 93
        0
  2

 94
      512
 95
        0
  3

  0
ACAD_PROXY_OBJECT
  5
2A4F
330
2A4E
100
AcDbProxyObject
 90
      499
 91
      552
 95
   851991
 70
     0
 93
       96
310
57020E80A0280A0280A02808CC
 94
        0
  0
ACAD_PROXY_OBJECT
  5
2A50
330
2A4E
100
AcDbProxyObject
 90
      499
 91
      553
 95
   851991
 70
     0
 93
      332
310
5710E405014050140501405014050140501405014250140501405014050140501200000000000000040C
340
27B2
 94
        0
  0
ACAD_PROXY_OBJECT
  5
2A51
330
2A4E
100
AcDbProxyObject
 90
      499
 91
      554
 95
   851991
 70
     0
 93
      402
310
570C199999999999E99F91F405014050140501405014050140501405014050140501405014050140501405014050140501404C
340
0
 94
        0
  0
ACAD_PROXY_OBJECT
  5
2A52
330
2A4E
100
AcDbProxyObject
 90
      499
 91
      555
 95
   851991
 70
     0
 93
       10
310
570C
 94
        0
  0
ACAD_PROXY_OBJECT
  5
2A53
330
2A4E
100
AcDbProxyObject
 90
      499
 91
      556
 95
   851991
 70
     0
 93
      223
310
572290EA22A7D90F49F9353333333333727F44D4CCCCCCCCCDC9FA04
340
27AD
340
27AE
 94
        0
  0
ACAD_PROXY_OBJECT
  5
2A54
330
2A4E
100
AcDbProxyObject
 90
      499
 91
      557
 95
   851991
 70
     0
 93
    12881
310
5710E4112551153501411413D4CB901405014069011349A4F2590CB64FD3347454E545241434F2C4954412C302C504F532E2C47454E54524154582C25732C2847454E4D53472067656E647767203232322940690120281A8AA2CA0281A8AA602028120280A03202269349E4B2196C9FA648E8A9CA8A482869E5892A8825860
310
58A2A980588E8A9CA8A482A8B0584AE658508E8A9C9AA68E40CECADCC8EECE406464665280D202405044E414D45405044E4F4D454051C40640A8BA5C2E97CBE502404CD1D15395149050D3CB1255104B0C0B1393D3514B11D15395149055160B095CCB0A11D1539354D1C819D95B991DD9C80C8C8D8A50190B3D424C4F434B
310
3A4E414D4540480A0A888AA686A480A16888AA686A492B4929E9C8A80A3A80C81D10782C06030180C809D23A2A72A2920A1A79624AA209618162222A9A1A924AD24A7A7229623A2A72A2920AA2C1612B9961423A2A726A9A39033B2B7323BB39019189B94A024809014214D51053911054911014214D510539110549110147
310
501904A383BFDFEFF5FBFCFD3747454E545241434F2C4954412C302C5354414E444152442C47454E54524154582C25732C2847454E4D53472067656E64776720323138294049012028426A0AA22A924A0A620284A6A0AA22A924A0A622A028EA0320B41416D838E9017D9FA708E8A9CA8A482869E5892A8825860589A82A88
310
AA49282988A588E8A9CA8A482A8B0584AE658508E8A9C9AA68E40CECADCC8EECE406464625280D202405044E4F5445405044E4F54414051D40641A8BA5C2E97CBE5F23F4CD1D15395149050D3CB1255104B0C0B1393D5104B11D15395149055160B095CCB0A11D1539354D1C819D95B991DD9C80C8C8D4A501A40480A0CAC8
310
A9C889EA480A128C9EA49C92A89EA48A80A3A80C83D174B85D2F97CBE47E9C23A2A72A2920A1A79624AA209618162327A92724AA27A9229623A2A72A2920AA2C1612B9961423A2A726A9A39033B2B7323BB39019191A14A0348090141911154D0D48C90143511154D0D492569253D391480C90147501908A20F0580C060301
310
9013B47454E545241434F2C4954412C302C4445534352495A494F4E4520322C47454E54524154582C25732C2847454E4D53472067656E6477672033362940490120284A9AA20A72220A922192028529AA20A72220A92210192028EA0321347077FBFDFEBF7F9FA728E8A9CA8A482869E5892A882586058A6A8829C8882A488
310
4064588E8A9CA8A482A8B0584AE658508E8A9C9AA68E40CECADCC8EECE4064646052809202405094D4154455249414C324050B4D4154455249414C4520324051D40642A8282DB071D202FB3F4E51D15395149050D3CB1255104B0C0B135055115492505311480C8B11D15395149055160B095CCB0A11D1539354D1C819D95B
310
991DD9C80D0C0A501240480A089A82A6A680A0A9A82A6A68280A3A80A0485A0681174B85D2F97CBE47E99A3A2A72A2920A1A79624AA2096181626A0A9A9A09623A2A72A2920AA2C1612B9961423A2A726A9A39033B2B7323BB3901A1914A024809014154149250D150141941491569693D01475014090C409022E970BA5F2F
310
97C8FD3447454E545241434F2C4954412C302C5052455A5A4F2C47454E54524154582C25732C2847454E4D53472067656E6477672034332940490120281A224A6A028326A4A9AAA920A028EA028121A81A045D2E174BE5F2F91FA688E8A9CA8A482869E5892A8825860589A92A6AAA482588E8A9CA8A482A8B0584AE658508
310
E8A9C9AA68E40CECADCC8EECE406868528092024050E441022E07A17AD46E338FD1E004062B355AAD56AB7D8FCACD56AB55AADF63F41CF4F125511534F9014062B355AAD56AB7D8FCACD56AB55AADF63F41CF4F125511534F9014062431F8FC5E0F3B8FC90C7E3F1783CEE3F41CF4F125511534F9014062431F8FC5E0F3B8F
310
C90C7E3F1783CEE3F41CF4F125511534F90140A404ACD56AB55AADF63F2B355AAD56AB7D8FD073D3C4954454D3E405063D3C5154593E405018ACD56AB55AADF63F2B355AAD56AB7D8FD073D3C4954454D3E40640400ACD56AB55AADF63F2B355AAD56AB7D8FE8800000000000002081A0881A068120480A032208521122080
310
D21480D211480A1485214852050000000000003C2FC000000000000F0BF4050241C3BDF4F8D976EA23F0EF7D3E365DBA88FCB81E85EB51B8BE3FC80D069014090541D06901A5C0F42F5A8DC5F1FA0483A048098A0280CC
340
0
340
0
 94
        0
  0
ACAD_PROXY_OBJECT
  5
2A55
330
2A4E
100
AcDbProxyObject
 90
      499
 91
      558
 95
   851991
 70
     0
 93
      960
310
5700B81E85EB51B8CE3F4BCF511155105253080F11115510525317D3105091530F971414D0D05311480F11115510525317D05094D4D0D053114F92341C9A9999999999B93F26A666666666724FC000000000000E03F40000000000000040000000000000051000000000000002440478B81E85EB51B8CE3F00
340
27A9
340
27B1
 94
        0
  0
ACAD_PROXY_OBJECT
  5
2A56
330
2A4E
100
AcDbProxyObject
 90
      499
 91
      559
 95
   851991
 70
     0
 93
      745
310
570031703D0BD6A3719C7E999EA9A2A1AA24A7A7101E29A2A1AA24A7A72FA620A122A62FA324A929AA1F169E29A2A1AA24A7A72FA620A122A62FA620A9AA1F1353333333333B27EFF41C8823C4D4CCCCCCCCCEC9FC5C0F42F5A8DC671FCC
340
27A9
340
27B1
 94
        0
  0
ACAD_PROXY_OBJECT
  5
2A57
330
2A4E
100
AcDbProxyObject
 90
      499
 91
      560
 95
   851991
 70
     0
 93
      279
310
5702B8716D9CEF7C33F0A5723F0BD4A2F0FC295C8FC2F528BC3FA199999999999F99FC
 94
        0
  0
ACAD_PROXY_OBJECT
  5
2A58
330
2A4E
100
AcDbProxyObject
 90
      499
 91
      561
 95
   851991
 70
     0
 93
     5890
310
571084050B90142A40502405094D6F64656C6C6F2031405EA3D3C696628657175616C28486F6C653A7461707065642C223022292C222525632220486F6C653A6469612C20486F6C653A6E6F6D696E616C2022202220696628657175616C28486F6C653A756E6974732C223122292C2278222C222D22292022202220486F6C6
310
53A706974636864657363293E207B5C46414D4744543B787D203C696628657175616C28486F6C653A7465726D696E6174696F6E2C223022292C486F6C653A64657074682C225448525522293E5C507B5C46414D4744543B767D2525633C486F6C653A63746469613E207B5C46414D4744543B787D203C486F6C653A6374646
310
57074683E40640503405094D6F64656C6C6F2031405E33D3C696628657175616C28486F6C653A7461707065642C223022292C222525632220486F6C653A6469612C20486F6C653A6E6F6D696E616C2022202220696628657175616C28486F6C653A756E6974732C223122292C2278222C222D22292022202220486F6C653A7
310
06974636864657363293E207B5C46414D4744543B787D203C696628657175616C28486F6C653A7465726D696E6174696F6E2C223022292C486F6C653A64657074682C225448525522293E5C507B5C46414D4744543B777D2525633C486F6C653A63746469613E2058203C486F6C653A6374616E676C653E252564406405014
310
05094D6F64656C6C6F2031405B43D3C696628657175616C28486F6C653A7461707065642C223022292C222525632220486F6C653A6469612C20486F6C653A6E6F6D696E616C2022202220696628657175616C28486F6C653A756E6974732C223122292C2278222C222D22292022202220486F6C653A7069746368646573632
310
93E5C507B5C46414D4744543B787D203C696628657175616C28486F6C653A7465726D696E6174696F6E2C223022292C486F6C653A64657074682C225448525522293E4064051E405094D6F64656C6C6F20314050C3D3C535444503A444553433E40640515A8C
 94
        0
  0
ACAD_PROXY_OBJECT
  5
2A59
330
2A4E
100
AcDbProxyObject
 90
      499
 91
      538
 95
   851991
 70
     0
 93
       20
310
57101C
340
0
 94
        0
  0
ACAD_PROXY_OBJECT
  5
2A5A
330
2A4E
100
AcDbProxyObject
 90
      499
 91
      539
 95
   851991
 70
     0
 93
      258
310
57102000000000000380FC000000000000E03F408F0F9023C3E40DB18CCCFFFF8C
340
27B3
340
0
340
0
340
27B4
340
27B5
340
0
340
27B6
340
27B7
340
27B8
340
0
 94
        0
  0
ACAD_PROXY_OBJECT
  5
2A5B
330
2A4E
100
AcDbProxyObject
 90
      499
 91
      562
 95
   851991
 70
     0
 93
    13409
310
5711A023FFFFFFFD010300002E07A17AD46E2F8FC09010300002E07A17AD46E2F8FC080511454C454E434F20434F4F5244494E415445015011D15395149050D3CB1255104B0C0B1153115390D3C810D3D3D49112539055114B11D15395149055160B095CCB0A11D1539354D1C819D95B991A5B5E880CCC0A78000C00000000
310
0000000000000000000000007B14AE47E17AA43F2E07A17AD46E2F8FD021EC52B91F85EA90FCB81E85EB51B8BE3F40A014315105091531310481193D4924053B47454E545241434F2C4954412C302C544142454C4C4120464F52492C47454E54524154582C25732C2847454E4D53472067656E64696D7A20333129E0003000
310
000000000000000000000000000001EC52B91F85EA90FCB81E85EB51B8BE3F4087B14AE47E17AA43F2E07A17AD46E2F8FD0290B4410F4450240D04415014391244D05449074510C4350F000141D3D49251D253914053547454E545241434F2C4954412C302C4F524947494E452C47454E54524154582C25732C2847454E4D5
310
3472067656E64696D7A20312900010105002214000283A7A924A3A4A72280A6A8E8A9CA8A482869E5892A8825860589EA4928E929C8A588E8A9CA8A482A8B0584AE658508E8A9C9AA68E40CECADCC8D2DAF4406252000202080043E8000504464F524F014C91D15395149050D3CB1255104B0C0B1193D493CB11D153951490
310
55160B095CCB0A11D1539354D1C819D95B991A5B5E880C8A405163D3C486F6C654974656D3E3C486F6C65496E6465783E010104002234000280AC00A5E8E8A9CA8A482869E5892A882586058B0588E8A9CA8A482A8B0584AE658508E8A9C9AA68E40CECADCC8D2DAF4406652000202000040A800050159014BD1D153951490
310
50D3CB1255104B0C0B164B11D15395149055160B095CCB0A11D1539354D1C819D95B991A5B5E880D0A4000404000081D0000A02A40297A3A2A72A2920A1A79624AA20961816291623A2A72A2920AA2C1612B9961423A2A726A9A39033B2B73234B6BD101B148000808000104A000141954ACC0D0D0D0053447454E54524143
310
4F2C4954412C302C552B303434342C47454E54524154582C25732C2847454E4D53472067656E64696D7A203729000101030020B40002822827A99700A668E8A9CA8A482869E5892A882586058A09EA65C588E8A9CA8A482A8B0584AE658508E8A9C9AA68E40CECADCC8D2DAF4406268520002020A004068000506494E44494
310
345014D51D15395149050D3CB1255104B0C0B1253911250D14B11D15395149055160B095CCB0A11D1539354D1C819D95B991A5B5E880C4D4A400040414008750000A088C9EA49E0299A3A2A72A2920A1A79624AA209618162327A9279623A2A72A2920AA2C1612B9961423A2A726A9A39033B2B73234B6BD10189B14800080
310
8200112A000142D253911250D1481193D493C053A47454E545241434F2C4954412C302C494E4449434520464F524F2C47454E54524154582C25732C2847454E4D53472067656E64696D7A20313729000101050022740002819292A180A628E8A9CA8A482869E5892A8825860584A4A86588E8A9CA8A482A8B0584AE658508E
310
8A9C9AA68E40CECADCC8D2DAF4407052000202020041E80005035154C0014C91D15395149050D3CB1255104B0C0B1455300B11D15395149055160B095CCB0A11D1539354D1C819D95B991A5B5E880C4E4A400040418008A50000A16888AA686A492B4929E9C8A029D23A2A72A2920A1A79624AA209618162222A9A1A924AD2
310
4A7A7229623A2A72A2920AA2C1612B9961423A2A726A9A39033B2B73234B6BD10191814800080020010CA00014214D51053911054910053747454E545241434F2C4954412C302C5354414E444152442C47454E54524154582C25732C2847454E4D53472067656E64696D7A20323129000100040021B4878030026A66666666
310
67A4FE064D4CCCCCCCCCF49FC049A9999999999E93F809353333333333D27F0226A6666666667A4FE044D4CCCCCCCCCF49FC009A9999999999D93F801353333333333D27F0026A6666666667A4FE004D4CCCCCCCCCF49FC0D819703D0BD6A371BC7F03000000000000001020633B333333333032050F006004D4CCCCCCCCCF
310
49FC0C9A9999999999E93F819353333333333D27F0326A6666666667A4FE064D4CCCCCCCCCF49FC0C9A9999999999E93F801353333333333B27F0026A6666666667A4FE064D4CCCCCCCCCF49FC009A9999999999E93F81B032E07A17AD46E378FE06000000000000002040C6766666666660640A088800000021E000000890
310
000002260000008220E00020089000000206000200810000804C
340
0
340
0
340
0
340
0
 94
        0
  0
ACAD_PROXY_OBJECT
  5
2A5C
330
2A4E
100
AcDbProxyObject
 90
      499
 91
      541
 95
   851991
 70
     0
 93
     5766
310
5719741105394D2506414E53495F4342905394D257D512551554D15414E53495F54525F5265766973696F6E6C697374614191243202831372E307832322E30706F6C6C2E2941905394D257D0D1246202832382E307834302E30706F6C6C2E2941905394D257D1911412028382E357831312E30706F6C6C2E2941905394D257
310
D051242202831312E307831372E30706F6C6C2E2941905394D257D091244202832322E307833342E30706F6C6C2E2941905394D257D111245202833342E307834342E30706F6C6C2E2941905394D257D150544505394D24810D85C9D1A59DB1A5BC81050D0C414E53495F5449544C4541434310D85C9D1A59DB1A5BC81554D
310
0A414E53495F544954555344105394D24810D85C9D1A59DB1A5BC81050B414E53495F5449544C454144105394D24810D85C9D1A59DB1A5BC81110B414E53495F5449544C454444505394D24810D85C9D1A59DB1A5BC81110D0C414E53495F5449544C45444342116456C656E636F207265766973696F6E6920445F54525F45
310
505394D257D51497D4995D9A5CDA5BDB9B1A5CDD19116456C656E636F207265766973696F6E6920415F424C5F45505394D257D09317D4995D9A5CDA5BDB9B1A5CDD18516456C656E636F207265766973696F6E6920415F544C5F45505394D257D51317D4995D9A5CDA5BDB9B1A5CDD18516456C656E636F207265766973696
310
F6E6920445F424C5F45505394D257D09317D4995D9A5CDA5BDB9B1A5CDD19116456C656E636F207265766973696F6E6920445F544C5F45505394D257D51317D4995D9A5CDA5BDB9B1A5CDD19116456C656E636F207265766973696F6E6920415F42525F45505394D257D09497D4995D9A5CDA5BDB9B1A5CDD18516456C656E
310
636F207265766973696F6E6920415F54525F45505394D257D51497D4995D9A5CDA5BDB9B1A5CDD18516456C656E636F207265766973696F6E6920445F42525F45505394D257D09497D4995D9A5CDA5BDB9B1A5CDD190
 94
        0
  0
ACAD_PROXY_OBJECT
  5
1CE8
330
1CE6
100
AcDbProxyObject
 90
      499
 91
      527
 95
   851991
 70
     0
 93
       12
310
571C
 94
        0
  0
ACAD_PROXY_OBJECT
  5
1CE9
330
1CE6
100
AcDbProxyObject
 90
      499
 91
      528
 95
   851991
 70
     0
 93
       96
310
572A0E80A0280A0280A0280FCC
 94
        0
  0
ACAD_PROXY_OBJECT
  5
1CEA
330
1CE6
100
AcDbProxyObject
 90
      499
 91
      529
 95
   851991
 70
     0
 93
      272
310
5710E4050140501405014050140501405014050140D01405012C00000000000000406C
340
1BF3
 94
        0
  0
ACAD_PROXY_OBJECT
  5
1CEB
330
1CE6
100
AcDbProxyObject
 90
      499
 91
      530
 95
   851991
 70
     0
 93
      496
310
5728666666666667A67E199999999999E99FD22405014050140501405014050140501405014050140501405014050140501405014050140501405014050100
340
1BF4
 94
        0
  0
ACAD_PROXY_OBJECT
  5
1CEC
330
1CE6
100
AcDbProxyObject
 90
      499
 91
      531
 95
   851991
 70
     0
 93
       10
310
570C
 94
        0
  0
ACAD_PROXY_OBJECT
  5
1CED
330
1CE6
100
AcDbProxyObject
 90
      499
 91
      532
 95
   851991
 70
     0
 93
      223
310
572290EA22A7D90F49F8000000000000108140000000000000420204
340
1BF5
340
1BF6
 94
        0
  0
ACAD_PROXY_OBJECT
  5
1CEE
330
1CE6
100
AcDbProxyObject
 90
      499
 91
      533
 95
   851991
 70
     0
 93
    12879
310
5710E411255115350141141BDCCB90140501406901000000000000091013347454E545241434F2C4954412C302C506F732E2C47454E54524154582C25732C2847454E4D53472067656E647767203232322940690120281A8AA2CA0281A8BA702028120280A0320200000000000012202648E8A9CA8A482869E5892A8825860
310
58A2E9C0588E8A9CA8A482A8B0584AE658508E8A9C9AA68E40CECADCC8EECE406464665280D202405044E414D45405044E6F6D654051C40640A80000000000004E404CD1D15395149050D3CB1255104B0C0B139BDB594B11D15395149055160B095CCB0A11D1539354D1C819D95B991DD9C80C8C8D8A50190B3D424C4F434B
310
3A4E414D4540480A0A888AA686A480A1688CAE6C6E4D2F4D2DEDCCA80A3A80C81D0000000000100A2809D23A2A72A2920A1A79624AA209618162232B9B1B934BD34B7B7329623A2A72A2920AA2C1612B9961423A2A726A9A39033B2B7323BB39019189B94A034809014214D51053911054911014214DD185B99185C9910147
310
501904A000000000000125013747454E545241434F2C4954412C302C5374616E646172642C47454E54524154582C25732C2847454E4D53472067656E64776720323138294069012028426A0AA22A924A0A620284A6B0BA32B934B0B632A028EA0320B40000000000001CA02708E8A9CA8A482869E5892A8825860589AC2E8C
310
AE4D2C2D8CA588E8A9CA8A482A8B0584AE658508E8A9C9AA68E40CECADCC8EECE406464625280D202405044E4F5445405044E6F74614051D40641A80000000000003E404CD1D15395149050D3CB1255104B0C0B139BDD184B11D15395149055160B095CCB0A11D1539354D1C819D95B991DD9C80C8C8D4A501240480A0CAC8
310
A9C889EA480A128CDEE4DCD2E8DEE4CA80A3A80C83D00000000000007C809C23A2A72A2920A1A79624AA209618162337B93734BA37B9329623A2A72A2920AA2C1612B9961423A2A726A9A39033B2B7323BB39019191A14A0248090141911154D0D48C9014351195CD8DC9A5E9A5BDB99480C90147501908A00000000002014
310
5013B47454E545241434F2C4954412C302C4465736372697A696F6E6520322C47454E54524154582C25732C2847454E4D53472067656E6477672033362940490120284A9AA20A72220A922192028529BA30B73230B93210192028EA03213400000000000024A02728E8A9CA8A482869E5892A882586058A6E8C2DCC8C2E4C8
310
4064588E8A9CA8A482A8B0584AE658508E8A9C9AA68E40CECADCC8EECE4064646052809202405094D4154455249414C324050B4D6174657269616C6520324051D40642A8713D0AD7A37045404E51D15395149050D3CB1255104B0C0B13585D195C9A585B19480C8B11D15395149055160B095CCB0A11D1539354D1C819D95B
310
991DD9C80D0C0A501240480A089A82A6A680A0A9AC2E6E6C280A3A80A0485A068100000000000007C8099A3A2A72A2920A1A79624AA2096181626B0B9B9B09623A2A72A2920AA2C1612B9961423A2A726A9A39033B2B7323BB3901A1914A024809014154149250D150141941C995E9E9BD01475014090C4090200000000000
310
00F9013447454E545241434F2C4954412C302C5072657A7A6F2C47454E54524154582C25732C2847454E4D53472067656E6477672034332940490120281A224A6A028326B4B9BAB930A028EA028121A81A040000000000001F202688E8A9CA8A482869E5892A8825860589AD2E6EAE4C2588E8A9CA8A482A8B0584AE658508
310
E8A9C9AA68E40CECADCC8EECE406868528092024050E445020000000000000510107004060000000000000F9000000000000003E4041CF4F125511534F9014060000000000000F9000000000000003E4041CF4F125511534F9014060000000000000D100000000000000344041CF4F125511534F9014060000000000000D10
310
0000000000000344041CF4F125511534F90140A4040000000000003E400000000000000F901073D3C4954454D3E405063D3C5154593E4050180000000000003E400000000000000F901073D3C4954454D3E406404000000000000003E400000000000000F902888000000000000208081A0881A068120480A0322085211220
310
80D21480D211480A1485214852050000000000003C2FC000000000000F0BF4050241CCDCCCCCCCCCCEC3F3373333333333B0FC0000000000000C40480D0590140D04416406800000000000018808120480A026280A02
340
0
340
0
 94
        0
  0
ACAD_PROXY_OBJECT
  5
1CEF
330
1CE6
100
AcDbProxyObject
 90
      499
 91
      534
 95
   851991
 70
     0
 93
      864
310
5704000000000000144048CF4F11115510525317D3105091530F880A0F11115510525317D05094D4D0D053114F8A51141C9A9999999999B93F26A666666666724FC000000000000E03F4000000000000004000000000000005100000000000000244041C000000000000144000
340
14
340
1BE7
 94
        0
  0
ACAD_PROXY_OBJECT
  5
1CF0
330
1CE6
100
AcDbProxyObject
 90
      499
 91
      535
 95
   851991
 70
     0
 93
      745
310
5700B00000000000002880959E9E29A2A1AA24A7A72FA620A122A62FA324A929AA1F169E29A2A1AA24A7A72FA620A122A62FA620A9AA1F00000000000004880FF41C88A0E0000000000001220000000000000028800000000000000A204C
340
175
340
1BE7
 94
        0
  0
ACAD_PROXY_OBJECT
  5
1CF1
330
1CE6
100
AcDbProxyObject
 90
      499
 91
      536
 95
   851991
 70
     0
 93
      151
310
57280000000000000840A3D0A5723F0BD1F200
 94
        0
  0
ACAD_PROXY_OBJECT
  5
1CF2
330
1CE6
100
AcDbProxyObject
 90
      499
 91
      537
 95
   851991
 70
     0
 93
     5762
310
571084050B90142A40502405094D6F64656C6C6F2031405DC3D2525633C486F6C653A63746469613E2078203C486F6C653A637464657074683E20555C503C696628657175616C28486F6C653A7461707065642C223022292C222525632220486F6C653A6469612C20486F6C653A6E6F6D696E616C20222078202220486F6C6
310
53A70697463686465736320696628657175616C28486F6C653A7461707065642C223122292C222078202220486F6C653A74617064657074682C222229293E203C696628657175616C28486F6C653A7465726D696E6174696F6E2C223022292C22202F202220486F6C653A64657074682C222022293E40640503405094D6F64
310
656C6C6F2031405DD3D2525633C486F6C653A63746469613E2078203C486F6C653A6374616E676C653E2525645C503C696628657175616C28486F6C653A7461707065642C223022292C222525632220486F6C653A6469612C20486F6C653A6E6F6D696E616C20222078202220486F6C653A706974636864657363206966286
310
57175616C28486F6C653A7461707065642C223122292C222078202220486F6C653A74617064657074682C222229293E203C696628657175616C28486F6C653A7465726D696E6174696F6E2C223022292C22202F202220486F6C653A64657074682C222022293E40640501405094D6F64656C6C6F2031405B83D3C696628657
310
175616C28486F6C653A7461707065642C223022292C222525632220486F6C653A6469612C20486F6C653A6E6F6D696E616C20222078202220486F6C653A70697463686465736320696628657175616C28486F6C653A7461707065642C223122292C222078202220486F6C653A74617064657074682C222229293E203C69662
310
8657175616C28486F6C653A7465726D696E6174696F6E2C223022292C22202F202220486F6C653A64657074682C222022293E4064051E405094D6F64656C6C6F20314050C3D3C535444503A444553433E40640515A8C
 94
        0
  0
ACAD_PROXY_OBJECT
  5
1CF3
330
1CE6
100
AcDbProxyObject
 90
      499
 91
      538
 95
   851991
 70
     0
 93
       20
310
57101C
340
1CE7
 94
        0
  0
ACAD_PROXY_OBJECT
  5
1CF4
330
1CE6
100
AcDbProxyObject
 90
      499
 91
      539
 95
   851991
 70
     0
 93
      250
310
571020000000000000A1000000000000002440408F0F9023C3E409A0DCFFFF8C
340
1BFA
340
0
340
0
340
1BFB
340
1BFC
340
1BFD
340
1BFE
340
1BFF
340
1C04
340
0
 94
        0
  0
ACAD_PROXY_OBJECT
  5
1CF5
330
1CE6
100
AcDbProxyObject
 90
      499
 91
      540
 95
   851991
 70
     0
 93
    13755
310
5711A003FFFFFFFD0303000300000000000003100090303000300000000000003100080511456C656E636F20636F6F7264696E617465015011D15395149050D3CB1255104B0C0B115B195B98DBC818DBDBDC991A5B985D194B11D15395149055160B095CCB0A11D1539354D1C819D95B991A5B5E880CCC0A78000C00000000
310
000000000000000000000001000000000000031010240000000000000C4040A0143151858995B1B1848199BDC9A4053B47454E545241434F2C4954412C302C546162656C6C6120666F72692C47454E54524154582C25732C2847454E4D53472067656E64696D7A20333129E000300000000000000000000000000000000400
310
00000000000C40409000000000000031010290D44111409034110541D0C4350F4050E44D03449074510F000141D3DC9A59DA5B994053547454E545241434F2C4954412C302C4F726967696E652C47454E54524154582C25732C2847454E4D53472067656E64696D7A203129000101050022140002822337B93780A648E8A9C
310
A8A482869E5892A8825860588CDEE4DE588E8A9CA8A482A8B0584AE658508E8A9C9AA68E40CECADCC8D2DAF4406452029F9E9E27B934B3B4B71F1E24A31427A91424A9A12620A7259427B934B3B4B7149624A9A12620A7259424B73232BC149496111116111711149F1E24B73232BC1F00808200111A000140560052F47454
310
E545241434F2C4954412C302C582C47454E54524154582C25732C2847454E4D53472067656E64696D7A20332900010100002054000280AC80A5E8E8A9CA8A482869E5892A882586058B2588E8A9CA8A482A8B0584AE658508E8A9C9AA68E40CECADCC8D2DAF4406852000202000040E800050172014BD1D15395149050D3CB
310
1255104B0C0B1C8B11D15395149055160B095CCB0A11D1539354D1C819D95B991A5B5E880D8A400040400008250000A0CAA5660686868029A23A2A72A2920A1A79624AA209618162A95981A1A1A1623A2A72A2920AA2C1612B9961423A2A726A9A39033B2B73234B6BD101B948000808180105A000140C94958C053147454E
310
545241434F2C4954412C302C2525632C47454E54524154582C25732C2847454E4D53472067656E64696D7A203829000101010020F4000285A232B9B1B934BD34B7B73280A748E8A9CA8A482869E5892A88258605888CAE6C6E4D2F4D2DEDCCA588E8A9CA8A482A8B0584AE658508E8A9C9AA68E40CECADCC8D2DAF44064605
310
2000200080043280005085374616E64617264014DD1D15395149050D3CB1255104B0C0B14DD185B99185C990B11D15395149055160B095CCB0A11D1539354D1C819D95B991A5B5E880C8C4A4000400100086D0000A0E9EE4D2CED2DCCA029AA3A2A72A2920A1A79624AA2096181627B934B3B4B7329623A2A72A2920AA2C16
310
12B9961423A2A726A9A39033B2B73234B6BD10189480A026202020A0043E8000504506F732E014CD1D15395149050D3CB1255104B0C0B141BDCCB8B11D15395149055160B095CCB0A11D1539354D1C819D95B991A5B5E880C4D0A4000404140080D0000A0C92DCC8D2C6CA029AA3A2A72A2920A1A79624AA2096181624B732
310
34B1B29623A2A72A2920AA2C1612B9961423A2A726A9A39033B2B73234B6BD10189A94800080828010EA000142D25B991A58D948199BDC9BC053A47454E545241434F2C4954412C302C496E6469636520666F726F2C47454E54524154582C25732C2847454E4D53472067656E64696D7A20313729000101050022740002822
310
337B93780A668E8A9CA8A482869E5892A8825860588CDEE4DE588E8A9CA8A482A8B0584AE658508E8A9C9AA68E40CECADCC8D2DAF440626C52000202080044A80005035174E0014C91D15395149050D3CB1255104B0C0B145D380B11D15395149055160B095CCB0A11D1539354D1C819D95B991A5B5E880C4E4A4000404180
310
08A521E000000000000001CA040C00000000000034408080000000000006881010000000000000D102040000000000001A204080000000000003440818000000000000728103000000000000125020600000000004028A040000000000000034408000000000000004881000000000000000D102000000000000001A204000
310
000000000003440818000000000000508143C0000000000000039408180000000000006881030000000000000D102060000000000001A2040C00000000000034408180000000000006881030000000000000E5020600000000000024A040C00000000008051408000000000000006881000000000000000910200000000000
310
0001A2040000000000000034408180000000000006881030000000000000A10283A2000000087800000204000000818000002080000008280000020E00000080A24000000C
340
0
340
0
340
0
340
0
 94
        0
  0
ACAD_PROXY_OBJECT
  5
1CF6
330
1CE6
100
AcDbProxyObject
 90
      499
 91
      541
 95
   851991
 70
     0
 93
     7258
310
5719740D254D3D0649534F5F4133429254D3D7D5125513115051349534F5F42525F5265766973696F6E6C69737446111413478342028323937783834316D6D2920421254D3D7D04D1E0D11141327835202835393478323130326D6D29421254D3D7D04C9E0D51141337837202834323078323038306D6D29421254D3D7D04C
310
DE0DD1141347839202832393778313839326D6D29421254D3D7D04D1E0E50E41312028353934783834316D6D29419254D3D7D04C51141327834202835393478313638326D6D29421254D3D7D04C9E0D11141347838202832393778313638326D6D29421254D3D7D04D1E0E10E41332028323937783432306D6D29419254D3D
310
7D04CD104130202838343078313138396D6D2920419254D3D7D04C11141347835202832393778313035316D6D29421254D3D7D04D1E0D51141347836202832393778313236316D6D29421254D3D7D04D1E0D91141347837202832393778313437316D6D29421254D3D7D04D1E0DD1141327833202835393478313236316D6D
310
29421254D3D7D04C9E0CD1141337834202834323078313138396D6D29421254D3D7D04CDE0D110413478332028323937783633306D6D29421254D3D7D04D1E0CD1141337835202834323078313438366D6D29421254D3D7D04CDE0D51141337836202834323078313738336D6D29421254D3D7D04CDE0D9104133783320283
310
43230783839316D6D29421254D3D7D04CDE0CD0E41322028343230783539346D6D29419254D3D7D04C9124130783220283131383978313638326D6D29421254D3D7D04C1E0C90E41342028323937783231306D6D29419254D3D7D04D1124130783320283131383978323532336D6D29421254D3D7D04C1E0CD114131783420
310
2838343178323337386D6D29421254D3D7D04C5E0D11141317833202838343178313738336D6D29421254D3D7D04C5E0CD0243D254D3C810D85C9D1A59DB1A5BC81050A49534F5F5449544C454143D254D3C810D85C9D1A59DB1A5BC81090A49534F5F5449544C454241114456C656E636F207265766973696F6E695F54525
310
F44D254D3D7D51497D4995D9A5CDA5BDB9B1A5CDD114456C656E636F207265766973696F6E695F424C5F44D254D3D7D09317D4995D9A5CDA5BDB9B1A5CDD114456C656E636F207265766973696F6E695F544C5F44D254D3D7D51317D4995D9A5CDA5BDB9B1A5CDD114456C656E636F207265766973696F6E695F42525F44D2
310
54D3D7D09497D4995D9A5CDA5BDB9B1A5CDD0C
 94
        0
  0
ENDSEC
  0
EOF
