  0
SECTION
  2
HEADER
  9
$ACADVER
  1
AC1018
  9
$ACADMAINTVER
 70
   104
  9
$DWGCODEPAGE
  3
ANSI_1252
  9
$LASTSAVEDBY
  1
Achim
  9
$CUSTOMPROPERTYTAG
  1
AmdtFileType
  9
$CUSTOMPROPERTY
  1
84
  9
$INSBASE
 10
0.0
 20
0.0
 30
0.0
  9
$EXTMIN
 10
-79.60726625797452
 20
-200.0000000000018
 30
0.0
  9
$EXTMAX
 10
2395.284298979183
 20
623.9330583877572
 30
0.0
  9
$LIMMIN
 10
0.0
 20
0.0
  9
$LIMMAX
 10
420.0
 20
297.0
  9
$ORTHOMODE
 70
     1
  9
$REGENMODE
 70
     1
  9
$FILLMODE
 70
     1
  9
$QTEXTMODE
 70
     0
  9
$MIRRTEXT
 70
     1
  9
$LTSCALE
 40
20.0
  9
$ATTMODE
 70
     1
  9
$TEXTSIZE
 40
2.5
  9
$TRACEWID
 40
1.0
  9
$TEXTSTYLE
  7
STANDARD
  9
$CLAYER
  8
ASSI
  9
$CELTYPE
  6
BYLAYER
  9
$CECOLOR
 62
   256
  9
$CELTSCALE
 40
1.0
  9
$DISPSILH
 70
     0
  9
$DIMSCALE
 40
2.5
  9
$DIMASZ
 40
3.0
  9
$DIMEXO
 40
1.0
  9
$DIMDLI
 40
1.0
  9
$DIMRND
 40
0.0
  9
$DIMDLE
 40
0.0
  9
$DIMEXE
 40
1.0
  9
$DIMTP
 40
0.0
  9
$DIMTM
 40
0.0
  9
$DIMTXT
 40
3.0
  9
$DIMCEN
 40
0.09
  9
$DIMTSZ
 40
0.0
  9
$DIMTOL
 70
     0
  9
$DIMLIM
 70
     0
  9
$DIMTIH
 70
     0
  9
$DIMTOH
 70
     0
  9
$DIMSE1
 70
     0
  9
$DIMSE2
 70
     0
  9
$DIMTAD
 70
     1
  9
$DIMZIN
 70
    12
  9
$DIMBLK
  1

  9
$DIMASO
 70
     1
  9
$DIMSHO
 70
     1
  9
$DIMPOST
  1

  9
$DIMAPOST
  1

  9
$DIMALT
 70
     0
  9
$DIMALTD
 70
     2
  9
$DIMALTF
 40
25.4
  9
$DIMLFAC
 40
1.0
  9
$DIMTOFL
 70
     1
  9
$DIMTVP
 40
0.0
  9
$DIMTIX
 70
     0
  9
$DIMSOXD
 70
     0
  9
$DIMSAH
 70
     0
  9
$DIMBLK1
  1

  9
$DIMBLK2
  1

  9
$DIMSTYLE
  2
SCALA2_5
  9
$DIMCLRD
 70
     1
  9
$DIMCLRE
 70
     1
  9
$DIMCLRT
 70
     7
  9
$DIMTFAC
 40
0.2
  9
$DIMGAP
 40
1.0
  9
$DIMJUST
 70
     0
  9
$DIMSD1
 70
     0
  9
$DIMSD2
 70
     0
  9
$DIMTOLJ
 70
     1
  9
$DIMTZIN
 70
     0
  9
$DIMALTZ
 70
     0
  9
$DIMALTTZ
 70
     0
  9
$DIMUPT
 70
     0
  9
$DIMDEC
 70
     2
  9
$DIMTDEC
 70
     4
  9
$DIMALTU
 70
     2
  9
$DIMALTTD
 70
     2
  9
$DIMTXSTY
  7
SIMPLEX
  9
$DIMAUNIT
 70
     0
  9
$DIMADEC
 70
     0
  9
$DIMALTRND
 40
0.0
  9
$DIMAZIN
 70
     0
  9
$DIMDSEP
 70
    46
  9
$DIMATFIT
 70
     3
  9
$DIMFRAC
 70
     0
  9
$DIMLDRBLK
  1

  9
$DIMLUNIT
 70
     2
  9
$DIMLWD
 70
    -2
  9
$DIMLWE
 70
    -2
  9
$DIMTMOVE
 70
     0
  9
$LUNITS
 70
     2
  9
$LUPREC
 70
     4
  9
$SKETCHINC
 40
1.0
  9
$FILLETRAD
 40
10.0
  9
$AUNITS
 70
     0
  9
$AUPREC
 70
     0
  9
$MENU
  1
.
  9
$ELEVATION
 40
0.0
  9
$PELEVATION
 40
0.0
  9
$THICKNESS
 40
0.0
  9
$LIMCHECK
 70
     0
  9
$CHAMFERA
 40
10.0
  9
$CHAMFERB
 40
10.0
  9
$CHAMFERC
 40
20.0
  9
$CHAMFERD
 40
0.0
  9
$SKPOLY
 70
     0
  9
$TDCREATE
 40
2452088.722360475
  9
$TDUCREATE
 40
2452088.639027141
  9
$TDUPDATE
 40
2455404.437566412
  9
$TDUUPDATE
 40
2455404.354233079
  9
$TDINDWG
 40
0.5720814120
  9
$TDUSRTIMER
 40
0.5720814120
  9
$USRTIMER
 70
     1
  9
$ANGBASE
 50
0.0
  9
$ANGDIR
 70
     0
  9
$PDMODE
 70
     0
  9
$PDSIZE
 40
0.0
  9
$PLINEWID
 40
0.0
  9
$SPLFRAME
 70
     0
  9
$SPLINETYPE
 70
     6
  9
$SPLINESEGS
 70
     8
  9
$HANDSEED
  5
6B7B
  9
$SURFTAB1
 70
     6
  9
$SURFTAB2
 70
     6
  9
$SURFTYPE
 70
     6
  9
$SURFU
 70
     6
  9
$SURFV
 70
     6
  9
$UCSBASE
  2

  9
$UCSNAME
  2

  9
$UCSORG
 10
0.0
 20
0.0
 30
0.0
  9
$UCSXDIR
 10
1.0
 20
0.0
 30
0.0
  9
$UCSYDIR
 10
0.0
 20
1.0
 30
0.0
  9
$UCSORTHOREF
  2

  9
$UCSORTHOVIEW
 70
     0
  9
$UCSORGTOP
 10
0.0
 20
0.0
 30
0.0
  9
$UCSORGBOTTOM
 10
0.0
 20
0.0
 30
0.0
  9
$UCSORGLEFT
 10
0.0
 20
0.0
 30
0.0
  9
$UCSORGRIGHT
 10
0.0
 20
0.0
 30
0.0
  9
$UCSORGFRONT
 10
0.0
 20
0.0
 30
0.0
  9
$UCSORGBACK
 10
0.0
 20
0.0
 30
0.0
  9
$PUCSBASE
  2

  9
$PUCSNAME
  2

  9
$PUCSORG
 10
0.0
 20
0.0
 30
0.0
  9
$PUCSXDIR
 10
1.0
 20
0.0
 30
0.0
  9
$PUCSYDIR
 10
0.0
 20
1.0
 30
0.0
  9
$PUCSORTHOREF
  2

  9
$PUCSORTHOVIEW
 70
     0
  9
$PUCSORGTOP
 10
0.0
 20
0.0
 30
0.0
  9
$PUCSORGBOTTOM
 10
0.0
 20
0.0
 30
0.0
  9
$PUCSORGLEFT
 10
0.0
 20
0.0
 30
0.0
  9
$PUCSORGRIGHT
 10
0.0
 20
0.0
 30
0.0
  9
$PUCSORGFRONT
 10
0.0
 20
0.0
 30
0.0
  9
$PUCSORGBACK
 10
0.0
 20
0.0
 30
0.0
  9
$USERI1
 70
     0
  9
$USERI2
 70
     0
  9
$USERI3
 70
     0
  9
$USERI4
 70
     0
  9
$USERI5
 70
     0
  9
$USERR1
 40
0.0
  9
$USERR2
 40
0.0
  9
$USERR3
 40
0.0
  9
$USERR4
 40
0.0
  9
$USERR5
 40
0.0
  9
$WORLDVIEW
 70
     1
  9
$SHADEDGE
 70
     3
  9
$SHADEDIF
 70
    70
  9
$TILEMODE
 70
     1
  9
$MAXACTVP
 70
    48
  9
$PINSBASE
 10
0.0
 20
0.0
 30
0.0
  9
$PLIMCHECK
 70
     0
  9
$PEXTMIN
 10
1.000000000000000E+20
 20
1.000000000000000E+20
 30
1.000000000000000E+20
  9
$PEXTMAX
 10
-1.000000000000000E+20
 20
-1.000000000000000E+20
 30
-1.000000000000000E+20
  9
$PLIMMIN
 10
0.0
 20
0.0
  9
$PLIMMAX
 10
420.0
 20
297.0
  9
$UNITMODE
 70
     0
  9
$VISRETAIN
 70
     1
  9
$PLINEGEN
 70
     0
  9
$PSLTSCALE
 70
     1
  9
$TREEDEPTH
 70
  3020
  9
$CMLSTYLE
  2
STANDARD
  9
$CMLJUST
 70
     0
  9
$CMLSCALE
 40
20.0
  9
$PROXYGRAPHICS
 70
     1
  9
$MEASUREMENT
 70
     1
  9
$CELWEIGHT
370
    -1
  9
$ENDCAPS
280
     0
  9
$JOINSTYLE
280
     0
  9
$LWDISPLAY
290
     0
  9
$INSUNITS
 70
     0
  9
$HYPERLINKBASE
  1

  9
$STYLESHEET
  1

  9
$XEDIT
290
     1
  9
$CEPSNTYPE
380
     0
  9
$PSTYLEMODE
290
     1
  9
$FINGERPRINTGUID
  2
{B1CDB63C-46F3-11D6-99F9-000102212E7C}
  9
$VERSIONGUID
  2
{5115BCF3-A664-4008-BB48-7DFD6A146D38}
  9
$EXTNAMES
290
     1
  9
$PSVPSCALE
 40
0.0
  9
$OLESTARTUP
290
     0
  9
$SORTENTS
280
   127
  9
$INDEXCTL
280
     1
  9
$HIDETEXT
280
     0
  9
$XCLIPFRAME
290
     0
  9
$HALOGAP
280
     0
  9
$OBSCOLOR
 70
   257
  9
$OBSLTYPE
280
     0
  9
$INTERSECTIONDISPLAY
280
     0
  9
$INTERSECTIONCOLOR
 70
   257
  9
$DIMASSOC
280
     1
  9
$PROJECTNAME
  1

  0
ENDSEC
  0
SECTION
  2
CLASSES
  0
CLASS
  1
HATCH
  2
AcDbHatch
  3
ObjectDBX Classes
 90
        0
 91
        0
280
     0
281
     1
  0
CLASS
  1
ACDBDICTIONARYWDFLT
  2
AcDbDictionaryWithDefault
  3
ObjectDBX Classes
 90
        0
 91
        1
280
     0
281
     0
  0
CLASS
  1
ACDBPLACEHOLDER
  2
AcDbPlaceHolder
  3
ObjectDBX Classes
 90
        0
 91
        1
280
     0
281
     0
  0
CLASS
  1
LAYOUT
  2
AcDbLayout
  3
ObjectDBX Classes
 90
        0
 91
        2
280
     0
281
     0
  0
CLASS
  1
ACME_DOCUMENT
  2
AcMeDbDoc
  3
AcMeServices
 90
        0
 91
        0
280
     0
281
     0
  0
CLASS
  1
AMGSETTINGSOBJ
  2
AmgSettingsObj
  3
"AcadM|Product Description: AutoCAD Mechanical 2000|Company: Autodesk"
 90
        0
 91
        2
280
     0
281
     0
  0
CLASS
  1
ACMESCOPE
  2
AcMeScope
  3
AcMeServices
 90
        0
 91
        1
280
     0
281
     0
  0
CLASS
  1
ACMECOMMANDHISTORY
  2
AcMeCommandHistory
  3
AcMeServices
 90
        0
 91
        1
280
     0
281
     0
  0
CLASS
  1
ACIMSYSVARMAN
  2
AcImSysVarManager
  3
AcMeServices
 90
        0
 91
        2
280
     0
281
     0
  0
CLASS
  1
ACIMREALSYSVAR
  2
AcImRealSysVar
  3
AcMeServices
 90
        0
 91
        2
280
     0
281
     0
  0
CLASS
  1
ACIMINTSYSVAR
  2
AcImIntSysVar
  3
AcMeServices
 90
        0
 91
        1
280
     0
281
     0
  0
CLASS
  1
ACMEDRAWINGMAN
  2
AcMeDrawingMan
  3
AcMeServices
 90
        0
 91
        1
280
     0
281
     0
  0
CLASS
  1
ACMEVIEW
  2
AcMeView
  3
AcMeServices
 90
        0
 91
        1
280
     0
281
     0
  0
CLASS
  1
ACDBENTITYCACHE
  2
AcMeEntityCache
  3
AcMeServices
 90
        0
 91
        0
280
     0
281
     0
  0
CLASS
  1
GSMANAGER
  2
AcMeGSManager
  3
AcMeServices
 90
        0
 91
        0
280
     0
281
     0
  0
CLASS
  1
AMDTINTERNALREACTOR
  2
AmdtInternalReactor
  3
AcMeServices
 90
        0
 91
        0
280
     0
281
     0
  0
CLASS
  1
ACMESTATEMGR
  2
AcMeStateMgr
  3
AcMeServices
 90
        0
 91
        1
280
     0
281
     0
  0
CLASS
  1
ACGREFMASTER
  2
AcGrefMaster
  3
AcAttribServices
 90
        0
 91
        1
280
     0
281
     0
  0
CLASS
  1
ACME_DATABASE
  2
AcMeDbDatabase
  3
AcMeServices
 90
        0
 91
        0
280
     0
281
     0
  0
CLASS
  1
ACRFINSADJUSTERMGR
  2
AcRfInsAdjusterMgr
  3
AcMeServices
 90
        0
 91
        0
280
     0
281
     0
  0
CLASS
  1
ACGREFACADMASTER
  2
AcGrefacadMaster
  3
AcGrefServices
 90
        0
 91
        1
280
     0
281
     0
  0
CLASS
  1
AMIMASTER
  2
AmiMaster
  3
AmiServices
 90
        0
 91
        1
280
     0
281
     0
  0
CLASS
  1
ACMDATADICTIONARY
  2
AcmDataDictionary
  3
"AcmSymBB|Product Description: AutoCAD Mechanical 2000|Company: Autodesk"
 90
        0
 91
        1
280
     0
281
     0
  0
CLASS
  1
ACMDATAENTRYBLOCK
  2
AcmDataEntryBlock
  3
"AcmSymBB|Product Description: AutoCAD Mechanical 2000|Company: Autodesk"
 90
        0
 91
        1
280
     0
281
     0
  0
CLASS
  1
ACIMSTRSYSVAR
  2
AcImStrSysVar
  3
AcMeServices
 90
        0
 91
        1
280
     0
281
     0
  0
CLASS
  1
ACMSTANDARDISO
  2
AcmStandardISO
  3
"Amdt_StdImp|Product Description: AutoCAD Mechanical 2000|Company: Autodesk"
 90
        0
 91
        1
280
     0
281
     0
  0
CLASS
  1
AMGOBJPROPCFG
  2
AmgObjPropCfg
  3
"AmgLay|Product Description: AutoCAD Mechanical 2000|Company: Autodesk"
 90
        1
 91
        1
280
     0
281
     0
  0
CLASS
  1
AMDTEDGESTANDARDISO
  2
AmdtEdgeStdISO
  3
"Amdt_StdImp|Product Description: AutoCAD Mechanical 2000|Company: Autodesk"
 90
        0
 91
        1
280
     0
281
     0
  0
CLASS
  1
ACMSURFSTANDARDISO
  2
AcmSurfTextStdISO
  3
"Amdt_StdImp|Product Description: AutoCAD Mechanical 2000|Company: Autodesk"
 90
        0
 91
        1
280
     0
281
     0
  0
CLASS
  1
ACMFCFSTANDARDISO
  2
AcmFCFStdISO
  3
"Amdt_StdImp|Product Description: AutoCAD Mechanical 2000|Company: Autodesk"
 90
        0
 91
        1
280
     0
281
     0
  0
CLASS
  1
ACMWELDSTANDARDISO
  2
AcmWeldingStdISO
  3
"Amdt_StdImp|Product Description: AutoCAD Mechanical 2000|Company: Autodesk"
 90
        0
 91
        1
280
     0
281
     0
  0
CLASS
  1
ACMIDSTANDARDISO
  2
AcmIdStdISO
  3
"Amdt_StdImp|Product Description: AutoCAD Mechanical 2000|Company: Autodesk"
 90
        0
 91
        1
280
     0
281
     0
  0
CLASS
  1
ACMDATUMSTANDARDISO
  2
AcmDatumStdISO
  3
"Amdt_StdImp|Product Description: AutoCAD Mechanical 2000|Company: Autodesk"
 90
        0
 91
        1
280
     0
281
     0
  0
CLASS
  1
ACMBOMSTANDARDISO
  2
AcmBOMStdISO
  3
"Amdt_StdImp|Product Description: AutoCAD Mechanical 2000|Company: Autodesk"
 90
        0
 91
        1
280
     0
281
     0
  0
CLASS
  1
ACMDETAILSTANDARDISO
  2
AmdtDetailSymStdISO
  3
"Amdt_StdImp|Product Description: AutoCAD Mechanical 2000|Company: Autodesk"
 90
        0
 91
        1
280
     0
281
     0
  0
CLASS
  1
ACMSECTIONSTANDARDISO
  2
AmdtSectionSymStdISO
  3
"Amdt_StdImp|Product Description: AutoCAD Mechanical 2000|Company: Autodesk"
 90
        0
 91
        1
280
     0
281
     0
  0
CLASS
  1
ACMCENTERLINESTANDARDISO
  2
AmdtCenterLineStdISO
  3
"Amdt_StdImp|Product Description: AutoCAD Mechanical 2000|Company: Autodesk"
 90
        0
 91
        1
280
     0
281
     0
  0
CLASS
  1
ACMNOTESTANDARDISO
  2
AmdtNoteStdISO
  3
"Amdt_StdImp|Product Description: AutoCAD Mechanical 2000|Company: Autodesk"
 90
        0
 91
        1
280
     0
281
     0
  0
CLASS
  1
ACAMGLAYSTD
  2
AcAmgLayStd
  3
"AcAmgLayStd|Product Description: AutoCAD Mechanical 2000|Company: Autodesk"
 90
        0
 91
        2
280
     0
281
     0
  0
CLASS
  1
ACAMGDIMSTD
  2
AcAmgDimStd
  3
"AcAmgDimStd|Product Description: AutoCAD Mechanical 2000|Company: Autodesk"
 90
        0
 91
        2
280
     0
281
     0
  0
CLASS
  1
ACAMGHOLECHARTSTDISO
  2
AcAmgHoleChartStdISO
  3
ACMSYMBB_MODULE_NAME
 90
        0
 91
        1
280
     0
281
     0
  0
CLASS
  1
ACAMGTITLESTD
  2
AcAmgTitleStd
  3
"TITLEAPP"
 90
        0
 91
        2
280
     0
281
     0
  0
CLASS
  1
ACAMGFILTERDAT
  2
AcAmgFilterDat
  3
"AcadM|Product Description: AutoCAD Mechanical 2000|Company: Autodesk"
 90
        0
 91
        0
280
     0
281
     0
  0
CLASS
  1
AMDTFORMULAUPDATEDISPATCHER
  2
AmdtFormulaUpdateDispatcher
  3
AcMeServices
 90
        0
 91
        1
280
     0
281
     0
  0
CLASS
  1
LAYER_INDEX
  2
AcDbLayerIndex
  3
ObjectDBX Classes
 90
        0
 91
        1
280
     0
281
     0
  0
CLASS
  1
IDBUFFER
  2
AcDbIdBuffer
  3
ObjectDBX Classes
 90
        0
 91
        8
280
     0
281
     0
  0
CLASS
  1
DICTIONARYVAR
  2
AcDbDictionaryVar
  3
ObjectDBX Classes
 90
        0
 91
        5
280
     0
281
     0
  0
CLASS
  1
LONG_TRANSACTION
  2
AcDbLongTransaction
  3
ObjectDBX Classes
 90
        0
 91
        0
280
     0
281
     0
  0
CLASS
  1
LWPOLYLINE
  2
AcDbPolyline
  3
ObjectDBX Classes
 90
        0
 91
        0
280
     0
281
     1
  0
CLASS
  1
HATCH
  2
AcDbHatch
  3
ObjectDBX Classes
 90
        0
 91
        0
280
     0
281
     1
  0
CLASS
  1
XRECORD
  2
AcDbXrecord
  3
ObjectDBX Classes
 90
        0
 91
       28
280
     0
281
     0
  0
CLASS
  1
ACMSTANDARDANSI
  2
AcmStandardANSI
  3
"Amdt_StdImp|Product Description: AutoCAD Mechanical 2000|Company: Autodesk"
 90
        0
 91
        1
280
     0
281
     0
  0
CLASS
  1
ACMSURFSTANDARDANSI
  2
AcmSurfTextStdANSI
  3
"Amdt_StdImp|Product Description: AutoCAD Mechanical 2000|Company: Autodesk"
 90
        0
 91
        1
280
     0
281
     0
  0
CLASS
  1
ACMFCFSTANDARDANSI
  2
AcmFCFStdANSI
  3
"Amdt_StdImp|Product Description: AutoCAD Mechanical 2000|Company: Autodesk"
 90
        0
 91
        1
280
     0
281
     0
  0
CLASS
  1
ACMWELDSTANDARDANSI
  2
AcmWeldingStdANSI
  3
"Amdt_StdImp|Product Description: AutoCAD Mechanical 2000|Company: Autodesk"
 90
        0
 91
        1
280
     0
281
     0
  0
CLASS
  1
ACMIDSTANDARDANSI
  2
AcmIdStdANSI
  3
"Amdt_StdImp|Product Description: AutoCAD Mechanical 2000|Company: Autodesk"
 90
        0
 91
        1
280
     0
281
     0
  0
CLASS
  1
ACMDATUMSTANDARDANSI
  2
AcmDatumStdANSI
  3
"Amdt_StdImp|Product Description: AutoCAD Mechanical 2000|Company: Autodesk"
 90
        0
 91
        1
280
     0
281
     0
  0
CLASS
  1
ACMBOMSTANDARDANSI
  2
AcmBOMStdANSI
  3
"Amdt_StdImp|Product Description: AutoCAD Mechanical 2000|Company: Autodesk"
 90
        0
 91
        1
280
     0
281
     0
  0
CLASS
  1
ACMDETAILSTANDARDANSI
  2
AmdtDetailSymStdANSI
  3
"Amdt_StdImp|Product Description: AutoCAD Mechanical 2000|Company: Autodesk"
 90
        0
 91
        1
280
     0
281
     0
  0
CLASS
  1
ACMSECTIONSTANDARDANSI
  2
AmdtSectionSymStdANSI
  3
"Amdt_StdImp|Product Description: AutoCAD Mechanical 2000|Company: Autodesk"
 90
        0
 91
        1
280
     0
281
     0
  0
CLASS
  1
ACMCENTERLINESTANDARDANSI
  2
AmdtCenterLineStdANSI
  3
"Amdt_StdImp|Product Description: AutoCAD Mechanical 2000|Company: Autodesk"
 90
        0
 91
        1
280
     0
281
     0
  0
CLASS
  1
ACMNOTESTANDARDANSI
  2
AmdtNoteStdANSI
  3
"Amdt_StdImp|Product Description: AutoCAD Mechanical 2000|Company: Autodesk"
 90
        0
 91
        1
280
     0
281
     0
  0
CLASS
  1
ACAMGHOLECHARTSTDANSI
  2
AcAmgHoleChartStdANSI
  3
ACMSYMBB_MODULE_NAME
 90
        0
 91
        1
280
     0
281
     0
  0
CLASS
  1
LONG_TRANSACTION
  2
AcDbLongTransaction
  3
ObjectDBX Classes
 90
        0
 91
        0
280
     0
281
     0
  0
CLASS
  1
LWPOLYLINE
  2
AcDbPolyline
  3
ObjectDBX Classes
 90
        0
 91
        0
280
     0
281
     1
  0
CLASS
  1
HATCH
  2
AcDbHatch
  3
ObjectDBX Classes
 90
        0
 91
        0
280
     0
281
     1
  0
CLASS
  1
XRECORD
  2
AcDbXrecord
  3
ObjectDBX Classes
 90
        0
 91
       28
280
     0
281
     0
  0
CLASS
  1
MATERIAL
  2
AcDbMaterial
  3
ObjectDBX Classes
 90
     1153
 91
        3
280
     0
281
     0
  0
CLASS
  1
VISUALSTYLE
  2
AcDbVisualStyle
  3
ObjectDBX Classes
 90
     4095
 91
       16
280
     0
281
     0
  0
CLASS
  1
TABLESTYLE
  2
AcDbTableStyle
  3
ObjectDBX Classes
 90
     4095
 91
        1
280
     0
281
     0
  0
CLASS
  1
SCALE
  2
AcDbScale
  3
ObjectDBX Classes
 90
     1153
 91
       33
280
     0
281
     0
  0
CLASS
  1
MLEADERSTYLE
  2
AcDbMLeaderStyle
  3
ACDB_MLEADERSTYLE_CLASS
 90
     4095
 91
        1
280
     0
281
     0
  0
CLASS
  1
CELLSTYLEMAP
  2
AcDbCellStyleMap
  3
ObjectDBX Classes
 90
     1152
 91
        1
280
     0
281
     0
  0
ENDSEC
  0
SECTION
  2
TABLES
  0
TABLE
  2
VPORT
  5
8
330
0
100
AcDbSymbolTable
 70
     1
  0
VPORT
  5
6B16
330
8
100
AcDbSymbolTableRecord
100
AcDbViewportTableRecord
  2
*Active
 70
     0
 10
0.0
 20
0.0
 11
1.0
 21
1.0
 12
1240.652914383719
 22
211.969774715527
 13
0.0
 23
0.0
 14
10.0
 24
10.0
 15
10.0
 25
10.0
 16
0.0
 26
0.0
 36
1.0
 17
0.0
 27
0.0
 37
0.0
 40
1525.589974315855
 41
1.739910313901345
 42
50.0
 43
0.0
 44
0.0
 50
0.0
 51
0.0
 71
     0
 72
  1234
 73
     1
 74
     0
 75
     0
 76
     0
 77
     0
 78
     0
281
     0
 65
     1
110
0.0
120
0.0
130
0.0
111
1.0
121
0.0
131
0.0
112
0.0
122
1.0
132
0.0
 79
     0
146
0.0
  0
ENDTAB
  0
TABLE
  2
LTYPE
  5
5
330
0
100
AcDbSymbolTable
 70
    16
  0
LTYPE
  5
12
330
5
100
AcDbSymbolTableRecord
100
AcDbLinetypeTableRecord
  2
BYBLOCK
 70
     0
  3

 72
    65
 73
     0
 40
0.0
  0
LTYPE
  5
13
330
5
100
AcDbSymbolTableRecord
100
AcDbLinetypeTableRecord
  2
BYLAYER
 70
     0
  3

 72
    65
 73
     0
 40
0.0
  0
LTYPE
  5
14
330
5
100
AcDbSymbolTableRecord
100
AcDbLinetypeTableRecord
  2
CONTINUOUS
 70
     0
  3
Solid line
 72
    65
 73
     0
 40
0.0
  0
LTYPE
  5
15F
330
5
100
AcDbSymbolTableRecord
100
AcDbLinetypeTableRecord
  2
CENTER
 70
     0
  3
____ _ ____ _ ____ _ ____ _ ____ _ ____ _ ____ 
 72
    65
 73
     4
 40
2.0
 49
1.25
 74
     0
 49
-0.25
 74
     0
 49
0.25
 74
     0
 49
-0.25
 74
     0
  0
LTYPE
  5
160
330
5
100
AcDbSymbolTableRecord
100
AcDbLinetypeTableRecord
  2
DASHED
 70
     0
  3
__ __ __ __ __ __ __ __ __ __ __ __ __ __ __ __
 72
    65
 73
     2
 40
0.75
 49
0.5
 74
     0
 49
-0.25
 74
     0
  0
LTYPE
  5
48E4
330
5
100
AcDbSymbolTableRecord
100
AcDbLinetypeTableRecord
  2
AM_ISO02W050
 70
     0
  3
__ __ __ __ __ __ __ __ __ __ __ __ __ __ __
 72
    65
 73
     2
 40
7.5
 49
6.0
 74
     0
 49
-1.5
 74
     0
  0
LTYPE
  5
48E5
330
5
100
AcDbSymbolTableRecord
100
AcDbLinetypeTableRecord
  2
AM_ISO08W050
 70
     0
  3
____ . ____ . ____ . ____ . ____ . ____ . ____
 72
    65
 73
     4
 40
18.0
 49
12.0
 74
     0
 49
-1.5
 74
     0
 49
3.0
 74
     0
 49
-1.5
 74
     0
  0
LTYPE
  5
48E6
330
5
100
AcDbSymbolTableRecord
100
AcDbLinetypeTableRecord
  2
AM_ISO09W050
 70
     0
  3
_____ . . _____ . . _____ . . ____ .. ____
 72
    65
 73
     6
 40
22.5
 49
12.0
 74
     0
 49
-1.5
 74
     0
 49
3.0
 74
     0
 49
-1.5
 74
     0
 49
3.0
 74
     0
 49
-1.5
 74
     0
  0
LTYPE
  5
48E7
330
5
100
AcDbSymbolTableRecord
100
AcDbLinetypeTableRecord
  2
Amconstr
 70
     0
  3
_______________________
 72
    65
 73
     2
 40
9999.0
 49
9999.0
 74
     0
 49
0.0
 74
     0
  0
LTYPE
  5
48E8
330
5
100
AcDbSymbolTableRecord
100
AcDbLinetypeTableRecord
  2
AM_ISO08W050x2
 70
     0
  3
__ . __ . __ . __ . __ . __
 72
    65
 73
     4
 40
9.0
 49
6.0
 74
     0
 49
-0.75
 74
     0
 49
1.5
 74
     0
 49
-0.75
 74
     0
  0
LTYPE
  5
48E9
330
5
100
AcDbSymbolTableRecord
100
AcDbLinetypeTableRecord
  2
AM_ISO02W050x2
 70
     0
  3
 _ _ _ _ _ _ _ _ _ _ _ _
 72
    65
 73
     2
 40
3.75
 49
3.0
 74
     0
 49
-0.75
 74
     0
  0
LTYPE
  5
48EC
330
5
100
AcDbSymbolTableRecord
100
AcDbLinetypeTableRecord
  2
Amzigzag
 70
     0
  3
/\/-/\/-/\/-/\/-/\/-/\/
 72
    65
 73
     2
 40
11.0001
 49
0.0001
 74
     4
 75
   135
340
48EB
 46
0.04
 50
0.0
 44
0.0
 45
0.0
 49
-11.0
 74
     0
  0
LTYPE
  5
48FA
330
5
100
AcDbSymbolTableRecord
100
AcDbLinetypeTableRecord
  2
ACISOWELD
 70
     0
  3
_ _ _ _ _
 72
    65
 73
     2
 40
2.0
 49
2.0
 74
     0
 49
-1.0
 74
     0
  0
LTYPE
  5
48FB
330
5
100
AcDbSymbolTableRecord
100
AcDbLinetypeTableRecord
  2
ACISOTGB
 70
     0
  3
__ . . __ . .
 72
    65
 73
     6
 40
9.0
 49
4.0
 74
     0
 49
-1.0
 74
     0
 49
1.0
 74
     0
 49
-1.0
 74
     0
 49
1.0
 74
     0
 49
-1.0
 74
     0
  0
LTYPE
  5
48FC
330
5
100
AcDbSymbolTableRecord
100
AcDbLinetypeTableRecord
  2
ACISOTGL
 70
     0
  3
_ _ _ _ _
 72
    65
 73
     2
 40
3.0
 49
2.0
 74
     0
 49
-1.0
 74
     0
  0
LTYPE
  5
690B
330
5
100
AcDbSymbolTableRecord
100
AcDbLinetypeTableRecord
  2
PHANTOM2
 70
     0
  3
Phantom (.5x) ___ _ _ ___ _ _ ___ _ _ ___ _ _
 72
    65
 73
     6
 40
1.25
 49
0.625
 74
     0
 49
-0.125
 74
     0
 49
0.125
 74
     0
 49
-0.125
 74
     0
 49
0.125
 74
     0
 49
-0.125
 74
     0
  0
LTYPE
  5
690F
330
5
100
AcDbSymbolTableRecord
100
AcDbLinetypeTableRecord
  2
ACANSTGB
 70
     0
  3
__ . . __ . .
 72
    65
 73
     6
 40
0.35433070866
 49
0.15748031496
 74
     0
 49
-0.03937007874
 74
     0
 49
0.03937007874
 74
     0
 49
-0.03937007874
 74
     0
 49
0.03937007874
 74
     0
 49
-0.03937007874
 74
     0
  0
LTYPE
  5
6910
330
5
100
AcDbSymbolTableRecord
100
AcDbLinetypeTableRecord
  2
ACANSTGL
 70
     0
  3
_ _ _ _ _
 72
    65
 73
     2
 40
0.11811023622
 49
0.07874015748
 74
     0
 49
-0.03937007874
 74
     0
  0
ENDTAB
  0
TABLE
  2
LAYER
  5
2
102
{ACAD_XDICTIONARY
360
67CD
102
}
330
0
100
AcDbSymbolTable
 70
     8
  0
LAYER
  5
E
330
2
100
AcDbSymbolTableRecord
100
AcDbLayerTableRecord
  2
0
 70
     0
 62
     7
  6
CONTINUOUS
370
    -3
390
48B9
  0
LAYER
  5
161
330
2
100
AcDbSymbolTableRecord
100
AcDbLayerTableRecord
  2
DISEGNO
 70
     0
 62
     7
  6
CONTINUOUS
370
    -3
390
48B9
  0
LAYER
  5
162
330
2
100
AcDbSymbolTableRecord
100
AcDbLayerTableRecord
  2
ASSI
 70
     0
 62
     2
  6
CENTER
370
    -3
390
48B9
  0
LAYER
  5
163
330
2
100
AcDbSymbolTableRecord
100
AcDbLayerTableRecord
  2
NORMALI
 70
     0
 62
     6
  6
CONTINUOUS
370
    -3
390
48B9
  0
LAYER
  5
165
330
2
100
AcDbSymbolTableRecord
100
AcDbLayerTableRecord
  2
NORM_TR
 70
     0
 62
     6
  6
DASHED
370
    -3
390
48B9
  0
LAYER
  5
4929
330
2
100
AcDbSymbolTableRecord
100
AcDbLayerTableRecord
  2
Defpoints
 70
     0
 62
     7
  6
CONTINUOUS
290
     0
370
    -3
390
48B9
  0
LAYER
  5
69C7
330
2
100
AcDbSymbolTableRecord
100
AcDbLayerTableRecord
  2
4360018_C-TLM TCR_S 220_280 ø32 ø25.iam.1-Spigoli visibili
 70
     0
 62
     7
  6
CONTINUOUS
370
    30
390
48B9
  0
LAYER
  5
6A42
330
2
100
AcDbSymbolTableRecord
100
AcDbLayerTableRecord
  2
9180143-Complessivo di montaggio.iam.1-Spigoli visibili
 70
     0
 62
     7
  6
CONTINUOUS
370
    30
390
48B9
  0
ENDTAB
  0
TABLE
  2
STYLE
  5
3
330
0
100
AcDbSymbolTable
 70
     7
  0
STYLE
  5
F
330
3
100
AcDbSymbolTableRecord
100
AcDbTextStyleTableRecord
  2
STANDARD
 70
     0
 40
0.0
 41
1.0
 50
0.0
 71
     0
 42
2.5
  3
txt
  4

  0
STYLE
  5
16A
330
3
100
AcDbSymbolTableRecord
100
AcDbTextStyleTableRecord
  2
SIMPLEX
 70
     0
 40
0.0
 41
1.0
 50
0.0
 71
     0
 42
3.0
  3
SIMPLEX.shx
  4

  0
STYLE
  5
48EB
330
3
100
AcDbSymbolTableRecord
100
AcDbTextStyleTableRecord
  2

 70
     1
 40
0.0
 41
1.0
 50
0.0
 71
     0
 42
2.5
  3
ltypeshp.shx
  4

  0
STYLE
  5
48ED
330
3
100
AcDbSymbolTableRecord
100
AcDbTextStyleTableRecord
  2
ACISOTS
 70
     0
 40
1.0
 41
1.0
 50
0.0
 71
     0
 42
2.5
  3
isocp.shx
  4

  0
STYLE
  5
48F9
330
3
100
AcDbSymbolTableRecord
100
AcDbTextStyleTableRecord
  2
ACISOGDT
 70
     0
 40
0.0
 41
1.0
 50
0.0
 71
     0
 42
2.5
  3
amgdt.shx
  4

  0
STYLE
  5
6911
330
3
100
AcDbSymbolTableRecord
100
AcDbTextStyleTableRecord
  2
ACANSTS
 70
     0
 40
1.0
 41
1.0
 50
0.0
 71
     0
 42
3.0
  3
romans.shx
  4

  0
STYLE
  5
6912
330
3
100
AcDbSymbolTableRecord
100
AcDbTextStyleTableRecord
  2
ACANSGDT
 70
     0
 40
0.0
 41
1.0
 50
0.0
 71
     0
 42
3.0
  3
amgdtans.shx
  4

  0
ENDTAB
  0
TABLE
  2
VIEW
  5
6
330
0
100
AcDbSymbolTable
 70
     0
  0
ENDTAB
  0
TABLE
  2
UCS
  5
7
330
0
100
AcDbSymbolTable
 70
     0
  0
ENDTAB
  0
TABLE
  2
APPID
  5
9
330
0
100
AcDbSymbolTable
 70
    11
  0
APPID
  5
10
330
9
100
AcDbSymbolTableRecord
100
AcDbRegAppTableRecord
  2
ACAD
 70
     0
  0
APPID
  5
20
330
9
100
AcDbSymbolTableRecord
100
AcDbRegAppTableRecord
  2
ZIMM
 70
     0
  0
APPID
  5
16C
330
9
100
AcDbSymbolTableRecord
100
AcDbRegAppTableRecord
  2
COMAU_ACADLIB
 70
     0
  0
APPID
  5
48C6
330
9
100
AcDbSymbolTableRecord
100
AcDbRegAppTableRecord
  2
MCAD_NO_VIS
 70
     0
  0
APPID
  5
48C7
330
9
100
AcDbSymbolTableRecord
100
AcDbRegAppTableRecord
  2
ACAD_TEMP_GRAPHIC
 70
     0
  0
APPID
  5
48D8
330
9
100
AcDbSymbolTableRecord
100
AcDbRegAppTableRecord
  2
ACATTRIBSERVICES
 70
     0
  0
APPID
  5
69C8
330
9
100
AcDbSymbolTableRecord
100
AcDbRegAppTableRecord
  2
GENIUS_GENFIL_13
 70
     0
  0
APPID
  5
69C9
330
9
100
AcDbSymbolTableRecord
100
AcDbRegAppTableRecord
  2
GENIUS_GENOBJ-N-CHA_13
 70
     0
  0
APPID
  5
69CA
330
9
100
AcDbSymbolTableRecord
100
AcDbRegAppTableRecord
  2
GENIUS_GENODEF_13
 70
     0
  0
APPID
  5
6A96
330
9
100
AcDbSymbolTableRecord
100
AcDbRegAppTableRecord
  2
DCO15
 70
     0
  0
APPID
  5
6B69
330
9
100
AcDbSymbolTableRecord
100
AcDbRegAppTableRecord
  2
ACAD_MLEADERVER
 70
     0
  0
ENDTAB
  0
TABLE
  2
DIMSTYLE
  5
A
330
0
100
AcDbSymbolTable
 70
    15
100
AcDbDimStyleTable
 71
     1
340
16B
  0
DIMSTYLE
105
1D
330
A
100
AcDbSymbolTableRecord
100
AcDbDimStyleTableRecord
  2
STANDARD
 70
     0
340
F
  0
DIMSTYLE
105
16B
330
A
100
AcDbSymbolTableRecord
100
AcDbDimStyleTableRecord
  2
SCALA2_5
 70
     0
 40
2.5
 41
3.0
 42
1.0
 43
1.0
 44
1.0
 73
     0
 74
     0
 77
     1
 78
    12
140
3.0
146
0.2
147
1.0
172
     1
176
     1
177
     1
178
     7
271
     2
340
16A
  0
DIMSTYLE
105
4900
330
A
100
AcDbSymbolTableRecord
100
AcDbDimStyleTableRecord
  2
AM_ISO
 70
     0
  4
"
 41
2.5
 42
1.0
 43
10.0
 44
1.0
 47
0.1
 48
0.1
 73
     0
 74
     0
 77
     1
 78
     8
 79
     2
140
3.5
141
0.0
143
0.0393701
146
0.71
147
1.5
172
     1
176
   256
177
   256
178
     2
271
     2
272
     3
274
     4
283
     0
284
     8
340
F
371
    -1
372
    -1
  0
DIMSTYLE
105
4901
330
A
100
AcDbSymbolTableRecord
100
AcDbDimStyleTableRecord
  2
AM_ISO$3
 70
     0
  4
"
 41
2.5
 42
1.0
 43
10.0
 44
1.0
 47
0.1
 48
0.1
 73
     0
 77
     1
 78
     8
 79
     2
140
3.5
141
0.0
143
0.0393701
146
0.71
147
1.5
176
   256
177
   256
178
     2
271
     2
272
     3
274
     4
283
     0
284
     8
288
     1
289
     0
340
F
371
    -1
372
    -1
  0
DIMSTYLE
105
4902
330
A
100
AcDbSymbolTableRecord
100
AcDbDimStyleTableRecord
  2
AM_ISO$4
 70
     0
  4
"
 41
2.5
 42
1.0
 43
10.0
 44
1.0
 47
0.1
 48
0.1
 73
     0
 77
     1
 78
     8
 79
     2
140
3.5
141
0.0
143
0.0393701
146
0.71
147
1.5
176
   256
177
   256
178
     2
271
     2
272
     3
274
     4
283
     0
284
     8
288
     1
289
     0
340
F
371
    -1
372
    -1
  0
DIMSTYLE
105
4903
330
A
100
AcDbSymbolTableRecord
100
AcDbDimStyleTableRecord
  2
AM_ISO$6
 70
     0
  4
"
 41
2.5
 42
1.0
 43
10.0
 44
1.0
 47
0.1
 48
0.1
 73
     0
 74
     0
 78
     8
 79
     2
140
3.5
141
0.0
143
0.0393701
146
0.71
147
1.5
172
     1
176
   256
177
   256
178
     2
271
     2
272
     3
274
     4
283
     0
284
     8
340
F
371
    -1
372
    -1
  0
DIMSTYLE
105
4904
330
A
100
AcDbSymbolTableRecord
100
AcDbDimStyleTableRecord
  2
AM_ISO$7
 70
     0
  4
"
 41
2.5
 42
1.0
 43
10.0
 44
1.0
 47
0.1
 48
0.1
 73
     0
 74
     0
 77
     1
 78
     8
 79
     2
140
5.0
141
0.0
143
0.0393701
146
0.71
147
1.5
172
     1
176
   256
177
   256
178
     2
271
     2
272
     3
274
     4
283
     0
284
     8
340
F
371
    -1
372
    -1
  0
DIMSTYLE
105
4905
330
A
100
AcDbSymbolTableRecord
100
AcDbDimStyleTableRecord
  2
AM_ISO$SF
 70
     0
  4
"
 41
2.5
 42
1.0
 43
10.0
 44
1.0
 47
0.1
 48
0.1
 73
     0
 74
     0
 75
     1
 76
     1
 77
     1
 78
     8
 79
     2
140
3.5
141
0.0
143
0.0393701
146
0.71
147
1.5
172
     1
176
   256
177
   256
178
     2
271
     2
272
     3
274
     4
283
     0
284
     8
340
F
371
    -1
372
    -1
  0
DIMSTYLE
105
490A
330
A
100
AcDbSymbolTableRecord
100
AcDbDimStyleTableRecord
  2
AM_ISO$SH
 70
     0
  4
"
 41
2.5
 42
1.0
 43
10.0
 44
1.0
 47
0.1
 48
0.1
 73
     0
 74
     0
 75
     1
 76
     1
 77
     1
 78
     8
 79
     2
140
3.5
141
0.0
143
0.0393701
144
2.0
146
0.71
147
1.5
172
     1
173
     1
176
   256
177
   256
178
     2
271
     2
272
     3
274
     4
283
     0
284
     8
340
F
341
4906
343
4906
371
    -1
372
    -1
  0
DIMSTYLE
105
6913
330
A
100
AcDbSymbolTableRecord
100
AcDbDimStyleTableRecord
  2
AM_ANSI
 70
     0
  4
mm
 41
0.1
 42
0.05
 43
0.5
 44
0.1
 47
0.1
 48
0.1
 78
     7
 79
     2
140
0.12
141
0.0
146
0.71
147
0.06
176
   256
177
   256
178
     2
274
     4
284
     7
340
F
371
    -1
372
    -1
  0
DIMSTYLE
105
6914
330
A
100
AcDbSymbolTableRecord
100
AcDbDimStyleTableRecord
  2
AM_ANSI$3
 70
     0
  4
mm
 41
0.1
 42
0.05
 43
0.5
 44
0.1
 47
0.1
 48
0.1
 78
     7
 79
     2
140
0.12
141
0.0
146
0.71
147
0.06
176
   256
177
   256
178
     2
274
     4
284
     7
288
     1
289
     0
340
F
371
    -1
372
    -1
  0
DIMSTYLE
105
6915
330
A
100
AcDbSymbolTableRecord
100
AcDbDimStyleTableRecord
  2
AM_ANSI$4
 70
     0
  4
mm
 41
0.1
 42
0.05
 43
0.5
 44
0.1
 47
0.1
 48
0.1
 78
     7
 79
     2
140
0.12
141
0.0
146
0.71
147
0.06
176
   256
177
   256
178
     2
274
     4
284
     7
288
     1
289
     0
340
F
371
    -1
372
    -1
  0
DIMSTYLE
105
6916
330
A
100
AcDbSymbolTableRecord
100
AcDbDimStyleTableRecord
  2
AM_ANSI$7
 70
     0
  4
mm
 41
0.1
 42
0.05
 43
0.5
 44
0.1
 47
0.1
 48
0.1
 78
     7
 79
     2
140
0.24
141
0.0
146
0.71
147
0.06
176
   256
177
   256
178
     2
274
     4
284
     7
340
F
371
    -1
372
    -1
  0
DIMSTYLE
105
6917
330
A
100
AcDbSymbolTableRecord
100
AcDbDimStyleTableRecord
  2
AM_ANSI$SF
 70
     0
  4
mm
 41
0.1
 42
0.05
 43
0.5
 44
0.1
 47
0.1
 48
0.1
 75
     1
 76
     1
 78
     7
 79
     2
140
0.12
141
0.0
146
0.71
147
0.06
176
   256
177
   256
178
     2
274
     4
284
     7
340
F
371
    -1
372
    -1
  0
DIMSTYLE
105
6918
330
A
100
AcDbSymbolTableRecord
100
AcDbDimStyleTableRecord
  2
AM_ANSI$SH
 70
     0
  4
mm
 41
0.1
 42
0.05
 43
0.5
 44
0.1
 47
0.1
 48
0.1
 75
     1
 76
     1
 78
     7
 79
     2
140
0.12
141
0.0
146
0.71
147
0.06
173
     1
176
   256
177
   256
178
     2
274
     4
284
     7
340
F
343
4906
371
    -1
372
    -1
  0
ENDTAB
  0
TABLE
  2
BLOCK_RECORD
  5
1
330
0
100
AcDbSymbolTable
 70
     4
  0
BLOCK_RECORD
  5
18
102
{ACAD_XDICTIONARY
360
4950
102
}
330
1
100
AcDbSymbolTableRecord
100
AcDbBlockTableRecord
  2
*MODEL_SPACE
340
48BC
  0
BLOCK_RECORD
  5
15
102
{ACAD_XDICTIONARY
360
498B
102
}
330
1
100
AcDbSymbolTableRecord
100
AcDbBlockTableRecord
  2
*PAPER_SPACE
340
48BD
  0
BLOCK_RECORD
  5
4906
330
1
100
AcDbSymbolTableRecord
100
AcDbBlockTableRecord
  2
GENAXEH
340
0
  0
ENDTAB
  0
ENDSEC
  0
SECTION
  2
BLOCKS
  0
BLOCK
  5
19
330
18
100
AcDbEntity
  8
0
100
AcDbBlockBegin
  2
*MODEL_SPACE
 70
     0
 10
0.0
 20
0.0
 30
0.0
  3
*MODEL_SPACE
  1

  0
ENDBLK
  5
1A
330
18
100
AcDbEntity
  8
0
100
AcDbBlockEnd
  0
BLOCK
  5
16
330
15
100
AcDbEntity
 67
     1
  8
0
100
AcDbBlockBegin
  2
*PAPER_SPACE
 70
     0
 10
0.0
 20
0.0
 30
0.0
  3
*PAPER_SPACE
  1

  0
ENDBLK
  5
17
330
15
100
AcDbEntity
 67
     1
  8
0
100
AcDbBlockEnd
  0
BLOCK
  5
4908
330
4906
100
AcDbEntity
  8
0
100
AcDbBlockBegin
  2
GENAXEH
 70
     0
 10
0.0
 20
0.0
 30
0.0
  3
GENAXEH
  1

  0
LINE
  5
4907
330
4906
100
AcDbEntity
  8
0
100
AcDbLine
 10
-1.0
 20
0.0
 30
0.0
 11
1.0
 21
0.0
 31
0.0
  0
ENDBLK
  5
4909
330
4906
100
AcDbEntity
  8
0
100
AcDbBlockEnd
  0
ENDSEC
  0
SECTION
  2
ENTITIES
  0
LINE
  5
509
330
18
100
AcDbEntity
  8
DISEGNO
100
AcDbLine
 10
890.5877226386628
 20
37.5
 30
0.0
 11
890.5877226386637
 21
194.9999999999991
 31
0.0
  0
LINE
  5
50A
330
18
100
AcDbEntity
  8
NORMALI
100
AcDbLine
 10
2355.319786400567
 20
544.0181139781152
 30
0.0
 11
2352.319645224096
 21
541.0181139781152
 31
0.0
  0
LINE
  5
50B
330
18
100
AcDbEntity
  8
NORMALI
100
AcDbLine
 10
2352.319645224096
 20
501.0181139781152
 30
0.0
 11
2355.319786400567
 21
498.0181139781152
 31
0.0
  0
LINE
  5
50C
330
18
100
AcDbEntity
  8
DISEGNO
100
AcDbLine
 10
2395.284298979183
 20
591.0181139781188
 30
0.0
 11
2267.365564197441
 21
591.0181139781188
 31
0.0
  0
LINE
  5
50D
330
18
100
AcDbEntity
  8
ASSI
100
AcDbLine
 10
2386.505269945926
 20
521.0229582394013
 30
0.0
 11
2302.64963105913
 21
521.0229582394013
 31
0.0
  0
LINE
  5
50E
330
18
100
AcDbEntity
  8
DISEGNO
100
AcDbLine
 10
2267.784298979182
 20
571.0181139781162
 30
0.0
 11
2395.284298979182
 21
571.0181139781162
 31
0.0
  0
LINE
  5
511
330
18
100
AcDbEntity
  8
NORMALI
100
AcDbLine
 10
2385.071786400567
 20
571.0181139781152
 30
0.0
 11
2325.059786400566
 21
571.0181139781152
 31
0.0
  0
LINE
  5
513
330
18
100
AcDbEntity
  8
NORMALI
100
AcDbLine
 10
2361.816786400567
 20
501.0181139781152
 30
0.0
 11
2310.752786400567
 21
501.0181139781152
 31
0.0
  0
LINE
  5
514
330
18
100
AcDbEntity
  8
NORMALI
100
AcDbLine
 10
2361.816786400567
 20
541.0181139781152
 30
0.0
 11
2310.752786400567
 21
541.0181139781152
 31
0.0
  0
LINE
  5
515
330
18
100
AcDbEntity
  8
DISEGNO
100
AcDbLine
 10
1370.587722638663
 20
37.5
 30
0.0
 11
1370.587722638666
 21
194.9999999999959
 31
0.0
  0
LINE
  5
516
330
18
100
AcDbEntity
  8
DISEGNO
100
AcDbLine
 10
895.5877226386629
 20
-200.0000000000018
 30
0.0
 11
1365.587722638663
 21
-200.0000000000018
 31
0.0
  0
LINE
  5
517
330
18
100
AcDbEntity
  8
ASSI
100
AcDbLine
 10
489.1330032767077
 20
-0.0000000000002274
 30
0.0
 11
1920.721997363951
 21
0.0
 31
0.0
  0
LINE
  5
519
330
18
100
AcDbEntity
  8
DISEGNO
100
AcDbLine
 10
890.5877226386628
 20
-195.0000000000018
 30
0.0
 11
890.5877226386635
 21
37.5
 31
0.0
  0
LINE
  5
51B
330
18
100
AcDbEntity
  8
DISEGNO
100
AcDbLine
 10
890.5877226386634
 20
68.75300000000186
 30
0.0
 11
694.7607808791058
 21
68.7530000000022
 31
0.0
  0
LINE
  5
51D
330
18
100
AcDbEntity
  8
DISEGNO
100
AcDbLine
 10
674.7607808791058
 20
81.25300000000128
 30
0.0
 11
890.5877226386628
 21
81.25300000000152
 31
0.0
  0
LINE
  5
51E
330
18
100
AcDbEntity
  8
DISEGNO
100
AcDbLine
 10
659.7607808791058
 20
110.0
 30
0.0
 11
890.5877226386637
 21
109.9999999999991
 31
0.0
  0
LINE
  5
51F
330
18
100
AcDbEntity
  8
NORMALI
100
AcDbLine
 10
674.7607808791067
 20
115.9999999999995
 30
0.0
 11
890.5877226386637
 21
115.9999999999991
 31
0.0
  0
LINE
  5
520
330
18
100
AcDbEntity
  8
NORMALI
100
AcDbLine
 10
674.7607808791067
 20
125.9988487581304
 30
0.0
 11
890.5877226386628
 21
125.9988487581299
 31
0.0
  0
LINE
  5
521
330
18
100
AcDbEntity
  8
NORMALI
100
AcDbLine
 10
674.7607808791067
 20
-126.0
 30
0.0
 11
752.9977036966642
 21
-125.9999999999995
 31
0.0
  0
LINE
  5
522
330
18
100
AcDbEntity
  8
NORMALI
100
AcDbLine
 10
674.7607808791067
 20
-116.0
 30
0.0
 11
752.3581836945018
 21
-115.9999999999995
 31
0.0
  0
LINE
  5
523
330
18
100
AcDbEntity
  8
DISEGNO
100
AcDbLine
 10
659.7607808791058
 20
-110.0000000000004
 30
0.0
 11
759.0359832818672
 21
-109.9999999999995
 31
0.0
  0
LINE
  5
524
330
18
100
AcDbEntity
  8
DISEGNO
100
AcDbLine
 10
757.2466215758863
 20
-81.24699999999757
 30
0.0
 11
674.7607808791058
 21
-81.24699999999666
 31
0.0
  0
LINE
  5
525
330
18
100
AcDbEntity
  8
DISEGNO
100
AcDbLine
 10
694.7607808791058
 20
-68.7469999999978
 30
0.0
 11
756.468719397862
 21
-68.74699999999757
 31
0.0
  0
LINE
  5
527
330
18
100
AcDbEntity
  8
NORMALI
100
AcDbLine
 10
747.3379516775317
 20
-37.49999999999864
 30
0.0
 11
674.7607808791058
 21
-37.49999999999932
 31
0.0
  0
LINE
  5
528
330
18
100
AcDbEntity
  8
NORMALI
100
AcDbLine
 10
890.5877226386628
 20
37.5
 30
0.0
 11
674.7607808791058
 21
37.49999999999968
 31
0.0
  0
LINE
  5
52E
330
18
100
AcDbEntity
  8
DISEGNO
100
AcDbLine
 10
674.7607808791058
 20
109.9999999999991
 30
0.0
 11
674.7607808791058
 21
-110.0000000000009
 31
0.0
  0
LINE
  5
52F
330
18
100
AcDbEntity
  8
DISEGNO
100
AcDbLine
 10
659.7607808791058
 20
-110.0
 30
0.0
 11
659.7607808791058
 21
110.0
 31
0.0
  0
LINE
  5
531
330
18
100
AcDbEntity
  8
NORMALI
100
AcDbLine
 10
694.7607808791058
 20
-72.49999999999818
 30
0.0
 11
694.7607808791048
 21
-44.49999999999909
 31
0.0
  0
LINE
  5
536
330
18
100
AcDbEntity
  8
NORMALI
100
AcDbLine
 10
674.7607808791067
 20
-110.2499999999991
 30
0.0
 11
674.7607808791067
 21
-126.0
 31
0.0
  0
LINE
  5
538
330
18
100
AcDbEntity
  8
NORMALI
100
AcDbLine
 10
693.7607808791057
 20
-73.49999999999818
 30
0.0
 11
674.7607808791058
 21
-73.49999999999818
 31
0.0
  0
LINE
  5
539
330
18
100
AcDbEntity
  8
NORMALI
100
AcDbLine
 10
693.7607808791057
 20
-73.49999999999818
 30
0.0
 11
694.7607808791058
 21
-72.49999999999818
 31
0.0
  0
LINE
  5
53A
330
18
100
AcDbEntity
  8
NORMALI
100
AcDbLine
 10
693.7607808791057
 20
-73.49999999999818
 30
0.0
 11
693.7607808791057
 21
-66.09732145462067
 31
0.0
  0
LINE
  5
53F
330
18
100
AcDbEntity
  8
NORMALI
100
AcDbLine
 10
693.7607808791057
 20
-43.49999999999909
 30
0.0
 11
693.7607808791057
 21
-50.9026785453766
 31
0.0
  0
LINE
  5
541
330
18
100
AcDbEntity
  8
DISEGNO
100
AcDbLine
 10
659.7607808791067
 20
-45.99999999999909
 30
0.0
 11
674.7607808791058
 21
-45.99999999999954
 31
0.0
  0
LINE
  5
542
330
18
100
AcDbEntity
  8
NORMALI
100
AcDbLine
 10
693.7607808791057
 20
-43.49999999999863
 30
0.0
 11
674.7607808791058
 21
-43.49999999999818
 31
0.0
  0
LINE
  5
543
330
18
100
AcDbEntity
  8
NORMALI
100
AcDbLine
 10
694.7607808791048
 20
-44.49999999999909
 30
0.0
 11
693.7607808791049
 21
-43.49999999999909
 31
0.0
  0
LINE
  5
54A
330
18
100
AcDbEntity
  8
NORMALI
100
AcDbLine
 10
694.7607808791058
 20
72.5
 30
0.0
 11
694.7607808791048
 21
44.5000000000009
 31
0.0
  0
LINE
  5
54B
330
18
100
AcDbEntity
  8
NORMALI
100
AcDbLine
 10
693.7607808791057
 20
43.50000000000091
 30
0.0
 11
693.7607808791057
 21
50.90267854537842
 31
0.0
  0
LINE
  5
550
330
18
100
AcDbEntity
  8
NORMALI
100
AcDbLine
 10
693.7607808791057
 20
43.50000000000045
 30
0.0
 11
674.7607808791058
 21
43.5
 31
0.0
  0
LINE
  5
551
330
18
100
AcDbEntity
  8
DISEGNO
100
AcDbLine
 10
659.7607808791067
 20
45.99999999999954
 30
0.0
 11
674.7607808791058
 21
46.0
 31
0.0
  0
LINE
  5
552
330
18
100
AcDbEntity
  8
NORMALI
100
AcDbLine
 10
694.7607808791048
 20
44.5000000000009
 30
0.0
 11
693.7607808791049
 21
43.50000000000091
 31
0.0
  0
LINE
  5
555
330
18
100
AcDbEntity
  8
NORMALI
100
AcDbLine
 10
693.7607808791057
 20
73.5
 30
0.0
 11
674.7607808791058
 21
73.5
 31
0.0
  0
LINE
  5
556
330
18
100
AcDbEntity
  8
NORMALI
100
AcDbLine
 10
693.7607808791057
 20
73.5
 30
0.0
 11
694.7607808791058
 21
72.5
 31
0.0
  0
LINE
  5
557
330
18
100
AcDbEntity
  8
NORMALI
100
AcDbLine
 10
693.7607808791057
 20
73.5
 30
0.0
 11
693.7607808791057
 21
66.09732145462249
 31
0.0
  0
LINE
  5
558
330
18
100
AcDbEntity
  8
NORMALI
100
AcDbLine
 10
674.7607808791067
 20
109.9999999999991
 30
0.0
 11
674.7607808791067
 21
125.9988487581304
 31
0.0
  0
LINE
  5
55D
330
18
100
AcDbEntity
  8
DISEGNO
100
AcDbLine
 10
759.0359832818672
 20
-109.9999999999995
 30
0.0
 11
890.5877226386637
 21
-109.9999999999991
 31
0.0
  0
LINE
  5
55E
330
18
100
AcDbEntity
  8
NORMALI
100
AcDbLine
 10
752.3581836945018
 20
-115.9999999999995
 30
0.0
 11
890.5877226386637
 21
-115.9999999999991
 31
0.0
  0
LINE
  5
55F
330
18
100
AcDbEntity
  8
NORMALI
100
AcDbLine
 10
752.9977036966642
 20
-125.9999999999995
 30
0.0
 11
890.5877226386637
 21
-125.9999999999991
 31
0.0
  0
LINE
  5
560
330
18
100
AcDbEntity
  8
DISEGNO
100
AcDbLine
 10
756.468719397862
 20
-68.74699999999757
 30
0.0
 11
890.5877226386637
 21
-68.74699999999757
 31
0.0
  0
LINE
  5
561
330
18
100
AcDbEntity
  8
DISEGNO
100
AcDbLine
 10
890.5877226386637
 20
-81.2469999999978
 30
0.0
 11
757.2466215758863
 21
-81.24699999999757
 31
0.0
  0
LINE
  5
56C
330
18
100
AcDbEntity
  8
NORMALI
100
AcDbLine
 10
890.5877226386637
 20
-37.49999999999818
 30
0.0
 11
747.3379516775317
 21
-37.49999999999864
 31
0.0
  0
LINE
  5
5C6
330
18
100
AcDbEntity
  8
DISEGNO
100
AcDbLine
 10
1370.58772263866
 20
-195.0000000000041
 30
0.0
 11
1370.587722638663
 21
37.50000000000091
 31
0.0
  0
LINE
  5
5C7
330
18
100
AcDbEntity
  8
NORMALI
100
AcDbLine
 10
2059.309811557799
 20
476.1181139781174
 30
0.0
 11
2056.127811557799
 21
479.2981139781177
 31
0.0
  0
LINE
  5
5CC
330
18
100
AcDbEntity
  8
NORMALI
100
AcDbLine
 10
2028.751811557799
 20
501.0181139781152
 30
0.0
 11
2079.815811557799
 21
501.0181139781152
 31
0.0
  0
LINE
  5
5CD
330
18
100
AcDbEntity
  8
NORMALI
100
AcDbLine
 10
2028.751811557799
 20
541.0181139781152
 30
0.0
 11
2079.815811557799
 21
541.0181139781152
 31
0.0
  0
LINE
  5
5D1
330
18
100
AcDbEntity
  8
NORMALI
100
AcDbLine
 10
2005.496811557799
 20
571.0181139781152
 30
0.0
 11
2065.5088115578
 21
571.0181139781152
 31
0.0
  0
LINE
  5
5D4
330
18
100
AcDbEntity
  8
NORMALI
100
AcDbLine
 10
2077.845532915649
 20
501.0181139781152
 30
0.0
 11
2051.531811557798
 21
474.7081139781175
 31
0.0
  0
LINE
  5
5D6
330
18
100
AcDbEntity
  8
ASSI
100
AcDbLine
 10
2004.063328012441
 20
521.0229582394013
 30
0.0
 11
2087.918966899237
 21
521.0229582394013
 31
0.0
  0
LINE
  5
5D7
330
18
100
AcDbEntity
  8
DISEGNO
100
AcDbLine
 10
1995.284298979183
 20
571.0181139781162
 30
0.0
 11
2122.78429897918
 21
571.0181139781162
 31
0.0
  0
LINE
  5
5D8
330
18
100
AcDbEntity
  8
DISEGNO
100
AcDbLine
 10
2123.203033760929
 20
591.0181139781197
 30
0.0
 11
1995.284298979183
 21
591.0181139781197
 31
0.0
  0
LINE
  5
5DB
330
18
100
AcDbEntity
  8
NORMALI
100
AcDbLine
 10
2005.496811557799
 20
571.0181139781152
 30
0.0
 11
2005.496811557799
 21
511.0181139781152
 31
0.0
  0
LINE
  5
5DC
330
18
100
AcDbEntity
  8
NORMALI
100
AcDbLine
 10
2011.499811557799
 20
523.7681139781152
 30
0.0
 11
2031.752159383886
 21
544.0181139781152
 31
0.0
  0
ARC
  5
5DE
330
18
100
AcDbEntity
  8
NORMALI
100
AcDbCircle
 10
2010.008811557801
 20
497.5281139781182
 30
0.0
 40
14.722
100
AcDbArc
 50
25.51099999996984
 51
52.20800000000323
  0
LINE
  5
5DF
330
18
100
AcDbEntity
  8
NORMALI
100
AcDbLine
 10
2019.248811557799
 20
509.1081139781153
 30
0.0
 11
2025.623811557799
 21
502.7381139781164
 31
0.0
  0
LINE
  5
5E0
330
18
100
AcDbEntity
  8
NORMALI
100
AcDbLine
 10
2023.291811557799
 20
503.8681139781174
 30
0.0
 11
2020.250811557799
 21
500.8281139781165
 31
0.0
  0
LINE
  5
5E1
330
18
100
AcDbEntity
  8
NORMALI
100
AcDbLine
 10
2011.499811557799
 20
518.2681139781152
 30
0.0
 11
2031.751811557799
 21
498.0181139781152
 31
0.0
  0
ARC
  5
5E2
330
18
100
AcDbEntity
  8
NORMALI
100
AcDbCircle
 10
2024.1938115578
 20
501.308113978117
 30
0.0
 40
3.978
100
AcDbArc
 50
186.9953400000023
 51
262.9796999999946
  0
LINE
  5
5E3
330
18
100
AcDbEntity
  8
NORMALI
100
AcDbLine
 10
2011.579811557799
 20
496.2681139781152
 30
0.0
 11
2012.993811557799
 21
496.2681139781152
 31
0.0
  0
LINE
  5
5E4
330
18
100
AcDbEntity
  8
NORMALI
100
AcDbLine
 10
2012.286811557799
 20
495.5681139781181
 30
0.0
 11
2013.700811557799
 21
495.5681139781181
 31
0.0
  0
LINE
  5
5E5
330
18
100
AcDbEntity
  8
NORMALI
100
AcDbLine
 10
2018.650811557799
 20
500.5181139781152
 30
0.0
 11
2019.358811557799
 21
500.5181139781152
 31
0.0
  0
LINE
  5
5E6
330
18
100
AcDbEntity
  8
NORMALI
100
AcDbLine
 10
2015.552811557799
 20
510.0181139781152
 30
0.0
 11
2013.302811557799
 21
507.7681139781152
 31
0.0
  0
LINE
  5
5E7
330
18
100
AcDbEntity
  8
NORMALI
100
AcDbLine
 10
2008.043811557799
 20
501.2181139781159
 30
0.0
 11
2013.347811557799
 21
506.5281139781173
 31
0.0
  0
LINE
  5
5E8
330
18
100
AcDbEntity
  8
NORMALI
100
AcDbLine
 10
2008.043811557799
 20
501.2181139781159
 30
0.0
 11
2008.043811557799
 21
499.8081139781161
 31
0.0
  0
LINE
  5
5E9
330
18
100
AcDbEntity
  8
NORMALI
100
AcDbLine
 10
2008.750811557799
 20
500.5181139781152
 30
0.0
 11
2008.750811557799
 21
499.098113978117
 31
0.0
  0
LINE
  5
5EA
330
18
100
AcDbEntity
  8
NORMALI
100
AcDbLine
 10
2008.750811557799
 20
500.5181139781152
 30
0.0
 11
2012.993811557799
 21
504.7581139781168
 31
0.0
  0
LINE
  5
5EB
330
18
100
AcDbEntity
  8
NORMALI
100
AcDbLine
 10
2011.499811557799
 20
511.0181139781152
 30
0.0
 11
2005.496811557799
 21
511.0181139781152
 31
0.0
  0
ARC
  5
5EC
330
18
100
AcDbEntity
  8
NORMALI
100
AcDbCircle
 10
2013.7838115578
 20
511.7181139781169
 30
0.0
 40
3.978
100
AcDbArc
 50
190.1349843385921
 51
263.0045000000001
  0
ARC
  5
5ED
330
18
100
AcDbEntity
  8
NORMALI
100
AcDbCircle
 10
2010.9998115578
 20
511.5181139781161
 30
0.0
 40
0.5
100
AcDbArc
 50
270.0
 51
0.0
  0
LINE
  5
5EE
330
18
100
AcDbEntity
  8
NORMALI
100
AcDbLine
 10
2012.993811557799
 20
506.8781139781158
 30
0.0
 11
2012.993811557799
 21
506.1681139781167
 31
0.0
  0
LINE
  5
5EF
330
18
100
AcDbEntity
  8
NORMALI
100
AcDbLine
 10
2011.499811557799
 20
523.7681139781152
 30
0.0
 11
2011.499811557799
 21
518.2681139781152
 31
0.0
  0
LINE
  5
5F0
330
18
100
AcDbEntity
  8
NORM_TR
100
AcDbLine
 10
2011.499811557799
 20
518.2681139781152
 30
0.0
 11
2011.499811557799
 21
511.5181139781152
 31
0.0
  0
LINE
  5
5F1
330
18
100
AcDbEntity
  8
NORMALI
100
AcDbLine
 10
2011.499811557799
 20
511.0181139781152
 30
0.0
 11
2021.125811557798
 21
508.6481139781162
 31
0.0
  0
LINE
  5
5F2
330
18
100
AcDbEntity
  8
NORMALI
100
AcDbLine
 10
2008.750811557799
 20
499.098113978117
 30
0.0
 11
2017.236811557799
 21
500.5181139781152
 31
0.0
  0
LINE
  5
5F3
330
18
100
AcDbEntity
  8
NORMALI
100
AcDbLine
 10
2012.993811557799
 20
506.1681139781167
 30
0.0
 11
2018.650811557799
 21
500.5181139781152
 31
0.0
  0
LINE
  5
5F4
330
18
100
AcDbEntity
  8
NORMALI
100
AcDbLine
 10
2012.993811557799
 20
504.7581139781168
 30
0.0
 11
2017.236811557799
 21
500.5181139781152
 31
0.0
  0
ARC
  5
5F5
330
18
100
AcDbEntity
  8
NORMALI
100
AcDbCircle
 10
2026.5858115578
 20
514.1081139781163
 30
0.0
 40
14.722
100
AcDbArc
 50
205.5108999999688
 51
244.4889999999952
  0
LINE
  5
5F6
330
18
100
AcDbEntity
  8
NORMALI
100
AcDbLine
 10
2013.700811557799
 20
495.5681139781181
 30
0.0
 11
2019.004811557799
 21
500.8681139781174
 31
0.0
  0
LINE
  5
5F7
330
18
100
AcDbEntity
  8
NORMALI
100
AcDbLine
 10
2017.236811557799
 20
500.5181139781152
 30
0.0
 11
2012.993811557799
 21
496.2681139781152
 31
0.0
  0
LINE
  5
5F8
330
18
100
AcDbEntity
  8
NORMALI
100
AcDbLine
 10
2010.970811557799
 20
508.8981139781163
 30
0.0
 11
2021.380811557799
 21
498.4881139781164
 31
0.0
  0
LINE
  5
5F9
330
18
100
AcDbEntity
  8
NORMALI
100
AcDbLine
 10
2008.043811557799
 20
499.8081139781161
 30
0.0
 11
2012.286811557799
 21
495.5681139781181
 31
0.0
  0
LINE
  5
5FA
330
18
100
AcDbEntity
  8
NORMALI
100
AcDbLine
 10
2012.993811557799
 20
504.7581139781168
 30
0.0
 11
2011.579811557799
 21
496.2681139781152
 31
0.0
  0
LINE
  5
5FC
330
18
100
AcDbEntity
  8
NORMALI
100
AcDbLine
 10
2047.288811557799
 20
493.0881139781149
 30
0.0
 11
2039.363481758036
 21
501.0181139781152
 31
0.0
  0
LINE
  5
5FD
330
18
100
AcDbEntity
  8
NORMALI
100
AcDbLine
 10
2031.751811557799
 20
498.0181139781152
 30
0.0
 11
2035.248811557799
 21
498.0181139781152
 31
0.0
  0
LINE
  5
5FE
330
18
100
AcDbEntity
  8
NORMALI
100
AcDbLine
 10
2026.075811557799
 20
502.2781139781172
 30
0.0
 11
2026.782811557799
 21
502.9881139781164
 31
0.0
  0
ARC
  5
5FF
330
18
100
AcDbEntity
  8
NORMALI
100
AcDbCircle
 10
2022.8108115578
 20
499.9181139781176
 30
0.0
 40
3.978
100
AcDbArc
 50
7.020000000001713
 51
83.00500000000486
  0
LINE
  5
600
330
18
100
AcDbEntity
  8
NORMALI
100
AcDbLine
 10
2026.753811557799
 20
500.3981139781163
 30
0.0
 11
2023.712811557799
 21
497.3581139781154
 31
0.0
  0
LINE
  5
601
330
18
100
AcDbEntity
  8
NORMALI
100
AcDbLine
 10
2038.248952734269
 20
501.0181139781152
 30
0.0
 11
2035.248811557799
 21
498.0181139781152
 31
0.0
  0
LINE
  5
602
330
18
100
AcDbEntity
  8
NORMALI
100
AcDbLine
 10
2040.217811557799
 20
486.0181139781152
 30
0.0
 11
2055.219933198534
 21
501.0181139781152
 31
0.0
  0
LINE
  5
603
330
18
100
AcDbEntity
  8
NORMALI
100
AcDbLine
 10
2040.217811557799
 20
486.0181139781152
 30
0.0
 11
2051.531811557798
 21
474.7081139781175
 31
0.0
  0
LINE
  5
605
330
18
100
AcDbEntity
  8
DISEGNO
100
AcDbLine
 10
1995.284298979183
 20
591.0181139781197
 30
0.0
 11
1995.284298979183
 21
571.0181139781162
 31
0.0
  0
LINE
  5
608
330
18
100
AcDbEntity
  8
NORMALI
100
AcDbLine
 10
2035.248811557799
 20
544.0181139781152
 30
0.0
 11
2038.248952734269
 21
541.0181139781152
 31
0.0
  0
LINE
  5
609
330
18
100
AcDbEntity
  8
NORMALI
100
AcDbLine
 10
2035.248811557799
 20
544.0181139781152
 30
0.0
 11
2031.752159383886
 21
544.0181139781152
 31
0.0
  0
ARC
  5
60B
330
18
100
AcDbEntity
  8
NORMALI
100
AcDbCircle
 10
2318.884786400569
 20
521.0181139781162
 30
0.0
 40
7.0
100
AcDbArc
 50
315.0000999999974
 51
45.0000000000046
  0
LINE
  5
60C
330
18
100
AcDbEntity
  8
NORMALI
100
AcDbLine
 10
2321.283786400567
 20
513.5181139781152
 30
0.0
 11
2321.283786400567
 21
528.5181139781152
 31
0.0
  0
LINE
  5
60E
330
18
100
AcDbEntity
  8
DISEGNO
100
AcDbLine
 10
2267.784298979182
 20
457.0151139781167
 30
0.0
 11
2267.784298979182
 21
585.0151139781273
 31
0.0
  0
LINE
  5
60F
330
18
100
AcDbEntity
  8
DISEGNO
100
AcDbLine
 10
2305.284298979183
 20
555.0151139781156
 30
0.0
 11
2305.284298979184
 21
464.7651139781155
 31
0.0
  0
LINE
  5
610
330
18
100
AcDbEntity
  8
DISEGNO
100
AcDbLine
 10
2085.284298979184
 20
555.0151139781156
 30
0.0
 11
2085.284298979184
 21
437.0151139781155
 31
0.0
  0
LINE
  5
611
330
18
100
AcDbEntity
  8
DISEGNO
100
AcDbLine
 10
2122.78429897918
 20
457.0151139781167
 30
0.0
 11
2122.784298979181
 21
585.0151139781273
 31
0.0
  0
LINE
  5
613
330
18
100
AcDbEntity
  8
ASSI
100
AcDbLine
 10
2195.284298979184
 20
413.3226975915749
 30
0.0
 11
2195.284298979181
 21
623.9330583877572
 31
0.0
  0
ARC
  5
615
330
18
100
AcDbEntity
  8
NORMALI
100
AcDbCircle
 10
2071.6838115578
 20
521.0181139781162
 30
0.0
 40
7.0
100
AcDbArc
 50
134.9999999999953
 51
224.9999000000026
  0
LINE
  5
616
330
18
100
AcDbEntity
  8
NORMALI
100
AcDbLine
 10
2069.284811557799
 20
513.5181139781152
 30
0.0
 11
2069.284811557799
 21
528.5181139781152
 31
0.0
  0
LINE
  5
61C
330
18
100
AcDbEntity
  8
DISEGNO
100
AcDbLine
 10
1766.765157352567
 20
104.9999999999991
 30
0.0
 11
1766.765157352567
 21
-105.0000000000018
 31
0.0
  0
LINE
  5
620
330
18
100
AcDbEntity
  8
DISEGNO
100
AcDbLine
 10
2139.034298979185
 20
436.0151139781155
 30
0.0
 11
2251.534298979184
 21
436.0151139781155
 31
0.0
  0
LINE
  5
623
330
18
100
AcDbEntity
  8
DISEGNO
100
AcDbLine
 10
1761.765157352568
 20
-110.0000000000009
 30
0.0
 11
1627.964115233396
 21
-110.0
 31
0.0
  0
LINE
  5
624
330
18
100
AcDbEntity
  8
DISEGNO
100
AcDbLine
 10
1574.765157352568
 20
-85.0
 30
0.0
 11
1761.765157352568
 21
-85.0
 31
0.0
  0
LINE
  5
626
330
18
100
AcDbEntity
  8
DISEGNO
100
AcDbLine
 10
1574.765157352568
 20
-40.00000000000136
 30
0.0
 11
1574.765157352568
 21
-110.0000000000009
 31
0.0
  0
LINE
  5
628
330
18
100
AcDbEntity
  8
DISEGNO
100
AcDbLine
 10
1626.765157352567
 20
-110.2500000000009
 30
0.0
 11
1574.765157352568
 21
-110.2500000000009
 31
0.0
  0
LINE
  5
629
330
18
100
AcDbEntity
  8
DISEGNO
100
AcDbLine
 10
1626.765157352567
 20
-85.25
 30
0.0
 11
1574.765157352568
 21
-85.2500000000009
 31
0.0
  0
LINE
  5
62B
330
18
100
AcDbEntity
  8
NORMALI
100
AcDbLine
 10
1554.765157352568
 20
-111.7500000000009
 30
0.0
 11
1554.765157352568
 21
-83.75000000000182
 31
0.0
  0
LINE
  5
62F
330
18
100
AcDbEntity
  8
NORMALI
100
AcDbLine
 10
1574.765157352568
 20
-110.0
 30
0.0
 11
1574.765157352568
 21
-125.9397309232763
 31
0.0
  0
LINE
  5
630
330
18
100
AcDbEntity
  8
NORMALI
100
AcDbLine
 10
1574.765157352568
 20
-125.9397309232763
 30
0.0
 11
1370.587722638662
 21
-125.9397309232759
 31
0.0
  0
LINE
  5
631
330
18
100
AcDbEntity
  8
NORMALI
100
AcDbLine
 10
1555.765157352567
 20
-112.7500000000009
 30
0.0
 11
1554.765157352568
 21
-111.7500000000009
 31
0.0
  0
LINE
  5
632
330
18
100
AcDbEntity
  8
NORMALI
100
AcDbLine
 10
1555.765157352567
 20
-112.7500000000009
 30
0.0
 11
1555.765157352569
 21
-82.7500000000009
 31
0.0
  0
LINE
  5
633
330
18
100
AcDbEntity
  8
NORMALI
100
AcDbLine
 10
1555.765157352567
 20
-112.7500000000009
 30
0.0
 11
1574.765157352568
 21
-112.7500000000009
 31
0.0
  0
LINE
  5
634
330
18
100
AcDbEntity
  8
NORMALI
100
AcDbLine
 10
1574.765157352568
 20
-116.0
 30
0.0
 11
1370.587722638662
 21
-115.9999999999995
 31
0.0
  0
LINE
  5
636
330
18
100
AcDbEntity
  8
NORMALI
100
AcDbLine
 10
1554.765157352568
 20
-83.75000000000182
 30
0.0
 11
1555.765157352567
 21
-82.75000000000181
 31
0.0
  0
LINE
  5
638
330
18
100
AcDbEntity
  8
NORMALI
100
AcDbLine
 10
1555.765157352569
 20
-82.7500000000009
 30
0.0
 11
1574.765157352568
 21
-82.7500000000009
 31
0.0
  0
LINE
  5
639
330
18
100
AcDbEntity
  8
DISEGNO
100
AcDbLine
 10
1370.587722638662
 20
-68.7469999999978
 30
0.0
 11
1574.765157352568
 21
-68.7469999999978
 31
0.0
  0
LINE
  5
63A
330
18
100
AcDbEntity
  8
DISEGNO
100
AcDbLine
 10
1574.765157352568
 20
-81.24700000000302
 30
0.0
 11
1370.587722638662
 21
-81.24700000000165
 31
0.0
  0
LINE
  5
63D
330
18
100
AcDbEntity
  8
DISEGNO
100
AcDbLine
 10
1629.765157352568
 20
-88.25000000000001
 30
0.0
 11
1629.765157352568
 21
-107.2500000000009
 31
0.0
  0
ARC
  5
640
330
18
100
AcDbEntity
  8
DISEGNO
100
AcDbCircle
 10
1626.765157352567
 20
-107.2500000000009
 30
0.0
 40
3.0
100
AcDbArc
 50
270.0
 51
0.000000000000007
  0
ARC
  5
641
330
18
100
AcDbEntity
  8
DISEGNO
100
AcDbCircle
 10
1626.765157352567
 20
-88.25000000000001
 30
0.0
 40
3.0
100
AcDbArc
 50
0.000000000000007
 51
90.0
  0
LINE
  5
665
330
18
100
AcDbEntity
  8
NORMALI
100
AcDbLine
 10
1370.587722638663
 20
-37.49999999999909
 30
0.0
 11
1574.765157352568
 21
-37.50000000000131
 31
0.0
  0
LINE
  5
67B
330
18
100
AcDbEntity
  8
DISEGNO
100
AcDbLine
 10
2086.284298792088
 20
436.0151139781155
 30
0.0
 11
2139.034298979185
 21
436.0151139781155
 31
0.0
  0
LINE
  5
67C
330
18
100
AcDbEntity
  8
DISEGNO
100
AcDbLine
 10
1754.765157352568
 20
-110.0000000000009
 30
0.0
 11
1754.765157352568
 21
-85.0
 31
0.0
  0
ARC
  5
67D
330
18
100
AcDbEntity
  8
DISEGNO
100
AcDbCircle
 10
1761.765157352568
 20
-105.0000000000009
 30
0.0
 40
5.0
100
AcDbArc
 50
270.0
 51
0.000000000000007
  0
ARC
  5
67E
330
18
100
AcDbEntity
  8
DISEGNO
100
AcDbCircle
 10
1761.765157352568
 20
-80.0
 30
0.0
 40
5.0
100
AcDbArc
 50
270.0
 51
0.000000000000007
  0
ARC
  5
681
330
18
100
AcDbEntity
  8
DISEGNO
100
AcDbCircle
 10
2086.284298979183
 20
437.0151139781155
 30
0.0
 40
1.0
100
AcDbArc
 50
180.0
 51
269.9999892802007
  0
LINE
  5
682
330
18
100
AcDbEntity
  8
NORMALI
100
AcDbLine
 10
2075.219811557799
 20
498.3981139781162
 30
0.0
 11
2078.4018115578
 21
495.2081139781175
 31
0.0
  0
LINE
  5
683
330
18
100
AcDbEntity
  8
NORMALI
100
AcDbLine
 10
2078.4018115578
 20
495.2081139781175
 30
0.0
 11
2059.309811557799
 21
476.1181139781174
 31
0.0
  0
LINE
  5
684
330
18
100
AcDbEntity
  8
NORMALI
100
AcDbLine
 10
2079.815311522441
 20
502.9876140134756
 30
0.0
 11
2066.684816608562
 21
516.1181089273513
 31
0.0
  0
LINE
  5
685
330
18
100
AcDbEntity
  8
NORM_TR
100
AcDbLine
 10
2079.815311522441
 20
502.9876140134756
 30
0.0
 11
2077.845532915649
 21
501.0181139781152
 31
0.0
  0
LINE
  5
686
330
18
100
AcDbEntity
  8
NORMALI
100
AcDbLine
 10
2079.815811557799
 20
502.9881139781164
 30
0.0
 11
2079.815811557799
 21
501.0181139781152
 31
0.0
  0
LINE
  5
687
330
18
100
AcDbEntity
  8
NORMALI
100
AcDbLine
 10
2085.284298979182
 20
503.5181139781152
 30
0.0
 11
2079.284811557799
 21
503.5181139781152
 31
0.0
  0
LINE
  5
68A
330
18
100
AcDbEntity
  8
DISEGNO
100
AcDbLine
 10
1761.765157352568
 20
109.9999999999991
 30
0.0
 11
1627.964115233396
 21
109.9999999999982
 31
0.0
  0
LINE
  5
68B
330
18
100
AcDbEntity
  8
DISEGNO
100
AcDbLine
 10
1574.765157352568
 20
84.99999999999909
 30
0.0
 11
1761.765157352568
 21
84.99999999999909
 31
0.0
  0
LINE
  5
68D
330
18
100
AcDbEntity
  8
NORMALI
100
AcDbLine
 10
1555.765157352567
 20
82.75
 30
0.0
 11
1555.765157352567
 21
112.7499999999991
 31
0.0
  0
LINE
  5
68E
330
18
100
AcDbEntity
  8
NORMALI
100
AcDbLine
 10
1554.765157352568
 20
111.7499999999991
 30
0.0
 11
1554.765157352568
 21
83.75
 31
0.0
  0
LINE
  5
690
330
18
100
AcDbEntity
  8
DISEGNO
100
AcDbLine
 10
1574.765157352568
 20
110.25
 30
0.0
 11
1574.765157352568
 21
-40.00000000000136
 31
0.0
  0
LINE
  5
6C0
330
18
100
AcDbEntity
  8
NORMALI
100
AcDbLine
 10
1370.587722638663
 20
37.50000000000091
 30
0.0
 11
1574.765157352568
 21
37.49999999999913
 31
0.0
  0
LINE
  5
6C7
330
18
100
AcDbEntity
  8
NORMALI
100
AcDbLine
 10
1554.765157352568
 20
83.75
 30
0.0
 11
1555.765157352567
 21
82.75
 31
0.0
  0
LINE
  5
6C8
330
18
100
AcDbEntity
  8
DISEGNO
100
AcDbLine
 10
1370.587722638664
 20
81.25300000000152
 30
0.0
 11
1574.765157352568
 21
81.25300000000128
 31
0.0
  0
LINE
  5
6C9
330
18
100
AcDbEntity
  8
DISEGNO
100
AcDbLine
 10
1574.765157352568
 20
68.75299999999606
 30
0.0
 11
1370.587722638664
 21
68.75299999999743
 31
0.0
  0
LINE
  5
6CA
330
18
100
AcDbEntity
  8
NORMALI
100
AcDbLine
 10
1554.765157352568
 20
82.75
 30
0.0
 11
1574.765157352568
 21
82.74999999999909
 31
0.0
  0
LINE
  5
6CC
330
18
100
AcDbEntity
  8
DISEGNO
100
AcDbLine
 10
1626.765157352567
 20
85.24999999999909
 30
0.0
 11
1574.765157352568
 21
85.24999999999909
 31
0.0
  0
LINE
  5
6CD
330
18
100
AcDbEntity
  8
DISEGNO
100
AcDbLine
 10
1626.765157352567
 20
110.25
 30
0.0
 11
1574.765157352568
 21
110.25
 31
0.0
  0
LINE
  5
6D0
330
18
100
AcDbEntity
  8
NORMALI
100
AcDbLine
 10
1574.765157352568
 20
109.9999999999991
 30
0.0
 11
1574.765157352568
 21
125.9999999999991
 31
0.0
  0
LINE
  5
6D4
330
18
100
AcDbEntity
  8
NORMALI
100
AcDbLine
 10
1555.765157352567
 20
112.7499999999991
 30
0.0
 11
1554.765157352568
 21
111.7499999999991
 31
0.0
  0
LINE
  5
6D7
330
18
100
AcDbEntity
  8
NORMALI
100
AcDbLine
 10
1574.765157352568
 20
115.9999999999991
 30
0.0
 11
1370.587722638665
 21
115.9999999999991
 31
0.0
  0
LINE
  5
6D8
330
18
100
AcDbEntity
  8
NORMALI
100
AcDbLine
 10
1555.765157352567
 20
112.7499999999991
 30
0.0
 11
1574.765157352568
 21
112.7499999999991
 31
0.0
  0
LINE
  5
6D9
330
18
100
AcDbEntity
  8
NORMALI
100
AcDbLine
 10
1574.765157352568
 20
125.9999999999991
 30
0.0
 11
1370.587722638665
 21
125.9999999999991
 31
0.0
  0
LINE
  5
6DB
330
18
100
AcDbEntity
  8
DISEGNO
100
AcDbLine
 10
1629.765157352568
 20
88.24999999999908
 30
0.0
 11
1629.765157352568
 21
107.25
 31
0.0
  0
ARC
  5
6DE
330
18
100
AcDbEntity
  8
DISEGNO
100
AcDbCircle
 10
1626.765157352567
 20
88.24999999999908
 30
0.0
 40
3.0
100
AcDbArc
 50
270.0
 51
0.000000000000007
  0
ARC
  5
6DF
330
18
100
AcDbEntity
  8
DISEGNO
100
AcDbCircle
 10
1626.765157352567
 20
107.25
 30
0.0
 40
3.0
100
AcDbArc
 50
0.000000000000007
 51
90.0
  0
ARC
  5
6E0
330
18
100
AcDbEntity
  8
DISEGNO
100
AcDbCircle
 10
1761.765157352568
 20
79.99999999999818
 30
0.0
 40
5.0
100
AcDbArc
 50
0.000000000000007
 51
90.0
  0
LINE
  5
6E1
330
18
100
AcDbEntity
  8
DISEGNO
100
AcDbLine
 10
2304.284298979183
 20
436.0151139781155
 30
0.0
 11
2251.534298979184
 21
436.0151139781155
 31
0.0
  0
LINE
  5
6E2
330
18
100
AcDbEntity
  8
DISEGNO
100
AcDbLine
 10
1754.765157352568
 20
109.9999999999991
 30
0.0
 11
1754.765157352568
 21
84.99999999999909
 31
0.0
  0
ARC
  5
6E3
330
18
100
AcDbEntity
  8
DISEGNO
100
AcDbCircle
 10
1761.765157352568
 20
104.9999999999991
 30
0.0
 40
5.0
100
AcDbArc
 50
0.000000000000007
 51
90.0
  0
LINE
  5
6E4
330
18
100
AcDbEntity
  8
NORMALI
100
AcDbLine
 10
2312.166786400567
 20
495.2081139781175
 30
0.0
 11
2331.258786400567
 21
476.1181139781174
 31
0.0
  0
LINE
  5
6E5
330
18
100
AcDbEntity
  8
NORMALI
100
AcDbLine
 10
2310.753286435925
 20
502.9876140134756
 30
0.0
 11
2323.883781349804
 21
516.1181089273513
 31
0.0
  0
LINE
  5
6E6
330
18
100
AcDbEntity
  8
NORMALI
100
AcDbLine
 10
2312.723065042717
 20
501.0181139781152
 30
0.0
 11
2339.036786400567
 21
474.7081139781175
 31
0.0
  0
LINE
  5
6E8
330
18
100
AcDbEntity
  8
DISEGNO
100
AcDbLine
 10
2305.284298979184
 20
437.0151139781155
 30
0.0
 11
2305.284298979184
 21
464.7651139781155
 31
0.0
  0
ARC
  5
6EB
330
18
100
AcDbEntity
  8
DISEGNO
100
AcDbCircle
 10
2304.284298979184
 20
437.0151139781155
 30
0.0
 40
1.0
100
AcDbArc
 50
270.0
 51
0.0
  0
LINE
  5
6EC
330
18
100
AcDbEntity
  8
NORMALI
100
AcDbLine
 10
2315.348786400567
 20
498.3981139781162
 30
0.0
 11
2312.166786400567
 21
495.2081139781175
 31
0.0
  0
LINE
  5
6ED
330
18
100
AcDbEntity
  8
NORMALI
100
AcDbLine
 10
2305.284298979183
 20
503.5181139781152
 30
0.0
 11
2311.283786400567
 21
503.5181139781152
 31
0.0
  0
LINE
  5
6EE
330
18
100
AcDbEntity
  8
NORMALI
100
AcDbLine
 10
2310.752786400567
 20
502.9881139781164
 30
0.0
 11
2310.752786400567
 21
501.0181139781152
 31
0.0
  0
LINE
  5
6F3
330
18
100
AcDbEntity
  8
NORMALI
100
AcDbLine
 10
2331.258786400567
 20
476.1181139781174
 30
0.0
 11
2334.440786400567
 21
479.2981139781177
 31
0.0
  0
LINE
  5
6F5
330
18
100
AcDbEntity
  8
NORMALI
100
AcDbLine
 10
2350.350786400567
 20
486.0181139781152
 30
0.0
 11
2335.348664759832
 21
501.0181139781152
 31
0.0
  0
LINE
  5
6F6
330
18
100
AcDbEntity
  8
NORMALI
100
AcDbLine
 10
2350.350786400567
 20
486.0181139781152
 30
0.0
 11
2339.036786400567
 21
474.7081139781175
 31
0.0
  0
LINE
  5
6F7
330
18
100
AcDbEntity
  8
NORMALI
100
AcDbLine
 10
2343.279786400567
 20
493.0881139781149
 30
0.0
 11
2351.20511620033
 21
501.0181139781152
 31
0.0
  0
LINE
  5
6F8
330
18
100
AcDbEntity
  8
DISEGNO
100
AcDbLine
 10
2243.203033760929
 20
591.0181139781188
 30
0.0
 11
2147.36556419744
 21
591.0181139781188
 31
0.0
  0
LINE
  5
6F9
330
18
100
AcDbEntity
  8
DISEGNO
100
AcDbLine
 10
2122.784298979181
 20
585.0151139781273
 30
0.0
 11
2267.784298979182
 21
585.0151139781273
 31
0.0
  0
LINE
  5
6FA
330
18
100
AcDbEntity
  8
DISEGNO
100
AcDbLine
 10
2086.284298979183
 20
556.0151139781155
 30
0.0
 11
2122.784298979181
 21
556.0151139781155
 31
0.0
  0
LINE
  5
6FD
330
18
100
AcDbEntity
  8
NORMALI
100
AcDbLine
 10
2075.219811557799
 20
543.6481139781163
 30
0.0
 11
2078.4018115578
 21
546.8281139781165
 31
0.0
  0
LINE
  5
6FE
330
18
100
AcDbEntity
  8
NORMALI
100
AcDbLine
 10
2077.846327940499
 20
541.0181139781152
 30
0.0
 11
2064.559811557799
 21
554.3081139781161
 31
0.0
  0
LINE
  5
6FF
330
18
100
AcDbEntity
  8
NORMALI
100
AcDbLine
 10
2066.68481660856
 20
525.9181190288791
 30
0.0
 11
2079.815311623338
 21
539.0486140436542
 31
0.0
  0
LINE
  5
700
330
18
100
AcDbEntity
  8
NORMALI
100
AcDbLine
 10
2078.4018115578
 20
546.8281139781165
 30
0.0
 11
2065.508811557799
 21
559.724196707054
 31
0.0
  0
LINE
  5
701
330
18
100
AcDbEntity
  8
NORMALI
100
AcDbLine
 10
2065.508811557799
 20
558.0181139781152
 30
0.0
 11
2061.164045600353
 21
541.0181139781152
 31
0.0
  0
LINE
  5
704
330
18
100
AcDbEntity
  8
NORMALI
100
AcDbLine
 10
2065.508811557799
 20
571.0181139781152
 30
0.0
 11
2065.508811557799
 21
558.0181139781152
 31
0.0
  0
ARC
  5
706
330
18
100
AcDbEntity
  8
DISEGNO
100
AcDbCircle
 10
2086.284298979184
 20
555.0151139781156
 30
0.0
 40
1.0
100
AcDbArc
 50
89.99999999999998
 51
180.0
  0
LINE
  5
707
330
18
100
AcDbEntity
  8
NORM_TR
100
AcDbLine
 10
2079.815311623338
 20
539.0486140436542
 30
0.0
 11
2077.846327940499
 21
541.0181139781152
 31
0.0
  0
LINE
  5
708
330
18
100
AcDbEntity
  8
NORMALI
100
AcDbLine
 10
2079.815811557799
 20
539.0481139781177
 30
0.0
 11
2079.815811557799
 21
541.0181139781152
 31
0.0
  0
LINE
  5
709
330
18
100
AcDbEntity
  8
NORMALI
100
AcDbLine
 10
2079.284811557799
 20
538.5181139781152
 30
0.0
 11
2085.284188916289
 21
538.5181139781152
 31
0.0
  0
ARC
  5
711
330
18
100
AcDbEntity
  8
DISEGNO
100
AcDbCircle
 10
2142.784298979186
 20
589.0151139781173
 30
0.0
 40
5.0
100
AcDbArc
 50
0.0
 51
89.99999999999998
  0
ARC
  5
712
330
18
100
AcDbEntity
  8
DISEGNO
100
AcDbCircle
 10
2127.784298979184
 20
589.0151139781173
 30
0.0
 40
5.0
100
AcDbArc
 50
89.99999999999998
 51
180.0
  0
LINE
  5
713
330
18
100
AcDbEntity
  8
DISEGNO
100
AcDbLine
 10
2122.784298979183
 20
572.0121179781272
 30
0.0
 11
2122.784298979183
 21
589.0151139781164
 31
0.0
  0
ARC
  5
714
330
18
100
AcDbEntity
  8
NORMALI
100
AcDbCircle
 10
2135.284298979185
 20
581.0151179781151
 30
0.0
 40
14.99999999999954
100
AcDbArc
 50
146.3781308132538
 51
213.5573097618859
  0
ARC
  5
715
330
18
100
AcDbEntity
  8
NORMALI
100
AcDbCircle
 10
2135.284298979185
 20
581.0151179781151
 30
0.0
 40
14.99999999999954
100
AcDbArc
 50
15.46599410053877
 51
33.62186918674616
  0
LINE
  5
716
330
18
100
AcDbEntity
  8
DISEGNO
100
AcDbLine
 10
2147.784298979185
 20
585.0151139781273
 30
0.0
 11
2147.784298979185
 21
589.0151139781173
 31
0.0
  0
ARC
  5
717
330
18
100
AcDbEntity
  8
NORMALI
100
AcDbCircle
 10
2135.284298979185
 20
581.0151179781151
 30
0.0
 40
14.99999999999954
100
AcDbArc
 50
60.07353450753027
 51
119.9264654924697
  0
LINE
  5
718
330
18
100
AcDbEntity
  8
DISEGNO
100
AcDbLine
 10
2142.784298979186
 20
594.0151139781173
 30
0.0
 11
2127.784298979184
 21
594.0151139781164
 31
0.0
  0
LINE
  5
71C
330
18
100
AcDbEntity
  8
DISEGNO
100
AcDbLine
 10
2304.284298979183
 20
556.0151139781155
 30
0.0
 11
2267.784298979182
 21
556.0151139781155
 31
0.0
  0
ARC
  5
71D
330
18
100
AcDbEntity
  8
NORMALI
100
AcDbCircle
 10
2255.284298979185
 20
581.0151179781151
 30
0.0
 40
14.99999999999954
100
AcDbArc
 50
60.07353450754482
 51
119.9264654924664
  0
LINE
  5
71E
330
18
100
AcDbEntity
  8
DISEGNO
100
AcDbLine
 10
2247.784298979184
 20
594.0151139781173
 30
0.0
 11
2262.784298979186
 21
594.0151139781173
 31
0.0
  0
ARC
  5
71F
330
18
100
AcDbEntity
  8
DISEGNO
100
AcDbCircle
 10
2247.784298979185
 20
589.0151139781173
 30
0.0
 40
5.0
100
AcDbArc
 50
89.99999999999998
 51
180.0
  0
ARC
  5
72A
330
18
100
AcDbEntity
  8
NORMALI
100
AcDbCircle
 10
2255.284298979185
 20
581.0151179781151
 30
0.0
 40
14.99999999999954
100
AcDbArc
 50
146.3781308132538
 51
164.5340058994612
  0
LINE
  5
72B
330
18
100
AcDbEntity
  8
DISEGNO
100
AcDbLine
 10
2242.784298979184
 20
585.0151139781273
 30
0.0
 11
2242.784298979184
 21
589.0151139781173
 31
0.0
  0
ARC
  5
72C
330
18
100
AcDbEntity
  8
DISEGNO
100
AcDbCircle
 10
2262.784298979186
 20
589.0151139781182
 30
0.0
 40
5.0
100
AcDbArc
 50
0.0
 51
89.99999999999998
  0
LINE
  5
72D
330
18
100
AcDbEntity
  8
DISEGNO
100
AcDbLine
 10
2267.784298979186
 20
572.0121179781272
 30
0.0
 11
2267.784298979186
 21
589.0151139781173
 31
0.0
  0
ARC
  5
72E
330
18
100
AcDbEntity
  8
NORMALI
100
AcDbCircle
 10
2255.284298979185
 20
581.0151179781151
 30
0.0
 40
14.99999999999954
100
AcDbArc
 50
326.442690238078
 51
33.62186918674616
  0
LINE
  5
72F
330
18
100
AcDbEntity
  8
NORMALI
100
AcDbLine
 10
2312.722270017868
 20
541.0181139781152
 30
0.0
 11
2326.008786400567
 21
554.3081139781161
 31
0.0
  0
LINE
  5
730
330
18
100
AcDbEntity
  8
NORMALI
100
AcDbLine
 10
2323.883781349806
 20
525.9181190288791
 30
0.0
 11
2310.753286335028
 21
539.0486140436542
 31
0.0
  0
LINE
  5
731
330
18
100
AcDbEntity
  8
NORMALI
100
AcDbLine
 10
2312.166786400567
 20
546.8281139781165
 30
0.0
 11
2325.059786400567
 21
559.724196707054
 31
0.0
  0
LINE
  5
735
330
18
100
AcDbEntity
  8
NORMALI
100
AcDbLine
 10
2311.283786400567
 20
538.5181139781152
 30
0.0
 11
2305.284409042076
 21
538.5181139781152
 31
0.0
  0
LINE
  5
736
330
18
100
AcDbEntity
  8
NORMALI
100
AcDbLine
 10
2310.752786400567
 20
539.0481139781177
 30
0.0
 11
2310.752786400567
 21
541.0181139781152
 31
0.0
  0
LINE
  5
738
330
18
100
AcDbEntity
  8
NORMALI
100
AcDbLine
 10
2315.348786400567
 20
543.6481139781163
 30
0.0
 11
2312.166786400567
 21
546.8281139781165
 31
0.0
  0
ARC
  5
739
330
18
100
AcDbEntity
  8
DISEGNO
100
AcDbCircle
 10
2304.284298979184
 20
555.0151139781156
 30
0.0
 40
1.0
100
AcDbArc
 50
0.0
 51
89.99999999999998
  0
LINE
  5
73D
330
18
100
AcDbEntity
  8
NORMALI
100
AcDbLine
 10
2325.059786400567
 20
558.0181139781152
 30
0.0
 11
2329.404552358013
 21
541.0181139781152
 31
0.0
  0
LINE
  5
741
330
18
100
AcDbEntity
  8
NORMALI
100
AcDbLine
 10
2325.059786400567
 20
571.0181139781152
 30
0.0
 11
2325.059786400567
 21
558.0181139781152
 31
0.0
  0
ELLIPSE
  5
746
330
18
100
AcDbEntity
  8
NORMALI
100
AcDbEllipse
 10
1301.97603023217
 20
499.9387771630949
 30
0.0
 11
20.00000005274088
 21
0.0000000000000057
 31
0.0
210
0.0
220
0.0
230
-1.0
 40
0.7071667356727611
 41
0.1521299263250988
 42
2.989462727264694
  0
ELLIPSE
  5
747
330
18
100
AcDbEntity
  8
NORMALI
100
AcDbEllipse
 10
1301.97603023217
 20
488.6268848244157
 30
0.0
 11
-20.00000005274159
 21
-0.0000000000006431
 31
0.0
210
0.0
220
0.0
230
-1.0
 40
0.7070721241810537
 41
3.141592653589837
 42
6.283185307179631
  0
LINE
  5
748
330
18
100
AcDbEntity
  8
DISEGNO
100
AcDbLine
 10
1574.765157352567
 20
464.7681139781143
 30
0.0
 11
727.1823248342229
 21
464.7681139781195
 31
0.0
  0
LINE
  5
749
330
18
100
AcDbEntity
  8
DISEGNO
100
AcDbLine
 10
1761.765157352567
 20
436.0151139781155
 30
0.0
 11
659.7607752541058
 21
436.0151139781077
 31
0.0
  0
LINE
  5
74A
330
18
100
AcDbEntity
  8
ASSI
100
AcDbLine
 10
1783.265317773432
 20
521.0151139781157
 30
0.0
 11
674.7607808791058
 21
521.0151139781157
 31
0.0
  0
LINE
  5
74B
330
18
100
AcDbEntity
  8
ASSI
100
AcDbLine
 10
1758.435146882998
 20
471.0151139781165
 30
0.0
 11
718.8410088573286
 21
471.0151139781166
 31
0.0
  0
LINE
  5
74C
330
18
100
AcDbEntity
  8
DISEGNO
100
AcDbLine
 10
895.5877226386629
 20
199.9999999999982
 30
0.0
 11
1365.587722638663
 21
199.9999999999982
 31
0.0
  0
LINE
  5
74D
330
18
100
AcDbEntity
  8
DISEGNO
100
AcDbLine
 10
973.7670226046915
 20
477.2681139781172
 30
0.0
 11
1290.062535559285
 21
477.268113978115
 31
0.0
  0
LINE
  5
74E
330
18
100
AcDbEntity
  8
DISEGNO
100
AcDbLine
 10
1370.587722638663
 20
571.018113978119
 30
0.0
 11
890.5877226386628
 21
571.018113978119
 31
0.0
  0
LINE
  5
74F
330
18
100
AcDbEntity
  8
NORMALI
100
AcDbLine
 10
1349.587722638663
 20
498.0181139781189
 30
0.0
 11
1251.587722638663
 21
498.0181139781189
 31
0.0
  0
LINE
  5
750
330
18
100
AcDbEntity
  8
NORMALI
100
AcDbLine
 10
1343.587722638663
 20
519.2681139781188
 30
0.0
 11
1257.587722638663
 21
519.2681139781188
 31
0.0
  0
LINE
  5
751
330
18
100
AcDbEntity
  8
NORMALI
100
AcDbLine
 10
1343.587722638663
 20
522.7681139781188
 30
0.0
 11
1257.587722638663
 21
522.7681139781188
 31
0.0
  0
LINE
  5
752
330
18
100
AcDbEntity
  8
NORMALI
100
AcDbLine
 10
1343.587722638663
 20
521.0181139781188
 30
0.0
 11
1257.587722638663
 21
521.0181139781188
 31
0.0
  0
LINE
  5
753
330
18
100
AcDbEntity
  8
NORMALI
100
AcDbLine
 10
1343.587722638663
 20
544.018113978119
 30
0.0
 11
1257.587722638663
 21
544.018113978119
 31
0.0
  0
ELLIPSE
  5
754
330
18
100
AcDbEntity
  8
NORMALI
100
AcDbEllipse
 10
1320.102209634482
 20
552.9788302882931
 30
0.0
 11
20.00000005274068
 21
0.0000000000003217
 31
0.0
210
0.0
220
0.0
230
-1.0
 40
0.7068306062034754
 41
3.141592653589944
 42
6.283185307179737
  0
ELLIPSE
  5
755
330
18
100
AcDbEntity
  8
NORMALI
100
AcDbEllipse
 10
1320.102209634482
 20
541.6588303255718
 30
0.0
 11
20.28357685417859
 21
0.0013998576822282
 31
0.0
210
0.0
220
0.0
230
-0.9999999999999998
 40
0.6980407805079392
 41
3.309103046966217
 42
6.115872651076779
  0
LINE
  5
756
330
18
100
AcDbEntity
  8
DISEGNO
100
AcDbLine
 10
890.5877226386628
 20
591.0181139781226
 30
0.0
 11
1370.587722638663
 21
591.0181139781226
 31
0.0
  0
LINE
  5
75B
330
18
100
AcDbEntity
  8
DISEGNO
100
AcDbLine
 10
674.7607808791058
 20
594.0151139781165
 30
0.0
 11
674.7607808791058
 21
436.0151139781155
 31
0.0
  0
LINE
  5
75C
330
18
100
AcDbEntity
  8
DISEGNO
100
AcDbLine
 10
674.7607808791058
 20
594.0151139781165
 30
0.0
 11
674.7607808791058
 21
436.0151139781155
 31
0.0
  0
LINE
  5
75D
330
18
100
AcDbEntity
  8
DISEGNO
100
AcDbLine
 10
659.7607808791058
 20
591.0151139781156
 30
0.0
 11
659.7607808791058
 21
436.0151139781155
 31
0.0
  0
LINE
  5
75E
330
18
100
AcDbEntity
  8
DISEGNO
100
AcDbLine
 10
659.7607808791058
 20
576.0151139781156
 30
0.0
 11
659.7607808791058
 21
436.0151139781155
 31
0.0
  0
LINE
  5
762
330
18
100
AcDbEntity
  8
ASSI
100
AcDbLine
 10
568.7607808791057
 20
457.7508631191603
 30
0.0
 11
568.7607808791057
 21
578.0845888034718
 31
0.0
  0
LINE
  5
76D
330
18
100
AcDbEntity
  8
NORMALI
100
AcDbLine
 10
694.7607808790994
 20
570.1351139781146
 30
0.0
 11
720.625107330868
 21
570.1351139781146
 31
0.0
  0
LINE
  5
76E
330
18
100
AcDbEntity
  8
NORMALI
100
AcDbLine
 10
674.7607808791058
 20
528.5176225273145
 30
0.0
 11
723.2150543103484
 21
528.5176225273145
 31
0.0
  0
LINE
  5
76F
330
18
100
AcDbEntity
  8
DISEGNO
100
AcDbLine
 10
721.5038256311649
 20
556.0151139781138
 30
0.0
 11
659.7607808791058
 21
556.0151139781138
 31
0.0
  0
LINE
  5
770
330
18
100
AcDbEntity
  8
DISEGNO
100
AcDbLine
 10
727.1823248342229
 20
464.7681139781195
 30
0.0
 11
674.7607808791058
 21
464.7681139781197
 31
0.0
  0
LINE
  5
771
330
18
100
AcDbEntity
  8
DISEGNO
100
AcDbLine
 10
674.7607808791058
 20
477.2681139781188
 30
0.0
 11
726.4044226561978
 21
477.2681139781187
 31
0.0
  0
LINE
  5
772
330
18
100
AcDbEntity
  8
ASSI
100
AcDbLine
 10
718.8410088573286
 20
471.0151139781166
 30
0.0
 11
661.5735166050113
 21
471.0151139781165
 31
0.0
  0
LINE
  5
773
330
18
100
AcDbEntity
  8
NORMALI
100
AcDbLine
 10
674.7607808791058
 20
513.518113978117
 30
0.0
 11
724.1485063399263
 21
513.5181139781177
 31
0.0
  0
LINE
  5
774
330
18
100
AcDbEntity
  8
NORMALI
100
AcDbLine
 10
714.5240884159971
 20
538.5176225273126
 30
0.0
 11
890.5877226386619
 21
538.5176225273126
 31
0.0
  0
LINE
  5
775
330
18
100
AcDbEntity
  8
NORMALI
100
AcDbLine
 10
712.8090561969379
 20
565.3351139781153
 30
0.0
 11
890.5877226386637
 21
565.3351139781153
 31
0.0
  0
LINE
  5
776
330
18
100
AcDbEntity
  8
NORMALI
100
AcDbLine
 10
716.7623769943024
 20
503.5181139781177
 30
0.0
 11
907.5969172913401
 21
503.5181139781188
 31
0.0
  0
LINE
  5
77E
330
18
100
AcDbEntity
  8
ASSI
100
AcDbLine
 10
630.0395760544975
 20
521.0151139781157
 30
0.0
 11
507.8530673481614
 21
521.0151139781155
 31
0.0
  0
LINE
  5
792
330
18
100
AcDbEntity
  8
NORMALI
100
AcDbLine
 10
674.7607808791058
 20
503.518113978118
 30
0.0
 11
716.7623769943024
 21
503.5181139781177
 31
0.0
  0
LINE
  5
7AF
330
18
100
AcDbEntity
  8
NORMALI
100
AcDbLine
 10
674.7607808791058
 20
538.5176225273126
 30
0.0
 11
714.5240884159971
 21
538.5176225273126
 31
0.0
  0
LINE
  5
7B0
330
18
100
AcDbEntity
  8
NORMALI
100
AcDbLine
 10
694.7607808790994
 20
595.0181139781135
 30
0.0
 11
694.7607808790994
 21
567.0181139781144
 31
0.0
  0
LINE
  5
7B1
330
18
100
AcDbEntity
  8
NORMALI
100
AcDbLine
 10
693.7607808790994
 20
566.0181139781144
 30
0.0
 11
674.7607808791003
 21
566.0181139781135
 31
0.0
  0
LINE
  5
7B2
330
18
100
AcDbEntity
  8
NORMALI
100
AcDbLine
 10
674.7607808791058
 20
565.3351139781153
 30
0.0
 11
712.8090561969379
 21
565.3351139781153
 31
0.0
  0
LINE
  5
7B3
330
18
100
AcDbEntity
  8
DISEGNO
100
AcDbLine
 10
659.7607808791058
 20
576.0151139781156
 30
0.0
 11
659.7607808791058
 21
565.3651139781159
 31
0.0
  0
LINE
  5
7B4
330
18
100
AcDbEntity
  8
NORMALI
100
AcDbLine
 10
694.7607808790994
 20
567.0181139781144
 30
0.0
 11
693.7607808790994
 21
566.0181139781144
 31
0.0
  0
LINE
  5
7B5
330
18
100
AcDbEntity
  8
NORMALI
100
AcDbLine
 10
693.7607808790994
 20
566.0181139781144
 30
0.0
 11
693.7607808790994
 21
573.4207925234914
 31
0.0
  0
LINE
  5
7B6
330
18
100
AcDbEntity
  8
NORMALI
100
AcDbLine
 10
693.7607808790994
 20
596.0181139781135
 30
0.0
 11
674.7607808790994
 21
596.0181139781135
 31
0.0
  0
ARC
  5
7B8
330
18
100
AcDbEntity
  8
DISEGNO
100
AcDbCircle
 10
662.7607808791058
 20
591.0151139781156
 30
0.0
 40
3.0
100
AcDbArc
 50
90.0
 51
180.0
  0
LINE
  5
7B9
330
18
100
AcDbEntity
  8
NORMALI
100
AcDbLine
 10
674.7607808791058
 20
596.0181139781135
 30
0.0
 11
674.7607808791058
 21
594.0151139781165
 31
0.0
  0
LINE
  5
7BA
330
18
100
AcDbEntity
  8
DISEGNO
100
AcDbLine
 10
662.7607808791058
 20
594.0151139781156
 30
0.0
 11
674.7607808791058
 21
594.0151139781165
 31
0.0
  0
LINE
  5
7BB
330
18
100
AcDbEntity
  8
NORMALI
100
AcDbLine
 10
693.7607808790994
 20
596.0181139781135
 30
0.0
 11
694.7607808790994
 21
595.0181139781135
 31
0.0
  0
LINE
  5
7BC
330
18
100
AcDbEntity
  8
NORMALI
100
AcDbLine
 10
693.7607808790994
 20
596.0181139781135
 30
0.0
 11
693.7607808790994
 21
588.6154354327356
 31
0.0
  0
LINE
  5
7BD
330
18
100
AcDbEntity
  8
DISEGNO
100
AcDbLine
 10
1230.587722638663
 20
556.0151139781143
 30
0.0
 11
1030.587722638663
 21
556.0151139781138
 31
0.0
  0
LINE
  5
7BE
330
18
100
AcDbEntity
  8
NORMALI
100
AcDbLine
 10
1013.583208877587
 20
503.5181139781188
 30
0.0
 11
1247.592236399737
 21
503.5181139781188
 31
0.0
  0
LINE
  5
7BF
330
18
100
AcDbEntity
  8
NORMALI
100
AcDbLine
 10
1030.587722638663
 20
513.5181139781179
 30
0.0
 11
1230.587722638663
 21
513.5181139781179
 31
0.0
  0
LINE
  5
7C0
330
18
100
AcDbEntity
  8
NORMALI
100
AcDbLine
 10
1030.587722638663
 20
528.5176225273145
 30
0.0
 11
1230.587722638663
 21
528.5176225273145
 31
0.0
  0
LINE
  5
7C1
330
18
100
AcDbEntity
  8
NORMALI
100
AcDbLine
 10
1030.587722638662
 20
538.5176225273126
 30
0.0
 11
1230.587722638663
 21
538.5176225273126
 31
0.0
  0
LINE
  5
7C3
330
18
100
AcDbEntity
  8
NORMALI
100
AcDbLine
 10
917.5877226386628
 20
571.018113978119
 30
0.0
 11
917.5877226386628
 21
511.0181139781189
 31
0.0
  0
LINE
  5
7C6
330
18
100
AcDbEntity
  8
NORMALI
100
AcDbLine
 10
890.5877226386628
 20
571.018113978119
 30
0.0
 11
890.5877226386628
 21
511.0181139781189
 31
0.0
  0
LINE
  5
7C7
330
18
100
AcDbEntity
  8
NORMALI
100
AcDbLine
 10
1003.587722638663
 20
571.018113978119
 30
0.0
 11
1003.587722638663
 21
511.0181139781189
 31
0.0
  0
LINE
  5
7C9
330
18
100
AcDbEntity
  8
NORMALI
100
AcDbLine
 10
1030.587722638663
 20
511.0181139781189
 30
0.0
 11
1030.587722638663
 21
571.018113978119
 31
0.0
  0
LINE
  5
7CB
330
18
100
AcDbEntity
  8
NORMALI
100
AcDbLine
 10
917.5877226386628
 20
511.0181139781189
 30
0.0
 11
890.5877226386628
 21
511.0181139781189
 31
0.0
  0
LINE
  5
7CC
330
18
100
AcDbEntity
  8
DISEGNO
100
AcDbLine
 10
726.4044226561978
 20
477.2681139781187
 30
0.0
 11
949.7247304355614
 21
477.2681139781175
 31
0.0
  0
LINE
  5
7CD
330
18
100
AcDbEntity
  8
NORMALI
100
AcDbLine
 10
724.1485063399263
 20
513.5181139781177
 30
0.0
 11
890.5877226386619
 21
513.5181139781179
 31
0.0
  0
LINE
  5
7CE
330
18
100
AcDbEntity
  8
NORMALI
100
AcDbLine
 10
941.7458764673847
 20
497.7385963282781
 30
0.0
 11
941.7458764673847
 21
488.5700387030542
 31
0.0
  0
LINE
  5
7CF
330
18
100
AcDbEntity
  8
NORMALI
100
AcDbLine
 10
981.7458765728666
 20
497.7385963282781
 30
0.0
 11
981.7458765728666
 21
488.5700387030542
 31
0.0
  0
ELLIPSE
  5
7D0
330
18
100
AcDbEntity
  8
NORMALI
100
AcDbEllipse
 10
961.7458765201263
 20
499.8819310417334
 30
0.0
 11
20.00000005274088
 21
0.0000000000000057
 31
0.0
210
0.0
220
0.0
230
-1.0
 40
0.7071667356727611
 41
0.1521299263250988
 42
2.989462727264694
  0
ELLIPSE
  5
7D1
330
18
100
AcDbEntity
  8
NORMALI
100
AcDbEllipse
 10
961.7458765201263
 20
488.5700387030542
 30
0.0
 11
-20.00000005274159
 21
-0.0000000000006431
 31
0.0
210
0.0
220
0.0
230
-1.0
 40
0.7070721241810537
 41
3.141592653589837
 42
6.283185307179631
  0
LINE
  5
7D2
330
18
100
AcDbEntity
  8
NORMALI
100
AcDbLine
 10
917.5877226386628
 20
521.0181139781188
 30
0.0
 11
1003.587722638663
 21
521.0181139781188
 31
0.0
  0
LINE
  5
7D3
330
18
100
AcDbEntity
  8
NORMALI
100
AcDbLine
 10
917.5877226386628
 20
522.7681139781188
 30
0.0
 11
1003.587722638663
 21
522.7681139781188
 31
0.0
  0
LINE
  5
7D4
330
18
100
AcDbEntity
  8
NORMALI
100
AcDbLine
 10
917.5877226386628
 20
519.2681139781188
 30
0.0
 11
1003.587722638663
 21
519.2681139781188
 31
0.0
  0
LINE
  5
7D5
330
18
100
AcDbEntity
  8
NORMALI
100
AcDbLine
 10
911.5877226386627
 20
498.0181139781189
 30
0.0
 11
1009.587722638663
 21
498.0181139781189
 31
0.0
  0
LINE
  5
7D6
330
18
100
AcDbEntity
  8
NORMALI
100
AcDbLine
 10
911.5877226386627
 20
511.0181139781189
 30
0.0
 11
911.5877226386627
 21
498.0181139781189
 31
0.0
  0
LINE
  5
7D7
330
18
100
AcDbEntity
  8
NORMALI
100
AcDbLine
 10
907.5957498888119
 20
511.0181139781189
 30
0.0
 11
907.5973064255167
 21
501.0181139781188
 31
0.0
  0
LINE
  5
7D8
330
18
100
AcDbEntity
  8
NORMALI
100
AcDbLine
 10
911.5877226386627
 20
501.0181139781188
 30
0.0
 11
907.5973064255167
 21
501.0181139781188
 31
0.0
  0
LINE
  5
7D9
330
18
100
AcDbEntity
  8
NORMALI
100
AcDbLine
 10
1013.583208877587
 20
511.0181139781189
 30
0.0
 11
1013.583208877587
 21
501.0181139781188
 31
0.0
  0
LINE
  5
7DA
330
18
100
AcDbEntity
  8
NORMALI
100
AcDbLine
 10
1009.587722638663
 20
511.0181139781189
 30
0.0
 11
1009.587722638663
 21
498.0181139781189
 31
0.0
  0
LINE
  5
7DB
330
18
100
AcDbEntity
  8
NORMALI
100
AcDbLine
 10
1009.587722638663
 20
501.0181139781188
 30
0.0
 11
1013.583208877587
 21
501.0181139781188
 31
0.0
  0
LINE
  5
7DC
330
18
100
AcDbEntity
  8
NORMALI
100
AcDbLine
 10
1030.587722638663
 20
511.0181139781189
 30
0.0
 11
1003.587722638663
 21
511.0181139781189
 31
0.0
  0
LINE
  5
7DF
330
18
100
AcDbEntity
  8
DISEGNO
100
AcDbLine
 10
890.5877226386628
 20
556.0151139781138
 30
0.0
 11
721.5038256311649
 21
556.0151139781138
 31
0.0
  0
LINE
  5
7E0
330
18
100
AcDbEntity
  8
NORMALI
100
AcDbLine
 10
723.2150543103484
 20
528.5176225273145
 30
0.0
 11
890.5877226386619
 21
528.5176225273145
 31
0.0
  0
LINE
  5
7E1
330
18
100
AcDbEntity
  8
NORMALI
100
AcDbLine
 10
720.625107330868
 20
570.1351139781146
 30
0.0
 11
890.5877226386637
 21
570.1351139781146
 31
0.0
  0
LINE
  5
7E3
330
18
100
AcDbEntity
  8
DISEGNO
100
AcDbLine
 10
890.5877226386628
 20
591.0181139781226
 30
0.0
 11
890.5877226386628
 21
571.018113978119
 31
0.0
  0
LINE
  5
7E4
330
18
100
AcDbEntity
  8
0
100
AcDbLine
 10
995.5877226386633
 20
571.018113978119
 30
0.0
 11
995.587722638664
 21
563.7432549587702
 31
0.0
  0
ELLIPSE
  5
7E5
330
18
100
AcDbEntity
  8
NORMALI
100
AcDbEllipse
 10
941.5572452897368
 20
552.9219841669315
 30
0.0
 11
20.00000005274068
 21
-0.0000000000008042
 31
0.0
210
0.0
220
0.0
230
-1.0
 40
0.7068306062034754
 41
3.141592653589857
 42
6.28318530717965
  0
LINE
  5
7E6
330
18
100
AcDbEntity
  8
0
100
AcDbLine
 10
957.9524550436563
 20
561.0181139781224
 30
0.0
 11
966.3232802444388
 21
561.0181139781224
 31
0.0
  0
LINE
  5
7E7
330
18
100
AcDbEntity
  8
NORMALI
100
AcDbLine
 10
917.5877226386628
 20
544.018113978119
 30
0.0
 11
1003.587722638663
 21
544.018113978119
 31
0.0
  0
ELLIPSE
  5
7E8
330
18
100
AcDbEntity
  8
NORMALI
100
AcDbEllipse
 10
941.5572452897368
 20
541.6019842042102
 30
0.0
 11
20.00000005274101
 21
0.0000000000009249
 31
0.0
210
0.0
220
0.0
230
-1.0
 40
0.7068306062033731
 41
3.293314399514226
 42
6.131463561255218
  0
LINE
  5
7E9
330
18
100
AcDbEntity
  8
NORMALI
100
AcDbLine
 10
921.5574004041691
 20
543.7385963282783
 30
0.0
 11
921.5580673293052
 21
552.9219841669315
 31
0.0
  0
LINE
  5
7EB
330
18
100
AcDbEntity
  8
DISEGNO
100
AcDbLine
 10
922.0418630942459
 20
556.0151139781143
 30
0.0
 11
917.5877226386628
 21
556.0151139781138
 31
0.0
  0
LINE
  5
7EC
330
18
100
AcDbEntity
  8
0
100
AcDbLine
 10
917.5877226386628
 20
561.0181139781224
 30
0.0
 11
925.1620355358163
 21
561.0181139781224
 31
0.0
  0
LINE
  5
7ED
330
18
100
AcDbEntity
  8
NORMALI
100
AcDbLine
 10
961.5574005096505
 20
543.7385963282783
 30
0.0
 11
961.5580674347883
 21
552.9219841669315
 31
0.0
  0
LINE
  5
7EF
330
18
100
AcDbEntity
  8
DISEGNO
100
AcDbLine
 10
1003.587722638663
 20
556.0151139781143
 30
0.0
 11
1002.233872193849
 21
556.0151139781143
 31
0.0
  0
LINE
  5
7F5
330
18
100
AcDbEntity
  8
NORMALI
100
AcDbLine
 10
1257.587722638663
 20
571.018113978119
 30
0.0
 11
1257.587722638663
 21
511.0181139781189
 31
0.0
  0
LINE
  5
7F8
330
18
100
AcDbEntity
  8
NORMALI
100
AcDbLine
 10
1230.587722638663
 20
511.0181139781189
 30
0.0
 11
1230.587722638663
 21
571.018113978119
 31
0.0
  0
LINE
  5
7F9
330
18
100
AcDbEntity
  8
NORMALI
100
AcDbLine
 10
1281.976030179428
 20
497.7954424496397
 30
0.0
 11
1281.976030179428
 21
488.6268848244157
 31
0.0
  0
LINE
  5
7FA
330
18
100
AcDbEntity
  8
NORMALI
100
AcDbLine
 10
1251.587722638663
 20
511.0181139781189
 30
0.0
 11
1251.587722638663
 21
498.0181139781189
 31
0.0
  0
LINE
  5
7FB
330
18
100
AcDbEntity
  8
NORMALI
100
AcDbLine
 10
1247.592236399737
 20
511.0181139781189
 30
0.0
 11
1247.592236399737
 21
501.0181139781188
 31
0.0
  0
LINE
  5
7FC
330
18
100
AcDbEntity
  8
NORMALI
100
AcDbLine
 10
1251.587722638663
 20
501.0181139781188
 30
0.0
 11
1247.592236399737
 21
501.0181139781188
 31
0.0
  0
LINE
  5
7FD
330
18
100
AcDbEntity
  8
NORMALI
100
AcDbLine
 10
1230.587722638663
 20
511.0181139781189
 30
0.0
 11
1257.587722638663
 21
511.0181139781189
 31
0.0
  0
LINE
  5
7FE
330
18
100
AcDbEntity
  8
0
100
AcDbLine
 10
1265.587722638662
 20
571.018113978119
 30
0.0
 11
1265.587722638662
 21
563.6533602206095
 31
0.0
  0
LINE
  5
800
330
18
100
AcDbEntity
  8
DISEGNO
100
AcDbLine
 10
1300.568967362044
 20
556.0151139781143
 30
0.0
 11
1298.233199812585
 21
556.0151139781143
 31
0.0
  0
LINE
  5
801
330
18
100
AcDbEntity
  8
0
100
AcDbLine
 10
1303.651106083546
 20
561.0181139781224
 30
0.0
 11
1295.151061091084
 21
561.0181139781224
 31
0.0
  0
LINE
  5
802
330
18
100
AcDbEntity
  8
NORMALI
100
AcDbLine
 10
1300.102380919987
 20
544.018113978119
 30
0.0
 11
1300.10303167405
 21
552.9788302882931
 31
0.0
  0
LINE
  5
808
330
18
100
AcDbEntity
  8
DISEGNO
100
AcDbLine
 10
1574.765157352567
 20
594.0151139781165
 30
0.0
 11
1574.765157352567
 21
436.0151139781155
 31
0.0
  0
LINE
  5
80A
330
18
100
AcDbEntity
  8
DISEGNO
100
AcDbLine
 10
1754.765157352567
 20
556.0151139781156
 30
0.0
 11
1754.765157352567
 21
436.0151139781164
 31
0.0
  0
LINE
  5
80B
330
18
100
AcDbEntity
  8
DISEGNO
100
AcDbLine
 10
1766.765157352567
 20
551.0151139781156
 30
0.0
 11
1766.765157352567
 21
441.0151139781155
 31
0.0
  0
LINE
  5
80C
330
18
100
AcDbEntity
  8
NORMALI
100
AcDbLine
 10
2379.068786400567
 20
523.7681139781152
 30
0.0
 11
2358.81643857448
 21
544.0181139781152
 31
0.0
  0
LINE
  5
80E
330
18
100
AcDbEntity
  8
NORMALI
100
AcDbLine
 10
2385.071786400567
 20
571.0181139781152
 30
0.0
 11
2385.071786400567
 21
511.0181139781152
 31
0.0
  0
ARC
  5
810
330
18
100
AcDbEntity
  8
NORMALI
100
AcDbCircle
 10
2380.559786400568
 20
497.5281139781182
 30
0.0
 40
14.722
100
AcDbArc
 50
127.7919999999967
 51
154.4890000000301
  0
ARC
  5
811
330
18
100
AcDbEntity
  8
NORMALI
100
AcDbCircle
 10
2363.982786400569
 20
514.1081139781163
 30
0.0
 40
14.722
100
AcDbArc
 50
295.5110000000049
 51
334.4891000000313
  0
LINE
  5
812
330
18
100
AcDbEntity
  8
NORMALI
100
AcDbLine
 10
2371.917786400567
 20
500.5181139781152
 30
0.0
 11
2371.209786400568
 21
500.5181139781152
 31
0.0
  0
LINE
  5
813
330
18
100
AcDbEntity
  8
NORMALI
100
AcDbLine
 10
2379.068786400567
 20
511.0181139781152
 30
0.0
 11
2369.442786400568
 21
508.6481139781162
 31
0.0
  0
LINE
  5
814
330
18
100
AcDbEntity
  8
NORMALI
100
AcDbLine
 10
2371.319786400567
 20
509.1081139781153
 30
0.0
 11
2364.944786400567
 21
502.7381139781164
 31
0.0
  0
LINE
  5
815
330
18
100
AcDbEntity
  8
NORMALI
100
AcDbLine
 10
2379.068786400567
 20
518.2681139781152
 30
0.0
 11
2358.816786400567
 21
498.0181139781152
 31
0.0
  0
LINE
  5
816
330
18
100
AcDbEntity
  8
NORMALI
100
AcDbLine
 10
2379.597786400567
 20
508.8981139781163
 30
0.0
 11
2369.187786400567
 21
498.4881139781164
 31
0.0
  0
LINE
  5
817
330
18
100
AcDbEntity
  8
NORMALI
100
AcDbLine
 10
2358.816786400567
 20
498.0181139781152
 30
0.0
 11
2355.319786400567
 21
498.0181139781152
 31
0.0
  0
LINE
  5
818
330
18
100
AcDbEntity
  8
NORMALI
100
AcDbLine
 10
2367.276786400568
 20
503.8681139781174
 30
0.0
 11
2370.317786400567
 21
500.8281139781165
 31
0.0
  0
LINE
  5
819
330
18
100
AcDbEntity
  8
NORMALI
100
AcDbLine
 10
2364.492786400567
 20
502.2781139781172
 30
0.0
 11
2363.785786400567
 21
502.9881139781164
 31
0.0
  0
ARC
  5
81A
330
18
100
AcDbEntity
  8
NORMALI
100
AcDbCircle
 10
2367.757786400568
 20
499.9181139781176
 30
0.0
 40
3.978
100
AcDbArc
 50
96.99499999999513
 51
172.9799999999983
  0
LINE
  5
81B
330
18
100
AcDbEntity
  8
NORMALI
100
AcDbLine
 10
2363.814786400567
 20
500.3981139781163
 30
0.0
 11
2366.855786400567
 21
497.3581139781154
 31
0.0
  0
ARC
  5
81C
330
18
100
AcDbEntity
  8
NORMALI
100
AcDbCircle
 10
2366.374786400569
 20
501.308113978117
 30
0.0
 40
3.978
100
AcDbArc
 50
277.0203000000053
 51
353.0046599999976
  0
LINE
  5
81D
330
18
100
AcDbEntity
  8
NORMALI
100
AcDbLine
 10
2378.281786400568
 20
495.5681139781181
 30
0.0
 11
2376.867786400567
 21
495.5681139781181
 31
0.0
  0
LINE
  5
81E
330
18
100
AcDbEntity
  8
NORMALI
100
AcDbLine
 10
2378.988786400567
 20
496.2681139781152
 30
0.0
 11
2377.574786400567
 21
496.2681139781152
 31
0.0
  0
LINE
  5
81F
330
18
100
AcDbEntity
  8
NORMALI
100
AcDbLine
 10
2382.524786400567
 20
501.2181139781159
 30
0.0
 11
2382.524786400567
 21
499.8081139781161
 31
0.0
  0
LINE
  5
820
330
18
100
AcDbEntity
  8
NORMALI
100
AcDbLine
 10
2377.574786400567
 20
506.1681139781167
 30
0.0
 11
2371.917786400567
 21
500.5181139781152
 31
0.0
  0
LINE
  5
821
330
18
100
AcDbEntity
  8
NORMALI
100
AcDbLine
 10
2381.817786400568
 20
499.098113978117
 30
0.0
 11
2373.331786400567
 21
500.5181139781152
 31
0.0
  0
LINE
  5
822
330
18
100
AcDbEntity
  8
NORMALI
100
AcDbLine
 10
2381.817786400568
 20
500.5181139781152
 30
0.0
 11
2381.817786400568
 21
499.098113978117
 31
0.0
  0
LINE
  5
823
330
18
100
AcDbEntity
  8
NORMALI
100
AcDbLine
 10
2377.574786400567
 20
504.7581139781168
 30
0.0
 11
2373.331786400567
 21
500.5181139781152
 31
0.0
  0
LINE
  5
824
330
18
100
AcDbEntity
  8
NORMALI
100
AcDbLine
 10
2381.817786400568
 20
500.5181139781152
 30
0.0
 11
2377.574786400567
 21
504.7581139781168
 31
0.0
  0
ARC
  5
826
330
18
100
AcDbEntity
  8
NORMALI
100
AcDbCircle
 10
2376.784786400568
 20
511.7181139781169
 30
0.0
 40
3.978
100
AcDbArc
 50
276.9954999999999
 51
349.8650156614079
  0
LINE
  5
827
330
18
100
AcDbEntity
  8
NORMALI
100
AcDbLine
 10
2377.574786400567
 20
506.8781139781158
 30
0.0
 11
2377.574786400567
 21
506.1681139781167
 31
0.0
  0
LINE
  5
828
330
18
100
AcDbEntity
  8
NORMALI
100
AcDbLine
 10
2375.015786400567
 20
510.0181139781152
 30
0.0
 11
2377.265786400567
 21
507.7681139781152
 31
0.0
  0
LINE
  5
829
330
18
100
AcDbEntity
  8
NORMALI
100
AcDbLine
 10
2379.068786400567
 20
523.7681139781152
 30
0.0
 11
2379.068786400567
 21
518.2681139781152
 31
0.0
  0
LINE
  5
82B
330
18
100
AcDbEntity
  8
NORMALI
100
AcDbLine
 10
2382.524786400567
 20
501.2181139781159
 30
0.0
 11
2377.220786400567
 21
506.5281139781173
 31
0.0
  0
LINE
  5
82C
330
18
100
AcDbEntity
  8
NORMALI
100
AcDbLine
 10
2379.068786400567
 20
511.0181139781152
 30
0.0
 11
2385.071786400567
 21
511.0181139781152
 31
0.0
  0
LINE
  5
82D
330
18
100
AcDbEntity
  8
NORMALI
100
AcDbLine
 10
2373.331786400567
 20
500.5181139781152
 30
0.0
 11
2377.574786400567
 21
496.2681139781152
 31
0.0
  0
LINE
  5
82E
330
18
100
AcDbEntity
  8
NORMALI
100
AcDbLine
 10
2376.867786400567
 20
495.5681139781181
 30
0.0
 11
2371.563786400567
 21
500.8681139781174
 31
0.0
  0
LINE
  5
82F
330
18
100
AcDbEntity
  8
NORMALI
100
AcDbLine
 10
2382.524786400567
 20
499.8081139781161
 30
0.0
 11
2378.281786400568
 21
495.5681139781181
 31
0.0
  0
LINE
  5
830
330
18
100
AcDbEntity
  8
NORMALI
100
AcDbLine
 10
2377.574786400567
 20
504.7581139781168
 30
0.0
 11
2378.988786400567
 21
496.2681139781152
 31
0.0
  0
ARC
  5
832
330
18
100
AcDbEntity
  8
DISEGNO
100
AcDbCircle
 10
1761.765157352567
 20
441.0151139781155
 30
0.0
 40
5.0
100
AcDbArc
 50
270.0
 51
0.000000000000007
  0
LINE
  5
833
330
18
100
AcDbEntity
  8
NORMALI
100
AcDbLine
 10
2355.319786400567
 20
544.0181139781152
 30
0.0
 11
2358.81643857448
 21
544.0181139781152
 31
0.0
  0
LINE
  5
835
330
18
100
AcDbEntity
  8
DISEGNO
100
AcDbLine
 10
2395.284298979183
 20
591.0181139781188
 30
0.0
 11
2395.284298979182
 21
571.0181139781162
 31
0.0
  0
LINE
  5
836
330
18
100
AcDbEntity
  8
DISEGNO
100
AcDbLine
 10
1754.765157352567
 20
464.7681139781143
 30
0.0
 11
1625.116152039068
 21
464.7681139781143
 31
0.0
  0
LINE
  5
837
330
18
100
AcDbEntity
  8
DISEGNO
100
AcDbLine
 10
1625.11252856462
 20
477.2681139781134
 30
0.0
 11
1754.765157352567
 21
477.2681139781143
 31
0.0
  0
LINE
  5
838
330
18
100
AcDbEntity
  8
DISEGNO
100
AcDbLine
 10
1754.765157352567
 20
527.2681139781144
 30
0.0
 11
1625.11252856462
 21
527.2681139781144
 31
0.0
  0
LINE
  5
839
330
18
100
AcDbEntity
  8
DISEGNO
100
AcDbLine
 10
1625.116152039068
 20
514.7681139781143
 30
0.0
 11
1754.765157352567
 21
514.7681139781143
 31
0.0
  0
LINE
  5
83A
330
18
100
AcDbEntity
  8
DISEGNO
100
AcDbLine
 10
1761.765157352567
 20
581.0151139781165
 30
0.0
 11
1629.765157352567
 21
581.0151139781156
 31
0.0
  0
LINE
  5
83C
330
18
100
AcDbEntity
  8
DISEGNO
100
AcDbLine
 10
1766.765157352567
 20
556.0151139781156
 30
0.0
 11
1370.587722638663
 21
556.0151139781147
 31
0.0
  0
LINE
  5
83E
330
18
100
AcDbEntity
  8
NORMALI
100
AcDbLine
 10
1343.587722638663
 20
571.018113978119
 30
0.0
 11
1343.587722638663
 21
511.0181139781189
 31
0.0
  0
LINE
  5
83F
330
18
100
AcDbEntity
  8
NORMALI
100
AcDbLine
 10
1370.587722638663
 20
571.018113978119
 30
0.0
 11
1370.587722638663
 21
511.0181139781189
 31
0.0
  0
LINE
  5
845
330
18
100
AcDbEntity
  8
ASSI
100
AcDbLine
 10
1614.765157352566
 20
534.5331054169256
 30
0.0
 11
1614.765157352566
 21
506.6506489864105
 31
0.0
  0
CIRCLE
  5
846
330
18
100
AcDbEntity
  8
DISEGNO
100
AcDbCircle
 10
1614.765157352566
 20
521.0151139781155
 30
0.0
 40
12.09
  0
CIRCLE
  5
84D
330
18
100
AcDbEntity
  8
DISEGNO
100
AcDbCircle
 10
1614.765157352566
 20
471.0151139781165
 30
0.0
 40
12.09
  0
LINE
  5
84E
330
18
100
AcDbEntity
  8
NORMALI
100
AcDbLine
 10
1321.976030284909
 20
497.7954424496397
 30
0.0
 11
1321.976030284909
 21
488.6268848244157
 31
0.0
  0
LINE
  5
84F
330
18
100
AcDbEntity
  8
DISEGNO
100
AcDbLine
 10
1313.889524905054
 20
477.2681139781147
 30
0.0
 11
1574.765157352567
 21
477.2681139781134
 31
0.0
  0
LINE
  5
851
330
18
100
AcDbEntity
  8
DISEGNO
100
AcDbLine
 10
1574.765157352567
 20
460.5151139781146
 30
0.0
 11
1594.765157352567
 21
460.5151139781137
 31
0.0
  0
LINE
  5
852
330
18
100
AcDbEntity
  8
DISEGNO
100
AcDbLine
 10
1604.414162666065
 20
464.7681139781143
 30
0.0
 11
1599.709041554286
 21
464.7681139781143
 31
0.0
  0
ARC
  5
853
330
18
100
AcDbEntity
  8
DISEGNO
100
AcDbCircle
 10
1594.765157352567
 20
465.5151139781137
 30
0.0
 40
5.0
100
AcDbArc
 50
270.0
 51
351.4078427082985
  0
LINE
  5
854
330
18
100
AcDbEntity
  8
DISEGNO
100
AcDbLine
 10
1574.765157352567
 20
481.5181139781143
 30
0.0
 11
1594.765157352567
 21
481.5181139781143
 31
0.0
  0
LINE
  5
855
330
18
100
AcDbEntity
  8
DISEGNO
100
AcDbLine
 10
1599.708587335888
 20
477.2681139781143
 30
0.0
 11
1604.417786140514
 21
477.2681139781134
 31
0.0
  0
ARC
  5
856
330
18
100
AcDbEntity
  8
DISEGNO
100
AcDbCircle
 10
1594.765157352567
 20
476.5181139781143
 30
0.0
 40
5.0
100
AcDbArc
 50
8.626926558677597
 51
90.0
  0
LINE
  5
857
330
18
100
AcDbEntity
  8
NORMALI
100
AcDbLine
 10
1343.587722638663
 20
511.0181139781189
 30
0.0
 11
1370.587722638663
 21
511.0181139781189
 31
0.0
  0
LINE
  5
858
330
18
100
AcDbEntity
  8
NORMALI
100
AcDbLine
 10
1353.578527985984
 20
503.5181139781188
 30
0.0
 11
1574.765157352567
 21
503.5181139781188
 31
0.0
  0
LINE
  5
859
330
18
100
AcDbEntity
  8
NORMALI
100
AcDbLine
 10
1349.587722638663
 20
511.0181139781189
 30
0.0
 11
1349.587722638663
 21
498.0181139781189
 31
0.0
  0
LINE
  5
85A
330
18
100
AcDbEntity
  8
NORMALI
100
AcDbLine
 10
1353.579695388514
 20
511.0181139781189
 30
0.0
 11
1353.578138851807
 21
501.0181139781188
 31
0.0
  0
LINE
  5
85B
330
18
100
AcDbEntity
  8
NORMALI
100
AcDbLine
 10
1349.587722638663
 20
501.0181139781188
 30
0.0
 11
1353.578138851807
 21
501.0181139781188
 31
0.0
  0
LINE
  5
85C
330
18
100
AcDbEntity
  8
DISEGNO
100
AcDbLine
 10
1574.765157352567
 20
510.5151139781137
 30
0.0
 11
1594.765157352567
 21
510.5151139781137
 31
0.0
  0
LINE
  5
85D
330
18
100
AcDbEntity
  8
NORMALI
100
AcDbLine
 10
1370.587722638662
 20
513.5181139781179
 30
0.0
 11
1574.765157352567
 21
513.5181139781179
 31
0.0
  0
LINE
  5
85E
330
18
100
AcDbEntity
  8
DISEGNO
100
AcDbLine
 10
1599.709041554286
 20
514.7681139781143
 30
0.0
 11
1604.414162666065
 21
514.7681139781143
 31
0.0
  0
LINE
  5
85F
330
18
100
AcDbEntity
  8
DISEGNO
100
AcDbLine
 10
1604.414162666065
 20
514.7681139781143
 30
0.0
 11
1599.709041554286
 21
514.7681139781143
 31
0.0
  0
ARC
  5
860
330
18
100
AcDbEntity
  8
DISEGNO
100
AcDbCircle
 10
1594.765157352567
 20
515.5151139781137
 30
0.0
 40
5.0
100
AcDbArc
 50
270.0
 51
351.4078427082985
  0
LINE
  5
863
330
18
100
AcDbEntity
  8
ASSI
100
AcDbLine
 10
1614.765157352566
 20
457.5136139781161
 30
0.0
 11
1614.765157352566
 21
484.5166139781158
 31
0.0
  0
LINE
  5
868
330
18
100
AcDbEntity
  8
DISEGNO
100
AcDbLine
 10
1626.765157352567
 20
594.0151139781156
 30
0.0
 11
1574.765157352567
 21
594.0151139781165
 31
0.0
  0
LINE
  5
86A
330
18
100
AcDbEntity
  8
0
100
AcDbLine
 10
1343.587722638663
 20
561.0181139781224
 30
0.0
 11
1336.553313185417
 21
561.0181139781224
 31
0.0
  0
LINE
  5
86B
330
18
100
AcDbEntity
  8
DISEGNO
100
AcDbLine
 10
1343.587722638664
 20
556.0151139781147
 30
0.0
 11
1339.635451906918
 21
556.0151139781147
 31
0.0
  0
LINE
  5
86C
330
18
100
AcDbEntity
  8
NORMALI
100
AcDbLine
 10
1340.102381025468
 20
544.018113978119
 30
0.0
 11
1340.103031779533
 21
552.9788302882931
 31
0.0
  0
LINE
  5
86D
330
18
100
AcDbEntity
  8
DISEGNO
100
AcDbLine
 10
1574.765157352567
 20
531.5181139781144
 30
0.0
 11
1594.765157352567
 21
531.5181139781144
 31
0.0
  0
LINE
  5
86E
330
18
100
AcDbEntity
  8
NORMALI
100
AcDbLine
 10
1370.587722638663
 20
528.5176225273145
 30
0.0
 11
1574.765157352567
 21
528.5176225273145
 31
0.0
  0
LINE
  5
86F
330
18
100
AcDbEntity
  8
NORMALI
100
AcDbLine
 10
1370.587722638662
 20
538.5176225273126
 30
0.0
 11
1574.765157352567
 21
538.5176225273126
 31
0.0
  0
LINE
  5
870
330
18
100
AcDbEntity
  8
DISEGNO
100
AcDbLine
 10
1599.708587335888
 20
527.2681139781144
 30
0.0
 11
1604.417786140514
 21
527.2681139781135
 31
0.0
  0
LINE
  5
871
330
18
100
AcDbEntity
  8
DISEGNO
100
AcDbLine
 10
1604.417786140514
 20
527.2681139781144
 30
0.0
 11
1599.708587335888
 21
527.2681139781144
 31
0.0
  0
ARC
  5
872
330
18
100
AcDbEntity
  8
DISEGNO
100
AcDbCircle
 10
1594.765157352567
 20
526.5181139781144
 30
0.0
 40
5.0
100
AcDbArc
 50
8.626926558677597
 51
90.0
  0
LINE
  5
878
330
18
100
AcDbEntity
  8
NORMALI
100
AcDbLine
 10
1554.765157352572
 20
595.0181139781135
 30
0.0
 11
1554.765157352573
 21
567.0181139781144
 31
0.0
  0
LINE
  5
879
330
18
100
AcDbEntity
  8
DISEGNO
100
AcDbLine
 10
1554.765157352567
 20
591.0181139781226
 30
0.0
 11
1554.765157352567
 21
571.018113978119
 31
0.0
  0
LINE
  5
87A
330
18
100
AcDbEntity
  8
NORMALI
100
AcDbLine
 10
1554.765157352573
 20
567.0181139781144
 30
0.0
 11
1555.765157352573
 21
566.0181139781144
 31
0.0
  0
LINE
  5
87C
330
18
100
AcDbEntity
  8
NORMALI
100
AcDbLine
 10
1554.765157352567
 20
570.1391139781159
 30
0.0
 11
1554.765157352567
 21
570.1391139781159
 31
0.0
  0
LINE
  5
87D
330
18
100
AcDbEntity
  8
NORMALI
100
AcDbLine
 10
1574.765157352567
 20
565.3393139781161
 30
0.0
 11
1370.587722638663
 21
565.3393139781161
 31
0.0
  0
LINE
  5
87E
330
18
100
AcDbEntity
  8
NORMALI
100
AcDbLine
 10
1555.765157352574
 20
566.0181139781139
 30
0.0
 11
1574.765157352572
 21
566.0181139781135
 31
0.0
  0
LINE
  5
880
330
18
100
AcDbEntity
  8
NORMALI
100
AcDbLine
 10
1555.765157352572
 20
596.0181139781135
 30
0.0
 11
1555.765157352574
 21
566.0181139781139
 31
0.0
  0
LINE
  5
881
330
18
100
AcDbEntity
  8
NORMALI
100
AcDbLine
 10
1555.765157352572
 20
596.0181139781135
 30
0.0
 11
1554.765157352572
 21
595.0181139781135
 31
0.0
  0
LINE
  5
882
330
18
100
AcDbEntity
  8
NORMALI
100
AcDbLine
 10
1574.765157352567
 20
596.0181139781135
 30
0.0
 11
1574.765157352567
 21
594.0151139781165
 31
0.0
  0
LINE
  5
883
330
18
100
AcDbEntity
  8
NORMALI
100
AcDbLine
 10
1555.765157352572
 20
596.0181139781135
 30
0.0
 11
1574.765157352572
 21
596.0181139781135
 31
0.0
  0
LINE
  5
884
330
18
100
AcDbEntity
  8
DISEGNO
100
AcDbLine
 10
1629.765157352567
 20
556.0151139781156
 30
0.0
 11
1629.765157352567
 21
591.0151139781156
 31
0.0
  0
ARC
  5
885
330
18
100
AcDbEntity
  8
DISEGNO
100
AcDbCircle
 10
1626.765157352567
 20
591.0151139781156
 30
0.0
 40
3.0
100
AcDbArc
 50
0.000000000000007
 51
90.0
  0
LINE
  5
889
330
18
100
AcDbEntity
  8
DISEGNO
100
AcDbLine
 10
1766.765157352567
 20
551.0151139781156
 30
0.0
 11
1766.765157352567
 21
576.0151139781165
 31
0.0
  0
ARC
  5
88A
330
18
100
AcDbEntity
  8
DISEGNO
100
AcDbCircle
 10
1761.765157352567
 20
551.0151139781156
 30
0.0
 40
5.0
100
AcDbArc
 50
0.000000000000007
 51
90.0
  0
ARC
  5
88B
330
18
100
AcDbEntity
  8
DISEGNO
100
AcDbCircle
 10
1761.765157352567
 20
576.0151139781165
 30
0.0
 40
5.0
100
AcDbArc
 50
0.000000000000007
 51
90.0
  0
LINE
  5
49FF
330
18
100
AcDbEntity
  8
DISEGNO
100
AcDbLine
 10
1370.587722638663
 20
591.0181139781226
 30
0.0
 11
1370.587722638663
 21
571.018113978119
 31
0.0
  0
LINE
  5
4A00
330
18
100
AcDbEntity
  8
NORMALI
100
AcDbLine
 10
1554.765157352573
 20
570.1351139781146
 30
0.0
 11
1370.587722638662
 21
570.1351139781146
 31
0.0
  0
LINE
  5
4B46
330
18
100
AcDbEntity
  8
DISEGNO
100
AcDbLine
 10
910.5877226386619
 20
45.99999999999832
 30
0.0
 11
910.5877226386628
 21
-46.00000000000031
 31
0.0
  0
ARC
  5
4B64
330
18
100
AcDbEntity
  8
DISEGNO
100
AcDbCircle
 10
906.5877226386628
 20
-46.00000000000031
 30
0.0
 40
4.0
100
AcDbArc
 50
270.0
 51
0.0
  0
LINE
  5
4B7B
330
18
100
AcDbEntity
  8
DISEGNO
100
AcDbLine
 10
906.5877226386628
 20
-50.00000000000031
 30
0.0
 11
890.5877226386634
 21
-50.00000000000079
 31
0.0
  0
ARC
  5
4BD0
330
18
100
AcDbEntity
  8
DISEGNO
100
AcDbCircle
 10
906.587722638662
 20
45.99999999999832
 30
0.0
 40
4.0
100
AcDbArc
 50
0.0
 51
90.0
  0
LINE
  5
4BF1
330
18
100
AcDbEntity
  8
DISEGNO
100
AcDbLine
 10
906.5877226386623
 20
49.99999999999833
 30
0.0
 11
890.587722638663
 21
49.99999999999881
 31
0.0
  0
ARC
  5
4CB0
330
18
100
AcDbEntity
  8
DISEGNO
100
AcDbCircle
 10
1354.587722638663
 20
-46.00000000000031
 30
0.0
 40
4.0
100
AcDbArc
 50
180.0
 51
270.0
  0
LINE
  5
4CB2
330
18
100
AcDbEntity
  8
DISEGNO
100
AcDbLine
 10
1354.587722638664
 20
49.99999999999833
 30
0.0
 11
1369.587722638664
 21
49.99999999999878
 31
0.0
  0
LINE
  5
4CB3
330
18
100
AcDbEntity
  8
DISEGNO
100
AcDbLine
 10
1354.587722638663
 20
-50.00000000000031
 30
0.0
 11
1369.587722638663
 21
-50.00000000000077
 31
0.0
  0
LINE
  5
4CE8
330
18
100
AcDbEntity
  8
DISEGNO
100
AcDbLine
 10
1360.58772263866
 20
-50.00000000000054
 30
0.0
 11
1370.587722638663
 21
-50.00000000000099
 31
0.0
  0
LINE
  5
4D0D
330
18
100
AcDbEntity
  8
DISEGNO
100
AcDbLine
 10
1360.587722638661
 20
49.99999999999878
 30
0.0
 11
1370.587722638664
 21
49.99999999999992
 31
0.0
  0
LINE
  5
4D0F
330
18
100
AcDbEntity
  8
DISEGNO
100
AcDbLine
 10
1350.587722638664
 20
45.99999999999832
 30
0.0
 11
1350.587722638663
 21
-46.00000000000031
 31
0.0
  0
ARC
  5
4D39
330
18
100
AcDbEntity
  8
DISEGNO
100
AcDbCircle
 10
1354.587722638664
 20
45.99999999999832
 30
0.0
 40
4.0
100
AcDbArc
 50
90.0
 51
180.0
  0
LINE
  5
5D84
330
18
100
AcDbEntity
  8
ASSI
100
AcDbLine
 10
1020.587722638663
 20
178.959728969123
 30
0.0
 11
1020.587722638663
 21
130.6152710308745
 31
0.0
  0
LINE
  5
5D85
330
18
100
AcDbEntity
  8
ASSI
100
AcDbLine
 10
900.5877226386628
 20
178.959728969123
 30
0.0
 11
900.5877226386628
 21
130.6152710308745
 31
0.0
1001
ACAD
1000
ASC_BOUNDS
1002
{
1070
    19
1002
}
  0
LINE
  5
5D88
330
18
100
AcDbEntity
  8
ASSI
100
AcDbLine
 10
891.4154936695386
 20
139.7874999999987
 30
0.0
 11
909.759951607787
 21
139.7874999999987
 31
0.0
  0
LINE
  5
5D8B
330
18
100
AcDbEntity
  8
ASSI
100
AcDbLine
 10
1029.759951607787
 20
139.7874999999987
 30
0.0
 11
1011.415493669538
 21
139.7874999999987
 31
0.0
  0
LINE
  5
5D90
330
18
100
AcDbEntity
  8
ASSI
100
AcDbLine
 10
891.4154936695386
 20
169.7874999999988
 30
0.0
 11
909.759951607787
 21
169.7874999999988
 31
0.0
  0
LINE
  5
5D94
330
18
100
AcDbEntity
  8
ASSI
100
AcDbLine
 10
1029.759951607787
 20
169.7874999999988
 30
0.0
 11
1011.415493669538
 21
169.7874999999988
 31
0.0
  0
LINE
  5
5D95
330
18
100
AcDbEntity
  8
ASSI
100
AcDbLine
 10
1240.587722638663
 20
178.959728969123
 30
0.0
 11
1240.587722638663
 21
130.6152710308745
 31
0.0
  0
LINE
  5
5D96
330
18
100
AcDbEntity
  8
ASSI
100
AcDbLine
 10
1360.587722638663
 20
178.959728969123
 30
0.0
 11
1360.587722638663
 21
130.6152710308745
 31
0.0
1001
ACAD
1000
ASC_BOUNDS
1002
{
1070
    19
1002
}
  0
LINE
  5
5D99
330
18
100
AcDbEntity
  8
ASSI
100
AcDbLine
 10
1369.759951607787
 20
139.7874999999987
 30
0.0
 11
1351.415493669539
 21
139.7874999999987
 31
0.0
  0
LINE
  5
5D9C
330
18
100
AcDbEntity
  8
ASSI
100
AcDbLine
 10
1231.415493669539
 20
139.7874999999987
 30
0.0
 11
1249.759951607787
 21
139.7874999999987
 31
0.0
  0
LINE
  5
5DA0
330
18
100
AcDbEntity
  8
ASSI
100
AcDbLine
 10
1369.759951607787
 20
169.7874999999988
 30
0.0
 11
1351.415493669539
 21
169.7874999999988
 31
0.0
  0
LINE
  5
5DA1
330
18
100
AcDbEntity
  8
ASSI
100
AcDbLine
 10
1375.767144823841
 20
154.7874999999987
 30
0.0
 11
1225.408300453485
 21
154.7874999999987
 31
0.0
1001
ACAD
1000
ASC_BOUNDS
1002
{
1070
    19
1002
}
  0
LINE
  5
5DA5
330
18
100
AcDbEntity
  8
ASSI
100
AcDbLine
 10
1231.415493669539
 20
169.7874999999988
 30
0.0
 11
1249.759951607787
 21
169.7874999999988
 31
0.0
  0
LINE
  5
5DA6
330
18
100
AcDbEntity
  8
ASSI
100
AcDbLine
 10
1020.587722638663
 20
-178.9597289691248
 30
0.0
 11
1020.587722638663
 21
-130.6152710308763
 31
0.0
  0
LINE
  5
5DA7
330
18
100
AcDbEntity
  8
ASSI
100
AcDbLine
 10
900.5877226386628
 20
-178.9597289691248
 30
0.0
 11
900.5877226386628
 21
-130.6152710308763
 31
0.0
1001
ACAD
1000
ASC_BOUNDS
1002
{
1070
    19
1002
}
  0
LINE
  5
5DA8
330
18
100
AcDbEntity
  8
ASSI
100
AcDbLine
 10
885.4083004534849
 20
-154.7875000000006
 30
0.0
 11
1035.76714482384
 21
-154.7875000000006
 31
0.0
1001
ACAD
1000
ASC_BOUNDS
1002
{
1070
    19
1002
}
  0
LINE
  5
5DAC
330
18
100
AcDbEntity
  8
ASSI
100
AcDbLine
 10
891.4154936695386
 20
-169.7875000000006
 30
0.0
 11
909.759951607787
 21
-169.7875000000006
 31
0.0
  0
LINE
  5
5DAF
330
18
100
AcDbEntity
  8
ASSI
100
AcDbLine
 10
891.4154936695386
 20
-139.7875000000006
 30
0.0
 11
909.759951607787
 21
-139.7875000000006
 31
0.0
  0
LINE
  5
5DB5
330
18
100
AcDbEntity
  8
ASSI
100
AcDbLine
 10
1029.759951607787
 20
-169.7875000000006
 30
0.0
 11
1011.415493669538
 21
-169.7875000000006
 31
0.0
  0
LINE
  5
5DB6
330
18
100
AcDbEntity
  8
ASSI
100
AcDbLine
 10
1029.759951607787
 20
-139.7875000000006
 30
0.0
 11
1011.415493669538
 21
-139.7875000000006
 31
0.0
  0
LINE
  5
5DB7
330
18
100
AcDbEntity
  8
ASSI
100
AcDbLine
 10
1240.587722638663
 20
-178.9597289691248
 30
0.0
 11
1240.587722638663
 21
-130.6152710308763
 31
0.0
  0
LINE
  5
5DB8
330
18
100
AcDbEntity
  8
ASSI
100
AcDbLine
 10
1360.587722638663
 20
-178.9597289691248
 30
0.0
 11
1360.587722638663
 21
-132.0728455833107
 31
0.0
1001
ACAD
1000
ASC_BOUNDS
1002
{
1070
    19
1002
}
  0
LINE
  5
5DBE
330
18
100
AcDbEntity
  8
ASSI
100
AcDbLine
 10
1369.759951607787
 20
-139.7875000000006
 30
0.0
 11
1351.415493669539
 21
-139.7875000000006
 31
0.0
  0
LINE
  5
5DBF
330
18
100
AcDbEntity
  8
ASSI
100
AcDbLine
 10
1369.759951607787
 20
-169.7875000000006
 30
0.0
 11
1351.415493669539
 21
-169.7875000000006
 31
0.0
  0
LINE
  5
5DC0
330
18
100
AcDbEntity
  8
ASSI
100
AcDbLine
 10
1375.767144823841
 20
-154.7875000000006
 30
0.0
 11
1225.408300453485
 21
-154.7875000000006
 31
0.0
1001
ACAD
1000
ASC_BOUNDS
1002
{
1070
    19
1002
}
  0
LINE
  5
5DC6
330
18
100
AcDbEntity
  8
ASSI
100
AcDbLine
 10
1231.415493669539
 20
-169.7875000000006
 30
0.0
 11
1249.759951607787
 21
-169.7875000000006
 31
0.0
  0
LINE
  5
5DC7
330
18
100
AcDbEntity
  8
ASSI
100
AcDbLine
 10
1231.415493669539
 20
-139.7875000000006
 30
0.0
 11
1249.759951607787
 21
-139.7875000000006
 31
0.0
  0
LINE
  5
5DD0
330
18
100
AcDbEntity
  8
DISEGNO
100
AcDbLine
 10
890.5877226386628
 20
194.9999999999981
 30
0.0
 11
895.5877226386629
 21
199.9999999999982
 31
0.0
  0
LINE
  5
5DD8
330
18
100
AcDbEntity
  8
DISEGNO
100
AcDbLine
 10
1370.587722638663
 20
194.9999999999981
 30
0.0
 11
1365.587722638663
 21
199.9999999999982
 31
0.0
  0
LINE
  5
5DE0
330
18
100
AcDbEntity
  8
DISEGNO
100
AcDbLine
 10
1370.587722638663
 20
-194.9999999999986
 30
0.0
 11
1365.587722638663
 21
-199.9999999999986
 31
0.0
  0
LINE
  5
5DE8
330
18
100
AcDbEntity
  8
DISEGNO
100
AcDbLine
 10
890.5877226386628
 20
-194.9999999999986
 30
0.0
 11
895.5877226386629
 21
-199.9999999999986
 31
0.0
  0
LINE
  5
628C
330
18
100
AcDbEntity
  8
ASSI
100
AcDbLine
 10
120.3927337420255
 20
411.8041758884865
 30
0.0
 11
120.3927337420255
 21
609.5656073841484
 31
0.0
  0
ARC
  5
629A
330
18
100
AcDbEntity
  8
DISEGNO
100
AcDbCircle
 10
11.89273374202548
 20
554.518113978119
 30
0.0
 40
1.5
100
AcDbArc
 50
90.00000000484623
 51
180.0
  0
LINE
  5
629B
330
18
100
AcDbEntity
  8
NORMALI
100
AcDbLine
 10
7.192598521836771
 20
525.0181139781189
 30
0.0
 11
11.89273374202548
 21
525.0181139781189
 31
0.0
  0
LINE
  5
629C
330
18
100
AcDbEntity
  8
NORMALI
100
AcDbLine
 10
4.393246320641992
 20
538.518113978119
 30
0.0
 11
10.39262367913216
 21
538.518113978119
 31
0.0
  0
LINE
  5
629D
330
18
100
AcDbEntity
  8
DISEGNO
100
AcDbLine
 10
320.3927337420255
 20
591.0181139781226
 30
0.0
 11
-79.60726625797452
 21
591.018113978124
 31
0.0
  0
LINE
  5
629E
330
18
100
AcDbEntity
  8
DISEGNO
100
AcDbLine
 10
-79.60726625797452
 20
571.0181139781195
 30
0.0
 11
70.39273374202548
 21
571.0181139781195
 31
0.0
  0
ARC
  5
62A0
330
18
100
AcDbEntity
  8
DISEGNO
100
AcDbCircle
 10
11.89273374202548
 20
437.5151139781193
 30
0.0
 40
1.5
100
AcDbArc
 50
180.0
 51
270.0
  0
LINE
  5
62A1
330
18
100
AcDbEntity
  8
NORMALI
100
AcDbLine
 10
7.192648836302396
 20
517.018113978119
 30
0.0
 11
11.89273374202912
 21
517.018113978119
 31
0.0
  0
LINE
  5
62A5
330
18
100
AcDbEntity
  8
NORMALI
100
AcDbLine
 10
10.39273374202548
 20
503.5181139781189
 30
0.0
 11
4.393246320641992
 21
503.5181139781189
 31
0.0
  0
LINE
  5
62A7
330
18
100
AcDbEntity
  8
ASSI
100
AcDbLine
 10
-1.693106383131635
 20
471.018113978119
 30
0.0
 11
241.1050187493866
 21
471.018113978119
 31
0.0
  0
LINE
  5
62A8
330
18
100
AcDbEntity
  8
ASSI
100
AcDbLine
 10
-78.9404064261771
 20
521.018113978119
 30
0.0
 11
318.0555317347053
 21
521.018113978119
 31
0.0
  0
LINE
  5
62AA
330
18
100
AcDbEntity
  8
NORMALI
100
AcDbLine
 10
3.510246320642181
 20
546.8281139781203
 30
0.0
 11
-9.382753679357847
 21
559.7241967070577
 31
0.0
  0
LINE
  5
62B0
330
18
100
AcDbEntity
  8
NORMALI
100
AcDbLine
 10
-9.382753679357847
 20
571.018113978119
 30
0.0
 11
-9.382753679357847
 21
558.0181139781189
 31
0.0
  0
LINE
  5
62B2
330
18
100
AcDbEntity
  8
NORMALI
100
AcDbLine
 10
-69.39475367935847
 20
571.018113978119
 30
0.0
 11
-69.39475367935847
 21
511.018113978119
 31
0.0
  0
LINE
  5
62B5
330
18
100
AcDbEntity
  8
NORMALI
100
AcDbLine
 10
2.953967678491608
 20
501.018113978119
 30
0.0
 11
-23.35975367935862
 21
474.7081139781213
 31
0.0
  0
LINE
  5
62B6
330
18
100
AcDbEntity
  8
NORMALI
100
AcDbLine
 10
3.510246320642181
 20
495.2081139781213
 30
0.0
 11
-15.58175367935837
 21
476.1181139781212
 31
0.0
  0
LINE
  5
62B7
330
18
100
AcDbEntity
  8
NORMALI
100
AcDbLine
 10
-34.67375367935801
 20
486.018113978119
 30
0.0
 11
-19.6716320386231
 21
501.018113978119
 31
0.0
  0
LINE
  5
62B9
330
18
100
AcDbEntity
  8
NORMALI
100
AcDbLine
 10
-34.67375367935801
 20
486.018113978119
 30
0.0
 11
-23.35975367935862
 21
474.7081139781213
 31
0.0
  0
LINE
  5
62BA
330
18
100
AcDbEntity
  8
NORMALI
100
AcDbLine
 10
-15.58175367935837
 20
476.1181139781212
 30
0.0
 11
-18.76375367935816
 21
479.2981139781215
 31
0.0
  0
LINE
  5
62BB
330
18
100
AcDbEntity
  8
NORMALI
100
AcDbLine
 10
4.924246320641941
 20
539.0481139781214
 30
0.0
 11
4.924246320641941
 21
541.0181139781189
 31
0.0
  0
LINE
  5
62BF
330
18
100
AcDbEntity
  8
NORMALI
100
AcDbLine
 10
2.954762703341657
 20
541.0181139781189
 30
0.0
 11
-10.33175367935837
 21
554.3081139781198
 31
0.0
  0
LINE
  5
62C3
330
18
100
AcDbEntity
  8
NORMALI
100
AcDbLine
 10
0.3282463206414832
 20
543.64811397812
 30
0.0
 11
3.510246320642181
 21
546.8281139781203
 31
0.0
  0
LINE
  5
62C4
330
18
100
AcDbEntity
  8
NORMALI
100
AcDbLine
 10
-39.64275367935807
 20
544.018113978119
 30
0.0
 11
-36.64261250288746
 21
541.0181139781189
 31
0.0
  0
LINE
  5
62C7
330
18
100
AcDbEntity
  8
NORMALI
100
AcDbLine
 10
-39.64275367935807
 20
544.018113978119
 30
0.0
 11
-43.13940585327145
 21
544.018113978119
 31
0.0
  0
LINE
  5
62CC
330
18
100
AcDbEntity
  8
NORMALI
100
AcDbLine
 10
-9.382753679357847
 20
558.0181139781189
 30
0.0
 11
-13.72751963680457
 21
541.0181139781189
 31
0.0
  0
LINE
  5
62CD
330
18
100
AcDbEntity
  8
NORMALI
100
AcDbLine
 10
-8.206748628596869
 20
525.9181190288829
 30
0.0
 11
4.923746386180937
 21
539.0486140436579
 31
0.0
  0
LINE
  5
62CE
330
18
100
AcDbEntity
  8
NORM_TR
100
AcDbLine
 10
4.923746386180937
 20
539.0486140436579
 30
0.0
 11
2.954762703341657
 21
541.0181139781189
 31
0.0
  0
LINE
  5
62CF
330
18
100
AcDbEntity
  8
NORMALI
100
AcDbLine
 10
-46.13975367935836
 20
541.0181139781189
 30
0.0
 11
4.924246320641941
 21
541.0181139781189
 31
0.0
  0
LINE
  5
62D0
330
18
100
AcDbEntity
  8
NORMALI
100
AcDbLine
 10
4.924246320641941
 20
502.9881139781202
 30
0.0
 11
4.924246320641941
 21
501.018113978119
 31
0.0
  0
LINE
  5
62D6
330
18
100
AcDbEntity
  8
NORMALI
100
AcDbLine
 10
0.3282463206414832
 20
498.3981139781199
 30
0.0
 11
3.510246320642181
 21
495.2081139781213
 31
0.0
  0
LINE
  5
62D7
330
18
100
AcDbEntity
  8
NORMALI
100
AcDbLine
 10
-63.39175367935786
 20
523.768113978119
 30
0.0
 11
-63.39175367935786
 21
518.2681139781189
 31
0.0
  0
LINE
  5
62D8
330
18
100
AcDbEntity
  8
NORMALI
100
AcDbLine
 10
-55.64275367935806
 20
509.1081139781191
 30
0.0
 11
-49.26775367935807
 21
502.7381139781201
 31
0.0
  0
ARC
  5
62D9
330
18
100
AcDbEntity
  8
NORMALI
100
AcDbCircle
 10
-50.69775367935744
 20
501.3081139781198
 30
0.0
 40
3.978
100
AcDbArc
 50
186.9953399999962
 51
262.9797000000083
  0
ARC
  5
62DA
330
18
100
AcDbEntity
  8
NORMALI
100
AcDbCircle
 10
-64.88275367935694
 20
497.528113978121
 30
0.0
 40
14.722
100
AcDbArc
 50
25.51099999996845
 51
52.20799999999552
  0
LINE
  5
62DB
330
18
100
AcDbEntity
  8
NORMALI
100
AcDbLine
 10
-63.39175367935786
 20
518.2681139781189
 30
0.0
 11
-43.13975367935836
 21
498.018113978119
 31
0.0
  0
LINE
  5
62DC
330
18
100
AcDbEntity
  8
NORMALI
100
AcDbLine
 10
-63.39175367935786
 20
511.018113978119
 30
0.0
 11
-53.76575367935856
 21
508.6481139781199
 31
0.0
  0
LINE
  5
62DD
330
18
100
AcDbEntity
  8
NORMALI
100
AcDbLine
 10
-63.92075367935831
 20
508.89811397812
 30
0.0
 11
-53.51075367935846
 21
498.4881139781201
 31
0.0
  0
ARC
  5
62DE
330
18
100
AcDbEntity
  8
NORMALI
100
AcDbCircle
 10
-48.30575367935762
 20
514.1081139781191
 30
0.0
 40
14.722
100
AcDbArc
 50
205.510899999966
 51
244.4889999999952
  0
LINE
  5
62DF
330
18
100
AcDbEntity
  8
NORMALI
100
AcDbLine
 10
-56.24075367935802
 20
500.518113978119
 30
0.0
 11
-55.53275367935839
 21
500.518113978119
 31
0.0
  0
ARC
  5
62E0
330
18
100
AcDbEntity
  8
NORMALI
100
AcDbCircle
 10
-61.1077536793573
 20
511.7181139781197
 30
0.0
 40
3.978
100
AcDbArc
 50
190.1349843385921
 51
263.0044999999872
  0
LINE
  5
62E1
330
18
100
AcDbEntity
  8
NORMALI
100
AcDbLine
 10
-66.14075367935857
 20
500.518113978119
 30
0.0
 11
-61.89775367935817
 21
504.7581139781206
 31
0.0
  0
LINE
  5
62E2
330
18
100
AcDbEntity
  8
NORMALI
100
AcDbLine
 10
-66.84775367935799
 20
499.8081139781199
 30
0.0
 11
-62.60475367935851
 21
495.5681139781218
 31
0.0
  0
LINE
  5
62E3
330
18
100
AcDbEntity
  8
NORMALI
100
AcDbLine
 10
-66.84775367935799
 20
501.2181139781197
 30
0.0
 11
-61.54375367935791
 21
506.528113978121
 31
0.0
  0
LINE
  5
62E4
330
18
100
AcDbEntity
  8
NORMALI
100
AcDbLine
 10
-61.89775367935817
 20
504.7581139781206
 30
0.0
 11
-63.31175367935793
 21
496.268113978119
 31
0.0
  0
LINE
  5
62E5
330
18
100
AcDbEntity
  8
NORMALI
100
AcDbLine
 10
-61.89775367935817
 20
506.8781139781195
 30
0.0
 11
-61.89775367935817
 21
506.1681139781204
 31
0.0
  0
LINE
  5
62E6
330
18
100
AcDbEntity
  8
NORMALI
100
AcDbLine
 10
-59.33875367935797
 20
510.018113978119
 30
0.0
 11
-61.58875367935798
 21
507.768113978119
 31
0.0
  0
LINE
  5
62E7
330
18
100
AcDbEntity
  8
NORMALI
100
AcDbLine
 10
-62.60475367935851
 20
495.5681139781218
 30
0.0
 11
-61.19075367935784
 21
495.5681139781218
 31
0.0
  0
LINE
  5
62E8
330
18
100
AcDbEntity
  8
NORMALI
100
AcDbLine
 10
-63.31175367935793
 20
496.268113978119
 30
0.0
 11
-61.89775367935817
 21
496.268113978119
 31
0.0
  0
LINE
  5
62E9
330
18
100
AcDbEntity
  8
NORMALI
100
AcDbLine
 10
-66.84775367935799
 20
501.2181139781197
 30
0.0
 11
-66.84775367935799
 21
499.8081139781199
 31
0.0
  0
LINE
  5
62EA
330
18
100
AcDbEntity
  8
NORMALI
100
AcDbLine
 10
-66.14075367935857
 20
500.518113978119
 30
0.0
 11
-66.14075367935857
 21
499.0981139781207
 31
0.0
  0
LINE
  5
62ED
330
18
100
AcDbEntity
  8
NORMALI
100
AcDbLine
 10
-66.14075367935857
 20
499.0981139781207
 30
0.0
 11
-57.65475367935778
 21
500.518113978119
 31
0.0
  0
LINE
  5
62EE
330
18
100
AcDbEntity
  8
NORMALI
100
AcDbLine
 10
-57.65475367935778
 20
500.518113978119
 30
0.0
 11
-61.89775367935817
 21
496.268113978119
 31
0.0
  0
LINE
  5
62EF
330
18
100
AcDbEntity
  8
NORMALI
100
AcDbLine
 10
-61.89775367935817
 20
504.7581139781206
 30
0.0
 11
-57.65475367935778
 21
500.518113978119
 31
0.0
  0
LINE
  5
62F0
330
18
100
AcDbEntity
  8
NORMALI
100
AcDbLine
 10
-61.19075367935784
 20
495.5681139781218
 30
0.0
 11
-55.88675367935775
 21
500.8681139781211
 31
0.0
  0
LINE
  5
62F1
330
18
100
AcDbEntity
  8
NORMALI
100
AcDbLine
 10
-61.89775367935817
 20
506.1681139781204
 30
0.0
 11
-56.24075367935802
 21
500.518113978119
 31
0.0
  0
LINE
  5
62F3
330
18
100
AcDbEntity
  8
NORMALI
100
AcDbLine
 10
-36.64261250288746
 20
501.018113978119
 30
0.0
 11
-39.64275367935807
 21
498.018113978119
 31
0.0
  0
LINE
  5
62F4
330
18
100
AcDbEntity
  8
NORMALI
100
AcDbLine
 10
-27.6027536793581
 20
493.0881139781186
 30
0.0
 11
-36.08775367935777
 21
501.5781139781203
 31
0.0
  0
LINE
  5
62F5
330
18
100
AcDbEntity
  8
NORMALI
100
AcDbLine
 10
-43.13975367935836
 20
498.018113978119
 30
0.0
 11
-39.64275367935807
 21
498.018113978119
 31
0.0
  0
LINE
  5
62F6
330
18
100
AcDbEntity
  8
NORMALI
100
AcDbLine
 10
-48.13775367935796
 20
500.39811397812
 30
0.0
 11
-51.17875367935813
 21
497.3581139781191
 31
0.0
  0
ARC
  5
62F7
330
18
100
AcDbEntity
  8
NORMALI
100
AcDbCircle
 10
-52.08075367935726
 20
499.9181139781204
 30
0.0
 40
3.978
100
AcDbArc
 50
7.019999999994472
 51
83.00499999999193
  0
LINE
  5
62F8
330
18
100
AcDbEntity
  8
NORMALI
100
AcDbLine
 10
-48.81575367935784
 20
502.278113978121
 30
0.0
 11
-48.10875367935842
 21
502.9881139781202
 31
0.0
  0
LINE
  5
62F9
330
18
100
AcDbEntity
  8
NORMALI
100
AcDbLine
 10
-51.5997536793584
 20
503.8681139781211
 30
0.0
 11
-54.64075367935857
 21
500.8281139781202
 31
0.0
  0
LINE
  5
62FD
330
18
100
AcDbEntity
  8
NORMALI
100
AcDbLine
 10
4.923746285283414
 20
502.9876140134794
 30
0.0
 11
-8.20674862859505
 21
516.1181089273551
 31
0.0
  0
LINE
  5
62FE
330
18
100
AcDbEntity
  8
NORMALI
100
AcDbLine
 10
-46.13975367935836
 20
501.018113978119
 30
0.0
 11
4.924246320641941
 21
501.018113978119
 31
0.0
  0
LINE
  5
62FF
330
18
100
AcDbEntity
  8
NORM_TR
100
AcDbLine
 10
4.923746285283414
 20
502.9876140134794
 30
0.0
 11
2.953967678491608
 21
501.018113978119
 31
0.0
  0
LINE
  5
6300
330
18
100
AcDbEntity
  8
NORMALI
100
AcDbLine
 10
-63.39175367935786
 20
511.018113978119
 30
0.0
 11
-69.39475367935847
 21
511.018113978119
 31
0.0
  0
LINE
  5
6301
330
18
100
AcDbEntity
  8
NORMALI
100
AcDbLine
 10
8.692733742026575
 20
525.0181139781189
 30
0.0
 11
8.692733742028394
 21
517.018113978119
 31
0.0
  0
LINE
  5
6302
330
18
100
AcDbEntity
  8
NORMALI
100
AcDbLine
 10
7.192648836301486
 20
517.018113978119
 30
0.0
 11
7.192598521836771
 21
525.0181139781189
 31
0.0
  0
LINE
  5
6306
330
18
100
AcDbEntity
  8
NORMALI
100
AcDbLine
 10
-5.606753679358007
 20
513.518113978119
 30
0.0
 11
-5.606753679358007
 21
528.5181139781189
 31
0.0
  0
ARC
  5
6307
330
18
100
AcDbEntity
  8
NORMALI
100
AcDbCircle
 10
-3.207753679357665
 20
521.018113978119
 30
0.0
 40
7.0
100
AcDbArc
 50
135.0000000000092
 51
224.9998999999957
  0
LINE
  5
6309
330
18
100
AcDbEntity
  8
NORMALI
100
AcDbLine
 10
-63.39175367935786
 20
523.768113978119
 30
0.0
 11
-43.13940585327145
 21
544.018113978119
 31
0.0
  0
LINE
  5
630C
330
18
100
AcDbEntity
  8
DISEGNO
100
AcDbLine
 10
-79.60726625797452
 20
591.018113978124
 30
0.0
 11
-79.60726625797452
 21
571.0181139781195
 31
0.0
  0
LINE
  5
6314
330
18
100
AcDbEntity
  8
NORMALI
100
AcDbLine
 10
-69.39475367935847
 20
571.0181139781226
 30
0.0
 11
-9.382753679356937
 21
571.0181139781226
 31
0.0
  0
LINE
  5
631A
330
18
100
AcDbEntity
  8
NORMALI
100
AcDbLine
 10
250.1682211634097
 20
571.018113978119
 30
0.0
 11
250.1682211634097
 21
558.0181139781189
 31
0.0
  0
LINE
  5
631D
330
18
100
AcDbEntity
  8
NORMALI
100
AcDbLine
 10
237.2752211634097
 20
546.8281139781203
 30
0.0
 11
250.1682211634097
 21
559.7241967070577
 31
0.0
  0
LINE
  5
6320
330
18
100
AcDbEntity
  8
ASSI
100
AcDbLine
 10
45.39273374202548
 20
426.8179964296051
 30
0.0
 11
45.39273374202548
 21
560.2839787201747
 31
0.0
  0
LINE
  5
6321
330
18
100
AcDbEntity
  8
ASSI
100
AcDbLine
 10
195.3927337420255
 20
426.8179964296051
 30
0.0
 11
195.3927337420255
 21
561.4908471023983
 31
0.0
  0
LINE
  5
6322
330
18
100
AcDbEntity
  8
ASSI
100
AcDbLine
 10
195.3927337420255
 20
426.8179964296051
 30
0.0
 11
195.3927337420255
 21
561.4908471023983
 31
0.0
  0
LINE
  5
6324
330
18
100
AcDbEntity
  8
NORMALI
100
AcDbLine
 10
310.1802211634104
 20
571.018113978119
 30
0.0
 11
310.1802211634104
 21
511.018113978119
 31
0.0
  0
ARC
  5
6326
330
18
100
AcDbEntity
  8
DISEGNO
100
AcDbCircle
 10
195.3927337420255
 20
563.018113978119
 30
0.0
 40
27.0
100
AcDbArc
 50
248.5687454961635
 51
291.4312545038366
  0
LINE
  5
6327
330
18
100
AcDbEntity
  8
DISEGNO
100
AcDbLine
 10
187.6427337420255
 20
525.6081139781191
 30
0.0
 11
186.9727337420254
 21
525.8981139781182
 31
0.0
  0
LINE
  5
6328
330
18
100
AcDbEntity
  8
DISEGNO
100
AcDbLine
 10
189.1427337420255
 20
556.018113978119
 30
0.0
 11
151.6427337420255
 21
556.018113978119
 31
0.0
  0
LINE
  5
6329
330
18
100
AcDbEntity
  8
DISEGNO
100
AcDbLine
 10
184.8927337420255
 20
549.0181139781189
 30
0.0
 11
189.1427337420255
 21
549.0181139781167
 31
0.0
  0
LINE
  5
632A
330
18
100
AcDbEntity
  8
DISEGNO
100
AcDbLine
 10
189.1427337420255
 20
436.0151139781192
 30
0.0
 11
151.6427337420255
 21
436.0151139781192
 31
0.0
  0
ARC
  5
632B
330
18
100
AcDbEntity
  8
DISEGNO
100
AcDbCircle
 10
195.3927337420255
 20
429.0181139781189
 30
0.0
 40
27.0
100
AcDbArc
 50
68.56874549616342
 51
111.4312545038366
  0
LINE
  5
632C
330
18
100
AcDbEntity
  8
DISEGNO
100
AcDbLine
 10
184.8927337420255
 20
443.0151139781193
 30
0.0
 11
189.1427337420255
 21
443.0151139781193
 31
0.0
  0
ARC
  5
632D
330
18
100
AcDbEntity
  8
DISEGNO
100
AcDbCircle
 10
195.3927337420255
 20
521.018113978119
 30
0.0
 40
13.5
100
AcDbArc
 50
180.0
 51
270.0
  0
ARC
  5
632E
330
18
100
AcDbEntity
  8
DISEGNO
100
AcDbCircle
 10
195.3927337420255
 20
471.018113978119
 30
0.0
 40
13.5
100
AcDbArc
 50
90.0
 51
180.0
  0
LINE
  5
632F
330
18
100
AcDbEntity
  8
DISEGNO
100
AcDbLine
 10
187.6427337420255
 20
466.4281139781188
 30
0.0
 11
186.9727337420254
 21
466.1381139781188
 31
0.0
  0
LINE
  5
6330
330
18
100
AcDbEntity
  8
DISEGNO
100
AcDbLine
 10
187.5627337420255
 20
475.4681139781188
 30
0.0
 11
186.8827337420261
 21
475.7481139781194
 31
0.0
  0
LINE
  5
6331
330
18
100
AcDbEntity
  8
DISEGNO
100
AcDbLine
 10
187.5627337420255
 20
516.5581139781189
 30
0.0
 11
186.8827337420261
 21
516.2881139781194
 31
0.0
  0
LINE
  5
6332
330
18
100
AcDbEntity
  8
DISEGNO
100
AcDbLine
 10
10.39273374202548
 20
514.768113978119
 30
0.0
 11
10.39273374202548
 21
477.268113978119
 31
0.0
  0
ARC
  5
6333
330
18
100
AcDbEntity
  8
DISEGNO
100
AcDbCircle
 10
26.89273374202548
 20
480.518113978119
 30
0.0
 40
8.5
100
AcDbArc
 50
36.87000000000177
 51
90.0
  0
ARC
  5
6334
330
18
100
AcDbEntity
  8
DISEGNO
100
AcDbCircle
 10
45.39273374202548
 20
471.018113978119
 30
0.0
 40
13.5
100
AcDbArc
 50
0.0
 51
90.0
  0
LINE
  5
6335
330
18
100
AcDbEntity
  8
DISEGNO
100
AcDbLine
 10
163.1427337420254
 20
544.518113978119
 30
0.0
 11
163.1427337420254
 21
447.5151139781193
 31
0.0
  0
LINE
  5
6336
330
18
100
AcDbEntity
  8
DISEGNO
100
AcDbLine
 10
77.64273374202549
 20
544.518113978119
 30
0.0
 11
77.64273374202549
 21
447.5151139781193
 31
0.0
  0
LINE
  5
6337
330
18
100
AcDbEntity
  8
DISEGNO
100
AcDbLine
 10
81.14273374202548
 20
527.518113978119
 30
0.0
 11
81.14273374202548
 21
464.518113978119
 31
0.0
  0
LINE
  5
6338
330
18
100
AcDbEntity
  8
DISEGNO
100
AcDbLine
 10
159.6427337420255
 20
527.518113978119
 30
0.0
 11
159.6427337420255
 21
464.518113978119
 31
0.0
  0
LINE
  5
6339
330
18
100
AcDbEntity
  8
DISEGNO
100
AcDbLine
 10
86.14273374202548
 20
453.0151139781192
 30
0.0
 11
104.6427337420255
 21
453.0151139781192
 31
0.0
  0
LINE
  5
633A
330
18
100
AcDbEntity
  8
DISEGNO
100
AcDbLine
 10
85.14273374202549
 20
460.5151139781193
 30
0.0
 11
113.1727337420261
 21
460.5151139781193
 31
0.0
  0
LINE
  5
633B
330
18
100
AcDbEntity
  8
DISEGNO
100
AcDbLine
 10
89.14273374202549
 20
436.0151139781192
 30
0.0
 11
89.14273374202549
 21
442.0151139781193
 31
0.0
  0
LINE
  5
633C
330
18
100
AcDbEntity
  8
DISEGNO
100
AcDbLine
 10
85.14273374202549
 20
442.0151139781193
 30
0.0
 11
85.14273374202549
 21
452.0151139781193
 31
0.0
  0
ARC
  5
633D
330
18
100
AcDbEntity
  8
DISEGNO
100
AcDbCircle
 10
86.14273374202548
 20
452.0151139781193
 30
0.0
 40
1.0
100
AcDbArc
 50
90.00000534775798
 51
180.0
  0
LINE
  5
633E
330
18
100
AcDbEntity
  8
DISEGNO
100
AcDbLine
 10
85.14273374202549
 20
442.0151139781193
 30
0.0
 11
89.14273374202549
 21
442.0151139781193
 31
0.0
  0
ARC
  5
633F
330
18
100
AcDbEntity
  8
DISEGNO
100
AcDbCircle
 10
85.14273374202549
 20
464.518113978119
 30
0.0
 40
4.0
100
AcDbArc
 50
180.0
 51
270.0
  0
LINE
  5
6340
330
18
100
AcDbEntity
  8
DISEGNO
100
AcDbLine
 10
73.64273374202548
 20
443.5151139781193
 30
0.0
 11
67.39273374202548
 21
443.5151139781193
 31
0.0
  0
LINE
  5
6341
330
18
100
AcDbEntity
  8
DISEGNO
100
AcDbLine
 10
10.39273374202548
 20
464.768113978119
 30
0.0
 11
10.39273374202548
 21
437.5151139781193
 31
0.0
  0
ARC
  5
6342
330
18
100
AcDbEntity
  8
DISEGNO
100
AcDbCircle
 10
54.89273374202548
 20
452.5151139781192
 30
0.0
 40
8.5
100
AcDbArc
 50
0.0
 51
53.13100000000901
  0
LINE
  5
6343
330
18
100
AcDbEntity
  8
DISEGNO
100
AcDbLine
 10
26.7046038987728
 20
455.1599841348653
 30
0.0
 11
31.12722867863795
 21
459.5826089147305
 31
0.0
  0
LINE
  5
6344
330
18
100
AcDbEntity
  8
DISEGNO
100
AcDbLine
 10
29.53460389877273
 20
452.3299841348654
 30
0.0
 11
33.95722867863788
 21
456.7526089147305
 31
0.0
  0
ARC
  5
6345
330
18
100
AcDbEntity
  8
DISEGNO
100
AcDbCircle
 10
17.64273374202548
 20
443.2681139781189
 30
0.0
 40
2.0
100
AcDbArc
 50
141.7679999999974
 51
308.231999999998
  0
ARC
  5
6346
330
18
100
AcDbEntity
  8
DISEGNO
100
AcDbCircle
 10
17.64273374202548
 20
453.268113978119
 30
0.0
 40
2.0
100
AcDbArc
 50
51.76800000000201
 51
218.2320000000026
  0
LINE
  5
6347
330
18
100
AcDbEntity
  8
DISEGNO
100
AcDbLine
 10
11.89273374202548
 20
436.0151139781192
 30
0.0
 11
39.14273374202549
 21
436.0151139781192
 31
0.0
  0
ARC
  5
6348
330
18
100
AcDbEntity
  8
DISEGNO
100
AcDbCircle
 10
15.29273374202512
 20
445.1281139781186
 30
0.0
 40
1.0
100
AcDbArc
 50
321.7679999999974
 51
23.1369999999919
  0
ARC
  5
6349
330
18
100
AcDbEntity
  8
DISEGNO
100
AcDbCircle
 10
15.29273374202512
 20
451.4181139781186
 30
0.0
 40
1.0
100
AcDbArc
 50
336.8630000000081
 51
38.23200000000257
  0
ARC
  5
634A
330
18
100
AcDbEntity
  8
DISEGNO
100
AcDbCircle
 10
22.64273374202549
 20
448.268113978119
 30
0.0
 40
7.0
100
AcDbArc
 50
156.8630000000081
 51
203.1369999999919
  0
ARC
  5
634B
330
18
100
AcDbEntity
  8
DISEGNO
100
AcDbCircle
 10
54.89273374202548
 20
453.2203865986813
 30
0.0
 40
1.0
100
AcDbArc
 50
0.0
 51
68.56874549616342
  0
LINE
  5
634C
330
18
100
AcDbEntity
  8
DISEGNO
100
AcDbLine
 10
63.39273374202548
 20
452.5151139781192
 30
0.0
 11
63.39273374202548
 21
447.5151139781193
 31
0.0
  0
LINE
  5
634D
330
18
100
AcDbEntity
  8
DISEGNO
100
AcDbLine
 10
55.89273374202548
 20
443.0151139781193
 30
0.0
 11
51.64273374202548
 21
443.0151139781193
 31
0.0
  0
LINE
  5
634E
330
18
100
AcDbEntity
  8
DISEGNO
100
AcDbLine
 10
55.89273374202548
 20
453.2203865986813
 30
0.0
 11
55.89273374202548
 21
443.0151139781193
 31
0.0
  0
ARC
  5
634F
330
18
100
AcDbEntity
  8
DISEGNO
100
AcDbCircle
 10
67.39273374202548
 20
447.5151139781193
 30
0.0
 40
4.0
100
AcDbArc
 50
180.0
 51
270.0
  0
LINE
  5
6350
330
18
100
AcDbEntity
  8
DISEGNO
100
AcDbLine
 10
51.64273374202548
 20
436.0151139781192
 30
0.0
 11
51.64273374202548
 21
443.0151139781193
 31
0.0
  0
ARC
  5
6351
330
18
100
AcDbEntity
  8
DISEGNO
100
AcDbCircle
 10
30.00273374202607
 20
445.1281139781186
 30
0.0
 40
1.0
100
AcDbArc
 50
156.8630000000081
 51
218.2320000000026
  0
ARC
  5
6352
330
18
100
AcDbEntity
  8
DISEGNO
100
AcDbCircle
 10
30.59526407055182
 20
451.2693239630854
 30
0.0
 40
1.5
100
AcDbArc
 50
135.0000000000092
 51
200.6760338499981
  0
ARC
  5
6353
330
18
100
AcDbEntity
  8
DISEGNO
100
AcDbCircle
 10
22.64273374202549
 20
448.268113978119
 30
0.0
 40
7.0
100
AcDbArc
 50
336.8630000000081
 51
20.67603384999806
  0
ARC
  5
6354
330
18
100
AcDbEntity
  8
DISEGNO
100
AcDbCircle
 10
35.89273374202548
 20
453.2203865986813
 30
0.0
 40
1.0
100
AcDbArc
 50
111.4312545038366
 51
180.0
  0
LINE
  5
6355
330
18
100
AcDbEntity
  8
DISEGNO
100
AcDbLine
 10
39.14273374202549
 20
443.0151139781193
 30
0.0
 11
34.89273374202549
 21
443.0151139781193
 31
0.0
  0
LINE
  5
6356
330
18
100
AcDbEntity
  8
DISEGNO
100
AcDbLine
 10
34.89273374202549
 20
453.2203865986813
 30
0.0
 11
34.89273374202549
 21
443.0151139781193
 31
0.0
  0
LINE
  5
6357
330
18
100
AcDbEntity
  8
DISEGNO
100
AcDbLine
 10
39.14273374202549
 20
443.0151139781193
 30
0.0
 11
39.14273374202549
 21
436.0151139781192
 31
0.0
  0
ARC
  5
6358
330
18
100
AcDbEntity
  8
DISEGNO
100
AcDbCircle
 10
45.39273374202548
 20
429.0181139781189
 30
0.0
 40
27.0
100
AcDbArc
 50
68.56874549616342
 51
111.4312545038366
  0
ARC
  5
6359
330
18
100
AcDbEntity
  8
DISEGNO
100
AcDbCircle
 10
25.79273374202512
 20
440.9181139781186
 30
0.0
 40
1.0
100
AcDbArc
 50
51.76800000000201
 51
113.1369999999991
  0
ARC
  5
635A
330
18
100
AcDbEntity
  8
DISEGNO
100
AcDbCircle
 10
19.50273374202607
 20
440.9181139781186
 30
0.0
 40
1.0
100
AcDbArc
 50
66.86300000000085
 51
128.231999999998
  0
ARC
  5
635B
330
18
100
AcDbEntity
  8
DISEGNO
100
AcDbCircle
 10
19.50273374202607
 20
455.6281139781186
 30
0.0
 40
1.0
100
AcDbArc
 50
231.7677999999994
 51
293.1369999999991
  0
ARC
  5
635C
330
18
100
AcDbEntity
  8
DISEGNO
100
AcDbCircle
 10
22.64273374202549
 20
448.268113978119
 30
0.0
 40
7.0
100
AcDbArc
 50
246.86289999999
 51
293.1369999999991
  0
ARC
  5
635D
330
18
100
AcDbEntity
  8
DISEGNO
100
AcDbCircle
 10
22.64273374202549
 20
448.268113978119
 30
0.0
 40
7.0
100
AcDbArc
 50
69.32396614999165
 51
113.1369999999991
  0
ARC
  5
635E
330
18
100
AcDbEntity
  8
DISEGNO
100
AcDbCircle
 10
25.6439437269928
 20
456.2206443066453
 30
0.0
 40
1.5
100
AcDbArc
 50
249.3239661499917
 51
315.0000000000092
  0
ARC
  5
635F
330
18
100
AcDbEntity
  8
DISEGNO
100
AcDbCircle
 10
27.64273374202549
 20
443.2681139781189
 30
0.0
 40
2.0
100
AcDbArc
 50
231.7677999999994
 51
38.23200000000257
  0
LINE
  5
6360
330
18
100
AcDbEntity
  8
DISEGNO
100
AcDbLine
 10
26.89273374202548
 20
481.518113978119
 30
0.0
 11
17.39273374202548
 21
481.518113978119
 31
0.0
  0
LINE
  5
6361
330
18
100
AcDbEntity
  8
DISEGNO
100
AcDbLine
 10
26.89273374202548
 20
460.5151139781193
 30
0.0
 11
17.39273374202548
 21
460.5151139781193
 31
0.0
  0
LINE
  5
6362
330
18
100
AcDbEntity
  8
DISEGNO
100
AcDbLine
 10
17.39273374202548
 20
460.5151139781193
 30
0.0
 11
17.39273374202548
 21
464.768113978119
 31
0.0
  0
LINE
  5
6363
330
18
100
AcDbEntity
  8
DISEGNO
100
AcDbLine
 10
10.39273374202548
 20
464.768113978119
 30
0.0
 11
17.39273374202548
 21
464.768113978119
 31
0.0
  0
LINE
  5
6364
330
18
100
AcDbEntity
  8
DISEGNO
100
AcDbLine
 10
17.39273374202548
 20
477.268113978119
 30
0.0
 11
10.39273374202548
 21
477.268113978119
 31
0.0
  0
LINE
  5
6365
330
18
100
AcDbEntity
  8
DISEGNO
100
AcDbLine
 10
17.39273374202548
 20
477.268113978119
 30
0.0
 11
17.39273374202548
 21
481.518113978119
 31
0.0
  0
LINE
  5
6366
330
18
100
AcDbEntity
  8
DISEGNO
100
AcDbLine
 10
58.89273374202549
 20
471.018113978119
 30
0.0
 11
58.89273374202549
 21
461.1349579479257
 31
0.0
  0
ARC
  5
6367
330
18
100
AcDbEntity
  8
DISEGNO
100
AcDbCircle
 10
50.14273374202549
 20
479.4681139781188
 30
0.0
 40
0.3
100
AcDbArc
 50
335.9999999999951
 51
60.67599999999827
  0
ARC
  5
6368
330
18
100
AcDbEntity
  8
DISEGNO
100
AcDbCircle
 10
54.63273374202526
 20
468.0681139781191
 30
0.0
 40
0.3
100
AcDbArc
 50
342.3239999999962
 51
67.00000000000075
  0
LINE
  5
6369
330
18
100
AcDbEntity
  8
DISEGNO
100
AcDbLine
 10
54.08273374202599
 20
468.6281139781195
 30
0.0
 11
54.75273374202607
 21
468.3481139781189
 31
0.0
  0
ARC
  5
636A
330
18
100
AcDbEntity
  8
DISEGNO
100
AcDbCircle
 10
54.19273374202567
 20
468.9081139781193
 30
0.0
 40
0.3
100
AcDbArc
 50
166.5405999999968
 51
247.0000000000008
  0
ARC
  5
636B
330
18
100
AcDbEntity
  8
DISEGNO
100
AcDbCircle
 10
45.39273374202548
 20
471.018113978119
 30
0.0
 40
8.75
100
AcDbArc
 50
346.5409999999953
 51
12.45900000000232
  0
ARC
  5
636C
330
18
100
AcDbEntity
  8
DISEGNO
100
AcDbCircle
 10
54.23273374202563
 20
472.9681139781188
 30
0.0
 40
0.3
100
AcDbArc
 50
112.0000000000092
 51
192.4590000000023
  0
LINE
  5
636D
330
18
100
AcDbEntity
  8
DISEGNO
100
AcDbLine
 10
54.12273374202595
 20
473.2481139781194
 30
0.0
 11
54.80273374202534
 21
473.518113978119
 31
0.0
  0
ARC
  5
636E
330
18
100
AcDbEntity
  8
DISEGNO
100
AcDbCircle
 10
54.68273374202635
 20
473.7981139781187
 30
0.0
 40
0.3
100
AcDbArc
 50
292.0000000000092
 51
16.67599999999778
  0
ARC
  5
636F
330
18
100
AcDbEntity
  8
DISEGNO
100
AcDbCircle
 10
45.39273374202548
 20
471.018113978119
 30
0.0
 40
10.0
100
AcDbArc
 50
16.67599999999778
 51
27.32400000000558
  0
ARC
  5
6370
330
18
100
AcDbEntity
  8
DISEGNO
100
AcDbCircle
 10
54.01273374202628
 20
475.4681139781188
 30
0.0
 40
0.3
100
AcDbArc
 50
27.32400000000558
 51
112.0000000000092
  0
LINE
  5
6371
330
18
100
AcDbEntity
  8
DISEGNO
100
AcDbLine
 10
53.22273374202541
 20
475.4681139781188
 30
0.0
 11
53.9027337420257
 21
475.7481139781194
 31
0.0
  0
ARC
  5
6372
330
18
100
AcDbEntity
  8
DISEGNO
100
AcDbCircle
 10
53.10273374202643
 20
475.7481139781194
 30
0.0
 40
0.3
100
AcDbArc
 50
211.5409999999987
 51
292.0000000000092
  0
ARC
  5
6373
330
18
100
AcDbEntity
  8
DISEGNO
100
AcDbCircle
 10
45.39273374202548
 20
471.018113978119
 30
0.0
 40
8.75
100
AcDbArc
 50
31.54099999999871
 51
56.45899999999491
  0
ARC
  5
6374
330
18
100
AcDbEntity
  8
DISEGNO
100
AcDbCircle
 10
50.39273374202548
 20
478.5581139781189
 30
0.0
 40
0.3
100
AcDbArc
 50
155.9999999999951
 51
236.4589999999949
  0
ARC
  5
6375
330
18
100
AcDbEntity
  8
DISEGNO
100
AcDbCircle
 10
49.84273374202621
 20
462.3981139781191
 30
0.0
 40
0.3
100
AcDbArc
 50
297.3239999999895
 51
21.99999999999347
  0
ARC
  5
6376
330
18
100
AcDbEntity
  8
DISEGNO
100
AcDbCircle
 10
45.39273374202548
 20
471.018113978119
 30
0.0
 40
8.75
100
AcDbArc
 50
301.541000000006
 51
327.4589999999957
  0
ARC
  5
6377
330
18
100
AcDbEntity
  8
DISEGNO
100
AcDbCircle
 10
53.0227337420256
 20
466.1481139781191
 30
0.0
 40
0.3
100
AcDbArc
 50
67.00000000000075
 51
147.4594000000009
  0
LINE
  5
6378
330
18
100
AcDbEntity
  8
DISEGNO
100
AcDbLine
 10
53.14273374202548
 20
466.4281139781188
 30
0.0
 11
53.81273374202556
 21
466.1381139781188
 31
0.0
  0
ARC
  5
6379
330
18
100
AcDbEntity
  8
DISEGNO
100
AcDbCircle
 10
53.93273374202635
 20
466.4081139781193
 30
0.0
 40
0.3
100
AcDbArc
 50
247.0000000000008
 51
331.6759999999967
  0
ARC
  5
637A
330
18
100
AcDbEntity
  8
DISEGNO
100
AcDbCircle
 10
45.39273374202548
 20
471.018113978119
 30
0.0
 40
10.0
100
AcDbArc
 50
331.6759999999967
 51
342.3239999999962
  0
LINE
  5
637B
330
18
100
AcDbEntity
  8
DISEGNO
100
AcDbLine
 10
50.12273374202596
 20
478.6781139781188
 30
0.0
 11
50.42273374202614
 21
479.3481139781189
 31
0.0
  0
LINE
  5
637C
330
18
100
AcDbEntity
  8
DISEGNO
100
AcDbLine
 10
49.85273374202643
 20
463.188113978119
 30
0.0
 11
50.12273374202596
 21
462.5081139781188
 31
0.0
  0
ARC
  5
637D
330
18
100
AcDbEntity
  8
DISEGNO
100
AcDbCircle
 10
50.13273374202526
 20
463.2981139781187
 30
0.0
 40
0.3
100
AcDbArc
 50
121.5405999999923
 51
201.9999999999934
  0
ARC
  5
637E
330
18
100
AcDbEntity
  8
DISEGNO
100
AcDbCircle
 10
26.89273374202548
 20
480.518113978119
 30
0.0
 40
1.0
100
AcDbArc
 50
42.73200000000394
 51
90.0
  0
ARC
  5
637F
330
18
100
AcDbEntity
  8
DISEGNO
100
AcDbCircle
 10
26.89273374202548
 20
461.5151139781192
 30
0.0
 40
1.0
100
AcDbArc
 50
270.0
 51
317.2679999999961
  0
ARC
  5
6380
330
18
100
AcDbEntity
  8
DISEGNO
100
AcDbCircle
 10
16.61273374202574
 20
471.018113978119
 30
0.0
 40
15.0
100
AcDbArc
 50
317.2679999999961
 51
42.73200000000394
  0
ARC
  5
6381
330
18
100
AcDbEntity
  8
DISEGNO
100
AcDbCircle
 10
35.50957771183221
 20
486.5181139781189
 30
0.0
 40
2.0
100
AcDbArc
 50
214.8499045790545
 51
270.0
  0
LINE
  5
6382
330
18
100
AcDbEntity
  8
DISEGNO
100
AcDbLine
 10
45.39273374202548
 20
484.518113978119
 30
0.0
 11
35.50957771183221
 21
484.518113978119
 31
0.0
  0
ARC
  5
6383
330
18
100
AcDbEntity
  8
DISEGNO
100
AcDbCircle
 10
37.85273374202643
 20
476.018113978119
 30
0.0
 40
0.3
100
AcDbArc
 50
245.9999999999964
 51
326.4589999999994
  0
LINE
  5
6384
330
18
100
AcDbEntity
  8
DISEGNO
100
AcDbLine
 10
37.73273374202563
 20
475.7381139781192
 30
0.0
 11
37.06273374202556
 21
476.0381139781194
 31
0.0
  0
ARC
  5
6385
330
18
100
AcDbEntity
  8
DISEGNO
100
AcDbCircle
 10
36.93273374202636
 20
475.768113978119
 30
0.0
 40
0.3
100
AcDbArc
 50
65.99999999999643
 51
150.6762999999989
  0
ARC
  5
6386
330
18
100
AcDbEntity
  8
DISEGNO
100
AcDbCircle
 10
45.39273374202548
 20
471.018113978119
 30
0.0
 40
10.0
100
AcDbArc
 50
150.6762999999989
 51
161.3237999999994
  0
ARC
  5
6387
330
18
100
AcDbEntity
  8
DISEGNO
100
AcDbCircle
 10
36.20273374202588
 20
474.1181139781193
 30
0.0
 40
0.3
100
AcDbArc
 50
161.3237999999994
 51
245.9999999999964
  0
LINE
  5
6388
330
18
100
AcDbEntity
  8
DISEGNO
100
AcDbLine
 10
36.75273374202607
 20
473.5481139781187
 30
0.0
 11
36.082733742026
 21
473.8481139781189
 31
0.0
  0
ARC
  5
6389
330
18
100
AcDbEntity
  8
DISEGNO
100
AcDbCircle
 10
36.63273374202527
 20
473.2781139781192
 30
0.0
 40
0.3
100
AcDbArc
 50
345.5410000000018
 51
65.99999999999643
  0
ARC
  5
638A
330
18
100
AcDbEntity
  8
DISEGNO
100
AcDbCircle
 10
45.39273374202548
 20
471.018113978119
 30
0.0
 40
8.75
100
AcDbArc
 50
165.5406000000002
 51
191.459000000006
  0
ARC
  5
638B
330
18
100
AcDbEntity
  8
DISEGNO
100
AcDbCircle
 10
36.5227337420256
 20
469.2181139781188
 30
0.0
 40
0.3
100
AcDbArc
 50
291.000000000012
 51
11.459000000006
  0
LINE
  5
638C
330
18
100
AcDbEntity
  8
DISEGNO
100
AcDbLine
 10
35.95273374202589
 20
468.6781139781188
 30
0.0
 11
36.63273374202527
 21
468.9381139781191
 31
0.0
  0
ARC
  5
638D
330
18
100
AcDbEntity
  8
DISEGNO
100
AcDbCircle
 10
36.05273374202534
 20
468.3981139781191
 30
0.0
 40
0.3
100
AcDbArc
 50
111.000000000012
 51
195.6759999999935
  0
ARC
  5
638E
330
18
100
AcDbEntity
  8
DISEGNO
100
AcDbCircle
 10
36.70273374202589
 20
466.7181139781188
 30
0.0
 40
0.3
100
AcDbArc
 50
206.3240000000031
 51
291.000000000012
  0
LINE
  5
638F
330
18
100
AcDbEntity
  8
DISEGNO
100
AcDbLine
 10
36.81273374202556
 20
466.438113978119
 30
0.0
 11
37.49273374202585
 21
466.6981139781192
 31
0.0
  0
ARC
  5
6390
330
18
100
AcDbEntity
  8
DISEGNO
100
AcDbCircle
 10
37.60273374202643
 20
466.4181139781195
 30
0.0
 40
0.3
100
AcDbArc
 50
30.54100000000412
 51
111.000000000012
  0
ARC
  5
6391
330
18
100
AcDbEntity
  8
DISEGNO
100
AcDbCircle
 10
45.39273374202548
 20
471.018113978119
 30
0.0
 40
8.75
100
AcDbArc
 50
210.5410000000041
 51
237.4589999999957
  0
ARC
  5
6392
330
18
100
AcDbEntity
  8
DISEGNO
100
AcDbCircle
 10
40.79273374202512
 20
462.478113978119
 30
0.0
 40
0.3
100
AcDbArc
 50
156.9999999999935
 51
241.6760000000097
  0
ARC
  5
6393
330
18
100
AcDbEntity
  8
DISEGNO
100
AcDbCircle
 10
45.39273374202548
 20
471.018113978119
 30
0.0
 40
10.0
100
AcDbArc
 50
195.6759999999935
 51
206.3240000000031
  0
ARC
  5
6394
330
18
100
AcDbEntity
  8
DISEGNO
100
AcDbCircle
 10
42.77273374202559
 20
480.3581139781191
 30
0.0
 40
0.3
100
AcDbArc
 50
20.99999999999031
 51
105.6762000000102
  0
ARC
  5
6395
330
18
100
AcDbEntity
  8
DISEGNO
100
AcDbCircle
 10
45.39273374202548
 20
471.018113978119
 30
0.0
 40
10.0
100
AcDbArc
 50
105.6762000000102
 51
116.3237999999956
  0
ARC
  5
6396
330
18
100
AcDbEntity
  8
DISEGNO
100
AcDbCircle
 10
48.50273374202607
 20
480.2081139781194
 30
0.0
 40
0.3
100
AcDbArc
 50
71.32400000000159
 51
155.9999999999951
  0
LINE
  5
6397
330
18
100
AcDbEntity
  8
DISEGNO
100
AcDbLine
 10
47.93273374202636
 20
479.6581139781193
 30
0.0
 11
48.22273374202541
 21
480.3281139781193
 31
0.0
  0
ARC
  5
6398
330
18
100
AcDbEntity
  8
DISEGNO
100
AcDbCircle
 10
47.6527337420257
 20
479.7781139781192
 30
0.0
 40
0.3
100
AcDbArc
 50
255.5410000000026
 51
335.9999999999951
  0
ARC
  5
6399
330
18
100
AcDbEntity
  8
DISEGNO
100
AcDbCircle
 10
45.39273374202548
 20
471.018113978119
 30
0.0
 40
8.75
100
AcDbArc
 50
75.54100000000264
 51
101.4593999999889
  0
ARC
  5
639A
330
18
100
AcDbEntity
  8
DISEGNO
100
AcDbCircle
 10
43.59273374202621
 20
479.8881139781189
 30
0.0
 40
0.3
100
AcDbArc
 50
200.9999999999903
 51
281.4590000000066
  0
LINE
  5
639B
330
18
100
AcDbEntity
  8
DISEGNO
100
AcDbLine
 10
43.31273374202555
 20
479.7781139781192
 30
0.0
 11
43.05273374202534
 21
480.4581139781195
 31
0.0
  0
ARC
  5
639C
330
18
100
AcDbEntity
  8
DISEGNO
100
AcDbCircle
 10
40.79273374202512
 20
478.808113978119
 30
0.0
 40
0.3
100
AcDbArc
 50
300.5410000000086
 51
20.99999999999031
  0
ARC
  5
639D
330
18
100
AcDbEntity
  8
DISEGNO
100
AcDbCircle
 10
42.45273374202588
 20
461.7731139781191
 30
0.0
 40
0.3
100
AcDbArc
 50
252.3240000000097
 51
336.9999999999935
  0
LINE
  5
639E
330
18
100
AcDbEntity
  8
DISEGNO
100
AcDbLine
 10
42.72273374202541
 20
461.6561139781189
 30
0.0
 11
43.01273374202629
 21
462.3281139781194
 31
0.0
  0
ARC
  5
639F
330
18
100
AcDbEntity
  8
DISEGNO
100
AcDbCircle
 10
43.29273374202512
 20
462.2181139781188
 30
0.0
 40
0.3
100
AcDbArc
 50
76.54099999999457
 51
156.9999999999935
  0
ARC
  5
63A0
330
18
100
AcDbEntity
  8
DISEGNO
100
AcDbCircle
 10
45.39273374202548
 20
471.018113978119
 30
0.0
 40
8.75
100
AcDbArc
 50
256.5409999999945
 51
282.4589999999895
  0
ARC
  5
63A1
330
18
100
AcDbEntity
  8
DISEGNO
100
AcDbCircle
 10
47.34273374202621
 20
462.1781139781188
 30
0.0
 40
0.3
100
AcDbArc
 50
21.99999999999347
 51
102.4594000000097
  0
LINE
  5
63A2
330
18
100
AcDbEntity
  8
DISEGNO
100
AcDbLine
 10
47.62273374202595
 20
462.2881139781194
 30
0.0
 11
47.9027337420257
 21
461.6111139781188
 31
0.0
  0
ARC
  5
63A3
330
18
100
AcDbEntity
  8
DISEGNO
100
AcDbCircle
 10
48.18273374202636
 20
461.7231139781189
 30
0.0
 40
0.3
100
AcDbArc
 50
201.9999999999934
 51
286.6759999999978
  0
LINE
  5
63A4
330
18
100
AcDbEntity
  8
DISEGNO
100
AcDbLine
 10
41.07273374202577
 20
478.9181139781195
 30
0.0
 11
40.81273374202555
 21
479.5981139781189
 31
0.0
  0
ARC
  5
63A5
330
18
100
AcDbEntity
  8
DISEGNO
100
AcDbCircle
 10
41.09273374202621
 20
479.7081139781194
 30
0.0
 40
0.3
100
AcDbArc
 50
116.3237999999956
 51
200.9999999999903
  0
ARC
  5
63A6
330
18
100
AcDbEntity
  8
DISEGNO
100
AcDbCircle
 10
45.39273374202548
 20
471.018113978119
 30
0.0
 40
8.75
100
AcDbArc
 50
120.5406000000026
 51
146.4593999999924
  0
ARC
  5
63A7
330
18
100
AcDbEntity
  8
DISEGNO
100
AcDbCircle
 10
40.52273374202559
 20
463.3881139781188
 30
0.0
 40
0.3
100
AcDbArc
 50
336.9999999999935
 51
57.45899999999569
  0
LINE
  5
63A8
330
18
100
AcDbEntity
  8
DISEGNO
100
AcDbLine
 10
40.51273374202629
 20
462.5981139781189
 30
0.0
 11
40.80273374202533
 21
463.268113978119
 31
0.0
  0
ARC
  5
63A9
330
18
100
AcDbEntity
  8
DISEGNO
100
AcDbCircle
 10
45.39273374202548
 20
471.018113978119
 30
0.0
 40
10.0
100
AcDbArc
 50
241.6760000000097
 51
252.3240000000097
  0
ARC
  5
63AA
330
18
100
AcDbEntity
  8
DISEGNO
100
AcDbCircle
 10
45.39273374202548
 20
471.018113978119
 30
0.0
 40
10.0
100
AcDbArc
 50
60.67599999999827
 51
71.32400000000159
  0
ARC
  5
63AB
330
18
100
AcDbEntity
  8
DISEGNO
100
AcDbCircle
 10
45.39273374202548
 20
471.018113978119
 30
0.0
 40
10.0
100
AcDbArc
 50
286.6759999999978
 51
297.3239999999895
  0
ARC
  5
63AC
330
18
100
AcDbEntity
  8
DISEGNO
100
AcDbCircle
 10
33.25012189745121
 20
457.4597156959172
 30
0.0
 40
1.0
100
AcDbArc
 50
315.0000000000092
 51
44.99999999999078
  0
ARC
  5
63AD
330
18
100
AcDbEntity
  8
DISEGNO
100
AcDbCircle
 10
31.83433545982462
 20
458.8755021335438
 30
0.0
 40
1.0
100
AcDbArc
 50
45.0
 51
135.0000000000092
  0
LINE
  5
63AE
330
18
100
AcDbEntity
  8
DISEGNO
100
AcDbLine
 10
33.95722867863788
 20
458.1668224771038
 30
0.0
 11
32.54144224101128
 21
459.5826089147305
 31
0.0
  0
ARC
  5
63AF
330
18
100
AcDbEntity
  8
DISEGNO
100
AcDbCircle
 10
60.89273374202548
 20
461.1349579479257
 30
0.0
 40
2.0
100
AcDbArc
 50
180.0
 51
235.1500954209618
  0
LINE
  5
63B0
330
18
100
AcDbEntity
  8
DISEGNO
100
AcDbLine
 10
51.64273374202548
 20
436.0151139781192
 30
0.0
 11
89.14273374202549
 21
436.0151139781192
 31
0.0
  0
ARC
  5
63B1
330
18
100
AcDbEntity
  8
DISEGNO
100
AcDbCircle
 10
73.64273374202548
 20
447.5151139781193
 30
0.0
 40
4.0
100
AcDbArc
 50
270.0
 51
0.0
  0
LINE
  5
63B2
330
18
100
AcDbEntity
  8
DISEGNO
100
AcDbLine
 10
167.1427337420255
 20
443.5151139781193
 30
0.0
 11
173.3927337420255
 21
443.5151139781193
 31
0.0
  0
LINE
  5
63B3
330
18
100
AcDbEntity
  8
DISEGNO
100
AcDbLine
 10
155.6427337420255
 20
442.0151139781193
 30
0.0
 11
151.6427337420255
 21
442.0151139781193
 31
0.0
  0
ARC
  5
63B4
330
18
100
AcDbEntity
  8
DISEGNO
100
AcDbCircle
 10
154.6427337420255
 20
452.0151139781193
 30
0.0
 40
1.0
100
AcDbArc
 50
0.0
 51
89.99999465224203
  0
LINE
  5
63B5
330
18
100
AcDbEntity
  8
DISEGNO
100
AcDbLine
 10
155.6427337420255
 20
442.0151139781193
 30
0.0
 11
155.6427337420255
 21
452.0151139781193
 31
0.0
  0
LINE
  5
63B6
330
18
100
AcDbEntity
  8
DISEGNO
100
AcDbLine
 10
151.6427337420255
 20
436.0151139781192
 30
0.0
 11
151.6427337420255
 21
442.0151139781193
 31
0.0
  0
ARC
  5
63B7
330
18
100
AcDbEntity
  8
DISEGNO
100
AcDbCircle
 10
167.1427337420255
 20
447.5151139781193
 30
0.0
 40
4.0
100
AcDbArc
 50
180.0
 51
270.0
  0
ARC
  5
63B8
330
18
100
AcDbEntity
  8
DISEGNO
100
AcDbCircle
 10
155.6427337420255
 20
464.518113978119
 30
0.0
 40
4.0
100
AcDbArc
 50
270.0
 51
0.0
  0
ARC
  5
63B9
330
18
100
AcDbEntity
  8
DISEGNO
100
AcDbCircle
 10
185.8927337420255
 20
452.5151139781192
 30
0.0
 40
8.5
100
AcDbArc
 50
126.8689999999909
 51
180.0
  0
ARC
  5
63BA
330
18
100
AcDbEntity
  8
DISEGNO
100
AcDbCircle
 10
173.3927337420255
 20
447.5151139781193
 30
0.0
 40
4.0
100
AcDbArc
 50
270.0
 51
0.0
  0
LINE
  5
63BB
330
18
100
AcDbEntity
  8
DISEGNO
100
AcDbLine
 10
184.8927337420255
 20
453.2203865986813
 30
0.0
 11
184.8927337420255
 21
443.0151139781193
 31
0.0
  0
LINE
  5
63BC
330
18
100
AcDbEntity
  8
DISEGNO
100
AcDbLine
 10
177.3927337420255
 20
452.5151139781192
 30
0.0
 11
177.3927337420255
 21
447.5151139781193
 31
0.0
  0
ARC
  5
63BD
330
18
100
AcDbEntity
  8
DISEGNO
100
AcDbCircle
 10
185.8927337420255
 20
453.2203865986813
 30
0.0
 40
1.0
100
AcDbArc
 50
111.4312545038366
 51
180.0
  0
ARC
  5
63BE
330
18
100
AcDbEntity
  8
DISEGNO
100
AcDbCircle
 10
195.3927337420255
 20
471.018113978119
 30
0.0
 40
10.0
100
AcDbArc
 50
197.6760000000038
 51
208.3240000000033
  0
ARC
  5
63BF
330
18
100
AcDbEntity
  8
DISEGNO
100
AcDbCircle
 10
186.8527337420264
 20
466.4081139781193
 30
0.0
 40
0.3
100
AcDbArc
 50
208.3240000000033
 51
292.9999999999992
  0
ARC
  5
63C0
330
18
100
AcDbEntity
  8
DISEGNO
100
AcDbCircle
 10
186.7727337420265
 20
475.4681139781188
 30
0.0
 40
0.3
100
AcDbArc
 50
67.99999999999079
 51
152.6759999999944
  0
ARC
  5
63C1
330
18
100
AcDbEntity
  8
DISEGNO
100
AcDbCircle
 10
195.3927337420255
 20
471.018113978119
 30
0.0
 40
10.0
100
AcDbArc
 50
152.6759999999944
 51
163.3240000000022
  0
ARC
  5
63C2
330
18
100
AcDbEntity
  8
DISEGNO
100
AcDbCircle
 10
186.1027337420264
 20
473.7981139781187
 30
0.0
 40
0.3
100
AcDbArc
 50
163.3240000000022
 51
247.9999999999908
  0
LINE
  5
63C3
330
18
100
AcDbEntity
  8
DISEGNO
100
AcDbLine
 10
186.6627337420259
 20
473.2481139781194
 30
0.0
 11
185.9827337420256
 21
473.518113978119
 31
0.0
  0
ARC
  5
63C4
330
18
100
AcDbEntity
  8
DISEGNO
100
AcDbCircle
 10
186.5527337420262
 20
472.9681139781188
 30
0.0
 40
0.3
100
AcDbArc
 50
347.5409999999977
 51
67.99999999999079
  0
ARC
  5
63C5
330
18
100
AcDbEntity
  8
DISEGNO
100
AcDbCircle
 10
195.3927337420255
 20
471.018113978119
 30
0.0
 40
8.75
100
AcDbArc
 50
167.5409999999977
 51
193.4590000000046
  0
ARC
  5
63C6
330
18
100
AcDbEntity
  8
DISEGNO
100
AcDbCircle
 10
186.5927337420262
 20
468.9081139781193
 30
0.0
 40
0.3
100
AcDbArc
 50
292.9999999999992
 51
13.45940000000316
  0
LINE
  5
63C7
330
18
100
AcDbEntity
  8
DISEGNO
100
AcDbLine
 10
186.7027337420259
 20
468.6281139781195
 30
0.0
 11
186.0327337420267
 21
468.3481139781189
 31
0.0
  0
ARC
  5
63C8
330
18
100
AcDbEntity
  8
DISEGNO
100
AcDbCircle
 10
186.1527337420257
 20
468.0681139781191
 30
0.0
 40
0.3
100
AcDbArc
 50
112.9999999999992
 51
197.6760000000038
  0
LINE
  5
63C9
330
18
100
AcDbEntity
  8
DISEGNO
100
AcDbLine
 10
181.8927337420254
 20
471.018113978119
 30
0.0
 11
181.8927337420254
 21
461.1349579479257
 31
0.0
  0
ARC
  5
63CA
330
18
100
AcDbEntity
  8
DISEGNO
100
AcDbCircle
 10
179.8927337420255
 20
461.1349579479257
 30
0.0
 40
2.0
100
AcDbArc
 50
304.8499045790382
 51
0.0
  0
ARC
  5
63CB
330
18
100
AcDbEntity
  8
DISEGNO
100
AcDbCircle
 10
125.2273093616104
 20
457.3920357362304
 30
0.0
 40
1.0
100
AcDbArc
 50
149.9500863790076
 51
232.8199341417904
  0
ARC
  5
63CC
330
18
100
AcDbEntity
  8
DISEGNO
100
AcDbCircle
 10
115.5581581224414
 20
457.3920357362304
 30
0.0
 40
1.0
100
AcDbArc
 50
307.1800658582096
 51
30.04991362099239
  0
ARC
  5
63CD
330
18
100
AcDbEntity
  8
DISEGNO
100
AcDbCircle
 10
120.3927337420255
 20
451.018113978119
 30
0.0
 40
7.0
100
AcDbArc
 50
127.1800658582096
 51
52.81993414179043
  0
LINE
  5
63CE
330
18
100
AcDbEntity
  8
DISEGNO
100
AcDbLine
 10
101.6427337420255
 20
436.0151139781192
 30
0.0
 11
139.1427337420255
 21
436.0151139781192
 31
0.0
  0
ARC
  5
63CF
330
18
100
AcDbEntity
  8
DISEGNO
100
AcDbCircle
 10
104.6427337420255
 20
452.0151139781193
 30
0.0
 40
1.0
100
AcDbArc
 50
0.0
 51
90.00000534775798
  0
LINE
  5
63D0
330
18
100
AcDbEntity
  8
DISEGNO
100
AcDbLine
 10
101.6427337420255
 20
442.0151139781193
 30
0.0
 11
105.6427337420255
 21
442.0151139781193
 31
0.0
  0
LINE
  5
63D1
330
18
100
AcDbEntity
  8
DISEGNO
100
AcDbLine
 10
105.6427337420255
 20
452.0151139781193
 30
0.0
 11
105.6427337420255
 21
442.0151139781193
 31
0.0
  0
LINE
  5
63D2
330
18
100
AcDbEntity
  8
DISEGNO
100
AcDbLine
 10
101.6427337420255
 20
442.0151139781193
 30
0.0
 11
101.6427337420255
 21
436.0151139781192
 31
0.0
  0
LINE
  5
63D3
330
18
100
AcDbEntity
  8
DISEGNO
100
AcDbLine
 10
139.1427337420255
 20
442.0151139781193
 30
0.0
 11
139.1427337420255
 21
436.0151139781192
 31
0.0
  0
LINE
  5
63D4
330
18
100
AcDbEntity
  8
DISEGNO
100
AcDbLine
 10
135.1427337420255
 20
452.0151139781193
 30
0.0
 11
135.1427337420255
 21
442.0151139781193
 31
0.0
  0
LINE
  5
63D5
330
18
100
AcDbEntity
  8
DISEGNO
100
AcDbLine
 10
139.1427337420255
 20
442.0151139781193
 30
0.0
 11
135.1427337420255
 21
442.0151139781193
 31
0.0
  0
ARC
  5
63D6
330
18
100
AcDbEntity
  8
DISEGNO
100
AcDbCircle
 10
136.1427337420255
 20
452.0151139781193
 30
0.0
 40
1.0
100
AcDbArc
 50
89.99999465224203
 51
180.0
  0
LINE
  5
63D7
330
18
100
AcDbEntity
  8
DISEGNO
100
AcDbLine
 10
115.7727337420256
 20
459.018113978119
 30
0.0
 11
116.4237476191474
 21
457.892789990523
 31
0.0
  0
ARC
  5
63D8
330
18
100
AcDbEntity
  8
DISEGNO
100
AcDbCircle
 10
113.1727337420261
 20
457.5181139781189
 30
0.0
 40
3.0
100
AcDbArc
 50
29.98000000000603
 51
90.0
  0
LINE
  5
63D9
330
18
100
AcDbEntity
  8
DISEGNO
100
AcDbLine
 10
125.0127337420263
 20
459.018113978119
 30
0.0
 11
124.3617198649044
 21
457.892789990523
 31
0.0
  0
ARC
  5
63DA
330
18
100
AcDbEntity
  8
DISEGNO
100
AcDbCircle
 10
127.6127337420266
 20
457.5181139781189
 30
0.0
 40
3.0
100
AcDbArc
 50
90.0
 51
150.019999999994
  0
LINE
  5
63DB
330
18
100
AcDbEntity
  8
DISEGNO
100
AcDbLine
 10
154.6427337420255
 20
453.0151139781192
 30
0.0
 11
136.1427337420255
 21
453.0151139781192
 31
0.0
  0
LINE
  5
63DC
330
18
100
AcDbEntity
  8
DISEGNO
100
AcDbLine
 10
155.6427337420255
 20
460.5151139781193
 30
0.0
 11
127.6127337420266
 21
460.5151139781193
 31
0.0
  0
LINE
  5
63DD
330
18
100
AcDbEntity
  8
DISEGNO
100
AcDbLine
 10
86.14273374202548
 20
539.018113978119
 30
0.0
 11
104.6427337420255
 21
539.018113978119
 31
0.0
  0
LINE
  5
63DE
330
18
100
AcDbEntity
  8
DISEGNO
100
AcDbLine
 10
85.14273374202549
 20
531.518113978119
 30
0.0
 11
113.1727337420261
 21
531.518113978119
 31
0.0
  0
LINE
  5
63DF
330
18
100
AcDbEntity
  8
DISEGNO
100
AcDbLine
 10
85.14273374202549
 20
550.0181139781189
 30
0.0
 11
85.14273374202549
 21
540.018113978119
 31
0.0
  0
ARC
  5
63E0
330
18
100
AcDbEntity
  8
DISEGNO
100
AcDbCircle
 10
85.14273374202549
 20
527.518113978119
 30
0.0
 40
4.0
100
AcDbArc
 50
90.00000000484623
 51
180.0
  0
ARC
  5
63E1
330
18
100
AcDbEntity
  8
DISEGNO
100
AcDbCircle
 10
86.14273374202548
 20
540.018113978119
 30
0.0
 40
1.0
100
AcDbArc
 50
180.0
 51
270.0
  0
LINE
  5
63E2
330
18
100
AcDbEntity
  8
DISEGNO
100
AcDbLine
 10
89.14273374202549
 20
556.018113978119
 30
0.0
 11
89.14273374202549
 21
550.0181139781189
 31
0.0
  0
LINE
  5
63E3
330
18
100
AcDbEntity
  8
DISEGNO
100
AcDbLine
 10
85.14273374202549
 20
550.0181139781189
 30
0.0
 11
89.14273374202549
 21
550.0181139781189
 31
0.0
  0
LINE
  5
63E4
330
18
100
AcDbEntity
  8
DISEGNO
100
AcDbLine
 10
73.64273374202548
 20
548.518113978119
 30
0.0
 11
67.39273374202548
 21
548.518113978119
 31
0.0
  0
LINE
  5
63E5
330
18
100
AcDbEntity
  8
DISEGNO
100
AcDbLine
 10
63.39273374202548
 20
539.518113978119
 30
0.0
 11
63.39273374202548
 21
544.518113978119
 31
0.0
  0
LINE
  5
63E6
330
18
100
AcDbEntity
  8
DISEGNO
100
AcDbLine
 10
55.89273374202548
 20
538.8158413575566
 30
0.0
 11
55.89273374202548
 21
549.0181139781189
 31
0.0
  0
ARC
  5
63E7
330
18
100
AcDbEntity
  8
DISEGNO
100
AcDbCircle
 10
22.64273374202549
 20
543.7681139781189
 30
0.0
 40
7.0
100
AcDbArc
 50
339.323966150002
 51
23.1369999999919
  0
LINE
  5
63E8
330
18
100
AcDbEntity
  8
DISEGNO
100
AcDbLine
 10
34.89273374202549
 20
538.8158413575566
 30
0.0
 11
34.89273374202549
 21
549.0181139781189
 31
0.0
  0
ARC
  5
63E9
330
18
100
AcDbEntity
  8
DISEGNO
100
AcDbCircle
 10
22.64273374202549
 20
543.7681139781189
 30
0.0
 40
7.0
100
AcDbArc
 50
156.8630000000081
 51
203.1369999999919
  0
LINE
  5
63EA
330
18
100
AcDbEntity
  8
DISEGNO
100
AcDbLine
 10
10.39273374202548
 20
554.518113978119
 30
0.0
 11
10.39273374202548
 21
527.268113978119
 31
0.0
  0
ARC
  5
63EB
330
18
100
AcDbEntity
  8
DISEGNO
100
AcDbCircle
 10
17.64273374202548
 20
538.7681139781189
 30
0.0
 40
2.0
100
AcDbArc
 50
141.7679999999974
 51
308.231999999998
  0
LINE
  5
63EC
330
18
100
AcDbEntity
  8
DISEGNO
100
AcDbLine
 10
26.89273374202548
 20
531.518113978119
 30
0.0
 11
17.39273374202548
 21
531.518113978119
 31
0.0
  0
ARC
  5
63ED
330
18
100
AcDbEntity
  8
DISEGNO
100
AcDbCircle
 10
15.29273374202512
 20
540.6181139781193
 30
0.0
 40
1.0
100
AcDbArc
 50
321.7679999999974
 51
23.1369999999919
  0
LINE
  5
63EE
330
18
100
AcDbEntity
  8
DISEGNO
100
AcDbLine
 10
17.39273374202548
 20
531.518113978119
 30
0.0
 11
17.39273374202548
 21
527.268113978119
 31
0.0
  0
LINE
  5
63EF
330
18
100
AcDbEntity
  8
DISEGNO
100
AcDbLine
 10
10.39273374202548
 20
527.268113978119
 30
0.0
 11
17.39273374202548
 21
527.268113978119
 31
0.0
  0
ARC
  5
63F0
330
18
100
AcDbEntity
  8
DISEGNO
100
AcDbCircle
 10
60.89273374202548
 20
530.9012700083123
 30
0.0
 40
2.0
100
AcDbArc
 50
124.8499045790381
 51
180.0
  0
ARC
  5
63F1
330
18
100
AcDbEntity
  8
DISEGNO
100
AcDbCircle
 10
54.89273374202548
 20
538.8158413575566
 30
0.0
 40
1.0
100
AcDbArc
 50
291.4312545038366
 51
0.0
  0
ARC
  5
63F2
330
18
100
AcDbEntity
  8
DISEGNO
100
AcDbCircle
 10
49.84273374202621
 20
529.6281139781195
 30
0.0
 40
0.3
100
AcDbArc
 50
338.0000000000066
 51
62.67600000001049
  0
ARC
  5
63F3
330
18
100
AcDbEntity
  8
DISEGNO
100
AcDbCircle
 10
54.89273374202548
 20
539.518113978119
 30
0.0
 40
8.5
100
AcDbArc
 50
304.8499045790382
 51
0.0
  0
LINE
  5
63F4
330
18
100
AcDbEntity
  8
DISEGNO
100
AcDbLine
 10
49.85273374202643
 20
528.8381139781186
 30
0.0
 11
50.12273374202596
 21
529.518113978119
 31
0.0
  0
ARC
  5
63F5
330
18
100
AcDbEntity
  8
DISEGNO
100
AcDbCircle
 10
50.13273374202526
 20
528.7281139781181
 30
0.0
 40
0.3
100
AcDbArc
 50
158.0000000000065
 51
238.458999999994
  0
ARC
  5
63F6
330
18
100
AcDbEntity
  8
DISEGNO
100
AcDbCircle
 10
31.83433545982462
 20
533.1607258226933
 30
0.0
 40
1.0
100
AcDbArc
 50
224.9999999999908
 51
315.0
  0
LINE
  5
63F7
330
18
100
AcDbEntity
  8
DISEGNO
100
AcDbLine
 10
29.53460389877273
 20
539.7062438213716
 30
0.0
 11
33.95722867863788
 21
535.2836190415065
 31
0.0
  0
ARC
  5
63F8
330
18
100
AcDbEntity
  8
DISEGNO
100
AcDbCircle
 10
30.59526407055182
 20
540.7669039931525
 30
0.0
 40
1.5
100
AcDbArc
 50
159.3239661500019
 51
224.9999999999908
  0
ARC
  5
63F9
330
18
100
AcDbEntity
  8
DISEGNO
100
AcDbCircle
 10
26.89273374202548
 20
530.518113978119
 30
0.0
 40
1.0
100
AcDbArc
 50
42.73200000000394
 51
90.0
  0
LINE
  5
63FA
330
18
100
AcDbEntity
  8
DISEGNO
100
AcDbLine
 10
26.7046038987728
 20
536.8762438213718
 30
0.0
 11
31.12722867863795
 21
532.4536190415066
 31
0.0
  0
ARC
  5
63FB
330
18
100
AcDbEntity
  8
DISEGNO
100
AcDbCircle
 10
35.89273374202548
 20
538.8158413575566
 30
0.0
 40
1.0
100
AcDbArc
 50
180.0
 51
248.5687454961635
  0
ARC
  5
63FC
330
18
100
AcDbEntity
  8
DISEGNO
100
AcDbCircle
 10
33.25012189745121
 20
534.5765122603207
 30
0.0
 40
1.0
100
AcDbArc
 50
315.0000000000092
 51
44.99999999999078
  0
LINE
  5
63FD
330
18
100
AcDbEntity
  8
DISEGNO
100
AcDbLine
 10
33.95722867863788
 20
533.8694054791341
 30
0.0
 11
32.54144224101128
 21
532.4536190415066
 31
0.0
  0
ARC
  5
63FE
330
18
100
AcDbEntity
  8
DISEGNO
100
AcDbCircle
 10
40.79273374202512
 20
529.5581139781189
 30
0.0
 40
0.3
100
AcDbArc
 50
118.3237999999942
 51
203.0000000000065
  0
ARC
  5
63FF
330
18
100
AcDbEntity
  8
DISEGNO
100
AcDbCircle
 10
42.45273374202588
 20
530.2581139781188
 30
0.0
 40
0.3
100
AcDbArc
 50
23.00000000000652
 51
107.6761999999972
  0
LINE
  5
6400
330
18
100
AcDbEntity
  8
DISEGNO
100
AcDbLine
 10
42.72273374202541
 20
530.3781139781196
 30
0.0
 11
43.01273374202629
 21
529.6981139781193
 31
0.0
  0
ARC
  5
6401
330
18
100
AcDbEntity
  8
DISEGNO
100
AcDbCircle
 10
43.29273374202512
 20
529.8181139781182
 30
0.0
 40
0.3
100
AcDbArc
 50
203.0000000000065
 51
283.4590000000055
  0
ARC
  5
6402
330
18
100
AcDbEntity
  8
DISEGNO
100
AcDbCircle
 10
45.39273374202548
 20
521.018113978119
 30
0.0
 40
8.75
100
AcDbArc
 50
77.5410000000104
 51
103.4593999999905
  0
ARC
  5
6403
330
18
100
AcDbEntity
  8
DISEGNO
100
AcDbCircle
 10
47.34273374202621
 20
529.8481139781189
 30
0.0
 40
0.3
100
AcDbArc
 50
257.5410000000104
 51
338.0000000000066
  0
LINE
  5
6404
330
18
100
AcDbEntity
  8
DISEGNO
100
AcDbLine
 10
47.62273374202595
 20
529.7381139781183
 30
0.0
 11
47.9027337420257
 21
530.4181139781186
 31
0.0
  0
ARC
  5
6405
330
18
100
AcDbEntity
  8
DISEGNO
100
AcDbCircle
 10
48.18273374202636
 20
530.3081139781189
 30
0.0
 40
0.3
100
AcDbArc
 50
73.32400000000223
 51
158.0000000000065
  0
ARC
  5
6406
330
18
100
AcDbEntity
  8
DISEGNO
100
AcDbCircle
 10
40.52273374202559
 20
528.6481139781182
 30
0.0
 40
0.3
100
AcDbArc
 50
302.5410000000043
 51
23.00000000000652
  0
LINE
  5
6407
330
18
100
AcDbEntity
  8
DISEGNO
100
AcDbLine
 10
40.51273374202629
 20
529.438113978119
 30
0.0
 11
40.80273374202533
 21
528.7581139781187
 31
0.0
  0
ARC
  5
6408
330
18
100
AcDbEntity
  8
DISEGNO
100
AcDbCircle
 10
45.39273374202548
 20
521.018113978119
 30
0.0
 40
10.0
100
AcDbArc
 50
107.6761999999972
 51
118.3237999999942
  0
ARC
  5
6409
330
18
100
AcDbEntity
  8
DISEGNO
100
AcDbCircle
 10
45.39273374202548
 20
563.018113978119
 30
0.0
 40
27.0
100
AcDbArc
 50
248.5687454961635
 51
291.4312545038366
  0
ARC
  5
640A
330
18
100
AcDbEntity
  8
DISEGNO
100
AcDbCircle
 10
45.39273374202548
 20
521.018113978119
 30
0.0
 40
10.0
100
AcDbArc
 50
62.67600000001049
 51
73.32400000000223
  0
ARC
  5
640B
330
18
100
AcDbEntity
  8
DISEGNO
100
AcDbCircle
 10
19.50273374202607
 20
536.4081139781184
 30
0.0
 40
1.0
100
AcDbArc
 50
66.86300000000085
 51
128.2322000000005
  0
ARC
  5
640C
330
18
100
AcDbEntity
  8
DISEGNO
100
AcDbCircle
 10
22.64273374202549
 20
543.7681139781189
 30
0.0
 40
7.0
100
AcDbArc
 50
246.8630000000008
 51
290.6760338500084
  0
ARC
  5
640D
330
18
100
AcDbEntity
  8
DISEGNO
100
AcDbCircle
 10
25.6439437269928
 20
535.8155836495926
 30
0.0
 40
1.5
100
AcDbArc
 50
44.99999999999078
 51
110.6760338500083
  0
ARC
  5
640E
330
18
100
AcDbEntity
  8
DISEGNO
100
AcDbCircle
 10
53.0227337420256
 20
525.8881139781188
 30
0.0
 40
0.3
100
AcDbArc
 50
212.5410000000043
 51
292.9999999999992
  0
LINE
  5
640F
330
18
100
AcDbEntity
  8
DISEGNO
100
AcDbLine
 10
53.14273374202548
 20
525.6081139781191
 30
0.0
 11
53.81273374202556
 21
525.8981139781182
 31
0.0
  0
ARC
  5
6410
330
18
100
AcDbEntity
  8
DISEGNO
100
AcDbCircle
 10
53.93273374202635
 20
525.6181139781193
 30
0.0
 40
0.3
100
AcDbArc
 50
28.32400000000331
 51
112.9999999999992
  0
ARC
  5
6411
330
18
100
AcDbEntity
  8
DISEGNO
100
AcDbCircle
 10
36.70273374202589
 20
525.3181139781182
 30
0.0
 40
0.3
100
AcDbArc
 50
68.99999999998795
 51
153.6762000000043
  0
LINE
  5
6412
330
18
100
AcDbEntity
  8
DISEGNO
100
AcDbLine
 10
36.81273374202556
 20
525.5981139781189
 30
0.0
 11
37.49273374202585
 21
525.3381139781187
 31
0.0
  0
ARC
  5
6413
330
18
100
AcDbEntity
  8
DISEGNO
100
AcDbCircle
 10
37.60273374202643
 20
525.6181139781193
 30
0.0
 40
0.3
100
AcDbArc
 50
248.999999999988
 51
329.4589999999959
  0
ARC
  5
6414
330
18
100
AcDbEntity
  8
DISEGNO
100
AcDbCircle
 10
45.39273374202548
 20
521.018113978119
 30
0.0
 40
8.75
100
AcDbArc
 50
122.540599999999
 51
149.4594000000002
  0
ARC
  5
6415
330
18
100
AcDbEntity
  8
DISEGNO
100
AcDbCircle
 10
45.39273374202548
 20
521.018113978119
 30
0.0
 40
8.75
100
AcDbArc
 50
32.54100000000432
 51
58.45899999999403
  0
ARC
  5
6416
330
18
100
AcDbEntity
  8
DISEGNO
100
AcDbCircle
 10
17.64273374202548
 20
548.768113978119
 30
0.0
 40
2.0
100
AcDbArc
 50
51.76800000000201
 51
218.2320000000026
  0
LINE
  5
6417
330
18
100
AcDbEntity
  8
DISEGNO
100
AcDbLine
 10
11.89273374202548
 20
556.018113978119
 30
0.0
 11
39.14273374202549
 21
556.018113978119
 31
0.0
  0
ARC
  5
6418
330
18
100
AcDbEntity
  8
DISEGNO
100
AcDbCircle
 10
15.29273374202512
 20
546.9081139781184
 30
0.0
 40
1.0
100
AcDbArc
 50
336.8630000000081
 51
38.23200000000257
  0
LINE
  5
6419
330
18
100
AcDbEntity
  8
DISEGNO
100
AcDbLine
 10
51.64273374202548
 20
556.018113978119
 30
0.0
 11
51.64273374202548
 21
549.0181139781189
 31
0.0
  0
LINE
  5
641A
330
18
100
AcDbEntity
  8
DISEGNO
100
AcDbLine
 10
55.89273374202548
 20
549.0181139781189
 30
0.0
 11
51.64273374202548
 21
549.0181139781163
 31
0.0
  0
ARC
  5
641B
330
18
100
AcDbEntity
  8
DISEGNO
100
AcDbCircle
 10
67.39273374202548
 20
544.518113978119
 30
0.0
 40
4.0
100
AcDbArc
 50
90.0
 51
180.0
  0
LINE
  5
641C
330
18
100
AcDbEntity
  8
DISEGNO
100
AcDbLine
 10
39.14273374202549
 20
549.0181139781189
 30
0.0
 11
39.14273374202549
 21
556.018113978119
 31
0.0
  0
ARC
  5
641D
330
18
100
AcDbEntity
  8
DISEGNO
100
AcDbCircle
 10
30.00273374202607
 20
546.9081139781184
 30
0.0
 40
1.0
100
AcDbArc
 50
141.7679999999974
 51
203.1369999999919
  0
LINE
  5
641E
330
18
100
AcDbEntity
  8
DISEGNO
100
AcDbLine
 10
39.14273374202549
 20
549.0181139781167
 30
0.0
 11
34.89273374202549
 21
549.0181139781189
 31
0.0
  0
ARC
  5
641F
330
18
100
AcDbEntity
  8
DISEGNO
100
AcDbCircle
 10
25.79273374202512
 20
551.1181139781193
 30
0.0
 40
1.0
100
AcDbArc
 50
246.8630000000008
 51
308.231999999998
  0
ARC
  5
6420
330
18
100
AcDbEntity
  8
DISEGNO
100
AcDbCircle
 10
22.64273374202549
 20
543.7681139781189
 30
0.0
 40
7.0
100
AcDbArc
 50
66.86300000000085
 51
113.13710000001
  0
ARC
  5
6421
330
18
100
AcDbEntity
  8
DISEGNO
100
AcDbCircle
 10
19.50273374202607
 20
551.1181139781193
 30
0.0
 40
1.0
100
AcDbArc
 50
231.768000000002
 51
293.1369999999991
  0
ARC
  5
6422
330
18
100
AcDbEntity
  8
DISEGNO
100
AcDbCircle
 10
27.64273374202549
 20
548.768113978119
 30
0.0
 40
2.0
100
AcDbArc
 50
321.7679999999974
 51
128.2322000000005
  0
LINE
  5
6423
330
18
100
AcDbEntity
  8
NORMALI
100
AcDbLine
 10
11.89273374202548
 20
527.268113978119
 30
0.0
 11
11.89273374202548
 21
525.0181139781189
 31
0.0
  0
LINE
  5
6424
330
18
100
AcDbEntity
  8
NORMALI
100
AcDbLine
 10
27.69273374202476
 20
531.018113978119
 30
0.0
 11
28.69273374202476
 21
530.018113978119
 31
0.0
  0
LINE
  5
6425
330
18
100
AcDbEntity
  8
NORMALI
100
AcDbLine
 10
17.39273374202548
 20
531.018113978119
 30
0.0
 11
27.69273374202476
 21
531.018113978119
 31
0.0
  0
LINE
  5
6426
330
18
100
AcDbEntity
  8
NORMALI
100
AcDbLine
 10
10.39273374202548
 20
527.268113978119
 30
0.0
 11
10.39273374202548
 21
525.0181139781189
 31
0.0
  0
LINE
  5
6427
330
18
100
AcDbEntity
  8
DISEGNO
100
AcDbLine
 10
51.64273374202548
 20
556.018113978119
 30
0.0
 11
89.14273374202549
 21
556.018113978119
 31
0.0
  0
ARC
  5
6428
330
18
100
AcDbEntity
  8
DISEGNO
100
AcDbCircle
 10
73.64273374202548
 20
544.518113978119
 30
0.0
 40
4.0
100
AcDbArc
 50
0.0
 51
90.0
  0
ARC
  5
6429
330
18
100
AcDbEntity
  8
DISEGNO
100
AcDbCircle
 10
21.89273374202548
 20
493.018113978119
 30
0.0
 40
4.0
100
AcDbArc
 50
180.0
 51
270.0
  0
ARC
  5
642A
330
18
100
AcDbEntity
  8
DISEGNO
100
AcDbCircle
 10
21.89273374202548
 20
499.0181139781189
 30
0.0
 40
4.0
100
AcDbArc
 50
90.0
 51
180.0
  0
LINE
  5
642B
330
18
100
AcDbEntity
  8
DISEGNO
100
AcDbLine
 10
26.89273374202548
 20
510.518113978119
 30
0.0
 11
17.39273374202548
 21
510.518113978119
 31
0.0
  0
LINE
  5
642C
330
18
100
AcDbEntity
  8
DISEGNO
100
AcDbLine
 10
17.39273374202548
 20
514.768113978119
 30
0.0
 11
17.39273374202548
 21
510.518113978119
 31
0.0
  0
LINE
  5
642D
330
18
100
AcDbEntity
  8
DISEGNO
100
AcDbLine
 10
17.39273374202548
 20
514.768113978119
 30
0.0
 11
10.39273374202548
 21
514.768113978119
 31
0.0
  0
LINE
  5
642E
330
18
100
AcDbEntity
  8
DISEGNO
100
AcDbLine
 10
17.89273374202548
 20
493.018113978119
 30
0.0
 11
17.89273374202548
 21
499.0181139781189
 31
0.0
  0
ARC
  5
642F
330
18
100
AcDbEntity
  8
DISEGNO
100
AcDbCircle
 10
54.63273374202526
 20
523.9581139781194
 30
0.0
 40
0.3
100
AcDbArc
 50
292.9999999999992
 51
17.67600000000379
  0
LINE
  5
6430
330
18
100
AcDbEntity
  8
DISEGNO
100
AcDbLine
 10
54.08273374202599
 20
523.3981139781182
 30
0.0
 11
54.75273374202607
 21
523.688113978119
 31
0.0
  0
ARC
  5
6431
330
18
100
AcDbEntity
  8
DISEGNO
100
AcDbCircle
 10
54.19273374202567
 20
523.1181139781194
 30
0.0
 40
0.3
100
AcDbArc
 50
112.9999999999992
 51
193.4590000000046
  0
ARC
  5
6432
330
18
100
AcDbEntity
  8
DISEGNO
100
AcDbCircle
 10
45.39273374202548
 20
521.018113978119
 30
0.0
 40
8.75
100
AcDbArc
 50
347.5409999999977
 51
13.45900000000466
  0
ARC
  5
6433
330
18
100
AcDbEntity
  8
DISEGNO
100
AcDbCircle
 10
54.23273374202563
 20
519.058113978119
 30
0.0
 40
0.3
100
AcDbArc
 50
167.5406000000037
 51
247.9999999999908
  0
LINE
  5
6434
330
18
100
AcDbEntity
  8
DISEGNO
100
AcDbLine
 10
54.12273374202595
 20
518.7881139781194
 30
0.0
 11
54.80273374202534
 21
518.5081139781187
 31
0.0
  0
ARC
  5
6435
330
18
100
AcDbEntity
  8
DISEGNO
100
AcDbCircle
 10
54.68273374202635
 20
518.228113978118
 30
0.0
 40
0.3
100
AcDbArc
 50
343.3240000000022
 51
67.99999999999079
  0
ARC
  5
6436
330
18
100
AcDbEntity
  8
DISEGNO
100
AcDbCircle
 10
45.39273374202548
 20
521.018113978119
 30
0.0
 40
10.0
100
AcDbArc
 50
332.6759999999944
 51
343.3240000000022
  0
ARC
  5
6437
330
18
100
AcDbEntity
  8
DISEGNO
100
AcDbCircle
 10
54.01273374202628
 20
516.5581139781189
 30
0.0
 40
0.3
100
AcDbArc
 50
247.9999999999908
 51
332.6759999999944
  0
LINE
  5
6438
330
18
100
AcDbEntity
  8
DISEGNO
100
AcDbLine
 10
53.22273374202541
 20
516.5581139781189
 30
0.0
 11
53.9027337420257
 21
516.2881139781194
 31
0.0
  0
ARC
  5
6439
330
18
100
AcDbEntity
  8
DISEGNO
100
AcDbCircle
 10
53.10273374202643
 20
516.2781139781192
 30
0.0
 40
0.3
100
AcDbArc
 50
67.99999999999079
 51
148.4594000000048
  0
ARC
  5
643A
330
18
100
AcDbEntity
  8
DISEGNO
100
AcDbCircle
 10
45.39273374202548
 20
521.018113978119
 30
0.0
 40
8.75
100
AcDbArc
 50
303.5410000000051
 51
328.4590000000012
  0
ARC
  5
643B
330
18
100
AcDbEntity
  8
DISEGNO
100
AcDbCircle
 10
50.39273374202548
 20
513.4681139781188
 30
0.0
 40
0.3
100
AcDbArc
 50
123.5405999999912
 51
204.0000000000049
  0
ARC
  5
643C
330
18
100
AcDbEntity
  8
DISEGNO
100
AcDbCircle
 10
50.14273374202549
 20
512.5581139781189
 30
0.0
 40
0.3
100
AcDbArc
 50
299.3240000000017
 51
24.00000000000491
  0
LINE
  5
643D
330
18
100
AcDbEntity
  8
DISEGNO
100
AcDbLine
 10
50.12273374202596
 20
513.3481139781189
 30
0.0
 11
50.42273374202614
 21
512.6781139781188
 31
0.0
  0
ARC
  5
643E
330
18
100
AcDbEntity
  8
DISEGNO
100
AcDbCircle
 10
26.89273374202548
 20
511.5181139781189
 30
0.0
 40
1.0
100
AcDbArc
 50
270.0
 51
317.2679999999961
  0
ARC
  5
643F
330
18
100
AcDbEntity
  8
DISEGNO
100
AcDbCircle
 10
35.50957771183221
 20
505.518113978119
 30
0.0
 40
2.0
100
AcDbArc
 50
90.0
 51
145.1500954209455
  0
LINE
  5
6440
330
18
100
AcDbEntity
  8
DISEGNO
100
AcDbLine
 10
45.39273374202548
 20
507.5181139781189
 30
0.0
 11
35.50957771183221
 21
507.5181139781189
 31
0.0
  0
ARC
  5
6441
330
18
100
AcDbEntity
  8
DISEGNO
100
AcDbCircle
 10
37.85273374202643
 20
516.0181139781189
 30
0.0
 40
0.3
100
AcDbArc
 50
33.54100000000059
 51
114.0000000000035
  0
LINE
  5
6442
330
18
100
AcDbEntity
  8
DISEGNO
100
AcDbLine
 10
37.73273374202563
 20
516.2881139781194
 30
0.0
 11
37.06273374202556
 21
515.9881139781183
 31
0.0
  0
ARC
  5
6443
330
18
100
AcDbEntity
  8
DISEGNO
100
AcDbCircle
 10
36.93273374202636
 20
516.268113978119
 30
0.0
 40
0.3
100
AcDbArc
 50
209.3239999999945
 51
294.0000000000036
  0
ARC
  5
6444
330
18
100
AcDbEntity
  8
DISEGNO
100
AcDbCircle
 10
45.39273374202548
 20
521.018113978119
 30
0.0
 40
10.0
100
AcDbArc
 50
198.6759999999994
 51
209.3239999999945
  0
ARC
  5
6445
330
18
100
AcDbEntity
  8
DISEGNO
100
AcDbCircle
 10
36.20273374202588
 20
517.9081139781184
 30
0.0
 40
0.3
100
AcDbArc
 50
114.0000000000035
 51
198.6759999999994
  0
LINE
  5
6446
330
18
100
AcDbEntity
  8
DISEGNO
100
AcDbLine
 10
36.75273374202607
 20
518.4781139781181
 30
0.0
 11
36.082733742026
 21
518.1781139781188
 31
0.0
  0
ARC
  5
6447
330
18
100
AcDbEntity
  8
DISEGNO
100
AcDbCircle
 10
36.63273374202527
 20
518.7581139781188
 30
0.0
 40
0.3
100
AcDbArc
 50
294.0000000000036
 51
14.45899999999818
  0
ARC
  5
6448
330
18
100
AcDbEntity
  8
DISEGNO
100
AcDbCircle
 10
45.39273374202548
 20
521.018113978119
 30
0.0
 40
8.75
100
AcDbArc
 50
168.5405999999976
 51
194.4589999999981
  0
ARC
  5
6449
330
18
100
AcDbEntity
  8
DISEGNO
100
AcDbCircle
 10
36.5227337420256
 20
522.8181139781183
 30
0.0
 40
0.3
100
AcDbArc
 50
348.540999999994
 51
68.99999999998795
  0
LINE
  5
644A
330
18
100
AcDbEntity
  8
DISEGNO
100
AcDbLine
 10
35.95273374202589
 20
523.3581139781191
 30
0.0
 11
36.63273374202527
 21
523.0981139781189
 31
0.0
  0
ARC
  5
644B
330
18
100
AcDbEntity
  8
DISEGNO
100
AcDbCircle
 10
36.05273374202534
 20
523.6381139781189
 30
0.0
 40
0.3
100
AcDbArc
 50
164.3238000000041
 51
248.999999999988
  0
ARC
  5
644C
330
18
100
AcDbEntity
  8
DISEGNO
100
AcDbCircle
 10
40.79273374202512
 20
513.2181139781188
 30
0.0
 40
0.3
100
AcDbArc
 50
339.0000000000097
 51
59.45899999999143
  0
ARC
  5
644D
330
18
100
AcDbEntity
  8
DISEGNO
100
AcDbCircle
 10
42.77273374202559
 20
511.6781139781188
 30
0.0
 40
0.3
100
AcDbArc
 50
254.3240000000033
 51
339.0000000000097
  0
ARC
  5
644E
330
18
100
AcDbEntity
  8
DISEGNO
100
AcDbCircle
 10
45.39273374202548
 20
521.018113978119
 30
0.0
 40
10.0
100
AcDbArc
 50
243.6759999999984
 51
254.3240000000033
  0
ARC
  5
644F
330
18
100
AcDbEntity
  8
DISEGNO
100
AcDbCircle
 10
48.50273374202607
 20
511.8281139781185
 30
0.0
 40
0.3
100
AcDbArc
 50
204.0000000000049
 51
288.6759999999984
  0
LINE
  5
6450
330
18
100
AcDbEntity
  8
DISEGNO
100
AcDbLine
 10
47.93273374202636
 20
512.3781139781195
 30
0.0
 11
48.22273374202541
 21
511.7081139781195
 31
0.0
  0
ARC
  5
6451
330
18
100
AcDbEntity
  8
DISEGNO
100
AcDbCircle
 10
47.6527337420257
 20
512.2481139781185
 30
0.0
 40
0.3
100
AcDbArc
 50
24.00000000000491
 51
104.4593999999998
  0
ARC
  5
6452
330
18
100
AcDbEntity
  8
DISEGNO
100
AcDbCircle
 10
45.39273374202548
 20
521.018113978119
 30
0.0
 40
8.75
100
AcDbArc
 50
258.5409999999933
 51
284.4589999999974
  0
ARC
  5
6453
330
18
100
AcDbEntity
  8
DISEGNO
100
AcDbCircle
 10
43.59273374202621
 20
512.1481139781182
 30
0.0
 40
0.3
100
AcDbArc
 50
78.54099999999336
 51
159.0000000000097
  0
LINE
  5
6454
330
18
100
AcDbEntity
  8
DISEGNO
100
AcDbLine
 10
43.31273374202555
 20
512.2481139781185
 30
0.0
 11
43.05273374202534
 21
511.5681139781182
 31
0.0
  0
LINE
  5
6455
330
18
100
AcDbEntity
  8
DISEGNO
100
AcDbLine
 10
41.07273374202577
 20
513.1181139781193
 30
0.0
 11
40.81273374202555
 21
512.4281139781188
 31
0.0
  0
ARC
  5
6456
330
18
100
AcDbEntity
  8
DISEGNO
100
AcDbCircle
 10
41.09273374202621
 20
512.3181139781182
 30
0.0
 40
0.3
100
AcDbArc
 50
159.0000000000097
 51
243.6759999999984
  0
ARC
  5
6457
330
18
100
AcDbEntity
  8
DISEGNO
100
AcDbCircle
 10
45.39273374202548
 20
521.018113978119
 30
0.0
 40
8.75
100
AcDbArc
 50
213.5410000000006
 51
239.4589999999914
  0
ARC
  5
6458
330
18
100
AcDbEntity
  8
DISEGNO
100
AcDbCircle
 10
26.89273374202548
 20
511.5181139781189
 30
0.0
 40
8.5
100
AcDbArc
 50
270.0
 51
325.1500954209455
  0
ARC
  5
6459
330
18
100
AcDbEntity
  8
DISEGNO
100
AcDbCircle
 10
45.39273374202548
 20
521.018113978119
 30
0.0
 40
10.0
100
AcDbArc
 50
288.6759999999984
 51
299.3240000000017
  0
ARC
  5
645A
330
18
100
AcDbEntity
  8
DISEGNO
100
AcDbCircle
 10
45.39273374202548
 20
521.018113978119
 30
0.0
 40
13.5
100
AcDbArc
 50
270.0
 51
0.0
  0
LINE
  5
645B
330
18
100
AcDbEntity
  8
DISEGNO
100
AcDbLine
 10
26.89273374202548
 20
489.018113978119
 30
0.0
 11
21.89273374202548
 21
489.018113978119
 31
0.0
  0
LINE
  5
645C
330
18
100
AcDbEntity
  8
DISEGNO
100
AcDbLine
 10
26.89273374202548
 20
503.0181139781189
 30
0.0
 11
21.89273374202548
 21
503.0181139781189
 31
0.0
  0
LINE
  5
645E
330
18
100
AcDbEntity
  8
NORMALI
100
AcDbLine
 10
11.89273374202912
 20
517.018113978119
 30
0.0
 11
11.89273374202912
 21
514.768113978119
 31
0.0
  0
LINE
  5
645F
330
18
100
AcDbEntity
  8
NORMALI
100
AcDbLine
 10
17.39273374202457
 20
511.018113978119
 30
0.0
 11
27.69273374203021
 21
511.018113978119
 31
0.0
  0
LINE
  5
6460
330
18
100
AcDbEntity
  8
NORMALI
100
AcDbLine
 10
28.69273374203022
 20
512.0181139781189
 30
0.0
 11
27.69273374203021
 21
511.018113978119
 31
0.0
  0
LINE
  5
6467
330
18
100
AcDbEntity
  8
NORMALI
100
AcDbLine
 10
10.39273374202548
 20
514.768113978119
 30
0.0
 11
10.39273374202548
 21
517.018113978119
 31
0.0
  0
ARC
  5
6468
330
18
100
AcDbEntity
  8
DISEGNO
100
AcDbCircle
 10
45.39273374202548
 20
521.018113978119
 30
0.0
 40
10.0
100
AcDbArc
 50
17.67600000000379
 51
28.32400000000331
  0
ARC
  5
6469
330
18
100
AcDbEntity
  8
DISEGNO
100
AcDbCircle
 10
45.39273374202548
 20
521.018113978119
 30
0.0
 40
10.0
100
AcDbArc
 50
153.6762000000043
 51
164.3238000000041
  0
LINE
  5
646A
330
18
100
AcDbEntity
  8
DISEGNO
100
AcDbLine
 10
58.89273374202549
 20
521.018113978119
 30
0.0
 11
58.89273374202549
 21
530.9012700083123
 31
0.0
  0
ARC
  5
646B
330
18
100
AcDbEntity
  8
DISEGNO
100
AcDbCircle
 10
16.61273374202574
 20
521.018113978119
 30
0.0
 40
15.0
100
AcDbArc
 50
317.2679999999961
 51
42.73200000000394
  0
LINE
  5
646C
330
18
100
AcDbEntity
  8
DISEGNO
100
AcDbLine
 10
155.6427337420255
 20
550.0181139781189
 30
0.0
 11
155.6427337420255
 21
540.018113978119
 31
0.0
  0
LINE
  5
646D
330
18
100
AcDbEntity
  8
DISEGNO
100
AcDbLine
 10
184.8927337420255
 20
538.8158413575566
 30
0.0
 11
184.8927337420255
 21
549.0181139781189
 31
0.0
  0
LINE
  5
646E
330
18
100
AcDbEntity
  8
DISEGNO
100
AcDbLine
 10
177.3927337420255
 20
539.518113978119
 30
0.0
 11
177.3927337420255
 21
544.518113978119
 31
0.0
  0
ARC
  5
646F
330
18
100
AcDbEntity
  8
DISEGNO
100
AcDbCircle
 10
154.6427337420255
 20
540.018113978119
 30
0.0
 40
1.0
100
AcDbArc
 50
270.0
 51
0.0
  0
ARC
  5
6470
330
18
100
AcDbEntity
  8
DISEGNO
100
AcDbCircle
 10
155.6427337420255
 20
527.518113978119
 30
0.0
 40
4.0
100
AcDbArc
 50
0.0
 51
89.99999999515374
  0
ARC
  5
6471
330
18
100
AcDbEntity
  8
DISEGNO
100
AcDbCircle
 10
185.8927337420255
 20
539.518113978119
 30
0.0
 40
8.5
100
AcDbArc
 50
180.0
 51
235.1500954209618
  0
ARC
  5
6472
330
18
100
AcDbEntity
  8
DISEGNO
100
AcDbCircle
 10
185.8927337420255
 20
538.8158413575566
 30
0.0
 40
1.0
100
AcDbArc
 50
180.0
 51
248.5687454961635
  0
ARC
  5
6473
330
18
100
AcDbEntity
  8
DISEGNO
100
AcDbCircle
 10
179.8927337420255
 20
530.9012700083123
 30
0.0
 40
2.0
100
AcDbArc
 50
0.0
 51
55.15009542096182
  0
ARC
  5
6474
330
18
100
AcDbEntity
  8
DISEGNO
100
AcDbCircle
 10
186.8527337420264
 20
525.6181139781193
 30
0.0
 40
0.3
100
AcDbArc
 50
67.00000000000075
 51
151.6759999999967
  0
LINE
  5
6475
330
18
100
AcDbEntity
  8
DISEGNO
100
AcDbLine
 10
167.1427337420255
 20
548.518113978119
 30
0.0
 11
173.3927337420255
 21
548.518113978119
 31
0.0
  0
LINE
  5
6476
330
18
100
AcDbEntity
  8
DISEGNO
100
AcDbLine
 10
155.6427337420255
 20
550.0181139781189
 30
0.0
 11
151.6427337420255
 21
550.0181139781189
 31
0.0
  0
LINE
  5
6477
330
18
100
AcDbEntity
  8
DISEGNO
100
AcDbLine
 10
151.6427337420255
 20
556.018113978119
 30
0.0
 11
151.6427337420255
 21
550.0181139781189
 31
0.0
  0
ARC
  5
6478
330
18
100
AcDbEntity
  8
DISEGNO
100
AcDbCircle
 10
167.1427337420255
 20
544.518113978119
 30
0.0
 40
4.0
100
AcDbArc
 50
90.0
 51
180.0
  0
ARC
  5
6479
330
18
100
AcDbEntity
  8
DISEGNO
100
AcDbCircle
 10
173.3927337420255
 20
544.518113978119
 30
0.0
 40
4.0
100
AcDbArc
 50
0.0
 51
90.0
  0
LINE
  5
647A
330
18
100
AcDbEntity
  8
DISEGNO
100
AcDbLine
 10
135.1427337420255
 20
540.018113978119
 30
0.0
 11
135.1427337420255
 21
550.0181139781189
 31
0.0
  0
ARC
  5
647B
330
18
100
AcDbEntity
  8
DISEGNO
100
AcDbCircle
 10
120.3927337420255
 20
541.0181139781189
 30
0.0
 40
7.0
100
AcDbArc
 50
307.1800658582096
 51
232.8199341417904
  0
LINE
  5
647C
330
18
100
AcDbEntity
  8
DISEGNO
100
AcDbLine
 10
105.6427337420255
 20
540.018113978119
 30
0.0
 11
105.6427337420255
 21
550.0181139781189
 31
0.0
  0
ARC
  5
647D
330
18
100
AcDbEntity
  8
DISEGNO
100
AcDbCircle
 10
115.5581581224414
 20
534.6441922200075
 30
0.0
 40
1.0
100
AcDbArc
 50
329.9500863790076
 51
52.81993414179043
  0
LINE
  5
647E
330
18
100
AcDbEntity
  8
DISEGNO
100
AcDbLine
 10
115.7727337420256
 20
533.0181139781189
 30
0.0
 11
116.4237476191474
 21
534.1434379657149
 31
0.0
  0
ARC
  5
647F
330
18
100
AcDbEntity
  8
DISEGNO
100
AcDbCircle
 10
113.1727337420261
 20
534.518113978119
 30
0.0
 40
3.0
100
AcDbArc
 50
270.0
 51
330.019999999994
  0
ARC
  5
6480
330
18
100
AcDbEntity
  8
DISEGNO
100
AcDbCircle
 10
104.6427337420255
 20
540.018113978119
 30
0.0
 40
1.0
100
AcDbArc
 50
270.0
 51
0.0
  0
ARC
  5
6481
330
18
100
AcDbEntity
  8
DISEGNO
100
AcDbCircle
 10
136.1427337420255
 20
540.018113978119
 30
0.0
 40
1.0
100
AcDbArc
 50
180.0
 51
270.0
  0
ARC
  5
6482
330
18
100
AcDbEntity
  8
DISEGNO
100
AcDbCircle
 10
127.6127337420266
 20
534.518113978119
 30
0.0
 40
3.0
100
AcDbArc
 50
209.980000000006
 51
270.0
  0
LINE
  5
6483
330
18
100
AcDbEntity
  8
DISEGNO
100
AcDbLine
 10
125.0127337420263
 20
533.0181139781189
 30
0.0
 11
124.3617198649044
 21
534.1434379657149
 31
0.0
  0
ARC
  5
6484
330
18
100
AcDbEntity
  8
DISEGNO
100
AcDbCircle
 10
125.2273093616104
 20
534.6441922200075
 30
0.0
 40
1.0
100
AcDbArc
 50
127.1800658582096
 51
210.0499136209924
  0
LINE
  5
6485
330
18
100
AcDbEntity
  8
DISEGNO
100
AcDbLine
 10
101.6427337420255
 20
556.018113978119
 30
0.0
 11
139.1427337420255
 21
556.018113978119
 31
0.0
  0
LINE
  5
6486
330
18
100
AcDbEntity
  8
DISEGNO
100
AcDbLine
 10
101.6427337420255
 20
550.0181139781189
 30
0.0
 11
101.6427337420255
 21
556.018113978119
 31
0.0
  0
LINE
  5
6487
330
18
100
AcDbEntity
  8
DISEGNO
100
AcDbLine
 10
101.6427337420255
 20
550.0181139781189
 30
0.0
 11
105.6427337420255
 21
550.0181139781189
 31
0.0
  0
LINE
  5
6488
330
18
100
AcDbEntity
  8
DISEGNO
100
AcDbLine
 10
139.1427337420255
 20
550.0181139781189
 30
0.0
 11
135.1427337420255
 21
550.0181139781189
 31
0.0
  0
LINE
  5
6489
330
18
100
AcDbEntity
  8
DISEGNO
100
AcDbLine
 10
139.1427337420255
 20
550.0181139781189
 30
0.0
 11
139.1427337420255
 21
556.018113978119
 31
0.0
  0
LINE
  5
648A
330
18
100
AcDbEntity
  8
DISEGNO
100
AcDbLine
 10
155.6427337420255
 20
531.518113978119
 30
0.0
 11
127.6127337420266
 21
531.518113978119
 31
0.0
  0
LINE
  5
648B
330
18
100
AcDbEntity
  8
DISEGNO
100
AcDbLine
 10
154.6427337420255
 20
539.018113978119
 30
0.0
 11
136.1427337420255
 21
539.018113978119
 31
0.0
  0
ARC
  5
648C
330
18
100
AcDbEntity
  8
DISEGNO
100
AcDbCircle
 10
186.7727337420265
 20
516.5581139781189
 30
0.0
 40
0.3
100
AcDbArc
 50
207.3240000000056
 51
292.0000000000092
  0
ARC
  5
648D
330
18
100
AcDbEntity
  8
DISEGNO
100
AcDbCircle
 10
195.3927337420255
 20
521.018113978119
 30
0.0
 40
10.0
100
AcDbArc
 50
196.6759999999977
 51
207.3240000000056
  0
ARC
  5
648E
330
18
100
AcDbEntity
  8
DISEGNO
100
AcDbCircle
 10
186.1027337420264
 20
518.228113978118
 30
0.0
 40
0.3
100
AcDbArc
 50
112.0000000000092
 51
196.6759999999977
  0
LINE
  5
648F
330
18
100
AcDbEntity
  8
DISEGNO
100
AcDbLine
 10
186.6627337420259
 20
518.7881139781194
 30
0.0
 11
185.9827337420256
 21
518.5081139781187
 31
0.0
  0
ARC
  5
6490
330
18
100
AcDbEntity
  8
DISEGNO
100
AcDbCircle
 10
186.5527337420262
 20
519.058113978119
 30
0.0
 40
0.3
100
AcDbArc
 50
292.0000000000092
 51
12.45939999999631
  0
ARC
  5
6491
330
18
100
AcDbEntity
  8
DISEGNO
100
AcDbCircle
 10
195.3927337420255
 20
521.018113978119
 30
0.0
 40
8.75
100
AcDbArc
 50
166.5409999999953
 51
192.4590000000023
  0
ARC
  5
6492
330
18
100
AcDbEntity
  8
DISEGNO
100
AcDbCircle
 10
186.5927337420262
 20
523.1181139781194
 30
0.0
 40
0.3
100
AcDbArc
 50
346.5409999999953
 51
67.00000000000075
  0
LINE
  5
6493
330
18
100
AcDbEntity
  8
DISEGNO
100
AcDbLine
 10
186.7027337420259
 20
523.3981139781182
 30
0.0
 11
186.0327337420267
 21
523.688113978119
 31
0.0
  0
ARC
  5
6494
330
18
100
AcDbEntity
  8
DISEGNO
100
AcDbCircle
 10
186.1527337420257
 20
523.9581139781194
 30
0.0
 40
0.3
100
AcDbArc
 50
162.3239999999962
 51
247.0000000000008
  0
ARC
  5
6495
330
18
100
AcDbEntity
  8
DISEGNO
100
AcDbCircle
 10
195.3927337420255
 20
521.018113978119
 30
0.0
 40
10.0
100
AcDbArc
 50
151.6759999999967
 51
162.3239999999962
  0
LINE
  5
6496
330
18
100
AcDbEntity
  8
DISEGNO
100
AcDbLine
 10
181.8927337420254
 20
521.018113978119
 30
0.0
 11
181.8927337420254
 21
530.9012700083123
 31
0.0
  0
LINE
  5
6497
330
18
100
AcDbEntity
  8
DISEGNO
100
AcDbLine
 10
230.3927337420273
 20
514.768113978119
 30
0.0
 11
230.3927337420264
 21
477.268113978119
 31
0.0
  0
LINE
  5
6498
330
18
100
AcDbEntity
  8
NORMALI
100
AcDbLine
 10
237.2752211634097
 20
495.2081139781213
 30
0.0
 11
256.3672211634103
 21
476.1181139781212
 31
0.0
  0
LINE
  5
6499
330
18
100
AcDbEntity
  8
NORMALI
100
AcDbLine
 10
237.8314998055603
 20
501.018113978119
 30
0.0
 11
264.1452211634105
 21
474.7081139781213
 31
0.0
  0
LINE
  5
649A
330
18
100
AcDbEntity
  8
NORMALI
100
AcDbLine
 10
275.4592211634099
 20
486.018113978119
 30
0.0
 11
260.457099522675
 21
501.018113978119
 31
0.0
  0
ARC
  5
649B
330
18
100
AcDbEntity
  8
DISEGNO
100
AcDbCircle
 10
213.8927337420255
 20
480.518113978119
 30
0.0
 40
8.5
100
AcDbArc
 50
90.0
 51
143.1299999999982
  0
LINE
  5
649E
330
18
100
AcDbEntity
  8
DISEGNO
100
AcDbLine
 10
230.3927337420255
 20
464.768113978119
 30
0.0
 11
230.3927337420255
 21
437.5151139781193
 31
0.0
  0
ARC
  5
649F
330
18
100
AcDbEntity
  8
DISEGNO
100
AcDbCircle
 10
228.8927337420255
 20
437.5151139781193
 30
0.0
 40
1.5
100
AcDbArc
 50
270.0
 51
0.0
  0
ARC
  5
64A0
330
18
100
AcDbEntity
  8
DISEGNO
100
AcDbCircle
 10
218.1427337420255
 20
448.268113978119
 30
0.0
 40
7.0
100
AcDbArc
 50
336.8630000000081
 51
23.1369999999919
  0
ARC
  5
64A1
330
18
100
AcDbEntity
  8
DISEGNO
100
AcDbCircle
 10
225.4927337420259
 20
451.4181139781186
 30
0.0
 40
1.0
100
AcDbArc
 50
141.7679999999974
 51
203.1369999999919
  0
ARC
  5
64A2
330
18
100
AcDbEntity
  8
DISEGNO
100
AcDbCircle
 10
225.4927337420259
 20
445.1281139781186
 30
0.0
 40
1.0
100
AcDbArc
 50
156.8630000000081
 51
218.2320000000026
  0
LINE
  5
64A3
330
18
100
AcDbEntity
  8
NORMALI
100
AcDbLine
 10
275.4592211634099
 20
486.018113978119
 30
0.0
 11
264.1452211634105
 21
474.7081139781213
 31
0.0
  0
LINE
  5
64A4
330
18
100
AcDbEntity
  8
NORMALI
100
AcDbLine
 10
256.3672211634103
 20
476.1181139781212
 30
0.0
 11
259.5492211634101
 21
479.2981139781215
 31
0.0
  0
LINE
  5
64A5
330
18
100
AcDbEntity
  8
DISEGNO
100
AcDbLine
 10
211.2508635852791
 20
452.3299841348654
 30
0.0
 11
206.8282388054149
 21
456.7526089147305
 31
0.0
  0
LINE
  5
64A6
330
18
100
AcDbEntity
  8
DISEGNO
100
AcDbLine
 10
214.08086358528
 20
455.1599841348653
 30
0.0
 11
209.6582388054148
 21
459.5826089147305
 31
0.0
  0
ARC
  5
64A7
330
18
100
AcDbEntity
  8
DISEGNO
100
AcDbCircle
 10
218.1427337420255
 20
448.268113978119
 30
0.0
 40
7.0
100
AcDbArc
 50
66.86300000000085
 51
110.6760338500083
  0
ARC
  5
64A8
330
18
100
AcDbEntity
  8
DISEGNO
100
AcDbCircle
 10
218.1427337420255
 20
448.268113978119
 30
0.0
 40
7.0
100
AcDbArc
 50
246.8630000000008
 51
293.13710000001
  0
ARC
  5
64A9
330
18
100
AcDbEntity
  8
DISEGNO
100
AcDbCircle
 10
213.1427337420255
 20
443.2681139781189
 30
0.0
 40
2.0
100
AcDbArc
 50
141.7679999999974
 51
308.2322000000005
  0
ARC
  5
64AA
330
18
100
AcDbEntity
  8
DISEGNO
100
AcDbCircle
 10
215.1415237570591
 20
456.2206443066453
 30
0.0
 40
1.5
100
AcDbArc
 50
224.9999999999908
 51
290.6760338500084
  0
ARC
  5
64AB
330
18
100
AcDbEntity
  8
DISEGNO
100
AcDbCircle
 10
214.9927337420258
 20
440.9181139781186
 30
0.0
 40
1.0
100
AcDbArc
 50
66.86300000000085
 51
128.231999999998
  0
LINE
  5
64AC
330
18
100
AcDbEntity
  8
DISEGNO
100
AcDbLine
 10
201.6427337420255
 20
443.0151139781193
 30
0.0
 11
201.6427337420255
 21
436.0151139781192
 31
0.0
  0
LINE
  5
64AD
330
18
100
AcDbEntity
  8
DISEGNO
100
AcDbLine
 10
205.8927337420255
 20
453.2203865986813
 30
0.0
 11
205.8927337420255
 21
443.0151139781193
 31
0.0
  0
LINE
  5
64AE
330
18
100
AcDbEntity
  8
DISEGNO
100
AcDbLine
 10
201.6427337420255
 20
443.0151139781193
 30
0.0
 11
205.8927337420255
 21
443.0151139781193
 31
0.0
  0
ARC
  5
64AF
330
18
100
AcDbEntity
  8
DISEGNO
100
AcDbCircle
 10
204.8927337420255
 20
453.2203865986813
 30
0.0
 40
1.0
100
AcDbArc
 50
0.0
 51
68.56874549616342
  0
ARC
  5
64B0
330
18
100
AcDbEntity
  8
DISEGNO
100
AcDbCircle
 10
218.1427337420255
 20
448.268113978119
 30
0.0
 40
7.0
100
AcDbArc
 50
159.3239661500019
 51
203.1369999999919
  0
ARC
  5
64B1
330
18
100
AcDbEntity
  8
DISEGNO
100
AcDbCircle
 10
210.1902034134992
 20
451.2693239630854
 30
0.0
 40
1.5
100
AcDbArc
 50
339.323966150002
 51
44.99999999999078
  0
ARC
  5
64B2
330
18
100
AcDbEntity
  8
DISEGNO
100
AcDbCircle
 10
210.7827337420267
 20
445.1281139781186
 30
0.0
 40
1.0
100
AcDbArc
 50
321.7679999999974
 51
23.1369999999919
  0
LINE
  5
64B3
330
18
100
AcDbEntity
  8
DISEGNO
100
AcDbLine
 10
189.1427337420255
 20
436.0151139781192
 30
0.0
 11
189.1427337420255
 21
443.0151139781193
 31
0.0
  0
ARC
  5
64B4
330
18
100
AcDbEntity
  8
DISEGNO
100
AcDbCircle
 10
221.2827337420267
 20
455.6281139781186
 30
0.0
 40
1.0
100
AcDbArc
 50
246.8630000000008
 51
308.2322000000005
  0
ARC
  5
64B5
330
18
100
AcDbEntity
  8
DISEGNO
100
AcDbCircle
 10
221.2827337420267
 20
440.9181139781186
 30
0.0
 40
1.0
100
AcDbArc
 50
51.76800000000201
 51
113.1369999999991
  0
LINE
  5
64B6
330
18
100
AcDbEntity
  8
DISEGNO
100
AcDbLine
 10
213.8927337420255
 20
460.5151139781193
 30
0.0
 11
223.3927337420255
 21
460.5151139781193
 31
0.0
  0
LINE
  5
64B7
330
18
100
AcDbEntity
  8
DISEGNO
100
AcDbLine
 10
213.8927337420255
 20
481.518113978119
 30
0.0
 11
223.3927337420255
 21
481.518113978119
 31
0.0
  0
ARC
  5
64B8
330
18
100
AcDbEntity
  8
DISEGNO
100
AcDbCircle
 10
195.3927337420255
 20
471.018113978119
 30
0.0
 40
10.0
100
AcDbArc
 50
242.6760000000105
 51
253.3240000000022
  0
ARC
  5
64B9
330
18
100
AcDbEntity
  8
DISEGNO
100
AcDbCircle
 10
195.3927337420255
 20
471.018113978119
 30
0.0
 40
10.0
100
AcDbArc
 50
108.6759999999984
 51
119.3240000000017
  0
ARC
  5
64BA
330
18
100
AcDbEntity
  8
DISEGNO
100
AcDbCircle
 10
195.3927337420255
 20
471.018113978119
 30
0.0
 40
10.0
100
AcDbArc
 50
287.6759999999904
 51
298.3239999999903
  0
LINE
  5
64BB
330
18
100
AcDbEntity
  8
DISEGNO
100
AcDbLine
 10
200.2727337420265
 20
462.5981139781189
 30
0.0
 11
199.9827337420256
 21
463.268113978119
 31
0.0
  0
ARC
  5
64BC
330
18
100
AcDbEntity
  8
DISEGNO
100
AcDbCircle
 10
200.2627337420263
 20
463.3881139781188
 30
0.0
 40
0.3
100
AcDbArc
 50
122.5410000000043
 51
203.0000000000065
  0
ARC
  5
64BD
330
18
100
AcDbEntity
  8
DISEGNO
100
AcDbCircle
 10
195.3927337420255
 20
471.018113978119
 30
0.0
 40
8.75
100
AcDbArc
 50
33.54060000000754
 51
59.4593999999974
  0
ARC
  5
64BE
330
18
100
AcDbEntity
  8
DISEGNO
100
AcDbCircle
 10
199.6927337420266
 20
479.7081139781194
 30
0.0
 40
0.3
100
AcDbArc
 50
339.0000000000097
 51
63.67620000000435
  0
LINE
  5
64BF
330
18
100
AcDbEntity
  8
DISEGNO
100
AcDbLine
 10
199.7127337420261
 20
478.9181139781195
 30
0.0
 11
199.9727337420254
 21
479.5981139781189
 31
0.0
  0
ARC
  5
64C0
330
18
100
AcDbEntity
  8
DISEGNO
100
AcDbCircle
 10
192.6027337420264
 20
461.7231139781189
 30
0.0
 40
0.3
100
AcDbArc
 50
253.3240000000022
 51
338.0000000000066
  0
LINE
  5
64C1
330
18
100
AcDbEntity
  8
DISEGNO
100
AcDbLine
 10
193.1627337420259
 20
462.2881139781194
 30
0.0
 11
192.8827337420262
 21
461.6111139781188
 31
0.0
  0
ARC
  5
64C2
330
18
100
AcDbEntity
  8
DISEGNO
100
AcDbCircle
 10
193.4427337420266
 20
462.1781139781188
 30
0.0
 40
0.3
100
AcDbArc
 50
77.54059999999026
 51
158.0000000000065
  0
ARC
  5
64C3
330
18
100
AcDbEntity
  8
DISEGNO
100
AcDbCircle
 10
195.3927337420255
 20
471.018113978119
 30
0.0
 40
8.75
100
AcDbArc
 50
257.5410000000104
 51
283.4590000000055
  0
ARC
  5
64C4
330
18
100
AcDbEntity
  8
DISEGNO
100
AcDbCircle
 10
197.4927337420258
 20
462.2181139781188
 30
0.0
 40
0.3
100
AcDbArc
 50
23.00000000000652
 51
103.4590000000054
  0
LINE
  5
64C5
330
18
100
AcDbEntity
  8
DISEGNO
100
AcDbLine
 10
198.0627337420255
 20
461.6561139781189
 30
0.0
 11
197.7727337420265
 21
462.3281139781194
 31
0.0
  0
ARC
  5
64C6
330
18
100
AcDbEntity
  8
DISEGNO
100
AcDbCircle
 10
198.332733742026
 20
461.7731139781191
 30
0.0
 40
0.3
100
AcDbArc
 50
203.0000000000065
 51
287.6759999999904
  0
ARC
  5
64C7
330
18
100
AcDbEntity
  8
DISEGNO
100
AcDbCircle
 10
199.9927337420258
 20
478.808113978119
 30
0.0
 40
0.3
100
AcDbArc
 50
159.0000000000097
 51
239.4589999999914
  0
LINE
  5
64C8
330
18
100
AcDbEntity
  8
DISEGNO
100
AcDbLine
 10
197.4727337420254
 20
479.7781139781192
 30
0.0
 11
197.7327337420256
 21
480.4581139781195
 31
0.0
  0
ARC
  5
64C9
330
18
100
AcDbEntity
  8
DISEGNO
100
AcDbCircle
 10
197.1927337420265
 20
479.8881139781189
 30
0.0
 40
0.3
100
AcDbArc
 50
258.5409999999933
 51
339.0000000000097
  0
ARC
  5
64CA
330
18
100
AcDbEntity
  8
DISEGNO
100
AcDbCircle
 10
195.3927337420255
 20
471.018113978119
 30
0.0
 40
8.75
100
AcDbArc
 50
78.54060000001107
 51
104.4589999999973
  0
ARC
  5
64CB
330
18
100
AcDbEntity
  8
DISEGNO
100
AcDbCircle
 10
193.1327337420261
 20
479.7781139781192
 30
0.0
 40
0.3
100
AcDbArc
 50
204.0000000000049
 51
284.4589999999974
  0
LINE
  5
64CC
330
18
100
AcDbEntity
  8
DISEGNO
100
AcDbLine
 10
192.8527337420264
 20
479.6581139781193
 30
0.0
 11
192.5627337420255
 21
480.3281139781193
 31
0.0
  0
ARC
  5
64CD
330
18
100
AcDbEntity
  8
DISEGNO
100
AcDbCircle
 10
192.2827337420267
 20
480.2081139781194
 30
0.0
 40
0.3
100
AcDbArc
 50
24.00000000000491
 51
108.6759999999984
  0
ARC
  5
64CE
330
18
100
AcDbEntity
  8
DISEGNO
100
AcDbCircle
 10
195.3927337420255
 20
471.018113978119
 30
0.0
 40
10.0
100
AcDbArc
 50
63.67620000000435
 51
74.3237999999898
  0
ARC
  5
64CF
330
18
100
AcDbEntity
  8
DISEGNO
100
AcDbCircle
 10
198.0127337420262
 20
480.3581139781191
 30
0.0
 40
0.3
100
AcDbArc
 50
74.3237999999898
 51
159.0000000000097
  0
ARC
  5
64D0
330
18
100
AcDbEntity
  8
DISEGNO
100
AcDbCircle
 10
195.3927337420255
 20
471.018113978119
 30
0.0
 40
10.0
100
AcDbArc
 50
333.6759999999969
 51
344.3240000000064
  0
ARC
  5
64D1
330
18
100
AcDbEntity
  8
DISEGNO
100
AcDbCircle
 10
199.9927337420258
 20
462.478113978119
 30
0.0
 40
0.3
100
AcDbArc
 50
298.3239999999903
 51
23.00000000000652
  0
ARC
  5
64D2
330
18
100
AcDbEntity
  8
DISEGNO
100
AcDbCircle
 10
195.3927337420255
 20
471.018113978119
 30
0.0
 40
8.75
100
AcDbArc
 50
302.5410000000043
 51
329.4589999999959
  0
ARC
  5
64D3
330
18
100
AcDbEntity
  8
DISEGNO
100
AcDbCircle
 10
203.1827337420264
 20
466.4181139781195
 30
0.0
 40
0.3
100
AcDbArc
 50
68.99999999998795
 51
149.4589999999958
  0
LINE
  5
64D4
330
18
100
AcDbEntity
  8
DISEGNO
100
AcDbLine
 10
203.9727337420254
 20
466.438113978119
 30
0.0
 11
203.292733742026
 21
466.6981139781192
 31
0.0
  0
ARC
  5
64D5
330
18
100
AcDbEntity
  8
DISEGNO
100
AcDbCircle
 10
204.082733742026
 20
466.7181139781188
 30
0.0
 40
0.3
100
AcDbArc
 50
248.999999999988
 51
333.6759999999969
  0
ARC
  5
64D6
330
18
100
AcDbEntity
  8
DISEGNO
100
AcDbCircle
 10
204.7327337420256
 20
468.3981139781191
 30
0.0
 40
0.3
100
AcDbArc
 50
344.3240000000064
 51
68.99999999998795
  0
LINE
  5
64D7
330
18
100
AcDbEntity
  8
DISEGNO
100
AcDbLine
 10
204.832733742026
 20
468.6781139781188
 30
0.0
 11
204.1527337420257
 21
468.9381139781191
 31
0.0
  0
ARC
  5
64D8
330
18
100
AcDbEntity
  8
DISEGNO
100
AcDbCircle
 10
204.2627337420263
 20
469.2181139781188
 30
0.0
 40
0.3
100
AcDbArc
 50
168.540999999994
 51
248.999999999988
  0
ARC
  5
64D9
330
18
100
AcDbEntity
  8
DISEGNO
100
AcDbCircle
 10
195.3927337420255
 20
471.018113978119
 30
0.0
 40
8.75
100
AcDbArc
 50
348.540999999994
 51
14.45939999999978
  0
ARC
  5
64DA
330
18
100
AcDbEntity
  8
DISEGNO
100
AcDbCircle
 10
204.1527337420257
 20
473.2781139781192
 30
0.0
 40
0.3
100
AcDbArc
 50
114.0000000000035
 51
194.4589999999981
  0
LINE
  5
64DB
330
18
100
AcDbEntity
  8
DISEGNO
100
AcDbLine
 10
204.0327337420267
 20
473.5481139781187
 30
0.0
 11
204.7027337420259
 21
473.8481139781189
 31
0.0
  0
ARC
  5
64DC
330
18
100
AcDbEntity
  8
DISEGNO
100
AcDbCircle
 10
204.582733742026
 20
474.1181139781193
 30
0.0
 40
0.3
100
AcDbArc
 50
294.0000000000036
 51
18.67620000000055
  0
ARC
  5
64DD
330
18
100
AcDbEntity
  8
DISEGNO
100
AcDbCircle
 10
195.3927337420255
 20
471.018113978119
 30
0.0
 40
10.0
100
AcDbArc
 50
18.67620000000055
 51
29.32370000000106
  0
ARC
  5
64DE
330
18
100
AcDbEntity
  8
DISEGNO
100
AcDbCircle
 10
203.8527337420264
 20
475.768113978119
 30
0.0
 40
0.3
100
AcDbArc
 50
29.32370000000106
 51
114.0000000000035
  0
LINE
  5
64DF
330
18
100
AcDbEntity
  8
DISEGNO
100
AcDbLine
 10
203.0527337420263
 20
475.7381139781192
 30
0.0
 11
203.7227337420254
 21
476.0381139781194
 31
0.0
  0
ARC
  5
64E0
330
18
100
AcDbEntity
  8
DISEGNO
100
AcDbCircle
 10
202.9327337420264
 20
476.018113978119
 30
0.0
 40
0.3
100
AcDbArc
 50
213.5410000000006
 51
294.0000000000036
  0
LINE
  5
64E1
330
18
100
AcDbEntity
  8
DISEGNO
100
AcDbLine
 10
195.3927337420255
 20
484.518113978119
 30
0.0
 11
205.2758897722188
 21
484.518113978119
 31
0.0
  0
ARC
  5
64E2
330
18
100
AcDbEntity
  8
DISEGNO
100
AcDbCircle
 10
205.2758897722188
 20
486.5181139781189
 30
0.0
 40
2.0
100
AcDbArc
 50
270.0
 51
325.1500954209455
  0
ARC
  5
64E3
330
18
100
AcDbEntity
  8
DISEGNO
100
AcDbCircle
 10
224.1727337420261
 20
471.018113978119
 30
0.0
 40
15.0
100
AcDbArc
 50
137.267999999996
 51
222.732000000004
  0
ARC
  5
64E4
330
18
100
AcDbEntity
  8
DISEGNO
100
AcDbCircle
 10
213.8927337420255
 20
461.5151139781192
 30
0.0
 40
1.0
100
AcDbArc
 50
222.732000000004
 51
270.0
  0
ARC
  5
64E5
330
18
100
AcDbEntity
  8
DISEGNO
100
AcDbCircle
 10
213.8927337420255
 20
480.518113978119
 30
0.0
 40
1.0
100
AcDbArc
 50
90.0
 51
137.267999999996
  0
ARC
  5
64E6
330
18
100
AcDbEntity
  8
DISEGNO
100
AcDbCircle
 10
190.6527337420257
 20
463.2981139781187
 30
0.0
 40
0.3
100
AcDbArc
 50
338.0000000000066
 51
58.45940000000764
  0
LINE
  5
64E7
330
18
100
AcDbEntity
  8
DISEGNO
100
AcDbLine
 10
190.9327337420263
 20
463.188113978119
 30
0.0
 11
190.6627337420259
 21
462.5081139781188
 31
0.0
  0
LINE
  5
64E8
330
18
100
AcDbEntity
  8
DISEGNO
100
AcDbLine
 10
190.6627337420259
 20
478.6781139781188
 30
0.0
 11
190.3627337420266
 21
479.3481139781189
 31
0.0
  0
ARC
  5
64E9
330
18
100
AcDbEntity
  8
DISEGNO
100
AcDbCircle
 10
187.7627337420262
 20
466.1481139781191
 30
0.0
 40
0.3
100
AcDbArc
 50
32.54059999999904
 51
112.9999999999992
  0
ARC
  5
64EA
330
18
100
AcDbEntity
  8
DISEGNO
100
AcDbCircle
 10
195.3927337420255
 20
471.018113978119
 30
0.0
 40
8.75
100
AcDbArc
 50
212.5410000000043
 51
238.458999999994
  0
ARC
  5
64EB
330
18
100
AcDbEntity
  8
DISEGNO
100
AcDbCircle
 10
190.9427337420265
 20
462.3981139781191
 30
0.0
 40
0.3
100
AcDbArc
 50
158.0000000000065
 51
242.6760000000105
  0
ARC
  5
64EC
330
18
100
AcDbEntity
  8
DISEGNO
100
AcDbCircle
 10
190.3927337420254
 20
478.5581139781189
 30
0.0
 40
0.3
100
AcDbArc
 50
303.5410000000051
 51
24.00000000000491
  0
ARC
  5
64ED
330
18
100
AcDbEntity
  8
DISEGNO
100
AcDbCircle
 10
195.3927337420255
 20
471.018113978119
 30
0.0
 40
8.75
100
AcDbArc
 50
123.5410000000051
 51
148.4590000000013
  0
ARC
  5
64EE
330
18
100
AcDbEntity
  8
DISEGNO
100
AcDbCircle
 10
187.6827337420263
 20
475.7481139781194
 30
0.0
 40
0.3
100
AcDbArc
 50
247.9999999999908
 51
328.4590000000012
  0
ARC
  5
64EF
330
18
100
AcDbEntity
  8
DISEGNO
100
AcDbCircle
 10
190.6427337420255
 20
479.4681139781188
 30
0.0
 40
0.3
100
AcDbArc
 50
119.3240000000017
 51
204.0000000000049
  0
LINE
  5
64F0
330
18
100
AcDbEntity
  8
DISEGNO
100
AcDbLine
 10
206.8282388054149
 20
458.1668224771038
 30
0.0
 11
208.2440252430415
 21
459.5826089147305
 31
0.0
  0
ARC
  5
64F1
330
18
100
AcDbEntity
  8
DISEGNO
100
AcDbCircle
 10
208.9511320242282
 20
458.8755021335438
 30
0.0
 40
1.0
100
AcDbArc
 50
44.99999999999078
 51
135.0
  0
ARC
  5
64F2
330
18
100
AcDbEntity
  8
DISEGNO
100
AcDbCircle
 10
207.5353455866016
 20
457.4597156959172
 30
0.0
 40
1.0
100
AcDbArc
 50
135.0000000000092
 51
224.9999999999908
  0
LINE
  5
64F3
330
18
100
AcDbEntity
  8
DISEGNO
100
AcDbLine
 10
223.3927337420255
 20
477.268113978119
 30
0.0
 11
223.3927337420255
 21
481.518113978119
 31
0.0
  0
LINE
  5
64F4
330
18
100
AcDbEntity
  8
DISEGNO
100
AcDbLine
 10
223.3927337420255
 20
460.5151139781193
 30
0.0
 11
223.3927337420255
 21
464.768113978119
 31
0.0
  0
LINE
  5
64F5
330
18
100
AcDbEntity
  8
DISEGNO
100
AcDbLine
 10
228.8927337420255
 20
436.0151139781192
 30
0.0
 11
201.6427337420255
 21
436.0151139781192
 31
0.0
  0
ARC
  5
64F6
330
18
100
AcDbEntity
  8
DISEGNO
100
AcDbCircle
 10
223.1427337420255
 20
453.268113978119
 30
0.0
 40
2.0
100
AcDbArc
 50
321.7679999999974
 51
128.231999999998
  0
ARC
  5
64F7
330
18
100
AcDbEntity
  8
DISEGNO
100
AcDbCircle
 10
223.1427337420255
 20
443.2681139781189
 30
0.0
 40
2.0
100
AcDbArc
 50
231.768000000002
 51
38.23200000000257
  0
LINE
  5
64F8
330
18
100
AcDbEntity
  8
DISEGNO
100
AcDbLine
 10
223.3927337420255
 20
477.268113978119
 30
0.0
 11
230.3927337420255
 21
477.268113978119
 31
0.0
  0
LINE
  5
64F9
330
18
100
AcDbEntity
  8
DISEGNO
100
AcDbLine
 10
230.3927337420255
 20
464.768113978119
 30
0.0
 11
223.3927337420255
 21
464.768113978119
 31
0.0
  0
LINE
  5
64FA
330
18
100
AcDbEntity
  8
NORMALI
100
AcDbLine
 10
286.9252211634103
 20
541.0181139781189
 30
0.0
 11
235.8612211634099
 21
541.0181139781189
 31
0.0
  0
LINE
  5
64FC
330
18
100
AcDbEntity
  8
NORMALI
100
AcDbLine
 10
286.9252211634103
 20
501.018113978119
 30
0.0
 11
235.8612211634099
 21
501.018113978119
 31
0.0
  0
LINE
  5
64FE
330
18
100
AcDbEntity
  8
NORMALI
100
AcDbLine
 10
268.38822116341
 20
493.0881139781186
 30
0.0
 11
276.8732211634096
 21
501.5781139781203
 31
0.0
  0
LINE
  5
6500
330
18
100
AcDbEntity
  8
DISEGNO
100
AcDbLine
 10
230.3927337420255
 20
554.518113978119
 30
0.0
 11
230.3927337420255
 21
527.268113978119
 31
0.0
  0
ARC
  5
6501
330
18
100
AcDbEntity
  8
DISEGNO
100
AcDbCircle
 10
218.1427337420255
 20
543.7681139781189
 30
0.0
 40
7.0
100
AcDbArc
 50
336.8630000000081
 51
23.1369999999919
  0
ARC
  5
6502
330
18
100
AcDbEntity
  8
DISEGNO
100
AcDbCircle
 10
225.4927337420259
 20
540.6181139781193
 30
0.0
 40
1.0
100
AcDbArc
 50
156.8630000000081
 51
218.2320000000026
  0
ARC
  5
6503
330
18
100
AcDbEntity
  8
DISEGNO
100
AcDbCircle
 10
228.8927337420255
 20
554.518113978119
 30
0.0
 40
1.5
100
AcDbArc
 50
0.0
 51
89.99999999515374
  0
ARC
  5
6504
330
18
100
AcDbEntity
  8
DISEGNO
100
AcDbCircle
 10
225.4927337420259
 20
546.9081139781184
 30
0.0
 40
1.0
100
AcDbArc
 50
141.7679999999974
 51
203.1369999999919
  0
LINE
  5
6505
330
18
100
AcDbEntity
  8
NORMALI
100
AcDbLine
 10
236.3922211634099
 20
538.518113978119
 30
0.0
 11
230.3928438049197
 21
538.518113978119
 31
0.0
  0
LINE
  5
6506
330
18
100
AcDbEntity
  8
NORMALI
100
AcDbLine
 10
233.5928689622151
 20
525.0181139781189
 30
0.0
 11
228.8927337420264
 21
525.0181139781189
 31
0.0
  0
LINE
  5
6509
330
18
100
AcDbEntity
  8
NORMALI
100
AcDbLine
 10
248.9922161126488
 20
525.9181190288829
 30
0.0
 11
235.8617210978709
 21
539.0486140436579
 31
0.0
  0
LINE
  5
650A
330
18
100
AcDbEntity
  8
NORMALI
100
AcDbLine
 10
237.8307047807102
 20
541.0181139781189
 30
0.0
 11
251.1172211634102
 21
554.3081139781198
 31
0.0
  0
LINE
  5
650B
330
18
100
AcDbEntity
  8
NORMALI
100
AcDbLine
 10
240.4572211634104
 20
543.64811397812
 30
0.0
 11
237.2752211634097
 21
546.8281139781203
 31
0.0
  0
LINE
  5
650D
330
18
100
AcDbEntity
  8
NORMALI
100
AcDbLine
 10
235.8612211634099
 20
539.0481139781214
 30
0.0
 11
235.8612211634099
 21
541.0181139781189
 31
0.0
  0
LINE
  5
6511
330
18
100
AcDbEntity
  8
NORMALI
100
AcDbLine
 10
250.1682211634097
 20
558.0181139781189
 30
0.0
 11
254.5129871208565
 21
541.0181139781189
 31
0.0
  0
LINE
  5
6515
330
18
100
AcDbEntity
  8
NORMALI
100
AcDbLine
 10
228.8927337420264
 20
527.268113978119
 30
0.0
 11
228.8927337420264
 21
525.0181139781189
 31
0.0
  0
LINE
  5
6516
330
18
100
AcDbEntity
  8
NORMALI
100
AcDbLine
 10
230.3927337420264
 20
527.268113978119
 30
0.0
 11
230.3927337420264
 21
525.0181139781189
 31
0.0
  0
LINE
  5
6517
330
18
100
AcDbEntity
  8
DISEGNO
100
AcDbLine
 10
205.8927337420255
 20
538.8158413575566
 30
0.0
 11
205.8927337420255
 21
549.0181139781189
 31
0.0
  0
ARC
  5
6518
330
18
100
AcDbEntity
  8
DISEGNO
100
AcDbCircle
 10
218.1427337420255
 20
543.7681139781189
 30
0.0
 40
7.0
100
AcDbArc
 50
156.8630000000081
 51
200.6760338499981
  0
LINE
  5
6519
330
18
100
AcDbEntity
  8
DISEGNO
100
AcDbLine
 10
213.8927337420255
 20
531.518113978119
 30
0.0
 11
223.3927337420255
 21
531.518113978119
 31
0.0
  0
ARC
  5
651A
330
18
100
AcDbEntity
  8
DISEGNO
100
AcDbCircle
 10
218.1427337420255
 20
543.7681139781189
 30
0.0
 40
7.0
100
AcDbArc
 50
249.3239661499917
 51
293.1369999999991
  0
ARC
  5
651B
330
18
100
AcDbEntity
  8
DISEGNO
100
AcDbCircle
 10
215.1415237570591
 20
535.8155836495926
 30
0.0
 40
1.5
100
AcDbArc
 50
69.32396614999165
 51
135.0000000000092
  0
ARC
  5
651C
330
18
100
AcDbEntity
  8
DISEGNO
100
AcDbCircle
 10
195.3927337420255
 20
521.018113978119
 30
0.0
 40
10.0
100
AcDbArc
 50
106.6759999999977
 51
117.3239999999895
  0
ARC
  5
651D
330
18
100
AcDbEntity
  8
DISEGNO
100
AcDbCircle
 10
195.3927337420255
 20
521.018113978119
 30
0.0
 40
10.0
100
AcDbArc
 50
61.67620000000574
 51
72.32380000000273
  0
LINE
  5
651E
330
18
100
AcDbEntity
  8
DISEGNO
100
AcDbLine
 10
200.2727337420265
 20
529.438113978119
 30
0.0
 11
199.9827337420256
 21
528.7581139781187
 31
0.0
  0
ARC
  5
651F
330
18
100
AcDbEntity
  8
DISEGNO
100
AcDbCircle
 10
200.2627337420263
 20
528.6481139781182
 30
0.0
 40
0.3
100
AcDbArc
 50
156.9999999999935
 51
237.4589999999957
  0
ARC
  5
6520
330
18
100
AcDbEntity
  8
DISEGNO
100
AcDbCircle
 10
192.6027337420264
 20
530.3081139781189
 30
0.0
 40
0.3
100
AcDbArc
 50
21.99999999999347
 51
106.6759999999977
  0
LINE
  5
6521
330
18
100
AcDbEntity
  8
DISEGNO
100
AcDbLine
 10
193.1627337420259
 20
529.7381139781183
 30
0.0
 11
192.8827337420262
 21
530.4181139781186
 31
0.0
  0
ARC
  5
6522
330
18
100
AcDbEntity
  8
DISEGNO
100
AcDbCircle
 10
193.4427337420266
 20
529.8481139781189
 30
0.0
 40
0.3
100
AcDbArc
 50
201.9999999999934
 51
282.4589999999895
  0
ARC
  5
6523
330
18
100
AcDbEntity
  8
DISEGNO
100
AcDbCircle
 10
195.3927337420255
 20
521.018113978119
 30
0.0
 40
8.75
100
AcDbArc
 50
76.5406000000095
 51
102.4589999999896
  0
ARC
  5
6524
330
18
100
AcDbEntity
  8
DISEGNO
100
AcDbCircle
 10
197.4927337420258
 20
529.8181139781182
 30
0.0
 40
0.3
100
AcDbArc
 50
256.5409999999945
 51
336.9999999999935
  0
LINE
  5
6525
330
18
100
AcDbEntity
  8
DISEGNO
100
AcDbLine
 10
198.0627337420255
 20
530.3781139781196
 30
0.0
 11
197.7727337420265
 21
529.6981139781193
 31
0.0
  0
ARC
  5
6526
330
18
100
AcDbEntity
  8
DISEGNO
100
AcDbCircle
 10
198.332733742026
 20
530.2581139781188
 30
0.0
 40
0.3
100
AcDbArc
 50
72.32380000000273
 51
156.9999999999935
  0
ARC
  5
6527
330
18
100
AcDbEntity
  8
DISEGNO
100
AcDbCircle
 10
199.9927337420258
 20
529.5581139781189
 30
0.0
 40
0.3
100
AcDbArc
 50
336.9999999999935
 51
61.67620000000574
  0
LINE
  5
6528
330
18
100
AcDbEntity
  8
DISEGNO
100
AcDbLine
 10
206.8282388054149
 20
533.8694054791341
 30
0.0
 11
208.2440252430415
 21
532.4536190415066
 31
0.0
  0
ARC
  5
6529
330
18
100
AcDbEntity
  8
DISEGNO
100
AcDbCircle
 10
207.5353455866016
 20
534.5765122603207
 30
0.0
 40
1.0
100
AcDbArc
 50
135.0000000000092
 51
224.9999999999908
  0
ARC
  5
652A
330
18
100
AcDbEntity
  8
DISEGNO
100
AcDbCircle
 10
204.8927337420255
 20
538.8158413575566
 30
0.0
 40
1.0
100
AcDbArc
 50
291.4312545038366
 51
0.0
  0
LINE
  5
652B
330
18
100
AcDbEntity
  8
DISEGNO
100
AcDbLine
 10
214.08086358528
 20
536.8762438213718
 30
0.0
 11
209.6582388054148
 21
532.4536190415066
 31
0.0
  0
ARC
  5
652C
330
18
100
AcDbEntity
  8
DISEGNO
100
AcDbCircle
 10
213.8927337420255
 20
530.518113978119
 30
0.0
 40
1.0
100
AcDbArc
 50
90.0
 51
137.267999999996
  0
ARC
  5
652D
330
18
100
AcDbEntity
  8
DISEGNO
100
AcDbCircle
 10
210.1902034134992
 20
540.7669039931525
 30
0.0
 40
1.5
100
AcDbArc
 50
315.0000000000092
 51
20.67603384999806
  0
LINE
  5
652E
330
18
100
AcDbEntity
  8
DISEGNO
100
AcDbLine
 10
211.2508635852791
 20
539.7062438213716
 30
0.0
 11
206.8282388054149
 21
535.2836190415065
 31
0.0
  0
ARC
  5
652F
330
18
100
AcDbEntity
  8
DISEGNO
100
AcDbCircle
 10
208.9511320242282
 20
533.1607258226933
 30
0.0
 40
1.0
100
AcDbArc
 50
224.9999999999908
 51
315.0000000000092
  0
ARC
  5
6530
330
18
100
AcDbEntity
  8
DISEGNO
100
AcDbCircle
 10
190.6527337420257
 20
528.7281139781181
 30
0.0
 40
0.3
100
AcDbArc
 50
301.541000000006
 51
21.99999999999347
  0
LINE
  5
6531
330
18
100
AcDbEntity
  8
DISEGNO
100
AcDbLine
 10
190.9327337420263
 20
528.8381139781186
 30
0.0
 11
190.6627337420259
 21
529.518113978119
 31
0.0
  0
ARC
  5
6532
330
18
100
AcDbEntity
  8
DISEGNO
100
AcDbCircle
 10
190.9427337420265
 20
529.6281139781195
 30
0.0
 40
0.3
100
AcDbArc
 50
117.3239999999895
 51
201.9999999999934
  0
ARC
  5
6533
330
18
100
AcDbEntity
  8
DISEGNO
100
AcDbCircle
 10
203.1827337420264
 20
525.6181139781193
 30
0.0
 40
0.3
100
AcDbArc
 50
210.5410000000041
 51
291.000000000012
  0
LINE
  5
6534
330
18
100
AcDbEntity
  8
DISEGNO
100
AcDbLine
 10
203.9727337420254
 20
525.5981139781189
 30
0.0
 11
203.292733742026
 21
525.3381139781187
 31
0.0
  0
ARC
  5
6535
330
18
100
AcDbEntity
  8
DISEGNO
100
AcDbCircle
 10
204.082733742026
 20
525.3181139781182
 30
0.0
 40
0.3
100
AcDbArc
 50
26.32379999999564
 51
111.000000000012
  0
ARC
  5
6536
330
18
100
AcDbEntity
  8
DISEGNO
100
AcDbCircle
 10
187.7627337420262
 20
525.8881139781188
 30
0.0
 40
0.3
100
AcDbArc
 50
247.0000000000008
 51
327.4589999999957
  0
ARC
  5
6537
330
18
100
AcDbEntity
  8
DISEGNO
100
AcDbCircle
 10
195.3927337420255
 20
521.018113978119
 30
0.0
 40
8.75
100
AcDbArc
 50
121.5410000000059
 51
147.4589999999956
  0
ARC
  5
6538
330
18
100
AcDbEntity
  8
DISEGNO
100
AcDbCircle
 10
195.3927337420255
 20
521.018113978119
 30
0.0
 40
8.75
100
AcDbArc
 50
30.54059999999979
 51
57.45940000000096
  0
LINE
  5
6539
330
18
100
AcDbEntity
  8
DISEGNO
100
AcDbLine
 10
223.3927337420255
 20
531.518113978119
 30
0.0
 11
223.3927337420255
 21
527.268113978119
 31
0.0
  0
ARC
  5
653A
330
18
100
AcDbEntity
  8
DISEGNO
100
AcDbCircle
 10
221.2827337420267
 20
536.4081139781184
 30
0.0
 40
1.0
100
AcDbArc
 50
51.76779999999945
 51
113.1369999999991
  0
ARC
  5
653B
330
18
100
AcDbEntity
  8
DISEGNO
100
AcDbCircle
 10
218.1427337420255
 20
543.7681139781189
 30
0.0
 40
7.0
100
AcDbArc
 50
66.86289999998995
 51
113.1369999999991
  0
ARC
  5
653C
330
18
100
AcDbEntity
  8
DISEGNO
100
AcDbCircle
 10
213.1427337420255
 20
548.768113978119
 30
0.0
 40
2.0
100
AcDbArc
 50
51.76779999999945
 51
218.2320000000026
  0
ARC
  5
653D
330
18
100
AcDbEntity
  8
DISEGNO
100
AcDbCircle
 10
214.9927337420258
 20
551.1181139781193
 30
0.0
 40
1.0
100
AcDbArc
 50
231.768000000002
 51
293.1369999999991
  0
ARC
  5
653E
330
18
100
AcDbEntity
  8
DISEGNO
100
AcDbCircle
 10
210.7827337420267
 20
546.9081139781184
 30
0.0
 40
1.0
100
AcDbArc
 50
336.8630000000081
 51
38.23200000000257
  0
LINE
  5
653F
330
18
100
AcDbEntity
  8
DISEGNO
100
AcDbLine
 10
201.6427337420255
 20
549.0181139781189
 30
0.0
 11
201.6427337420255
 21
556.018113978119
 31
0.0
  0
LINE
  5
6540
330
18
100
AcDbEntity
  8
DISEGNO
100
AcDbLine
 10
189.1427337420255
 20
556.018113978119
 30
0.0
 11
189.1427337420255
 21
549.0181139781189
 31
0.0
  0
LINE
  5
6541
330
18
100
AcDbEntity
  8
DISEGNO
100
AcDbLine
 10
201.6427337420255
 20
549.0181139781167
 30
0.0
 11
205.8927337420255
 21
549.0181139781189
 31
0.0
  0
ARC
  5
6542
330
18
100
AcDbEntity
  8
DISEGNO
100
AcDbCircle
 10
221.2827337420267
 20
551.1181139781193
 30
0.0
 40
1.0
100
AcDbArc
 50
246.8630000000008
 51
308.231999999998
  0
LINE
  5
6543
330
18
100
AcDbEntity
  8
NORMALI
100
AcDbLine
 10
213.0927337420271
 20
531.018113978119
 30
0.0
 11
212.0927337420271
 21
530.018113978119
 31
0.0
  0
LINE
  5
6544
330
18
100
AcDbEntity
  8
NORMALI
100
AcDbLine
 10
223.3927337420264
 20
531.018113978119
 30
0.0
 11
213.0927337420271
 21
531.018113978119
 31
0.0
  0
LINE
  5
6545
330
18
100
AcDbEntity
  8
DISEGNO
100
AcDbLine
 10
230.3927337420255
 20
527.268113978119
 30
0.0
 11
223.3927337420255
 21
527.268113978119
 31
0.0
  0
ARC
  5
6546
330
18
100
AcDbEntity
  8
DISEGNO
100
AcDbCircle
 10
223.1427337420255
 20
538.7681139781189
 30
0.0
 40
2.0
100
AcDbArc
 50
231.768000000002
 51
38.23200000000257
  0
LINE
  5
6547
330
18
100
AcDbEntity
  8
DISEGNO
100
AcDbLine
 10
228.8927337420255
 20
556.018113978119
 30
0.0
 11
201.6427337420255
 21
556.018113978119
 31
0.0
  0
ARC
  5
6548
330
18
100
AcDbEntity
  8
DISEGNO
100
AcDbCircle
 10
223.1427337420255
 20
548.768113978119
 30
0.0
 40
2.0
100
AcDbArc
 50
321.7679999999974
 51
128.231999999998
  0
LINE
  5
654B
330
18
100
AcDbEntity
  8
NORMALI
100
AcDbLine
 10
230.3927337420264
 20
503.5181139781189
 30
0.0
 11
236.3922211634099
 21
503.5181139781189
 31
0.0
  0
LINE
  5
654C
330
18
100
AcDbEntity
  8
NORMALI
100
AcDbLine
 10
233.5928186477495
 20
517.018113978119
 30
0.0
 11
228.8927337420227
 21
517.018113978119
 31
0.0
  0
LINE
  5
654E
330
18
100
AcDbEntity
  8
NORMALI
100
AcDbLine
 10
240.4572211634104
 20
498.3981139781199
 30
0.0
 11
237.2752211634097
 21
495.2081139781213
 31
0.0
  0
LINE
  5
654F
330
18
100
AcDbEntity
  8
NORMALI
100
AcDbLine
 10
235.8612211634099
 20
502.9881139781202
 30
0.0
 11
235.8612211634099
 21
501.018113978119
 31
0.0
  0
LINE
  5
6553
330
18
100
AcDbEntity
  8
NORMALI
100
AcDbLine
 10
235.8617211987684
 20
502.9876140134794
 30
0.0
 11
248.9922161126469
 21
516.1181089273551
 31
0.0
  0
LINE
  5
6556
330
18
100
AcDbEntity
  8
NORMALI
100
AcDbLine
 10
228.8927337420227
 20
517.018113978119
 30
0.0
 11
228.8927337420227
 21
514.768113978119
 31
0.0
  0
LINE
  5
6557
330
18
100
AcDbEntity
  8
NORMALI
100
AcDbLine
 10
230.3927337420264
 20
514.768113978119
 30
0.0
 11
230.3927337420264
 21
517.018113978119
 31
0.0
  0
LINE
  5
6558
330
18
100
AcDbEntity
  8
DISEGNO
100
AcDbLine
 10
213.8927337420255
 20
510.518113978119
 30
0.0
 11
223.3927337420255
 21
510.518113978119
 31
0.0
  0
ARC
  5
6559
330
18
100
AcDbEntity
  8
DISEGNO
100
AcDbCircle
 10
218.8927337420255
 20
499.0181139781189
 30
0.0
 40
4.0
100
AcDbArc
 50
0.0
 51
90.0
  0
ARC
  5
655A
330
18
100
AcDbEntity
  8
DISEGNO
100
AcDbCircle
 10
218.8927337420255
 20
493.018113978119
 30
0.0
 40
4.0
100
AcDbArc
 50
270.0
 51
0.0
  0
LINE
  5
655B
330
18
100
AcDbEntity
  8
DISEGNO
100
AcDbLine
 10
213.8927337420255
 20
503.0181139781189
 30
0.0
 11
218.8927337420255
 21
503.0181139781189
 31
0.0
  0
LINE
  5
655C
330
18
100
AcDbEntity
  8
DISEGNO
100
AcDbLine
 10
213.8927337420255
 20
489.018113978119
 30
0.0
 11
218.8927337420255
 21
489.018113978119
 31
0.0
  0
ARC
  5
655D
330
18
100
AcDbEntity
  8
DISEGNO
100
AcDbCircle
 10
195.3927337420255
 20
521.018113978119
 30
0.0
 40
10.0
100
AcDbArc
 50
240.6759999999983
 51
251.3240000000016
  0
ARC
  5
655E
330
18
100
AcDbEntity
  8
DISEGNO
100
AcDbCircle
 10
213.8927337420255
 20
511.5181139781189
 30
0.0
 40
8.5
100
AcDbArc
 50
214.8499045790545
 51
270.0
  0
ARC
  5
655F
330
18
100
AcDbEntity
  8
DISEGNO
100
AcDbCircle
 10
195.3927337420255
 20
521.018113978119
 30
0.0
 40
8.75
100
AcDbArc
 50
300.5410000000086
 51
326.4589999999994
  0
ARC
  5
6560
330
18
100
AcDbEntity
  8
DISEGNO
100
AcDbCircle
 10
199.6927337420266
 20
512.3181139781182
 30
0.0
 40
0.3
100
AcDbArc
 50
296.3240000000017
 51
20.99999999999031
  0
LINE
  5
6561
330
18
100
AcDbEntity
  8
DISEGNO
100
AcDbLine
 10
199.7127337420261
 20
513.1181139781193
 30
0.0
 11
199.9727337420254
 21
512.4281139781188
 31
0.0
  0
LINE
  5
6562
330
18
100
AcDbEntity
  8
DISEGNO
100
AcDbLine
 10
197.4727337420254
 20
512.2481139781185
 30
0.0
 11
197.7327337420256
 21
511.5681139781182
 31
0.0
  0
ARC
  5
6563
330
18
100
AcDbEntity
  8
DISEGNO
100
AcDbCircle
 10
197.1927337420265
 20
512.1481139781182
 30
0.0
 40
0.3
100
AcDbArc
 50
20.99999999999031
 51
101.4590000000066
  0
ARC
  5
6564
330
18
100
AcDbEntity
  8
DISEGNO
100
AcDbCircle
 10
195.3927337420255
 20
521.018113978119
 30
0.0
 40
8.75
100
AcDbArc
 50
255.5410000000026
 51
281.4590000000066
  0
ARC
  5
6565
330
18
100
AcDbEntity
  8
DISEGNO
100
AcDbCircle
 10
193.1327337420261
 20
512.2481139781185
 30
0.0
 40
0.3
100
AcDbArc
 50
75.54060000000022
 51
155.9999999999951
  0
LINE
  5
6566
330
18
100
AcDbEntity
  8
DISEGNO
100
AcDbLine
 10
192.8527337420264
 20
512.3781139781195
 30
0.0
 11
192.5627337420255
 21
511.7081139781195
 31
0.0
  0
ARC
  5
6567
330
18
100
AcDbEntity
  8
DISEGNO
100
AcDbCircle
 10
192.2827337420267
 20
511.8281139781185
 30
0.0
 40
0.3
100
AcDbArc
 50
251.3240000000016
 51
335.9999999999951
  0
ARC
  5
6568
330
18
100
AcDbEntity
  8
DISEGNO
100
AcDbCircle
 10
195.3927337420255
 20
521.018113978119
 30
0.0
 40
10.0
100
AcDbArc
 50
285.6759999999967
 51
296.3240000000017
  0
ARC
  5
6569
330
18
100
AcDbEntity
  8
DISEGNO
100
AcDbCircle
 10
198.0127337420262
 20
511.6781139781188
 30
0.0
 40
0.3
100
AcDbArc
 50
200.9999999999903
 51
285.6759999999967
  0
ARC
  5
656A
330
18
100
AcDbEntity
  8
DISEGNO
100
AcDbCircle
 10
199.9927337420258
 20
513.2181139781188
 30
0.0
 40
0.3
100
AcDbArc
 50
120.5410000000085
 51
200.9999999999903
  0
ARC
  5
656B
330
18
100
AcDbEntity
  8
DISEGNO
100
AcDbCircle
 10
204.7327337420256
 20
523.6381139781189
 30
0.0
 40
0.3
100
AcDbArc
 50
291.000000000012
 51
15.67619999999589
  0
LINE
  5
656C
330
18
100
AcDbEntity
  8
DISEGNO
100
AcDbLine
 10
204.832733742026
 20
523.3581139781191
 30
0.0
 11
204.1527337420257
 21
523.0981139781189
 31
0.0
  0
ARC
  5
656D
330
18
100
AcDbEntity
  8
DISEGNO
100
AcDbCircle
 10
204.2627337420263
 20
522.8181139781183
 30
0.0
 40
0.3
100
AcDbArc
 50
111.000000000012
 51
191.459000000006
  0
ARC
  5
656E
330
18
100
AcDbEntity
  8
DISEGNO
100
AcDbCircle
 10
195.3927337420255
 20
521.018113978119
 30
0.0
 40
8.75
100
AcDbArc
 50
345.5410000000018
 51
11.45940000000234
  0
ARC
  5
656F
330
18
100
AcDbEntity
  8
DISEGNO
100
AcDbCircle
 10
204.1527337420257
 20
518.7581139781188
 30
0.0
 40
0.3
100
AcDbArc
 50
165.5410000000018
 51
245.9999999999964
  0
LINE
  5
6570
330
18
100
AcDbEntity
  8
DISEGNO
100
AcDbLine
 10
204.0327337420267
 20
518.4781139781181
 30
0.0
 11
204.7027337420259
 21
518.1781139781188
 31
0.0
  0
ARC
  5
6571
330
18
100
AcDbEntity
  8
DISEGNO
100
AcDbCircle
 10
204.582733742026
 20
517.9081139781184
 30
0.0
 40
0.3
100
AcDbArc
 50
341.3240000000005
 51
65.99999999999643
  0
ARC
  5
6572
330
18
100
AcDbEntity
  8
DISEGNO
100
AcDbCircle
 10
195.3927337420255
 20
521.018113978119
 30
0.0
 40
10.0
100
AcDbArc
 50
330.6760000000056
 51
341.3240000000005
  0
ARC
  5
6573
330
18
100
AcDbEntity
  8
DISEGNO
100
AcDbCircle
 10
203.8527337420264
 20
516.268113978119
 30
0.0
 40
0.3
100
AcDbArc
 50
245.9999999999964
 51
330.6760000000056
  0
LINE
  5
6574
330
18
100
AcDbEntity
  8
DISEGNO
100
AcDbLine
 10
203.0527337420263
 20
516.2881139781194
 30
0.0
 11
203.7227337420254
 21
515.9881139781183
 31
0.0
  0
ARC
  5
6575
330
18
100
AcDbEntity
  8
DISEGNO
100
AcDbCircle
 10
202.9327337420264
 20
516.0181139781189
 30
0.0
 40
0.3
100
AcDbArc
 50
65.99999999999643
 51
146.4589999999994
  0
LINE
  5
6576
330
18
100
AcDbEntity
  8
DISEGNO
100
AcDbLine
 10
195.3927337420255
 20
507.5181139781189
 30
0.0
 11
205.2758897722188
 21
507.5181139781189
 31
0.0
  0
ARC
  5
6577
330
18
100
AcDbEntity
  8
DISEGNO
100
AcDbCircle
 10
205.2758897722188
 20
505.518113978119
 30
0.0
 40
2.0
100
AcDbArc
 50
34.84990457905445
 51
90.0
  0
ARC
  5
6578
330
18
100
AcDbEntity
  8
DISEGNO
100
AcDbCircle
 10
213.8927337420255
 20
511.5181139781189
 30
0.0
 40
1.0
100
AcDbArc
 50
222.732000000004
 51
270.0
  0
LINE
  5
6579
330
18
100
AcDbEntity
  8
DISEGNO
100
AcDbLine
 10
190.6627337420259
 20
513.3481139781189
 30
0.0
 11
190.3627337420266
 21
512.6781139781188
 31
0.0
  0
ARC
  5
657A
330
18
100
AcDbEntity
  8
DISEGNO
100
AcDbCircle
 10
190.6427337420255
 20
512.5581139781189
 30
0.0
 40
0.3
100
AcDbArc
 50
155.9999999999951
 51
240.6759999999983
  0
ARC
  5
657B
330
18
100
AcDbEntity
  8
DISEGNO
100
AcDbCircle
 10
190.3927337420254
 20
513.4681139781188
 30
0.0
 40
0.3
100
AcDbArc
 50
335.9999999999951
 51
56.45940000000873
  0
ARC
  5
657C
330
18
100
AcDbEntity
  8
DISEGNO
100
AcDbCircle
 10
195.3927337420255
 20
521.018113978119
 30
0.0
 40
8.75
100
AcDbArc
 50
211.5409999999987
 51
236.4589999999949
  0
ARC
  5
657D
330
18
100
AcDbEntity
  8
DISEGNO
100
AcDbCircle
 10
187.6827337420263
 20
516.2781139781192
 30
0.0
 40
0.3
100
AcDbArc
 50
31.54059999999513
 51
112.0000000000092
  0
LINE
  5
657E
330
18
100
AcDbEntity
  8
DISEGNO
100
AcDbLine
 10
222.8927337420255
 20
493.018113978119
 30
0.0
 11
222.8927337420255
 21
499.0181139781189
 31
0.0
  0
LINE
  5
657F
330
18
100
AcDbEntity
  8
DISEGNO
100
AcDbLine
 10
223.3927337420255
 20
514.768113978119
 30
0.0
 11
223.3927337420255
 21
510.518113978119
 31
0.0
  0
LINE
  5
6584
330
18
100
AcDbEntity
  8
NORMALI
100
AcDbLine
 10
212.0927337420217
 20
512.0181139781189
 30
0.0
 11
213.0927337420217
 21
511.018113978119
 31
0.0
  0
LINE
  5
6585
330
18
100
AcDbEntity
  8
NORMALI
100
AcDbLine
 10
223.3927337420273
 20
511.018113978119
 30
0.0
 11
213.0927337420217
 21
511.018113978119
 31
0.0
  0
LINE
  5
6586
330
18
100
AcDbEntity
  8
DISEGNO
100
AcDbLine
 10
223.3927337420255
 20
514.768113978119
 30
0.0
 11
230.3927337420255
 21
514.768113978119
 31
0.0
  0
ARC
  5
658B
330
18
100
AcDbEntity
  8
DISEGNO
100
AcDbCircle
 10
195.3927337420255
 20
521.018113978119
 30
0.0
 40
10.0
100
AcDbArc
 50
15.67619999999589
 51
26.32379999999564
  0
ARC
  5
658C
330
18
100
AcDbEntity
  8
DISEGNO
100
AcDbCircle
 10
224.1727337420261
 20
521.018113978119
 30
0.0
 40
15.0
100
AcDbArc
 50
137.267999999996
 51
222.732000000004
  0
LINE
  5
658D
330
18
100
AcDbEntity
  8
NORMALI
100
AcDbLine
 10
232.0927337420253
 20
525.0181139781189
 30
0.0
 11
232.0927337420235
 21
517.018113978119
 31
0.0
  0
LINE
  5
6590
330
18
100
AcDbEntity
  8
NORMALI
100
AcDbLine
 10
246.3922211634099
 20
513.518113978119
 30
0.0
 11
246.3922211634099
 21
528.5181139781189
 31
0.0
  0
LINE
  5
6592
330
18
100
AcDbEntity
  8
NORMALI
100
AcDbLine
 10
233.5928186477504
 20
517.018113978119
 30
0.0
 11
233.5928689622151
 21
525.0181139781189
 31
0.0
  0
ARC
  5
6593
330
18
100
AcDbEntity
  8
NORMALI
100
AcDbCircle
 10
243.9932211634105
 20
521.018113978119
 30
0.0
 40
7.0
100
AcDbArc
 50
315.0001000000043
 51
44.99999999999078
  0
LINE
  5
6595
330
18
100
AcDbEntity
  8
NORMALI
100
AcDbLine
 10
212.0927337420271
 20
530.018113978119
 30
0.0
 11
212.0927337420217
 21
512.0181139781189
 31
0.0
  0
LINE
  5
6597
330
18
100
AcDbEntity
  8
NORMALI
100
AcDbLine
 10
280.4282211634099
 20
544.018113978119
 30
0.0
 11
283.9248733373233
 21
544.018113978119
 31
0.0
  0
LINE
  5
6599
330
18
100
AcDbEntity
  8
NORMALI
100
AcDbLine
 10
280.4282211634099
 20
544.018113978119
 30
0.0
 11
277.4280799869393
 21
541.0181139781189
 31
0.0
  0
LINE
  5
659B
330
18
100
AcDbEntity
  8
NORMALI
100
AcDbLine
 10
304.1772211634097
 20
523.768113978119
 30
0.0
 11
304.1772211634097
 21
518.2681139781189
 31
0.0
  0
LINE
  5
659C
330
18
100
AcDbEntity
  8
NORMALI
100
AcDbLine
 10
304.1772211634097
 20
511.018113978119
 30
0.0
 11
310.1802211634104
 21
511.018113978119
 31
0.0
  0
LINE
  5
659D
330
18
100
AcDbEntity
  8
NORMALI
100
AcDbLine
 10
307.6332211634099
 20
501.2181139781197
 30
0.0
 11
302.3292211634098
 21
506.528113978121
 31
0.0
  0
LINE
  5
659E
330
18
100
AcDbEntity
  8
NORMALI
100
AcDbLine
 10
307.6332211634099
 20
499.8081139781199
 30
0.0
 11
303.3902211634104
 21
495.5681139781218
 31
0.0
  0
LINE
  5
659F
330
18
100
AcDbEntity
  8
NORMALI
100
AcDbLine
 10
304.0972211634098
 20
496.268113978119
 30
0.0
 11
302.6832211634101
 21
496.268113978119
 31
0.0
  0
LINE
  5
65A0
330
18
100
AcDbEntity
  8
NORMALI
100
AcDbLine
 10
303.3902211634104
 20
495.5681139781218
 30
0.0
 11
301.9762211634097
 21
495.5681139781218
 31
0.0
  0
LINE
  5
65A1
330
18
100
AcDbEntity
  8
NORMALI
100
AcDbLine
 10
302.6832211634101
 20
504.7581139781206
 30
0.0
 11
298.4402211634097
 21
500.518113978119
 31
0.0
  0
LINE
  5
65A2
330
18
100
AcDbEntity
  8
NORMALI
100
AcDbLine
 10
300.1242211634099
 20
510.018113978119
 30
0.0
 11
302.3742211634099
 21
507.768113978119
 31
0.0
  0
LINE
  5
65A3
330
18
100
AcDbEntity
  8
NORMALI
100
AcDbLine
 10
306.9262211634105
 20
499.0981139781207
 30
0.0
 11
298.4402211634097
 21
500.518113978119
 31
0.0
  0
LINE
  5
65A4
330
18
100
AcDbEntity
  8
NORMALI
100
AcDbLine
 10
306.9262211634105
 20
500.518113978119
 30
0.0
 11
302.6832211634101
 21
504.7581139781206
 31
0.0
  0
LINE
  5
65A5
330
18
100
AcDbEntity
  8
NORMALI
100
AcDbLine
 10
302.6832211634101
 20
506.8781139781195
 30
0.0
 11
302.6832211634101
 21
506.1681139781204
 31
0.0
  0
LINE
  5
65A6
330
18
100
AcDbEntity
  8
NORMALI
100
AcDbLine
 10
306.9262211634105
 20
500.518113978119
 30
0.0
 11
306.9262211634105
 21
499.0981139781207
 31
0.0
  0
ARC
  5
65A7
330
18
100
AcDbEntity
  8
NORMALI
100
AcDbCircle
 10
301.8932211634101
 20
511.7181139781197
 30
0.0
 40
3.978
100
AcDbArc
 50
276.9955000000128
 51
349.8650156614079
  0
LINE
  5
65A8
330
18
100
AcDbEntity
  8
NORMALI
100
AcDbLine
 10
298.4402211634097
 20
500.518113978119
 30
0.0
 11
302.6832211634101
 21
496.268113978119
 31
0.0
  0
LINE
  5
65A9
330
18
100
AcDbEntity
  8
NORMALI
100
AcDbLine
 10
302.6832211634101
 20
504.7581139781206
 30
0.0
 11
304.0972211634098
 21
496.268113978119
 31
0.0
  0
LINE
  5
65AA
330
18
100
AcDbEntity
  8
NORMALI
100
AcDbLine
 10
307.6332211634099
 20
501.2181139781197
 30
0.0
 11
307.6332211634099
 21
499.8081139781199
 31
0.0
  0
LINE
  5
65AB
330
18
100
AcDbEntity
  8
NORM_TR
100
AcDbLine
 10
304.1772211634097
 20
518.2681139781189
 30
0.0
 11
304.1772211634097
 21
511.5181139781189
 31
0.0
  0
ARC
  5
65AC
330
18
100
AcDbEntity
  8
NORMALI
100
AcDbCircle
 10
304.6772211634098
 20
511.5181139781189
 30
0.0
 40
0.5
100
AcDbArc
 50
180.0
 51
270.0
  0
LINE
  5
65AD
330
18
100
AcDbEntity
  8
NORMALI
100
AcDbLine
 10
292.3852211634103
 20
503.8681139781211
 30
0.0
 11
295.4262211634104
 21
500.8281139781202
 31
0.0
  0
ARC
  5
65AE
330
18
100
AcDbEntity
  8
NORMALI
100
AcDbCircle
 10
305.6682211634097
 20
497.528113978121
 30
0.0
 40
14.722
100
AcDbArc
 50
127.7920000000044
 51
154.4890000000315
  0
ARC
  5
65AF
330
18
100
AcDbEntity
  8
NORMALI
100
AcDbCircle
 10
291.4832211634102
 20
501.3081139781198
 30
0.0
 40
3.978
100
AcDbArc
 50
277.0202999999916
 51
353.0046600000038
  0
LINE
  5
65B0
330
18
100
AcDbEntity
  8
NORMALI
100
AcDbLine
 10
296.4282211634099
 20
509.1081139781191
 30
0.0
 11
290.05322116341
 21
502.7381139781201
 31
0.0
  0
LINE
  5
65B1
330
18
100
AcDbEntity
  8
NORMALI
100
AcDbLine
 10
289.6012211634097
 20
502.278113978121
 30
0.0
 11
288.8942211634103
 21
502.9881139781202
 31
0.0
  0
ARC
  5
65B2
330
18
100
AcDbEntity
  8
NORMALI
100
AcDbCircle
 10
292.8662211634101
 20
499.9181139781204
 30
0.0
 40
3.978
100
AcDbArc
 50
96.99500000000808
 51
172.9800000000055
  0
LINE
  5
65B3
330
18
100
AcDbEntity
  8
NORMALI
100
AcDbLine
 10
288.9232211634098
 20
500.39811397812
 30
0.0
 11
291.96422116341
 21
497.3581139781191
 31
0.0
  0
LINE
  5
65B4
330
18
100
AcDbEntity
  8
NORMALI
100
AcDbLine
 10
283.9252211634102
 20
498.018113978119
 30
0.0
 11
280.4282211634099
 21
498.018113978119
 31
0.0
  0
LINE
  5
65B5
330
18
100
AcDbEntity
  8
NORMALI
100
AcDbLine
 10
277.4280799869393
 20
501.018113978119
 30
0.0
 11
280.4282211634099
 21
498.018113978119
 31
0.0
  0
LINE
  5
65B6
330
18
100
AcDbEntity
  8
NORMALI
100
AcDbLine
 10
297.0262211634099
 20
500.518113978119
 30
0.0
 11
296.3182211634103
 21
500.518113978119
 31
0.0
  0
LINE
  5
65B7
330
18
100
AcDbEntity
  8
NORMALI
100
AcDbLine
 10
304.1772211634097
 20
518.2681139781189
 30
0.0
 11
283.9252211634102
 21
498.018113978119
 31
0.0
  0
LINE
  5
65B8
330
18
100
AcDbEntity
  8
NORMALI
100
AcDbLine
 10
302.6832211634101
 20
506.1681139781204
 30
0.0
 11
297.0262211634099
 21
500.518113978119
 31
0.0
  0
ARC
  5
65B9
330
18
100
AcDbEntity
  8
NORMALI
100
AcDbCircle
 10
289.0912211634104
 20
514.1081139781191
 30
0.0
 40
14.722
100
AcDbArc
 50
295.5110000000049
 51
334.489100000034
  0
LINE
  5
65BA
330
18
100
AcDbEntity
  8
NORMALI
100
AcDbLine
 10
304.7062211634102
 20
508.89811397812
 30
0.0
 11
294.2962211634103
 21
498.4881139781201
 31
0.0
  0
LINE
  5
65BB
330
18
100
AcDbEntity
  8
NORMALI
100
AcDbLine
 10
304.1772211634097
 20
511.018113978119
 30
0.0
 11
294.5512211634104
 21
508.6481139781199
 31
0.0
  0
LINE
  5
65BC
330
18
100
AcDbEntity
  8
NORMALI
100
AcDbLine
 10
301.9762211634097
 20
495.5681139781218
 30
0.0
 11
296.6722211634096
 21
500.8681139781211
 31
0.0
  0
LINE
  5
65BE
330
18
100
AcDbEntity
  8
NORMALI
100
AcDbLine
 10
304.1772211634097
 20
523.768113978119
 30
0.0
 11
283.9248733373233
 21
544.018113978119
 31
0.0
  0
LINE
  5
65BF
330
18
100
AcDbEntity
  8
DISEGNO
100
AcDbLine
 10
170.3927337420255
 20
571.0181139781195
 30
0.0
 11
320.3927337420255
 21
571.0181139781195
 31
0.0
  0
LINE
  5
65CC
330
18
100
AcDbEntity
  8
NORMALI
100
AcDbLine
 10
83.33355119379758
 20
564.3351139780621
 30
0.0
 11
157.4519162902534
 21
564.3351139780617
 31
0.0
  0
LINE
  5
65CD
330
18
100
AcDbEntity
  8
NORMALI
100
AcDbLine
 10
82.89273374202549
 20
569.1351139780623
 30
0.0
 11
157.8927337420255
 21
569.1351139780619
 31
0.0
  0
LINE
  5
65CE
330
18
100
AcDbEntity
  8
NORMALI
100
AcDbLine
 10
82.89273374202549
 20
566.8351139780622
 30
0.0
 11
157.8927337420255
 21
566.8351139780622
 31
0.0
  0
LINE
  5
65CF
330
18
100
AcDbEntity
  8
ASSI
100
AcDbLine
 10
170.8369468280989
 20
582.9451179781209
 30
0.0
 11
69.94852065595205
 21
582.9451179781209
 31
0.0
  0
LINE
  5
65D1
330
18
100
AcDbEntity
  8
DISEGNO
100
AcDbLine
 10
70.3927337420264
 20
569.135113978061
 30
0.0
 11
170.3927337420255
 21
569.1351139780691
 31
0.0
  0
LINE
  5
65D2
330
18
100
AcDbEntity
  8
DISEGNO
100
AcDbLine
 10
170.3927337420255
 20
560.6281139781191
 30
0.0
 11
70.3927337420264
 21
560.6281139781191
 31
0.0
  0
LINE
  5
65D6
330
18
100
AcDbEntity
  8
ASSI
100
AcDbLine
 10
78.89273374202549
 20
593.773457936025
 30
0.0
 11
78.89273374202549
 21
572.9833481560009
 31
0.0
  0
LINE
  5
65D7
330
18
100
AcDbEntity
  8
DISEGNO
100
AcDbLine
 10
70.3927337420264
 20
560.6281139781195
 30
0.0
 11
70.39273374202548
 21
591.0181139781236
 31
0.0
  0
LINE
  5
65D8
330
18
100
AcDbEntity
  8
NORMALI
100
AcDbLine
 10
82.89273374202549
 20
566.8351139780622
 30
0.0
 11
83.33355119379758
 21
564.3351139780621
 31
0.0
  0
LINE
  5
65DB
330
18
100
AcDbEntity
  8
ASSI
100
AcDbLine
 10
94.39273374202548
 20
572.7335778192838
 30
0.0
 11
94.39273374202548
 21
595.6667362839844
 31
0.0
  0
LINE
  5
65DC
330
18
100
AcDbEntity
  8
NORMALI
100
AcDbLine
 10
82.89273374202549
 20
566.8351139780617
 30
0.0
 11
82.89273374202549
 21
569.1351139780619
 31
0.0
  0
LINE
  5
65E8
330
18
100
AcDbEntity
  8
ASSI
100
AcDbLine
 10
161.8927337420255
 20
593.773457936025
 30
0.0
 11
161.8927337420255
 21
572.9833481560009
 31
0.0
  0
LINE
  5
65EB
330
18
100
AcDbEntity
  8
DISEGNO
100
AcDbLine
 10
170.3927337420255
 20
560.6281139781195
 30
0.0
 11
170.3927337420255
 21
591.0181139781236
 31
0.0
  0
LINE
  5
65EF
330
18
100
AcDbEntity
  8
NORMALI
100
AcDbLine
 10
157.8927337420255
 20
566.8351139780622
 30
0.0
 11
157.4519162902534
 21
564.3351139780621
 31
0.0
  0
LINE
  5
65F0
330
18
100
AcDbEntity
  8
ASSI
100
AcDbLine
 10
146.3927337420255
 20
572.5109119604759
 30
0.0
 11
146.3927337420255
 21
595.6667362839844
 31
0.0
  0
LINE
  5
65F3
330
18
100
AcDbEntity
  8
NORMALI
100
AcDbLine
 10
157.8927337420255
 20
566.8351139780617
 30
0.0
 11
157.8927337420255
 21
569.1351139780619
 31
0.0
  0
LINE
  5
65F8
330
18
100
AcDbEntity
  8
NORMALI
100
AcDbLine
 10
310.1802211634104
 20
571.0181139781226
 30
0.0
 11
250.1682211634088
 21
571.0181139781226
 31
0.0
  0
LINE
  5
660B
330
18
100
AcDbEntity
  8
DISEGNO
100
AcDbLine
 10
320.3927337420255
 20
591.0181139781226
 30
0.0
 11
320.3927337420255
 21
571.0181139781195
 31
0.0
  0
LINE
  5
6743
330
18
100
AcDbEntity
  8
ASSI
100
AcDbLine
 10
891.4154936695386
 20
154.7874999999987
 30
0.0
 11
909.759951607787
 21
154.7874999999987
 31
0.0
  0
LINE
  5
6745
330
18
100
AcDbEntity
  8
ASSI
100
AcDbLine
 10
1011.415493669538
 20
154.7874999999987
 30
0.0
 11
1029.759951607787
 21
154.7874999999987
 31
0.0
  0
LINE
  5
683E
330
18
100
AcDbEntity
  8
DISEGNO
100
AcDbLine
 10
910.5877226386628
 20
37.49999999999807
 30
0.0
 11
910.5877226386619
 21
-37.50000000000011
 31
0.0
  0
LINE
  5
6883
330
18
100
AcDbEntity
  8
ASSI
100
AcDbLine
 10
946.2565109078967
 20
-41.5428186004884
 30
0.0
 11
888.7957827673826
 21
-41.5428186004884
 31
0.0
  0
LINE
  5
6884
330
18
100
AcDbEntity
  8
ASSI
100
AcDbLine
 10
924.6615538783988
 20
-25.99999999999992
 30
0.0
 11
888.1957827673822
 21
-25.99999999999992
 31
0.0
  0
LINE
  5
6885
330
18
100
AcDbEntity
  8
ASSI
100
AcDbLine
 10
924.4977158324855
 20
25.99999999999895
 30
0.0
 11
888.6957827673834
 21
25.99999999999872
 31
0.0
  0
LINE
  5
6886
330
18
100
AcDbEntity
  8
ASSI
100
AcDbLine
 10
945.2615538783993
 20
41.49999999999991
 30
0.0
 11
888.7957827673826
 21
41.49999999999991
 31
0.0
  0
LINE
  5
6887
330
18
100
AcDbEntity
  8
ASSI
100
AcDbLine
 10
1336.513891398927
 20
-25.99999999999992
 30
0.0
 11
1372.979662509944
 21
-25.99999999999992
 31
0.0
  0
LINE
  5
688A
330
18
100
AcDbEntity
  8
ASSI
100
AcDbLine
 10
1314.918934369429
 20
-41.5428186004884
 30
0.0
 11
1372.379662509943
 21
-41.5428186004884
 31
0.0
  0
LINE
  5
68B1
330
18
100
AcDbEntity
  8
ASSI
100
AcDbLine
 10
1336.677729444841
 20
25.99999999999895
 30
0.0
 11
1372.479662509943
 21
25.99999999999872
 31
0.0
  0
LINE
  5
68B4
330
18
100
AcDbEntity
  8
ASSI
100
AcDbLine
 10
1315.913891398927
 20
41.49999999999991
 30
0.0
 11
1372.379662509943
 21
41.49999999999991
 31
0.0
  0
LINE
  5
68D5
330
18
100
AcDbEntity
  8
ASSI
100
AcDbLine
 10
1661.765157352567
 20
594.0151139781165
 30
0.0
 11
1661.765157352567
 21
414.8288962042588
 31
0.0
  0
LINE
  5
68D6
330
18
100
AcDbEntity
  8
ASSI
100
AcDbLine
 10
1661.765157352568
 20
142.0809737848458
 30
0.0
 11
1661.765157352568
 21
-126.5250733024168
 31
0.0
  0
LINE
  5
6939
330
18
100
AcDbEntity
  8
ASSI
100
AcDbLine
 10
987.5877226386583
 20
40.00784971133259
 30
0.0
 11
987.5877226386583
 21
-35.95506403235333
 31
0.0
  0
LINE
  5
693C
330
18
100
AcDbEntity
  8
ASSI
100
AcDbLine
 10
987.5877226386583
 20
-38.0191953779912
 30
0.0
 11
987.5877226386583
 21
-21.9808046220104
 31
0.0
  0
LINE
  5
693E
330
18
100
AcDbEntity
  8
ASSI
100
AcDbLine
 10
997.3198102696843
 20
-29.99999999998033
 30
0.0
 11
977.5038234283201
 21
-29.99999999998056
 31
0.0
  0
LINE
  5
693F
330
18
100
AcDbEntity
  8
ASSI
100
AcDbLine
 10
997.3198102696843
 20
29.99999999999852
 30
0.0
 11
977.1448369012796
 21
29.99999999999829
 31
0.0
  0
LINE
  5
6941
330
18
100
AcDbEntity
  8
ASSI
100
AcDbLine
 10
1273.587722638668
 20
40.00784971133259
 30
0.0
 11
1273.587722638668
 21
-42.20506403235333
 31
0.0
  0
LINE
  5
6942
330
18
100
AcDbEntity
  8
ASSI
100
AcDbLine
 10
1273.587722638668
 20
-38.0191953779912
 30
0.0
 11
1273.587722638668
 21
-21.9808046220104
 31
0.0
  0
LINE
  5
6943
330
18
100
AcDbEntity
  8
ASSI
100
AcDbLine
 10
1263.855635007642
 20
-29.99999999998033
 30
0.0
 11
1283.671621849006
 21
-29.99999999998056
 31
0.0
  0
LINE
  5
6944
330
18
100
AcDbEntity
  8
ASSI
100
AcDbLine
 10
1263.855635007642
 20
29.99999999999852
 30
0.0
 11
1284.030608376046
 21
29.99999999999829
 31
0.0
  0
ELLIPSE
  5
69A4
330
18
100
AcDbEntity
  8
NORMALI
100
AcDbEllipse
 10
982.7184899983585
 20
552.9219841669315
 30
0.0
 11
20.00000005274068
 21
-0.0000000000008042
 31
0.0
210
0.0
220
0.0
230
-1.0
 40
0.7068306062034754
 41
3.141592653589857
 42
6.28318530717965
  0
ELLIPSE
  5
69A5
330
18
100
AcDbEntity
  8
NORMALI
100
AcDbEllipse
 10
982.7184899983585
 20
541.6019842042102
 30
0.0
 11
20.00000005274101
 21
0.0000000000009249
 31
0.0
210
0.0
220
0.0
230
-1.0
 40
0.7068306062033731
 41
3.293314399514226
 42
6.131463561255218
  0
LINE
  5
69A6
330
18
100
AcDbEntity
  8
NORMALI
100
AcDbLine
 10
1002.718645218272
 20
543.7385963282783
 30
0.0
 11
1002.71931214341
 21
552.9219841669315
 31
0.0
  0
LINE
  5
69A7
330
18
100
AcDbEntity
  8
NORMALI
100
AcDbLine
 10
962.718645112791
 20
543.7385963282783
 30
0.0
 11
962.7193120379271
 21
552.9219841669315
 31
0.0
  0
LINE
  5
69A8
330
18
100
AcDbEntity
  8
DISEGNO
100
AcDbLine
 10
963.2031078028678
 20
556.0151139781143
 30
0.0
 11
961.0726274852277
 21
556.0151139781143
 31
0.0
  0
ELLIPSE
  5
69AD
330
18
100
AcDbEntity
  8
NORMALI
100
AcDbEllipse
 10
1278.699957540148
 20
552.9788302882931
 30
0.0
 11
20.00000005274068
 21
0.0000000000003217
 31
0.0
210
0.0
220
0.0
230
-1.0
 40
0.7068306062034754
 41
3.141592653589944
 42
6.283185307179737
  0
ELLIPSE
  5
69AE
330
18
100
AcDbEntity
  8
NORMALI
100
AcDbEllipse
 10
1278.699957540148
 20
541.6588303255718
 30
0.0
 11
20.28357685417859
 21
0.0013998576822282
 31
0.0
210
0.0
220
0.0
230
-0.9999999999999998
 40
0.6980407805079392
 41
3.309103046966217
 42
6.115872651076779
  0
LINE
  5
69AF
330
18
100
AcDbEntity
  8
NORMALI
100
AcDbLine
 10
1258.700128825654
 20
544.018113978119
 30
0.0
 11
1258.700779579716
 21
552.9788302882931
 31
0.0
  0
LINE
  5
69B0
330
18
100
AcDbEntity
  8
NORMALI
100
AcDbLine
 10
1298.700128931134
 20
544.018113978119
 30
0.0
 11
1298.7007796852
 21
552.9788302882931
 31
0.0
  0
LINE
  5
69B1
330
18
100
AcDbEntity
  8
DISEGNO
100
AcDbLine
 10
1259.166715267711
 20
556.0151139781143
 30
0.0
 11
1257.587722638663
 21
556.0151139781143
 31
0.0
  0
LINE
  5
6A08
330
18
100
AcDbEntity
  8
4360018_C-TLM TCR_S 220_280 ø32 ø25.iam.1-Spigoli visibili
  6
Continuous
 62
     7
 48
0.0
370
    30
100
AcDbLine
 10
536.5117498859121
 20
72.5
 30
0.0
 11
601.0098118723004
 21
72.5
 31
0.0
  0
LINE
  5
6A09
330
18
100
AcDbEntity
  8
DISEGNO
100
AcDbLine
 10
491.7607808791058
 20
54.5
 30
0.0
 11
659.7607808791062
 21
54.5
 31
0.0
  0
LINE
  5
6A0A
330
18
100
AcDbEntity
  8
DISEGNO
100
AcDbLine
 10
491.7607808791058
 20
-54.5
 30
0.0
 11
659.7607808791062
 21
-54.5
 31
0.0
  0
LINE
  5
6A0B
330
18
100
AcDbEntity
  8
DISEGNO
100
AcDbLine
 10
491.7607808791058
 20
-72.5
 30
0.0
 11
659.7607808791062
 21
-72.5
 31
0.0
  0
LINE
  5
6A0C
330
18
100
AcDbEntity
  8
4360018_C-TLM TCR_S 220_280 ø32 ø25.iam.1-Spigoli visibili
  6
Continuous
 62
     7
 48
0.0
370
    30
100
AcDbLine
 10
491.7607808791058
 20
0.0
 30
0.0
 11
659.7607808791058
 21
0.0
 31
0.0
  0
LINE
  5
6A0D
330
18
100
AcDbEntity
  8
DISEGNO
100
AcDbLine
 10
659.7607808791058
 20
54.5
 30
0.0
 11
491.7607808791058
 21
54.5
 31
0.0
  0
LINE
  5
6A0E
330
18
100
AcDbEntity
  8
4360018_C-TLM TCR_S 220_280 ø32 ø25.iam.1-Spigoli visibili
  6
Continuous
 62
     7
 48
0.0
370
    30
100
AcDbLine
 10
491.7607808791058
 20
0.0
 30
0.0
 11
659.7607808791062
 21
0.0
 31
0.0
  0
LINE
  5
6A0F
330
18
100
AcDbEntity
  8
DISEGNO
100
AcDbLine
 10
491.7607808791067
 20
-54.5
 30
0.0
 11
659.7607808791062
 21
-54.5
 31
0.0
  0
LINE
  5
6A10
330
18
100
AcDbEntity
  8
DISEGNO
100
AcDbLine
 10
481.7607808791058
 20
69.5
 30
0.0
 11
481.7607808791058
 21
54.5
 31
0.0
  0
LINE
  5
6A11
330
18
100
AcDbEntity
  8
DISEGNO
100
AcDbLine
 10
491.7607808791058
 20
54.5
 30
0.0
 11
481.7607808791058
 21
54.5
 31
0.0
  0
ARC
  5
6A12
330
18
100
AcDbEntity
  8
DISEGNO
100
AcDbCircle
 10
484.7607808791058
 20
69.5
 30
0.0
 40
3.000000000000007
100
AcDbArc
 50
90.0
 51
180.0
  0
LINE
  5
6A13
330
18
100
AcDbEntity
  8
DISEGNO
100
AcDbLine
 10
484.7607808791058
 20
72.5
 30
0.0
 11
491.7607808791058
 21
72.5
 31
0.0
  0
LINE
  5
6A14
330
18
100
AcDbEntity
  8
4360018_C-TLM TCR_S 220_280 ø32 ø25.iam.1-Spigoli visibili
  6
Continuous
 62
     7
 48
0.0
370
    30
100
AcDbLine
 10
536.5117498859121
 20
72.5
 30
0.0
 11
491.7607808791058
 21
72.5
 31
0.0
  0
LINE
  5
6A15
330
18
100
AcDbEntity
  8
DISEGNO
100
AcDbLine
 10
481.7607808791058
 20
54.5
 30
0.0
 11
491.7607808791058
 21
54.5
 31
0.0
  0
LINE
  5
6A16
330
18
100
AcDbEntity
  8
DISEGNO
100
AcDbLine
 10
481.7607808791058
 20
-54.5
 30
0.0
 11
491.7607808791058
 21
-54.5
 31
0.0
  0
LINE
  5
6A17
330
18
100
AcDbEntity
  8
DISEGNO
100
AcDbLine
 10
481.7607808791058
 20
-54.5
 30
0.0
 11
481.7607808791058
 21
-69.5
 31
0.0
  0
ARC
  5
6A18
330
18
100
AcDbEntity
  8
DISEGNO
100
AcDbCircle
 10
484.7607808791058
 20
-69.5
 30
0.0
 40
2.999999999999999
100
AcDbArc
 50
180.0
 51
270.0
  0
LINE
  5
6A19
330
18
100
AcDbEntity
  8
DISEGNO
100
AcDbLine
 10
491.7607808791058
 20
-72.5
 30
0.0
 11
484.7607808791058
 21
-72.5
 31
0.0
  0
LINE
  5
6A1A
330
18
100
AcDbEntity
  8
4360018_C-TLM TCR_S 220_280 ø32 ø25.iam.1-Spigoli visibili
  6
Continuous
 62
     7
 48
0.0
370
    30
100
AcDbLine
 10
491.7607808791058
 20
0.0
 30
0.0
 11
481.7607808791058
 21
0.0
 31
0.0
  0
LINE
  5
6A1B
330
18
100
AcDbEntity
  8
4360018_C-TLM TCR_S 220_280 ø32 ø25.iam.1-Spigoli visibili
  6
Continuous
 62
     7
 48
0.0
370
    30
100
AcDbLine
 10
481.7607808791067
 20
0.0
 30
0.0
 11
491.7607808791058
 21
0.0
 31
0.0
  0
LINE
  5
6A1C
330
18
100
AcDbEntity
  8
DISEGNO
100
AcDbLine
 10
481.7607808791067
 20
0.0
 30
0.0
 11
481.7607808791067
 21
-54.5
 31
0.0
  0
LINE
  5
6A1D
330
18
100
AcDbEntity
  8
DISEGNO
100
AcDbLine
 10
491.7607808791058
 20
-54.5
 30
0.0
 11
481.7607808791067
 21
-54.5
 31
0.0
  0
LINE
  5
6A1E
330
18
100
AcDbEntity
  8
DISEGNO
100
AcDbLine
 10
481.7607808791058
 20
54.5
 30
0.0
 11
481.7607808791058
 21
0.0
 31
0.0
  0
LINE
  5
6A1F
330
18
100
AcDbEntity
  8
4360018_C-TLM TCR_S 220_280 ø32 ø25.iam.1-Spigoli visibili
  6
Continuous
 62
     7
 48
0.0
370
    30
100
AcDbLine
 10
659.7607808791062
 20
54.5
 30
0.0
 11
659.7607808791062
 21
69.5
 31
0.0
  0
LINE
  5
6A20
330
18
100
AcDbEntity
  8
4360018_C-TLM TCR_S 220_280 ø32 ø25.iam.1-Spigoli visibili
  6
Continuous
 62
     7
 48
0.0
370
    30
100
AcDbLine
 10
659.7607808791062
 20
72.5
 30
0.0
 11
659.7607808791062
 21
69.5
 31
0.0
  0
LINE
  5
6A21
330
18
100
AcDbEntity
  8
DISEGNO
100
AcDbLine
 10
662.1607808791059
 20
29.39999999999964
 30
0.0
 11
662.1607808791059
 21
25.60000000000036
 31
0.0
  0
ARC
  5
6A22
330
18
100
AcDbEntity
  8
DISEGNO
100
AcDbCircle
 10
660.2607808791058
 20
25.60000000000036
 30
0.0
 40
1.900000000000012
100
AcDbArc
 50
270.0
 51
0.0
  0
ARC
  5
6A23
330
18
100
AcDbEntity
  8
DISEGNO
100
AcDbCircle
 10
660.2607808791058
 20
29.39999999999964
 30
0.0
 40
1.900000000000013
100
AcDbArc
 50
0.0
 51
90.0
  0
LINE
  5
6A24
330
18
100
AcDbEntity
  8
DISEGNO
100
AcDbLine
 10
660.2607808791058
 20
31.30000000000018
 30
0.0
 11
659.9607808791061
 21
31.30000000000018
 31
0.0
  0
LINE
  5
6A25
330
18
100
AcDbEntity
  8
DISEGNO
100
AcDbLine
 10
660.2607808791058
 20
23.69999999999982
 30
0.0
 11
659.9607808791061
 21
23.69999999999982
 31
0.0
  0
LINE
  5
6A26
330
18
100
AcDbEntity
  8
DISEGNO
100
AcDbLine
 10
659.9607808791061
 20
37.5
 30
0.0
 11
660.6187607357806
 21
37.5
 31
0.0
  0
LINE
  5
6A27
330
18
100
AcDbEntity
  8
DISEGNO
100
AcDbLine
 10
660.6187607357806
 20
37.5
 30
0.0
 11
670.9553795644255
 21
37.5
 31
0.0
  0
LINE
  5
6A28
330
18
100
AcDbEntity
  8
DISEGNO
100
AcDbLine
 10
659.9607808791061
 20
37.5
 30
0.0
 11
659.7607808791058
 21
37.5
 31
0.0
  0
LINE
  5
6A29
330
18
100
AcDbEntity
  8
DISEGNO
100
AcDbLine
 10
659.9607808791061
 20
37.5
 30
0.0
 11
659.9607808791061
 21
36.5
 31
0.0
  0
ELLIPSE
  5
6A2A
330
18
100
AcDbEntity
  8
DISEGNO
100
AcDbEllipse
 10
670.9553795644255
 20
36.5
 30
0.0
 11
0.0000000000000006
 21
0.999999999999998
 31
0.0
210
0.0
220
0.0
230
1.0
 40
0.9396926207859092
 41
4.712388980384689
 42
6.283185307179585
  0
LINE
  5
6A2B
330
18
100
AcDbEntity
  8
4360018_C-TLM TCR_S 220_280 ø32 ø25.iam.1-Spigoli visibili
  6
Continuous
 62
     7
 48
0.0
370
    30
100
AcDbLine
 10
659.7607808791062
 20
-54.5
 30
0.0
 11
659.7607808791062
 21
-69.5
 31
0.0
  0
LINE
  5
6A2C
330
18
100
AcDbEntity
  8
4360018_C-TLM TCR_S 220_280 ø32 ø25.iam.1-Spigoli visibili
  6
Continuous
 62
     7
 48
0.0
370
    30
100
AcDbLine
 10
659.7607808791062
 20
-69.5
 30
0.0
 11
659.7607808791062
 21
-72.5
 31
0.0
  0
LINE
  5
6A2D
330
18
100
AcDbEntity
  8
DISEGNO
100
AcDbLine
 10
662.1607808791059
 20
-25.59999999999945
 30
0.0
 11
662.1607808791059
 21
-29.39999999999964
 31
0.0
  0
ARC
  5
6A2E
330
18
100
AcDbEntity
  8
DISEGNO
100
AcDbCircle
 10
660.2607808791058
 20
-29.39999999999964
 30
0.0
 40
1.900000000000012
100
AcDbArc
 50
270.0
 51
0.0
  0
ARC
  5
6A2F
330
18
100
AcDbEntity
  8
DISEGNO
100
AcDbCircle
 10
660.2607808791058
 20
-25.59999999999945
 30
0.0
 40
1.900000000000013
100
AcDbArc
 50
0.0
 51
90.0
  0
LINE
  5
6A30
330
18
100
AcDbEntity
  8
DISEGNO
100
AcDbLine
 10
660.2607808791058
 20
-23.69999999999982
 30
0.0
 11
659.9607808791061
 21
-23.69999999999982
 31
0.0
  0
LINE
  5
6A31
330
18
100
AcDbEntity
  8
DISEGNO
100
AcDbLine
 10
660.2607808791058
 20
-31.30000000000018
 30
0.0
 11
659.9607808791061
 21
-31.30000000000018
 31
0.0
  0
LINE
  5
6A32
330
18
100
AcDbEntity
  8
DISEGNO
100
AcDbLine
 10
659.9607808791061
 20
-37.5
 30
0.0
 11
660.6187607357801
 21
-37.5
 31
0.0
  0
LINE
  5
6A33
330
18
100
AcDbEntity
  8
DISEGNO
100
AcDbLine
 10
660.6187607357801
 20
-37.5
 30
0.0
 11
670.9553795644255
 21
-37.5
 31
0.0
  0
LINE
  5
6A34
330
18
100
AcDbEntity
  8
DISEGNO
100
AcDbLine
 10
659.9607808791061
 20
-36.5
 30
0.0
 11
659.9607808791061
 21
-37.5
 31
0.0
  0
LINE
  5
6A35
330
18
100
AcDbEntity
  8
DISEGNO
100
AcDbLine
 10
659.7607808791058
 20
-37.5
 30
0.0
 11
659.9607808791061
 21
-37.5
 31
0.0
  0
ELLIPSE
  5
6A36
330
18
100
AcDbEntity
  8
DISEGNO
100
AcDbEllipse
 10
670.9553795644255
 20
-36.5
 30
0.0
 11
-0.0000000000000011
 21
-0.9999999999999953
 31
0.0
210
0.0
220
0.0
230
1.0
 40
0.9396926207859086
 41
0.0
 42
1.570796326794897
  0
LINE
  5
6A37
330
18
100
AcDbEntity
  8
DISEGNO
100
AcDbLine
 10
659.7607808791062
 20
0.0
 30
0.0
 11
659.7607808791062
 21
-54.5
 31
0.0
  0
LINE
  5
6A38
330
18
100
AcDbEntity
  8
DISEGNO
100
AcDbLine
 10
659.9607808791061
 20
36.5
 30
0.0
 11
659.9607808791061
 21
-36.5
 31
0.0
  0
LINE
  5
6A39
330
18
100
AcDbEntity
  8
DISEGNO
100
AcDbLine
 10
671.895072185211
 20
36.5
 30
0.0
 11
671.895072185211
 21
-36.5
 31
0.0
  0
LINE
  5
6A3A
330
18
100
AcDbEntity
  8
DISEGNO
100
AcDbLine
 10
659.7607808791058
 20
0.0
 30
0.0
 11
659.7607808791058
 21
54.5
 31
0.0
  0
LINE
  5
6A3B
330
18
100
AcDbEntity
  8
DISEGNO
100
AcDbLine
 10
659.7607808791062
 20
72.5
 30
0.0
 11
601.0098118723004
 21
72.5
 31
0.0
  0
LINE
  5
6A6E
330
18
100
AcDbEntity
  8
ASSI
100
AcDbLine
 10
643.7607808791057
 20
478.8055628775098
 30
0.0
 11
643.7607808791057
 21
501.8457724875323
 31
0.0
  0
LINE
  5
6A6F
330
18
100
AcDbEntity
  8
9180143-Complessivo di montaggio.iam.1-Spigoli visibili
  6
Continuous
 62
     7
 48
0.0
370
    30
100
AcDbLine
 10
481.7607808791058
 20
575.0151139781166
 30
0.0
 11
481.7607808791058
 21
467.0151139781166
 31
0.0
  0
LINE
  5
6A70
330
18
100
AcDbEntity
  8
DISEGNO
100
AcDbLine
 10
659.7607752541058
 20
591.0151721031077
 30
0.0
 11
659.7607752541058
 21
436.0151139781077
 31
0.0
  0
LINE
  5
6A73
330
18
100
AcDbEntity
  8
9180143-Complessivo di montaggio.iam.1-Spigoli visibili
  6
Continuous
 62
     7
 48
0.0
370
    30
100
AcDbLine
 10
491.7607808791058
 20
457.0151139781167
 30
0.0
 11
659.7607808791058
 21
457.0151139781167
 31
0.0
  0
LINE
  5
6A74
330
18
100
AcDbEntity
  8
ASSI
100
AcDbLine
 10
493.7607808791057
 20
456.8055628775097
 30
0.0
 11
493.7607808791057
 21
479.8457724875322
 31
0.0
  0
LINE
  5
6A75
330
18
100
AcDbEntity
  8
ASSI
100
AcDbLine
 10
504.2142337358934
 20
469.0151139781157
 30
0.0
 11
483.0659752845238
 21
469.0151139781157
 31
0.0
  0
ARC
  5
6A76
330
18
100
AcDbEntity
  8
9180143-Complessivo di montaggio.iam.1-Spigoli visibili
  6
Continuous
 62
     7
 48
0.0
370
    30
100
AcDbCircle
 10
491.7607808791057
 20
467.0151139781166
 30
0.0
 40
9.999999999999996
100
AcDbArc
 50
180.0
 51
270.0
  0
LINE
  5
6A7E
330
18
100
AcDbEntity
  8
9180143-Complessivo di montaggio.iam.1-Spigoli visibili
  6
Continuous
 62
     7
 48
0.0
370
    30
100
AcDbLine
 10
659.7607808791058
 20
585.0151139781167
 30
0.0
 11
491.7607808791058
 21
585.0151139781167
 31
0.0
  0
CIRCLE
  5
6A7F
330
18
100
AcDbEntity
  8
DISEGNO
100
AcDbCircle
 10
568.7607808791057
 20
521.0151139781155
 30
0.0
 40
35.0
  0
LINE
  5
6A80
330
18
100
AcDbEntity
  8
ASSI
100
AcDbLine
 10
493.7607808791057
 20
560.8055628775098
 30
0.0
 11
493.7607808791057
 21
583.8457724875322
 31
0.0
  0
LINE
  5
6A81
330
18
100
AcDbEntity
  8
ASSI
100
AcDbLine
 10
504.2142337358934
 20
573.0151139781157
 30
0.0
 11
483.0659752845238
 21
573.0151139781157
 31
0.0
  0
ARC
  5
6A82
330
18
100
AcDbEntity
  8
9180143-Complessivo di montaggio.iam.1-Spigoli visibili
  6
Continuous
 62
     7
 48
0.0
370
    30
100
AcDbCircle
 10
491.7607808791058
 20
575.0151139781166
 30
0.0
 40
10.0
100
AcDbArc
 50
90.0
 51
180.0
  0
LINE
  5
6A83
330
18
100
AcDbEntity
  8
ASSI
100
AcDbLine
 10
643.7607808791057
 20
538.8055628775098
 30
0.0
 11
643.7607808791057
 21
561.8457724875322
 31
0.0
  0
LINE
  5
6A84
330
18
100
AcDbEntity
  8
ASSI
100
AcDbLine
 10
654.2142337358934
 20
491.0151139781155
 30
0.0
 11
633.0659752845238
 21
491.0151139781155
 31
0.0
  0
CIRCLE
  5
6A85
330
18
100
AcDbEntity
  8
NORMALI
100
AcDbCircle
 10
568.7607808791057
 20
521.0151139781155
 30
0.0
 40
12.5
  0
LINE
  5
6A86
330
18
100
AcDbEntity
  8
ASSI
100
AcDbLine
 10
654.2142337358934
 20
551.0151139781156
 30
0.0
 11
633.0659752845238
 21
551.0151139781156
 31
0.0
  0
LINE
  5
6A87
330
18
100
AcDbEntity
  8
9180143-Complessivo di montaggio.iam.1-Spigoli visibili
  6
Continuous
 62
     7
 48
0.0
370
    30
100
AcDbLine
 10
659.7607808791058
 20
561.0151139781139
 30
0.0
 11
659.7607808791058
 21
582.0151139781158
 31
0.0
  0
LINE
  5
6A8B
330
18
100
AcDbEntity
  8
9180143-Complessivo di montaggio.iam.1-Spigoli visibili
  6
Continuous
 62
     7
 48
0.0
370
    30
100
AcDbLine
 10
659.7607808791058
 20
561.0151139781139
 30
0.0
 11
659.7607808791058
 21
556.015113978113
 31
0.0
  0
LINE
  5
6A8C
330
18
100
AcDbEntity
  8
9180143-Complessivo di montaggio.iam.1-Spigoli visibili
  6
Continuous
 62
     7
 48
0.0
370
    30
100
AcDbLine
 10
659.7607808791058
 20
554.0151139781066
 30
0.0
 11
659.7607808791058
 21
556.0151139781075
 31
0.0
  0
ARC
  5
6A90
330
18
100
AcDbEntity
  8
DISEGNO
100
AcDbCircle
 10
662.7607763791071
 20
591.0151721031077
 30
0.0
 40
3.000001125
100
AcDbArc
 50
90.0
 51
180.0
  0
LINE
  5
6AB7
330
18
100
AcDbEntity
  8
DISEGNO
100
AcDbLine
 10
2122.78429897918
 20
457.0151139781167
 30
0.0
 11
2267.784298979182
 21
457.0151139781167
 31
0.0
  0
LINE
  5
6AB8
330
18
100
AcDbEntity
  8
ASSI
100
AcDbLine
 10
568.7607808791057
 20
95.96101488208388
 30
0.0
 11
568.7607808791057
 21
-104.0422472647124
 31
0.0
  0
LINE
  5
6B0F
330
18
100
AcDbEntity
  8
DISEGNO
100
AcDbLine
 10
2140.78429897918
 20
457.0151139781166
 30
0.0
 11
2140.78429897918
 21
585.0151139781273
 31
0.0
  0
LINE
  5
6B15
330
18
100
AcDbEntity
  8
DISEGNO
100
AcDbLine
 10
2249.784298979182
 20
457.0151139781167
 30
0.0
 11
2249.784298979182
 21
585.0151139781273
 31
0.0
  0
ENDSEC
  0
SECTION
  2
OBJECTS
  0
DICTIONARY
  5
C
330
0
100
AcDbDictionary
281
     1
  3
ACAD_COLOR
350
6B42
  3
ACAD_GROUP
350
D
  3
ACAD_LAYOUT
350
48BA
  3
ACAD_MATERIAL
350
6B18
  3
ACAD_MLEADERSTYLE
350
6B67
  3
ACAD_MLINESTYLE
350
1B
  3
ACAD_PLOTSETTINGS
350
48BB
  3
ACAD_PLOTSTYLENAME
350
48B8
  3
ACAD_SCALELIST
350
6B45
  3
ACAD_TABLESTYLE
350
6B43
  3
ACAD_VISUALSTYLE
350
6B31
  3
ACDB_RECOMPOSE_DATA
350
6B76
  3
AcDbVariableDictionary
350
49A4
  3
ACGREF_MASTER
350
48D5
  3
ACGREFACAD_MASTER
350
48D9
  3
AcmDictionary
350
48DB
  3
ACME_BOM_MANAGER_NAME
350
67AA
  3
ACME_COMMAND_HISTORY
350
67A5
  3
ACME_SCOPE_NAME
350
67A4
  3
ACMESTATEMGR
350
67AF
  3
AcmeSysVarManager
350
67A6
  3
AcmSystemVariableManager
350
67B6
  3
AMG
350
48C1
  3
AMGSNAPSETTINGS
350
490E
  3
AMI_MASTER
350
48DA
  3
ASE_INDEX_DICTIONARY
350
6A95
  0
DICTIONARY
  5
67CD
330
2
100
AcDbDictionary
280
     1
281
     1
  3
ACAD_LAYERFILTERS
360
67CE
  0
DICTIONARY
  5
4950
330
18
100
AcDbDictionary
280
     1
281
     1
  3
ACAD_INDEX
360
6A98
  3
ACAD_LAYOUTSELFREF
360
6777
  0
DICTIONARY
  5
498B
330
15
100
AcDbDictionary
280
     1
281
     1
  3
ACAD_LAYOUTSELFREF
360
6776
  0
DICTIONARY
  5
6B42
102
{ACAD_REACTORS
330
C
102
}
330
C
100
AcDbDictionary
281
     1
  0
DICTIONARY
  5
D
102
{ACAD_REACTORS
330
C
102
}
330
C
100
AcDbDictionary
281
     1
  0
DICTIONARY
  5
48BA
102
{ACAD_REACTORS
330
C
102
}
330
C
100
AcDbDictionary
281
     1
  3
Layout1
350
48BD
  3
Model
350
48BC
  0
DICTIONARY
  5
6B18
102
{ACAD_REACTORS
330
C
102
}
330
C
100
AcDbDictionary
281
     1
  3
ByBlock
350
6B21
  3
ByLayer
350
6B19
  3
Global
350
6B29
  0
DICTIONARY
  5
6B67
102
{ACAD_REACTORS
330
C
102
}
330
C
100
AcDbDictionary
281
     1
  3
Standard
350
6B68
  0
DICTIONARY
  5
1B
102
{ACAD_REACTORS
330
C
102
}
330
C
100
AcDbDictionary
281
     1
  3
STANDARD
350
1C
  0
DICTIONARY
  5
48BB
102
{ACAD_REACTORS
330
C
102
}
330
C
100
AcDbDictionary
281
     1
  0
ACDBDICTIONARYWDFLT
  5
48B8
102
{ACAD_REACTORS
330
C
102
}
330
C
100
AcDbDictionary
281
     1
  3
Normal
350
48B9
100
AcDbDictionaryWithDefault
340
48B9
  0
DICTIONARY
  5
6B45
102
{ACAD_REACTORS
330
C
102
}
330
C
100
AcDbDictionary
281
     1
  3
A0
350
6B46
  3
A1
350
6B47
  3
A2
350
6B48
  3
A3
350
6B49
  3
A4
350
6B4A
  3
A5
350
6B4B
  3
A6
350
6B4C
  3
A7
350
6B4D
  3
A8
350
6B4E
  3
A9
350
6B4F
  3
B0
350
6B50
  3
B1
350
6B51
  3
B2
350
6B52
  3
B3
350
6B53
  3
B4
350
6B54
  3
B5
350
6B55
  3
B6
350
6B56
  3
B7
350
6B57
  3
B8
350
6B58
  3
B9
350
6B59
  3
C0
350
6B5A
  3
C1
350
6B5B
  3
C2
350
6B5C
  3
C3
350
6B5D
  3
C4
350
6B5E
  3
C5
350
6B5F
  3
C6
350
6B60
  3
C7
350
6B61
  3
C8
350
6B62
  3
C9
350
6B63
  3
D0
350
6B64
  3
D1
350
6B65
  3
D2
350
6B66
  0
DICTIONARY
  5
6B43
102
{ACAD_REACTORS
330
C
102
}
330
C
100
AcDbDictionary
281
     1
  3
Standard
350
6B44
  0
DICTIONARY
  5
6B31
102
{ACAD_REACTORS
330
C
102
}
330
C
100
AcDbDictionary
281
     1
  3
2dWireframe
350
6B37
  3
3D Hidden
350
6B39
  3
3dWireframe
350
6B38
  3
Basic
350
6B36
  3
Brighten
350
6B3D
  3
ColorChange
350
6B41
  3
Conceptual
350
6B3A
  3
Dim
350
6B3C
  3
Facepattern
350
6B40
  3
Flat
350
6B32
  3
FlatWithEdges
350
6B33
  3
Gouraud
350
6B34
  3
GouraudWithEdges
350
6B35
  3
Linepattern
350
6B3F
  3
Realistic
350
6B3B
  3
Thicken
350
6B3E
  0
XRECORD
  5
6B76
102
{ACAD_REACTORS
330
C
102
}
330
C
100
AcDbXrecord
280
     1
 90
        1
330
6B44
  0
DICTIONARY
  5
49A4
102
{ACAD_REACTORS
330
C
102
}
330
C
100
AcDbDictionary
281
     1
  3
CANNOSCALE
350
6B73
  3
CMLEADERSTYLE
350
6B72
  3
CTABLESTYLE
350
6B71
  3
DIMASSOC
350
49A6
  3
INDEXCTL
350
49A5
  0
ACAD_PROXY_OBJECT
  5
48D5
102
{ACAD_REACTORS
330
C
102
}
330
C
100
AcDbProxyObject
 90
      499
 91
      517
 95
   851991
 70
     0
 93
       34
310
040000428C
 94
        0
  0
ACAD_PROXY_OBJECT
  5
48D9
102
{ACAD_REACTORS
330
C
102
}
330
C
100
AcDbProxyObject
 90
      499
 91
      520
 95
   851991
 70
     0
 93
      114
310
04000041C00000000000000000000C
 94
        0
  0
DICTIONARY
  5
48DB
102
{ACAD_REACTORS
330
C
102
}
330
C
100
AcDbDictionary
281
     1
  3
AcmBOMDATA
350
67B3
  3
AcmStdDictionary
350
48E1
  0
ACAD_PROXY_OBJECT
  5
67AA
102
{ACAD_REACTORS
330
C
102
}
330
C
100
AcDbProxyObject
 90
      499
 91
      511
 95
   851991
 70
     0
 93
       50
310
0001004040000C
330
0
330
0
330
67AB
 94
        0
  0
ACAD_PROXY_OBJECT
  5
67A5
102
{ACAD_REACTORS
330
C
102
}
330
C
100
AcDbProxyObject
 90
      499
 91
      507
 95
   851991
 70
     0
 93
     3254
310
47805045A4F4F4D805055055524745805044C494E4540405184D5347202D20436F6D6D616E642043414E43454C4C45442E014311D4925417D4D514915510D2201411312539150101461354D1C80B4810DBDB5B585B990810D05390D1531311510B805045A4F4F4D80505515341564580504554E444F80504554E444F805045
310
54E444F80504554E444F80504554E444F8050944494D4C494E45415240405184D5347202D20436F6D6D616E642043414E43454C4C45442E0141D4D514915510D210101461354D1C80B4810DBDB5B585B990810D05390D1531311510B8050944494D4C494E4541528050545524153458050944494D4C494E454152805075354
310
524554434880507535452455443488050545524153458050944494D4C494E45415280505455241534580504554E444F80504554E444F80504554E444F805064F464653455440405184D5347202D20436F6D6D616E642043414E43454C4C45442E014193D19194D15510101461354D1C80B4810DBDB5B585B990810D05390D1
310
531311510B80504554E444F805045A4F4F4D8050551534156458
 94
        0
  0
ACAD_PROXY_OBJECT
  5
67A4
102
{ACAD_REACTORS
330
C
102
}
330
C
100
AcDbProxyObject
 90
      499
 91
      506
 95
   851991
 70
     0
 93
      218
310
060000444000000000000000000010641E000000000000AAA406AA8C
360
67A7
360
67A8
360
67A9
360
67AB
360
67B7
360
67DB
 94
        0
  0
ACAD_PROXY_OBJECT
  5
67AF
102
{ACAD_REACTORS
330
C
102
}
330
C
100
AcDbProxyObject
 90
      499
 91
      516
 95
   851991
 70
     0
 93
       50
310
0600004164128C
 94
        0
  0
ACAD_PROXY_OBJECT
  5
67A6
102
{ACAD_REACTORS
330
C
102
}
330
C
100
AcDbProxyObject
 90
      499
 91
      508
 95
   851991
 70
     0
 93
       48
310
90341200000034
330
67A7
330
67A8
330
67A9
 94
        0
  0
ACAD_PROXY_OBJECT
  5
67B6
102
{ACAD_REACTORS
330
C
102
}
330
C
100
AcDbProxyObject
 90
      499
 91
      508
 95
   851991
 70
     0
 93
       32
310
90140A00FB
330
67B7
 94
        0
  0
DICTIONARY
  5
48C1
102
{ACAD_REACTORS
330
C
102
}
330
C
100
AcDbDictionary
281
     1
  3
AcMgSettings
350
48C2
  3
AMGLAYCFG
350
67B9
  0
DICTIONARY
  5
490E
102
{ACAD_REACTORS
330
C
102
}
330
C
100
AcDbDictionary
281
     1
  0
ACAD_PROXY_OBJECT
  5
48DA
102
{ACAD_REACTORS
330
C
102
}
330
C
100
AcDbProxyObject
 90
      499
 91
      521
 95
   851991
 70
     0
 93
       34
310
050000428C
 94
        0
  0
DICTIONARY
  5
6A95
102
{ACAD_REACTORS
330
C
102
}
330
C
100
AcDbDictionary
281
     1
  3
ASEBlockHierarchyIndexRecord
350
6A97
1001
DCO15
1040
1478519990.775
  0
DICTIONARY
  5
67CE
102
{ACAD_REACTORS
330
67CD
102
}
330
67CD
100
AcDbDictionary
280
     1
281
     1
  3
PIPPO
360
67CF
  0
DICTIONARY
  5
6A98
102
{ACAD_REACTORS
330
4950
102
}
330
4950
100
AcDbDictionary
281
     1
  3
*A1
350
6A99
  0
XRECORD
  5
6777
102
{ACAD_REACTORS
330
4950
102
}
330
4950
100
AcDbXrecord
280
     1
340
18
  0
XRECORD
  5
6776
102
{ACAD_REACTORS
330
498B
102
}
330
498B
100
AcDbXrecord
280
     1
340
15
  0
LAYOUT
  5
48BD
102
{ACAD_REACTORS
330
48BA
102
}
330
48BA
100
AcDbPlotSettings
  1

  2
C:\Programmi\Acadm 6\plotters\Cadjet 2.pc3
  4

  6

 40
0.0
 41
0.0
 42
0.0
 43
0.0
 44
0.0
 45
0.0
 46
0.0
 47
0.0
 48
0.0
 49
0.0
140
0.0
141
0.0
142
1.0
143
1.0
 70
   688
 72
     0
 73
     0
 74
     5
  7

 75
    16
147
1.0
 76
     0
 77
     2
 78
   300
148
0.0
149
0.0
100
AcDbLayout
  1
Layout1
 70
     1
 71
     1
 10
0.0
 20
0.0
 11
420.0
 21
297.0
 12
0.0
 22
0.0
 32
0.0
 14
1.000000000000000E+20
 24
1.000000000000000E+20
 34
1.000000000000000E+20
 15
-1.000000000000000E+20
 25
-1.000000000000000E+20
 35
-1.000000000000000E+20
146
0.0
 13
0.0
 23
0.0
 33
0.0
 16
1.0
 26
0.0
 36
0.0
 17
0.0
 27
1.0
 37
0.0
 76
     0
330
15
  0
LAYOUT
  5
48BC
102
{ACAD_REACTORS
330
48BA
102
}
330
48BA
100
AcDbPlotSettings
  1

  2
C:\Programmi\Acadm 6\plotters\Cadjet 2.pc3
  4

  6

 40
0.0
 41
0.0
 42
0.0
 43
0.0
 44
0.0
 45
0.0
 46
0.0
 47
0.0
 48
0.0
 49
0.0
140
0.0
141
0.0
142
1.0
143
1.0
 70
  1712
 72
     0
 73
     0
 74
     0
  7

 75
     0
147
1.0
 76
     0
 77
     2
 78
   300
148
0.0
149
0.0
100
AcDbLayout
  1
Model
 70
     1
 71
     0
 10
0.0
 20
0.0
 11
12.0
 21
9.0
 12
0.0
 22
0.0
 32
0.0
 14
0.0
 24
0.0
 34
0.0
 15
0.0
 25
0.0
 35
0.0
146
0.0
 13
0.0
 23
0.0
 33
0.0
 16
1.0
 26
0.0
 36
0.0
 17
0.0
 27
1.0
 37
0.0
 76
     0
330
18
331
6B16
  0
MATERIAL
  5
6B21
102
{ACAD_XDICTIONARY
360
6B22
102
}
102
{ACAD_REACTORS
330
6B18
102
}
330
6B18
100
AcDbMaterial
  1
ByBlock
 72
     0
 43
0.0208333333333333
 43
0.0
 43
0.0
 43
0.0
 43
0.0
 43
0.0208333333333333
 43
0.0
 43
0.0
 43
0.0
 43
0.0
 43
1.0
 43
0.0
 43
0.0
 43
0.0
 43
0.0
 43
1.0
 77
     0
 47
0.0208333333333333
 47
0.0
 47
0.0
 47
0.0
 47
0.0
 47
0.0208333333333333
 47
0.0
 47
0.0
 47
0.0
 47
0.0
 47
1.0
 47
0.0
 47
0.0
 47
0.0
 47
0.0
 47
1.0
171
     0
 49
0.0208333333333333
 49
0.0
 49
0.0
 49
0.0
 49
0.0
 49
0.0208333333333333
 49
0.0
 49
0.0
 49
0.0
 49
0.0
 49
1.0
 49
0.0
 49
0.0
 49
0.0
 49
0.0
 49
1.0
175
     0
142
0.0208333333333333
142
0.0
142
0.0
142
0.0
142
0.0
142
0.0208333333333333
142
0.0
142
0.0
142
0.0
142
0.0
142
1.0
142
0.0
142
0.0
142
0.0
142
0.0
142
1.0
179
     0
144
0.0208333333333333
144
0.0
144
0.0
144
0.0
144
0.0
144
0.0208333333333333
144
0.0
144
0.0
144
0.0
144
0.0
144
1.0
144
0.0
144
0.0
144
0.0
144
0.0
144
1.0
147
0.0208333333333333
147
0.0
147
0.0
147
0.0
147
0.0
147
0.0208333333333333
147
0.0
147
0.0
147
0.0
147
0.0
147
1.0
147
0.0
147
0.0
147
0.0
147
0.0
147
1.0
  0
MATERIAL
  5
6B19
102
{ACAD_XDICTIONARY
360
6B1A
102
}
102
{ACAD_REACTORS
330
6B18
102
}
330
6B18
100
AcDbMaterial
  1
ByLayer
 72
     0
 43
0.0208333333333333
 43
0.0
 43
0.0
 43
0.0
 43
0.0
 43
0.0208333333333333
 43
0.0
 43
0.0
 43
0.0
 43
0.0
 43
1.0
 43
0.0
 43
0.0
 43
0.0
 43
0.0
 43
1.0
 77
     0
 47
0.0208333333333333
 47
0.0
 47
0.0
 47
0.0
 47
0.0
 47
0.0208333333333333
 47
0.0
 47
0.0
 47
0.0
 47
0.0
 47
1.0
 47
0.0
 47
0.0
 47
0.0
 47
0.0
 47
1.0
171
     0
 49
0.0208333333333333
 49
0.0
 49
0.0
 49
0.0
 49
0.0
 49
0.0208333333333333
 49
0.0
 49
0.0
 49
0.0
 49
0.0
 49
1.0
 49
0.0
 49
0.0
 49
0.0
 49
0.0
 49
1.0
175
     0
142
0.0208333333333333
142
0.0
142
0.0
142
0.0
142
0.0
142
0.0208333333333333
142
0.0
142
0.0
142
0.0
142
0.0
142
1.0
142
0.0
142
0.0
142
0.0
142
0.0
142
1.0
179
     0
144
0.0208333333333333
144
0.0
144
0.0
144
0.0
144
0.0
144
0.0208333333333333
144
0.0
144
0.0
144
0.0
144
0.0
144
1.0
144
0.0
144
0.0
144
0.0
144
0.0
144
1.0
147
0.0208333333333333
147
0.0
147
0.0
147
0.0
147
0.0
147
0.0208333333333333
147
0.0
147
0.0
147
0.0
147
0.0
147
1.0
147
0.0
147
0.0
147
0.0
147
0.0
147
1.0
  0
MATERIAL
  5
6B29
102
{ACAD_XDICTIONARY
360
6B2A
102
}
102
{ACAD_REACTORS
330
6B18
102
}
330
6B18
100
AcDbMaterial
  1
Global
 72
     0
 43
0.0208333333333333
 43
0.0
 43
0.0
 43
0.0
 43
0.0
 43
0.0208333333333333
 43
0.0
 43
0.0
 43
0.0
 43
0.0
 43
1.0
 43
0.0
 43
0.0
 43
0.0
 43
0.0
 43
1.0
 77
     0
 47
0.0208333333333333
 47
0.0
 47
0.0
 47
0.0
 47
0.0
 47
0.0208333333333333
 47
0.0
 47
0.0
 47
0.0
 47
0.0
 47
1.0
 47
0.0
 47
0.0
 47
0.0
 47
0.0
 47
1.0
171
     0
 49
0.0208333333333333
 49
0.0
 49
0.0
 49
0.0
 49
0.0
 49
0.0208333333333333
 49
0.0
 49
0.0
 49
0.0
 49
0.0
 49
1.0
 49
0.0
 49
0.0
 49
0.0
 49
0.0
 49
1.0
175
     0
142
0.0208333333333333
142
0.0
142
0.0
142
0.0
142
0.0
142
0.0208333333333333
142
0.0
142
0.0
142
0.0
142
0.0
142
1.0
142
0.0
142
0.0
142
0.0
142
0.0
142
1.0
179
     0
144
0.0208333333333333
144
0.0
144
0.0
144
0.0
144
0.0
144
0.0208333333333333
144
0.0
144
0.0
144
0.0
144
0.0
144
1.0
144
0.0
144
0.0
144
0.0
144
0.0
144
1.0
147
0.0208333333333333
147
0.0
147
0.0
147
0.0
147
0.0
147
0.0208333333333333
147
0.0
147
0.0
147
0.0
147
0.0
147
1.0
147
0.0
147
0.0
147
0.0
147
0.0
147
1.0
  0
MLEADERSTYLE
  5
6B68
102
{ACAD_REACTORS
330
6B67
102
}
330
6B67
100
AcDbMLeaderStyle
170
     2
171
     1
172
     0
 90
        2
 40
0.0
 41
0.0
173
     1
 91
-1056964608
340
12
 92
       -2
290
     1
 42
2.0
291
     1
 43
0.36
  3
Standard
 44
4.0
300

342
F
174
     1
178
     6
175
     1
176
     0
 93
-1056964608
 45
4.0
292
     0
297
     0
 46
4.0
 94
-1056964608
 47
1.0
 49
1.0
140
1.0
293
     1
141
0.0
294
     1
177
     0
142
1.0
295
     0
296
     0
143
0.125
1001
ACAD_MLEADERVER
1070
     2
  0
MLINESTYLE
  5
1C
102
{ACAD_REACTORS
330
1B
102
}
330
1B
100
AcDbMlineStyle
  2
STANDARD
 70
     0
  3

 62
   256
 51
90.0
 52
90.0
 71
     2
 49
0.5
 62
   256
  6
BYLAYER
 49
-0.5
 62
   256
  6
BYLAYER
  0
ACDBPLACEHOLDER
  5
48B9
102
{ACAD_REACTORS
330
48B8
102
}
330
48B8
  0
SCALE
  5
6B46
102
{ACAD_REACTORS
330
6B45
102
}
330
6B45
100
AcDbScale
 70
     0
300
1:1
140
1.0
141
1.0
290
     1
  0
SCALE
  5
6B47
102
{ACAD_REACTORS
330
6B45
102
}
330
6B45
100
AcDbScale
 70
     0
300
1:2
140
1.0
141
2.0
290
     0
  0
SCALE
  5
6B48
102
{ACAD_REACTORS
330
6B45
102
}
330
6B45
100
AcDbScale
 70
     0
300
1:4
140
1.0
141
4.0
290
     0
  0
SCALE
  5
6B49
102
{ACAD_REACTORS
330
6B45
102
}
330
6B45
100
AcDbScale
 70
     0
300
1:5
140
1.0
141
5.0
290
     0
  0
SCALE
  5
6B4A
102
{ACAD_REACTORS
330
6B45
102
}
330
6B45
100
AcDbScale
 70
     0
300
1:8
140
1.0
141
8.0
290
     0
  0
SCALE
  5
6B4B
102
{ACAD_REACTORS
330
6B45
102
}
330
6B45
100
AcDbScale
 70
     0
300
1:10
140
1.0
141
10.0
290
     0
  0
SCALE
  5
6B4C
102
{ACAD_REACTORS
330
6B45
102
}
330
6B45
100
AcDbScale
 70
     0
300
1:16
140
1.0
141
16.0
290
     0
  0
SCALE
  5
6B4D
102
{ACAD_REACTORS
330
6B45
102
}
330
6B45
100
AcDbScale
 70
     0
300
1:20
140
1.0
141
20.0
290
     0
  0
SCALE
  5
6B4E
102
{ACAD_REACTORS
330
6B45
102
}
330
6B45
100
AcDbScale
 70
     0
300
1:30
140
1.0
141
30.0
290
     0
  0
SCALE
  5
6B4F
102
{ACAD_REACTORS
330
6B45
102
}
330
6B45
100
AcDbScale
 70
     0
300
1:40
140
1.0
141
40.0
290
     0
  0
SCALE
  5
6B50
102
{ACAD_REACTORS
330
6B45
102
}
330
6B45
100
AcDbScale
 70
     0
300
1:50
140
1.0
141
50.0
290
     0
  0
SCALE
  5
6B51
102
{ACAD_REACTORS
330
6B45
102
}
330
6B45
100
AcDbScale
 70
     0
300
1:100
140
1.0
141
100.0
290
     0
  0
SCALE
  5
6B52
102
{ACAD_REACTORS
330
6B45
102
}
330
6B45
100
AcDbScale
 70
     0
300
2:1
140
2.0
141
1.0
290
     0
  0
SCALE
  5
6B53
102
{ACAD_REACTORS
330
6B45
102
}
330
6B45
100
AcDbScale
 70
     0
300
4:1
140
4.0
141
1.0
290
     0
  0
SCALE
  5
6B54
102
{ACAD_REACTORS
330
6B45
102
}
330
6B45
100
AcDbScale
 70
     0
300
8:1
140
8.0
141
1.0
290
     0
  0
SCALE
  5
6B55
102
{ACAD_REACTORS
330
6B45
102
}
330
6B45
100
AcDbScale
 70
     0
300
10:1
140
10.0
141
1.0
290
     0
  0
SCALE
  5
6B56
102
{ACAD_REACTORS
330
6B45
102
}
330
6B45
100
AcDbScale
 70
     0
300
100:1
140
100.0
141
1.0
290
     0
  0
SCALE
  5
6B57
102
{ACAD_REACTORS
330
6B45
102
}
330
6B45
100
AcDbScale
 70
     0
300
1/128" = 1'-0"
140
0.0078125
141
12.0
290
     0
  0
SCALE
  5
6B58
102
{ACAD_REACTORS
330
6B45
102
}
330
6B45
100
AcDbScale
 70
     0
300
1/64" = 1'-0"
140
0.015625
141
12.0
290
     0
  0
SCALE
  5
6B59
102
{ACAD_REACTORS
330
6B45
102
}
330
6B45
100
AcDbScale
 70
     0
300
1/32" = 1'-0"
140
0.03125
141
12.0
290
     0
  0
SCALE
  5
6B5A
102
{ACAD_REACTORS
330
6B45
102
}
330
6B45
100
AcDbScale
 70
     0
300
1/16" = 1'-0"
140
0.0625
141
12.0
290
     0
  0
SCALE
  5
6B5B
102
{ACAD_REACTORS
330
6B45
102
}
330
6B45
100
AcDbScale
 70
     0
300
3/32" = 1'-0"
140
0.09375
141
12.0
290
     0
  0
SCALE
  5
6B5C
102
{ACAD_REACTORS
330
6B45
102
}
330
6B45
100
AcDbScale
 70
     0
300
1/8" = 1'-0"
140
0.125
141
12.0
290
     0
  0
SCALE
  5
6B5D
102
{ACAD_REACTORS
330
6B45
102
}
330
6B45
100
AcDbScale
 70
     0
300
3/16" = 1'-0"
140
0.1875
141
12.0
290
     0
  0
SCALE
  5
6B5E
102
{ACAD_REACTORS
330
6B45
102
}
330
6B45
100
AcDbScale
 70
     0
300
1/4" = 1'-0"
140
0.25
141
12.0
290
     0
  0
SCALE
  5
6B5F
102
{ACAD_REACTORS
330
6B45
102
}
330
6B45
100
AcDbScale
 70
     0
300
3/8" = 1'-0"
140
0.375
141
12.0
290
     0
  0
SCALE
  5
6B60
102
{ACAD_REACTORS
330
6B45
102
}
330
6B45
100
AcDbScale
 70
     0
300
1/2" = 1'-0"
140
0.5
141
12.0
290
     0
  0
SCALE
  5
6B61
102
{ACAD_REACTORS
330
6B45
102
}
330
6B45
100
AcDbScale
 70
     0
300
3/4" = 1'-0"
140
0.75
141
12.0
290
     0
  0
SCALE
  5
6B62
102
{ACAD_REACTORS
330
6B45
102
}
330
6B45
100
AcDbScale
 70
     0
300
1" = 1'-0"
140
1.0
141
12.0
290
     0
  0
SCALE
  5
6B63
102
{ACAD_REACTORS
330
6B45
102
}
330
6B45
100
AcDbScale
 70
     0
300
1-1/2" = 1'-0"
140
1.5
141
12.0
290
     0
  0
SCALE
  5
6B64
102
{ACAD_REACTORS
330
6B45
102
}
330
6B45
100
AcDbScale
 70
     0
300
3" = 1'-0"
140
3.0
141
12.0
290
     0
  0
SCALE
  5
6B65
102
{ACAD_REACTORS
330
6B45
102
}
330
6B45
100
AcDbScale
 70
     0
300
6" = 1'-0"
140
6.0
141
12.0
290
     0
  0
SCALE
  5
6B66
102
{ACAD_REACTORS
330
6B45
102
}
330
6B45
100
AcDbScale
 70
     0
300
1'-0" = 1'-0"
140
12.0
141
12.0
290
     0
  0
TABLESTYLE
  5
6B44
102
{ACAD_XDICTIONARY
360
6B74
102
}
102
{ACAD_REACTORS
330
6B43
102
}
330
6B43
100
AcDbTableStyle
  3
Standard
 70
     0
 71
     0
 40
1.5
 41
1.5
280
     0
281
     0
  7
STANDARD
140
4.5
170
     2
 62
     0
 63
     7
283
     0
274
    -2
284
     1
 64
     0
275
    -2
285
     1
 65
     0
276
    -2
286
     1
 66
     0
277
    -2
287
     1
 67
     0
278
    -2
288
     1
 68
     0
279
    -2
289
     1
 69
     0
  7
STANDARD
140
6.0
170
     5
 62
     0
 63
     7
283
     0
274
    -2
284
     1
 64
     0
275
    -2
285
     1
 65
     0
276
    -2
286
     1
 66
     0
277
    -2
287
     1
 67
     0
278
    -2
288
     1
 68
     0
279
    -2
289
     1
 69
     0
  7
STANDARD
140
4.5
170
     5
 62
     0
 63
     7
283
     0
274
    -2
284
     1
 64
     0
275
    -2
285
     1
 65
     0
276
    -2
286
     1
 66
     0
277
    -2
287
     1
 67
     0
278
    -2
288
     1
 68
     0
279
    -2
289
     1
 69
     0
  0
VISUALSTYLE
  5
6B37
102
{ACAD_REACTORS
330
6B31
102
}
330
6B31
100
AcDbVisualStyle
  2
2dWireframe
 70
     4
 71
     0
 72
     2
 73
     0
 90
        0
 40
-0.6
 41
-30.0
 62
     5
 63
     7
421
 16777215
 74
     1
 91
        4
 64
     7
 65
   257
 75
     1
175
     1
 42
1.0
 92
        0
 66
   257
 43
1.0
 76
     1
 77
     6
 78
     2
 67
     7
 79
     5
170
     0
171
     0
290
     0
174
     0
 93
        1
 44
0.0
173
     0
291
     0
 45
0.0
1001
ACAD
1000
AcDbSavedByObjectVersion
1070
     0
  0
VISUALSTYLE
  5
6B39
102
{ACAD_REACTORS
330
6B31
102
}
330
6B31
100
AcDbVisualStyle
  2
3D Hidden
 70
     6
 71
     1
 72
     2
 73
     2
 90
        0
 40
-0.6
 41
-30.0
 62
     5
 63
     7
421
 16777215
 74
     2
 91
        2
 64
     7
 65
   257
 75
     2
175
     1
 42
40.0
 92
        0
 66
   257
 43
1.0
 76
     1
 77
     6
 78
     2
 67
     7
 79
     3
170
     0
171
     0
290
     0
174
     0
 93
        1
 44
0.0
173
     0
291
     0
 45
0.0
1001
ACAD
1000
AcDbSavedByObjectVersion
1070
     0
  0
VISUALSTYLE
  5
6B38
102
{ACAD_REACTORS
330
6B31
102
}
330
6B31
100
AcDbVisualStyle
  2
3dWireframe
 70
     5
 71
     0
 72
     2
 73
     0
 90
        0
 40
-0.6
 41
-30.0
 62
     5
 63
     7
421
 16777215
 74
     1
 91
        4
 64
     7
 65
   257
 75
     1
175
     1
 42
1.0
 92
        0
 66
   257
 43
1.0
 76
     1
 77
     6
 78
     2
 67
     7
 79
     5
170
     0
171
     0
290
     0
174
     0
 93
        1
 44
0.0
173
     0
291
     0
 45
0.0
1001
ACAD
1000
AcDbSavedByObjectVersion
1070
     0
  0
VISUALSTYLE
  5
6B36
102
{ACAD_REACTORS
330
6B31
102
}
330
6B31
100
AcDbVisualStyle
  2
Basic
 70
     7
 71
     1
 72
     0
 73
     1
 90
        0
 40
-0.6
 41
-30.0
 62
     5
 63
     7
421
 16777215
 74
     0
 91
        4
 64
     7
 65
   257
 75
     1
175
     1
 42
1.0
 92
        8
 66
     7
 43
1.0
 76
     1
 77
     6
 78
     2
 67
     7
 79
     5
170
     0
171
     0
290
     0
174
     0
 93
        1
 44
0.0
173
     0
291
     1
 45
0.0
1001
ACAD
1000
AcDbSavedByObjectVersion
1070
     0
  0
VISUALSTYLE
  5
6B3D
102
{ACAD_REACTORS
330
6B31
102
}
330
6B31
100
AcDbVisualStyle
  2
Brighten
 70
    12
 71
     2
 72
     2
 73
     0
 90
        0
 40
-0.6
 41
-30.0
 62
     5
 63
     7
421
 16777215
 74
     1
 91
        4
 64
     7
 65
   257
 75
     1
175
     1
 42
1.0
 92
        8
 66
     7
 43
1.0
 76
     1
 77
     6
 78
     2
 67
     7
 79
     5
170
     0
171
     0
290
     0
174
     0
 93
        1
 44
50.0
173
     0
291
     1
 45
0.0
1001
ACAD
1000
AcDbSavedByObjectVersion
1070
     0
  0
VISUALSTYLE
  5
6B41
102
{ACAD_REACTORS
330
6B31
102
}
330
6B31
100
AcDbVisualStyle
  2
ColorChange
 70
    16
 71
     2
 72
     2
 73
     3
 90
        0
 40
-0.6
 41
-30.0
 62
     5
 63
     8
421
  8421504
 74
     1
 91
        4
 64
     7
 65
   257
 75
     1
175
     1
 42
1.0
 92
        8
 66
     8
424
  8421504
 43
1.0
 76
     1
 77
     6
 78
     2
 67
     7
 79
     5
170
     0
171
     0
290
     0
174
     0
 93
        1
 44
0.0
173
     0
291
     1
 45
0.0
1001
ACAD
1000
AcDbSavedByObjectVersion
1070
     0
  0
VISUALSTYLE
  5
6B3A
102
{ACAD_REACTORS
330
6B31
102
}
330
6B31
100
AcDbVisualStyle
  2
Conceptual
 70
     9
 71
     3
 72
     2
 73
     0
 90
        0
 40
-0.6
 41
-30.0
 62
     5
 63
     7
421
 16777215
 74
     2
 91
        2
 64
     7
 65
   257
 75
     1
175
     1
 42
40.0
 92
        8
 66
     7
 43
1.0
 76
     1
 77
     6
 78
     2
 67
     7
 79
     3
170
     0
171
     0
290
     0
174
     0
 93
        1
 44
0.0
173
     0
291
     0
 45
0.0
1001
ACAD
1000
AcDbSavedByObjectVersion
1070
     0
  0
VISUALSTYLE
  5
6B3C
102
{ACAD_REACTORS
330
6B31
102
}
330
6B31
100
AcDbVisualStyle
  2
Dim
 70
    11
 71
     2
 72
     2
 73
     0
 90
        0
 40
-0.6
 41
-30.0
 62
     5
 63
     7
421
 16777215
 74
     1
 91
        4
 64
     7
 65
   257
 75
     1
175
     1
 42
1.0
 92
        8
 66
     7
 43
1.0
 76
     1
 77
     6
 78
     2
 67
     7
 79
     5
170
     0
171
     0
290
     0
174
     0
 93
        1
 44
-50.0
173
     0
291
     1
 45
0.0
1001
ACAD
1000
AcDbSavedByObjectVersion
1070
     0
  0
VISUALSTYLE
  5
6B40
102
{ACAD_REACTORS
330
6B31
102
}
330
6B31
100
AcDbVisualStyle
  2
Facepattern
 70
    15
 71
     2
 72
     2
 73
     0
 90
        0
 40
-0.6
 41
-30.0
 62
     5
 63
     7
421
 16777215
 74
     1
 91
        4
 64
     7
 65
   257
 75
     1
175
     1
 42
1.0
 92
        8
 66
     7
 43
1.0
 76
     1
 77
     6
 78
     2
 67
     7
 79
     5
170
     0
171
     0
290
     0
174
     0
 93
        1
 44
0.0
173
     0
291
     1
 45
0.0
1001
ACAD
1000
AcDbSavedByObjectVersion
1070
     0
  0
VISUALSTYLE
  5
6B32
102
{ACAD_REACTORS
330
6B31
102
}
330
6B31
100
AcDbVisualStyle
  2
Flat
 70
     0
 71
     2
 72
     1
 73
     1
 90
        2
 40
-0.6
 41
30.0
 62
     5
 63
     7
421
 16777215
 74
     0
 91
        4
 64
     7
 65
   257
 75
     1
175
     1
 42
1.0
 92
        8
 66
     7
 43
1.0
 76
     1
 77
     6
 78
     2
 67
     7
 79
     5
170
     0
171
     0
290
     0
174
     0
 93
       13
 44
0.0
173
     0
291
     1
 45
0.0
1001
ACAD
1000
AcDbSavedByObjectVersion
1070
     0
  0
VISUALSTYLE
  5
6B33
102
{ACAD_REACTORS
330
6B31
102
}
330
6B31
100
AcDbVisualStyle
  2
FlatWithEdges
 70
     1
 71
     2
 72
     1
 73
     1
 90
        2
 40
-0.6
 41
30.0
 62
     5
 63
     7
421
 16777215
 74
     1
 91
        4
 64
     7
 65
   257
 75
     1
175
     1
 42
1.0
 92
        0
 66
   257
 43
1.0
 76
     1
 77
     6
 78
     2
 67
     7
 79
     5
170
     0
171
     0
290
     0
174
     0
 93
       13
 44
0.0
173
     0
291
     1
 45
0.0
1001
ACAD
1000
AcDbSavedByObjectVersion
1070
     0
  0
VISUALSTYLE
  5
6B34
102
{ACAD_REACTORS
330
6B31
102
}
330
6B31
100
AcDbVisualStyle
  2
Gouraud
 70
     2
 71
     2
 72
     2
 73
     1
 90
        2
 40
-0.6
 41
30.0
 62
     5
 63
     7
421
 16777215
 74
     0
 91
        4
 64
     7
 65
   257
 75
     1
175
     1
 42
1.0
 92
        0
 66
     7
 43
1.0
 76
     1
 77
     6
 78
     2
 67
     7
 79
     5
170
     0
171
     0
290
     0
174
     0
 93
       13
 44
0.0
173
     0
291
     1
 45
0.0
1001
ACAD
1000
AcDbSavedByObjectVersion
1070
     0
  0
VISUALSTYLE
  5
6B35
102
{ACAD_REACTORS
330
6B31
102
}
330
6B31
100
AcDbVisualStyle
  2
GouraudWithEdges
 70
     3
 71
     2
 72
     2
 73
     1
 90
        2
 40
-0.6
 41
30.0
 62
     5
 63
     7
421
 16777215
 74
     1
 91
        4
 64
     7
 65
   257
 75
     1
175
     1
 42
1.0
 92
        0
 66
   257
 43
1.0
 76
     1
 77
     6
 78
     2
 67
     7
 79
     5
170
     0
171
     0
290
     0
174
     0
 93
       13
 44
0.0
173
     0
291
     1
 45
0.0
1001
ACAD
1000
AcDbSavedByObjectVersion
1070
     0
  0
VISUALSTYLE
  5
6B3F
102
{ACAD_REACTORS
330
6B31
102
}
330
6B31
100
AcDbVisualStyle
  2
Linepattern
 70
    14
 71
     2
 72
     2
 73
     0
 90
        0
 40
-0.6
 41
-30.0
 62
     5
 63
     7
421
 16777215
 74
     1
 91
        4
 64
     7
 65
   257
 75
     7
175
     7
 42
1.0
 92
        8
 66
     7
 43
1.0
 76
     1
 77
     6
 78
     2
 67
     7
 79
     5
170
     0
171
     0
290
     0
174
     0
 93
        1
 44
0.0
173
     0
291
     1
 45
0.0
1001
ACAD
1000
AcDbSavedByObjectVersion
1070
     0
  0
VISUALSTYLE
  5
6B3B
102
{ACAD_REACTORS
330
6B31
102
}
330
6B31
100
AcDbVisualStyle
  2
Realistic
 70
     8
 71
     2
 72
     2
 73
     0
 90
        0
 40
-0.6
 41
-30.0
 62
     5
 63
     7
421
 16777215
 74
     1
 91
        0
 64
     7
 65
   257
 75
     1
175
     1
 42
1.0
 92
        8
 66
     8
424
  7895160
 43
1.0
 76
     1
 77
     6
 78
     2
 67
     7
 79
     5
170
     0
171
     0
290
     0
174
     0
 93
       13
 44
0.0
173
     0
291
     0
 45
0.0
1001
ACAD
1000
AcDbSavedByObjectVersion
1070
     0
  0
VISUALSTYLE
  5
6B3E
102
{ACAD_REACTORS
330
6B31
102
}
330
6B31
100
AcDbVisualStyle
  2
Thicken
 70
    13
 71
     2
 72
     2
 73
     0
 90
        0
 40
-0.6
 41
-30.0
 62
     5
 63
     7
421
 16777215
 74
     1
 91
        4
 64
     7
 65
   257
 75
     1
175
     1
 42
1.0
 92
       12
 66
     7
 43
1.0
 76
     1
 77
     6
 78
     2
 67
     7
 79
     5
170
     0
171
     0
290
     0
174
     0
 93
        1
 44
0.0
173
     0
291
     1
 45
0.0
1001
ACAD
1000
AcDbSavedByObjectVersion
1070
     0
  0
DICTIONARYVAR
  5
6B73
102
{ACAD_REACTORS
330
49A4
102
}
330
49A4
100
DictionaryVariables
280
     0
  1
1:1
  0
DICTIONARYVAR
  5
6B72
102
{ACAD_REACTORS
330
49A4
102
}
330
49A4
100
DictionaryVariables
280
     0
  1
STANDARD
  0
DICTIONARYVAR
  5
6B71
102
{ACAD_REACTORS
330
49A4
102
}
330
49A4
100
DictionaryVariables
280
     0
  1
STANDARD
  0
DICTIONARYVAR
  5
49A6
102
{ACAD_REACTORS
330
49A4
102
}
330
49A4
100
DictionaryVariables
280
     0
  1
1
  0
DICTIONARYVAR
  5
49A5
102
{ACAD_REACTORS
330
49A4
102
}
330
49A4
100
DictionaryVariables
280
     0
  1
1
  0
ACAD_PROXY_OBJECT
  5
67B3
102
{ACAD_REACTORS
330
48DB
102
}
330
48DB
100
AcDbProxyObject
 90
      499
 91
      522
 95
   851991
 70
     0
 93
      118
310
405010040CA904C415CD5B07571098
350
67B4
 94
        0
  0
DICTIONARY
  5
48E1
102
{ACAD_REACTORS
330
48DB
102
}
330
48DB
100
AcDbDictionary
281
     1
  3
ANSI
350
6925
  3
ISO
350
67B8
  0
ACAD_PROXY_OBJECT
  5
67A7
330
0
100
AcDbProxyObject
 90
      499
 91
      509
 95
   851991
 70
     0
 93
      156
310
00010143D050D351505391D5531054925390D49C
330
67A4
 94
        0
  0
ACAD_PROXY_OBJECT
  5
67A8
330
0
100
AcDbProxyObject
 90
      499
 91
      509
 95
   851991
 70
     0
 93
      148
310
000101439050D351531253915054925390D49C
330
67A4
 94
        0
  0
ACAD_PROXY_OBJECT
  5
67A9
330
0
100
AcDbProxyObject
 90
      499
 91
      510
 95
   851991
 70
     0
 93
      156
310
000101439050D35154D6535093D314D25691508C
330
67A4
 94
        0
  0
ACAD_PROXY_OBJECT
  5
67AB
330
0
100
AcDbProxyObject
 90
      499
 91
      512
 95
   851991
 70
     0
 93
      216
310
00010145111A5CDD1A5B9D184818DBDB5C1BDB995B9D1A4C402B006C
330
67A4
330
0
330
0
 94
        0
  0
ACAD_PROXY_OBJECT
  5
67B7
330
0
100
AcDbProxyObject
 90
      499
 91
      524
 95
   851991
 70
     0
 93
      140
310
00010142105350D55494D5110050349534FC
330
67A4
 94
        0
  0
ACAD_PROXY_OBJECT
  5
67DB
330
0
100
AcDbProxyObject
 90
      499
 91
      543
 95
   851991
 70
     0
 93
       28
310
0001406C
330
67A4
 94
        0
  0
DICTIONARY
  5
48C2
102
{ACAD_REACTORS
330
48C1
102
}
330
48C1
100
AcDbDictionary
281
     1
  3
DWGSETTINGS
350
67A1
  3
TRANSSETTINGS
350
67A2
  0
ACAD_PROXY_OBJECT
  5
67B9
102
{ACAD_REACTORS
330
48C1
102
}
330
48C1
100
AcDbProxyObject
 90
      499
 91
      526
 95
   851991
 70
     0
 93
    12938
310
41102491013041105357CC1074CA404C504414D5F31439329013241105357CC9054CA404CD04414D5F33419199013441105357CD103466404D504414D5F3540D199013641105357CD90248E404DD04414D5F37411199013841105357CE101466404E504414D5F397F641102324141505357CC4C1074CA408D10505414D5F31
310
3140D19902495041505357CC4C9074C902408C13905414D5F304E41D32902314E41505357CC5390E4CA408C93905414D5F324E41532902334E41505357CCD3906466408D13905414D5F344E40D19902354E41505357CD53903466408D93905414D5F364E40923902374E41505357CDD3904466408E13905414D5F384E40519
310
902394E41505357CE539FD90440CC9053906414D5F31304E41D3290334414E41905357CC4C5390346640D25413906414D5F31324E41D32409044B4C494E41505357D0D3101465094112539193D08414D5F50415245464111942D055241484D3541905357D093D49074C9094115925155D08414D5F56494557534051942D064
310
24548494E4441905357D253959FD90D415514905253105414D5F545240D194250348494441905357D212511074650940D59254D06414D5F56495341D324250650415244494D42505357D410549112535034650941949151911253509414D5F52454644494D4111942553411092139590139CFFFFFFFF415092139594D06424
310
548494E44CFFFFFFFF411093D48C9055241484D3540519411093D48CD055241484D3540923411093D48D5055241484D35CFFFFFFFF4110D0530C90134CFFFFFFFF4110D0530CD0134409234110D0530D5013441D324110D0530DD0134479464110D1539390137CFFFFFFFF4110D15395D0137CFFFFFFFF4110D312539044B4
310
C494ECFFFFFFFF4110D3D38C50130CFFFFFFFF4110D3D38C90131CFFFFFFFF4110D3D38CD0132CFFFFFFFF4110D3D38D10132CFFFFFFFF411111551050134CFFFFFFFF4111125051D0135CFFFFFFFF411112531250135CFFFFFFFF411112535410650415244494DCFFFFFFFF411112535490652454644494DCFFFFFFFF4111
310
91535390138CFFFFFFFF4151915354139013840CFFFFFFFF4151915354D41023441CFFFFFFFF4151915354D5102344140D1941519153559390132CFFFFFFFF4151915355951013240D194112105510D0138CFFFFFFFF411212511390133CFFFFFFFF4112125115D0133CFFFFFFFF411213125390134CFFFFFFFF411213D0D3
310
90137CFFFFFFFF411213D0D5D0137CFFFFFFFF4112539193D04494E464FCFFFFFFFF411311505110135CFFFFFFFF419397D0921395902394ECFFFFFFFF419397D0D3D38C502304ECFFFFFFFF419397D0D3D38C902314ECFFFFFFFF419397D0D3D38CD02324ECFFFFFFFF419397D0D3D38D102324ECFFFFFFFF419397D0D153
310
93902374ECFFFFFFFF419397D0D15395D02374ECFFFFFFFF419397D1125312502354ECFFFFFFFF419397D2105510D02384ECFFFFFFFF419397D2125113902334ECFFFFFFFF419397D2125115D02334ECFFFFFFFF419397D3115051102354ECFFFFFFFF419397D391D25410349504ECFFFFFFFF419397D412105390334414EC
310
FFFFFFFF419397D510D3D3902304ECFFFFFFFF419397D5121312502344ECFFFFFFFF419397D5131153902304ECFFFFFFFF419397D594131250332414ECFFFFFFFF411391D2541024950CFFFFFFFF411410530C9055241484D3540519411410530CD055241484D3540923411410530D5055241484D35CFFFFFFFF4114121053
310
9023441CFFFFFFFF411413D4D390135CFFFFFFFF411490D1D390137CFFFFFFFF411490D1D5D0137CFFFFFFFF4114D09492D0134CFFFFFFFF4114D150D510134CFFFFFFFF4114D6508CD013540923411354D6535013540923411510D3D390130CFFFFFFFF411512131250134CFFFFFFFF411512550C9055241484D354051941
310
1512550CD055241484D3540923411512550D5055241484D35CFFFFFFFF411513115390130CFFFFFFFF415514905253105545241494CCFFFFFFFF411514931250134CFFFFFFFF411516150C5013640D19411516150C9013640D19411516150CD0136CFFFFFFFF411516150D5013641D32411516150DD0136479464115925155
310
D0456494557CFFFFFFFF4115915112103484944CFFFFFFFF4115915115903564953CFFFFFFFF41159413125023241CFFFFFFFF411692569050134CFFFFFFFFAA9FD404FE429014650248D0346504465054C906465074C90E4C91E519FD8C
340
14
340
14
340
14
340
48E4
340
14
340
14
340
14
340
48E5
340
14
340
14
340
48E5
340
48E6
340
14
340
14
340
14
340
14
340
48E4
340
14
340
14
340
14
340
48E5
340
14
340
14
340
48E5
340
48E6
340
14
340
48E7
340
14
340
14
340
14
340
14
340
14
340
48E4
340
14
340
14
340
14
340
13
340
13
340
13
340
13
340
13
340
13
340
13
340
13
340
13
340
48E8
340
13
340
13
340
13
340
13
340
13
340
13
340
13
340
13
340
13
340
13
340
13
340
13
340
13
340
14
340
13
340
13
340
13
340
13
340
48E9
340
13
340
13
340
48E8
340
13
340
13
340
13
340
13
340
13
340
13
340
13
340
13
340
48E8
340
13
340
13
340
13
340
48E9
340
13
340
13
340
13
340
13
340
13
340
13
340
13
340
13
340
13
340
13
340
13
340
13
340
13
340
13
340
48E8
340
13
340
13
340
13
340
13
340
13
340
13
340
13
340
13
340
13
340
13
340
13
340
13
340
13
340
13
340
13
340
13
340
13
340
13
340
13
340
13
340
13
340
13
340
48EC
 94
        0
  0
XRECORD
  5
6A97
102
{ACAD_REACTORS
330
6A95
102
}
330
6A95
100
AcDbXrecord
280
     1
  0
XRECORD
  5
67CF
102
{ACAD_REACTORS
330
67CE
102
}
330
67CE
100
AcDbXrecord
280
     1
  1
PIPPO
  1
*
  1
7
  1
*
 70
     0
  1
*
  1
*
  0
LAYER_INDEX
  5
6A99
102
{ACAD_REACTORS
330
6A98
102
}
330
6A98
100
AcDbIndex
 40
2455404.437566412
100
AcDbLayerIndex
  8
0
360
6A9A
 90
        6
  8
DISEGNO
360
6A9B
 90
      756
  8
ASSI
360
6A9C
 90
       78
  8
NORMALI
360
6A9D
 90
      418
  8
NORM_TR
360
6A9F
 90
        6
  8
Defpoints
360
6AA0
 90
        0
  8
4360018_C-TLM TCR_S 220_280 ø32 ø25.iam.1-Spigoli visibili
360
6AA3
 90
       10
  8
9180143-Complessivo di montaggio.iam.1-Spigoli visibili
360
6AA4
 90
        8
  0
DICTIONARY
  5
6B22
330
6B21
100
AcDbDictionary
280
     1
281
     1
  3
ACAD_XREC_ROUNDTRIP
360
6B78
  3
BUMPTILE
360
6B24
  3
DIFFUSETILE
360
6B23
  3
OPACITYTILE
360
6B27
  3
REFLECTIONTILE
360
6B26
  3
REFRACTIONTILE
360
6B28
  3
SPECULARTILE
360
6B25
  0
DICTIONARY
  5
6B1A
330
6B19
100
AcDbDictionary
280
     1
281
     1
  3
ACAD_XREC_ROUNDTRIP
360
6B77
  3
BUMPTILE
360
6B1C
  3
DIFFUSETILE
360
6B1B
  3
OPACITYTILE
360
6B1F
  3
REFLECTIONTILE
360
6B1E
  3
REFRACTIONTILE
360
6B20
  3
SPECULARTILE
360
6B1D
  0
DICTIONARY
  5
6B2A
330
6B29
100
AcDbDictionary
280
     1
281
     1
  3
ACAD_XREC_ROUNDTRIP
360
6B79
  3
BUMPTILE
360
6B2C
  3
DIFFUSETILE
360
6B2B
  3
OPACITYTILE
360
6B2F
  3
REFLECTIONTILE
360
6B2E
  3
REFRACTIONTILE
360
6B30
  3
SPECULARTILE
360
6B2D
  0
DICTIONARY
  5
6B74
330
6B44
100
AcDbDictionary
280
     1
281
     1
  3
ACAD_ROUNDTRIP_2008_TABLESTYLE_CELLSTYLEMAP
360
6B75
  3
ACAD_XREC_ROUNDTRIP
360
6B7A
  0
ACAD_PROXY_OBJECT
  5
67B4
102
{ACAD_REACTORS
330
67B3
102
}
330
67B3
100
AcDbProxyObject
 90
      499
 91
      523
 95
   851991
 70
     0
 93
      139
310
057356C1D5C406406AA8FFFFFFFF0AE2404C
330
18
330
0
330
0
 94
        0
  0
ACAD_PROXY_OBJECT
  5
6925
102
{ACAD_REACTORS
330
48E1
102
}
330
48E1
100
AcDbProxyObject
 90
      499
 91
      551
 95
   851991
 70
     0
 93
     2109
310
570B81E85EB51B8BE3FD04414E5349405901409022E07A17AD46E2F8FD2208721C82C6DAA6EAE4CCA8CAF0E8A6E8C88120284A0B1B6A321A329BA3220480A1A82C6DAAECAD8C8D2DCCEA6E8C8812028420B1B6A4B229BA3220480A1682C6DA88C2E8EADAA6E8C88120284A0B1B6A127A6A9BA3220480A2082DAC8E888CAE8C
310
2D2D8A6F2DAA6E8C88120288A0B6B23A29B2B1BA34B7B729BCB6A9BA3220480A2282DAC8E886CADCE8CAE498D2DCCAA6E8C88120285A0B6B23A2737BA32A9BA3220480A1682C682DACE98C2F2A6E8C88120285A0B1A0B6B3A234B6A9BA3220480A2282C682DACE90DED8CA86D0C2E4E8A6E8C88120286A0B1A0B6B3AA34BA3
310
632A9BA3220480A02814
340
6911
360
6926
360
6927
360
6928
360
6929
360
692A
360
692B
360
692C
360
692D
360
692E
360
692F
360
6930
360
6931
360
6932
360
6933
 94
        0
  0
ACAD_PROXY_OBJECT
  5
67B8
102
{ACAD_REACTORS
330
48E1
102
}
330
48E1
100
AcDbProxyObject
 90
      499
 91
      525
 95
   851991
 70
     0
 93
     2211
310
5700000000000000C40D0349534F405901409020000000000000310322287A1682DAC8E88AC8CECAA6E8C8812028720B1B6A9BAB9332A32BC3A29BA3220480A1282C6DA8C868CA6E8C88120286A0B1B6ABB2B63234B733A9BA3220480A1082C6DA92C8A6E8C88120285A0B1B6A230BA3AB6A9BA3220480A1282C6DA849E9AA
310
6E8C8812028820B6B23A2232BA30B4B629BCB6A9BA3220480A2282DAC8E8A6CAC6E8D2DEDCA6F2DAA6E8C88120288A0B6B23A21B2B73A32B92634B732A9BA3220480A1682DAC8E89CDEE8CAA6E8C88120285A0B1A0B6B3A630BCA9BA3220480A1682C682DACE88D2DAA6E8C88120288A0B1A0B6B3A437B632A1B430B93A29B
310
A3220480A1A82C682DACEA8D2E8D8CAA6E8C881203204C
340
48ED
360
67BA
360
67BB
360
67BC
360
67BD
360
67BE
360
67BF
360
67C0
360
67C1
360
67C2
360
67C3
360
67C4
360
67C5
360
67C6
360
67C7
360
67C8
 94
        0
  0
ACAD_PROXY_OBJECT
  5
67A1
102
{ACAD_REACTORS
330
48C2
102
}
330
48C2
100
AcDbProxyObject
 90
      499
 91
      505
 95
   851991
 70
     0
 93
     2364
310
4050B44574753455454494E4753A1286829C8E82A4A482B282A106660F8686AF86C608321A2A720A723A0A849A1ABE1C983E18999AA0C868A9C889282940000000000000488083A1A2A72224A0A9A0A8418983E19183E199820E868A9C8892A6A894000000000000010808321A2A72622A7250000000000000122020C868A9
310
C9E8C8C940000000000000488084A1A624A720A92920ACA0A81189C2108698929C8AA8B2A082A0AB098929C8A84A22BA3AAA9A1A0A622A50A0E9882A6A89E849482A02608426A0A5A2AB24A2ABA7E8120CA0A68682988A0C00800010652455649534941501304154D0D05311505414C4E8C8B8D50954494D455354414D504A
310
0A8C6B9A2611A734141D5915494D253D3905414C4D4B8C0C1107B44574753455454494E4753454E447DC
 94
        0
  0
ACAD_PROXY_OBJECT
  5
67A2
102
{ACAD_REACTORS
330
48C2
102
}
330
48C2
100
AcDbProxyObject
 90
      499
 91
      505
 95
   851991
 70
     0
 93
      852
310
4050D5452414E5353455454494E4753A2488A482AE929C8EA8A4829CA69882A8929E9C0C00800050D4F524947494E414C4C595F4F4E0600400008529A7AAA921A2A620A723A0A81A4AA20A12AAA0A48AA68AA4AC8A0C0080001107B44574753455454494E4753454E447DC
 94
        0
  0
IDBUFFER
  5
6A9A
330
0
100
AcDbIdBuffer
330
7E4
330
7E6
330
7EC
330
7FE
330
801
330
86A
  0
IDBUFFER
  5
6A9B
330
0
100
AcDbIdBuffer
330
509
330
50C
330
50E
330
515
330
516
330
519
330
51B
330
51D
330
51E
330
523
330
524
330
525
330
52E
330
52F
330
541
330
551
330
55D
330
560
330
561
330
5C6
330
5D7
330
5D8
330
605
330
60E
330
60F
330
610
330
611
330
61C
330
620
330
623
330
624
330
626
330
628
330
629
330
639
330
63A
330
63D
330
640
330
641
330
67B
330
67C
330
67D
330
67E
330
681
330
68A
330
68B
330
690
330
6C8
330
6C9
330
6CC
330
6CD
330
6DB
330
6DE
330
6DF
330
6E0
330
6E1
330
6E2
330
6E3
330
6E8
330
6EB
330
6F8
330
6F9
330
6FA
330
706
330
711
330
712
330
713
330
716
330
718
330
71C
330
71E
330
71F
330
72B
330
72C
330
72D
330
739
330
748
330
749
330
74C
330
74D
330
74E
330
756
330
75B
330
75C
330
75D
330
75E
330
76F
330
770
330
771
330
7B3
330
7B8
330
7BA
330
7BD
330
7CC
330
7DF
330
7E3
330
7EB
330
7EF
330
800
330
808
330
80A
330
80B
330
832
330
835
330
836
330
837
330
838
330
839
330
83A
330
83C
330
846
330
84D
330
84F
330
851
330
852
330
853
330
854
330
855
330
856
330
85C
330
85E
330
85F
330
860
330
868
330
86B
330
86D
330
870
330
871
330
872
330
879
330
884
330
885
330
889
330
88A
330
88B
330
49FF
330
4B46
330
4B64
330
4B7B
330
4BD0
330
4BF1
330
4CB0
330
4CB2
330
4CB3
330
4CE8
330
4D0D
330
4D0F
330
4D39
330
5DD0
330
5DD8
330
5DE0
330
5DE8
330
629A
330
629D
330
629E
330
62A0
330
630C
330
6326
330
6327
330
6328
330
6329
330
632A
330
632B
330
632C
330
632D
330
632E
330
632F
330
6330
330
6331
330
6332
330
6333
330
6334
330
6335
330
6336
330
6337
330
6338
330
6339
330
633A
330
633B
330
633C
330
633D
330
633E
330
633F
330
6340
330
6341
330
6342
330
6343
330
6344
330
6345
330
6346
330
6347
330
6348
330
6349
330
634A
330
634B
330
634C
330
634D
330
634E
330
634F
330
6350
330
6351
330
6352
330
6353
330
6354
330
6355
330
6356
330
6357
330
6358
330
6359
330
635A
330
635B
330
635C
330
635D
330
635E
330
635F
330
6360
330
6361
330
6362
330
6363
330
6364
330
6365
330
6366
330
6367
330
6368
330
6369
330
636A
330
636B
330
636C
330
636D
330
636E
330
636F
330
6370
330
6371
330
6372
330
6373
330
6374
330
6375
330
6376
330
6377
330
6378
330
6379
330
637A
330
637B
330
637C
330
637D
330
637E
330
637F
330
6380
330
6381
330
6382
330
6383
330
6384
330
6385
330
6386
330
6387
330
6388
330
6389
330
638A
330
638B
330
638C
330
638D
330
638E
330
638F
330
6390
330
6391
330
6392
330
6393
330
6394
330
6395
330
6396
330
6397
330
6398
330
6399
330
639A
330
639B
330
639C
330
639D
330
639E
330
639F
330
63A0
330
63A1
330
63A2
330
63A3
330
63A4
330
63A5
330
63A6
330
63A7
330
63A8
330
63A9
330
63AA
330
63AB
330
63AC
330
63AD
330
63AE
330
63AF
330
63B0
330
63B1
330
63B2
330
63B3
330
63B4
330
63B5
330
63B6
330
63B7
330
63B8
330
63B9
330
63BA
330
63BB
330
63BC
330
63BD
330
63BE
330
63BF
330
63C0
330
63C1
330
63C2
330
63C3
330
63C4
330
63C5
330
63C6
330
63C7
330
63C8
330
63C9
330
63CA
330
63CB
330
63CC
330
63CD
330
63CE
330
63CF
330
63D0
330
63D1
330
63D2
330
63D3
330
63D4
330
63D5
330
63D6
330
63D7
330
63D8
330
63D9
330
63DA
330
63DB
330
63DC
330
63DD
330
63DE
330
63DF
330
63E0
330
63E1
330
63E2
330
63E3
330
63E4
330
63E5
330
63E6
330
63E7
330
63E8
330
63E9
330
63EA
330
63EB
330
63EC
330
63ED
330
63EE
330
63EF
330
63F0
330
63F1
330
63F2
330
63F3
330
63F4
330
63F5
330
63F6
330
63F7
330
63F8
330
63F9
330
63FA
330
63FB
330
63FC
330
63FD
330
63FE
330
63FF
330
6400
330
6401
330
6402
330
6403
330
6404
330
6405
330
6406
330
6407
330
6408
330
6409
330
640A
330
640B
330
640C
330
640D
330
640E
330
640F
330
6410
330
6411
330
6412
330
6413
330
6414
330
6415
330
6416
330
6417
330
6418
330
6419
330
641A
330
641B
330
641C
330
641D
330
641E
330
641F
330
6420
330
6421
330
6422
330
6427
330
6428
330
6429
330
642A
330
642B
330
642C
330
642D
330
642E
330
642F
330
6430
330
6431
330
6432
330
6433
330
6434
330
6435
330
6436
330
6437
330
6438
330
6439
330
643A
330
643B
330
643C
330
643D
330
643E
330
643F
330
6440
330
6441
330
6442
330
6443
330
6444
330
6445
330
6446
330
6447
330
6448
330
6449
330
644A
330
644B
330
644C
330
644D
330
644E
330
644F
330
6450
330
6451
330
6452
330
6453
330
6454
330
6455
330
6456
330
6457
330
6458
330
6459
330
645A
330
645B
330
645C
330
6468
330
6469
330
646A
330
646B
330
646C
330
646D
330
646E
330
646F
330
6470
330
6471
330
6472
330
6473
330
6474
330
6475
330
6476
330
6477
330
6478
330
6479
330
647A
330
647B
330
647C
330
647D
330
647E
330
647F
330
6480
330
6481
330
6482
330
6483
330
6484
330
6485
330
6486
330
6487
330
6488
330
6489
330
648A
330
648B
330
648C
330
648D
330
648E
330
648F
330
6490
330
6491
330
6492
330
6493
330
6494
330
6495
330
6496
330
6497
330
649B
330
649E
330
649F
330
64A0
330
64A1
330
64A2
330
64A5
330
64A6
330
64A7
330
64A8
330
64A9
330
64AA
330
64AB
330
64AC
330
64AD
330
64AE
330
64AF
330
64B0
330
64B1
330
64B2
330
64B3
330
64B4
330
64B5
330
64B6
330
64B7
330
64B8
330
64B9
330
64BA
330
64BB
330
64BC
330
64BD
330
64BE
330
64BF
330
64C0
330
64C1
330
64C2
330
64C3
330
64C4
330
64C5
330
64C6
330
64C7
330
64C8
330
64C9
330
64CA
330
64CB
330
64CC
330
64CD
330
64CE
330
64CF
330
64D0
330
64D1
330
64D2
330
64D3
330
64D4
330
64D5
330
64D6
330
64D7
330
64D8
330
64D9
330
64DA
330
64DB
330
64DC
330
64DD
330
64DE
330
64DF
330
64E0
330
64E1
330
64E2
330
64E3
330
64E4
330
64E5
330
64E6
330
64E7
330
64E8
330
64E9
330
64EA
330
64EB
330
64EC
330
64ED
330
64EE
330
64EF
330
64F0
330
64F1
330
64F2
330
64F3
330
64F4
330
64F5
330
64F6
330
64F7
330
64F8
330
64F9
330
6500
330
6501
330
6502
330
6503
330
6504
330
6517
330
6518
330
6519
330
651A
330
651B
330
651C
330
651D
330
651E
330
651F
330
6520
330
6521
330
6522
330
6523
330
6524
330
6525
330
6526
330
6527
330
6528
330
6529
330
652A
330
652B
330
652C
330
652D
330
652E
330
652F
330
6530
330
6531
330
6532
330
6533
330
6534
330
6535
330
6536
330
6537
330
6538
330
6539
330
653A
330
653B
330
653C
330
653D
330
653E
330
653F
330
6540
330
6541
330
6542
330
6545
330
6546
330
6547
330
6548
330
6558
330
6559
330
655A
330
655B
330
655C
330
655D
330
655E
330
655F
330
6560
330
6561
330
6562
330
6563
330
6564
330
6565
330
6566
330
6567
330
6568
330
6569
330
656A
330
656B
330
656C
330
656D
330
656E
330
656F
330
6570
330
6571
330
6572
330
6573
330
6574
330
6575
330
6576
330
6577
330
6578
330
6579
330
657A
330
657B
330
657C
330
657D
330
657E
330
657F
330
6586
330
658B
330
658C
330
65BF
330
65D1
330
65D2
330
65D7
330
65EB
330
660B
330
683E
330
69A8
330
69B1
330
6A09
330
6A0A
330
6A0B
330
6A0D
330
6A0F
330
6A10
330
6A11
330
6A12
330
6A13
330
6A15
330
6A16
330
6A17
330
6A18
330
6A19
330
6A1C
330
6A1D
330
6A1E
330
6A21
330
6A22
330
6A23
330
6A24
330
6A25
330
6A26
330
6A27
330
6A28
330
6A29
330
6A2A
330
6A2D
330
6A2E
330
6A2F
330
6A30
330
6A31
330
6A32
330
6A33
330
6A34
330
6A35
330
6A36
330
6A37
330
6A38
330
6A39
330
6A3A
330
6A3B
330
6A70
330
6A7F
330
6A90
330
6AB7
330
6B0F
330
6B15
  0
IDBUFFER
  5
6A9C
330
0
100
AcDbIdBuffer
330
50D
330
517
330
5D6
330
613
330
74A
330
74B
330
762
330
772
330
77E
330
845
330
863
330
5D84
330
5D85
330
5D88
330
5D8B
330
5D90
330
5D94
330
5D95
330
5D96
330
5D99
330
5D9C
330
5DA0
330
5DA1
330
5DA5
330
5DA6
330
5DA7
330
5DA8
330
5DAC
330
5DAF
330
5DB5
330
5DB6
330
5DB7
330
5DB8
330
5DBE
330
5DBF
330
5DC0
330
5DC6
330
5DC7
330
628C
330
62A7
330
62A8
330
6320
330
6321
330
6322
330
65CF
330
65D6
330
65DB
330
65E8
330
65F0
330
6743
330
6745
330
6883
330
6884
330
6885
330
6886
330
6887
330
688A
330
68B1
330
68B4
330
68D5
330
68D6
330
6939
330
693C
330
693E
330
693F
330
6941
330
6942
330
6943
330
6944
330
6A6E
330
6A74
330
6A75
330
6A80
330
6A81
330
6A83
330
6A84
330
6A86
330
6AB8
  0
IDBUFFER
  5
6A9D
330
0
100
AcDbIdBuffer
330
50A
330
50B
330
511
330
513
330
514
330
51F
330
520
330
521
330
522
330
527
330
528
330
531
330
536
330
538
330
539
330
53A
330
53F
330
542
330
543
330
54A
330
54B
330
550
330
552
330
555
330
556
330
557
330
558
330
55E
330
55F
330
56C
330
5C7
330
5CC
330
5CD
330
5D1
330
5D4
330
5DB
330
5DC
330
5DE
330
5DF
330
5E0
330
5E1
330
5E2
330
5E3
330
5E4
330
5E5
330
5E6
330
5E7
330
5E8
330
5E9
330
5EA
330
5EB
330
5EC
330
5ED
330
5EE
330
5EF
330
5F1
330
5F2
330
5F3
330
5F4
330
5F5
330
5F6
330
5F7
330
5F8
330
5F9
330
5FA
330
5FC
330
5FD
330
5FE
330
5FF
330
600
330
601
330
602
330
603
330
608
330
609
330
60B
330
60C
330
615
330
616
330
62B
330
62F
330
630
330
631
330
632
330
633
330
634
330
636
330
638
330
665
330
682
330
683
330
684
330
686
330
687
330
68D
330
68E
330
6C0
330
6C7
330
6CA
330
6D0
330
6D4
330
6D7
330
6D8
330
6D9
330
6E4
330
6E5
330
6E6
330
6EC
330
6ED
330
6EE
330
6F3
330
6F5
330
6F6
330
6F7
330
6FD
330
6FE
330
6FF
330
700
330
701
330
704
330
708
330
709
330
714
330
715
330
717
330
71D
330
72A
330
72E
330
72F
330
730
330
731
330
735
330
736
330
738
330
73D
330
741
330
746
330
747
330
74F
330
750
330
751
330
752
330
753
330
754
330
755
330
76D
330
76E
330
773
330
774
330
775
330
776
330
792
330
7AF
330
7B0
330
7B1
330
7B2
330
7B4
330
7B5
330
7B6
330
7B9
330
7BB
330
7BC
330
7BE
330
7BF
330
7C0
330
7C1
330
7C3
330
7C6
330
7C7
330
7C9
330
7CB
330
7CD
330
7CE
330
7CF
330
7D0
330
7D1
330
7D2
330
7D3
330
7D4
330
7D5
330
7D6
330
7D7
330
7D8
330
7D9
330
7DA
330
7DB
330
7DC
330
7E0
330
7E1
330
7E5
330
7E7
330
7E8
330
7E9
330
7ED
330
7F5
330
7F8
330
7F9
330
7FA
330
7FB
330
7FC
330
7FD
330
802
330
80C
330
80E
330
810
330
811
330
812
330
813
330
814
330
815
330
816
330
817
330
818
330
819
330
81A
330
81B
330
81C
330
81D
330
81E
330
81F
330
820
330
821
330
822
330
823
330
824
330
826
330
827
330
828
330
829
330
82B
330
82C
330
82D
330
82E
330
82F
330
830
330
833
330
83E
330
83F
330
84E
330
857
330
858
330
859
330
85A
330
85B
330
85D
330
86C
330
86E
330
86F
330
878
330
87A
330
87C
330
87D
330
87E
330
880
330
881
330
882
330
883
330
4A00
330
629B
330
629C
330
62A1
330
62A5
330
62AA
330
62B0
330
62B2
330
62B5
330
62B6
330
62B7
330
62B9
330
62BA
330
62BB
330
62BF
330
62C3
330
62C4
330
62C7
330
62CC
330
62CD
330
62CF
330
62D0
330
62D6
330
62D7
330
62D8
330
62D9
330
62DA
330
62DB
330
62DC
330
62DD
330
62DE
330
62DF
330
62E0
330
62E1
330
62E2
330
62E3
330
62E4
330
62E5
330
62E6
330
62E7
330
62E8
330
62E9
330
62EA
330
62ED
330
62EE
330
62EF
330
62F0
330
62F1
330
62F3
330
62F4
330
62F5
330
62F6
330
62F7
330
62F8
330
62F9
330
62FD
330
62FE
330
6300
330
6301
330
6302
330
6306
330
6307
330
6309
330
6314
330
631A
330
631D
330
6324
330
6423
330
6424
330
6425
330
6426
330
645E
330
645F
330
6460
330
6467
330
6498
330
6499
330
649A
330
64A3
330
64A4
330
64FA
330
64FC
330
64FE
330
6505
330
6506
330
6509
330
650A
330
650B
330
650D
330
6511
330
6515
330
6516
330
6543
330
6544
330
654B
330
654C
330
654E
330
654F
330
6553
330
6556
330
6557
330
6584
330
6585
330
658D
330
6590
330
6592
330
6593
330
6595
330
6597
330
6599
330
659B
330
659C
330
659D
330
659E
330
659F
330
65A0
330
65A1
330
65A2
330
65A3
330
65A4
330
65A5
330
65A6
330
65A7
330
65A8
330
65A9
330
65AA
330
65AC
330
65AD
330
65AE
330
65AF
330
65B0
330
65B1
330
65B2
330
65B3
330
65B4
330
65B5
330
65B6
330
65B7
330
65B8
330
65B9
330
65BA
330
65BB
330
65BC
330
65BE
330
65CC
330
65CD
330
65CE
330
65D8
330
65DC
330
65EF
330
65F3
330
65F8
330
69A4
330
69A5
330
69A6
330
69A7
330
69AD
330
69AE
330
69AF
330
69B0
330
6A85
  0
IDBUFFER
  5
6A9F
330
0
100
AcDbIdBuffer
330
5F0
330
685
330
707
330
62CE
330
62FF
330
65AB
  0
IDBUFFER
  5
6AA0
330
0
100
AcDbIdBuffer
  0
IDBUFFER
  5
6AA3
330
0
100
AcDbIdBuffer
330
6A08
330
6A0C
330
6A0E
330
6A14
330
6A1A
330
6A1B
330
6A1F
330
6A20
330
6A2B
330
6A2C
  0
IDBUFFER
  5
6AA4
330
0
100
AcDbIdBuffer
330
6A6F
330
6A73
330
6A76
330
6A7E
330
6A82
330
6A87
330
6A8B
330
6A8C
  0
XRECORD
  5
6B78
102
{ACAD_REACTORS
330
6B22
102
}
330
6B22
100
AcDbXrecord
280
     1
102
MATERIAL
148
0.0
149
0.0
149
0.0
 93
        0
 94
      127
282
     0
 72
     0
 77
     0
171
     0
175
     0
179
     0
273
     0
  0
XRECORD
  5
6B24
102
{ACAD_REACTORS
330
6B22
102
}
330
6B22
100
AcDbXrecord
280
     1
270
     1
271
     1
  0
XRECORD
  5
6B23
102
{ACAD_REACTORS
330
6B22
102
}
330
6B22
100
AcDbXrecord
280
     1
270
     1
271
     1
  0
XRECORD
  5
6B27
102
{ACAD_REACTORS
330
6B22
102
}
330
6B22
100
AcDbXrecord
280
     1
270
     1
271
     1
  0
XRECORD
  5
6B26
102
{ACAD_REACTORS
330
6B22
102
}
330
6B22
100
AcDbXrecord
280
     1
270
     1
271
     1
  0
XRECORD
  5
6B28
102
{ACAD_REACTORS
330
6B22
102
}
330
6B22
100
AcDbXrecord
280
     1
270
     1
271
     1
  0
XRECORD
  5
6B25
102
{ACAD_REACTORS
330
6B22
102
}
330
6B22
100
AcDbXrecord
280
     1
270
     1
271
     1
  0
XRECORD
  5
6B77
102
{ACAD_REACTORS
330
6B1A
102
}
330
6B1A
100
AcDbXrecord
280
     1
102
MATERIAL
148
0.0
149
0.0
149
0.0
 93
        0
 94
      127
282
     0
 72
     0
 77
     0
171
     0
175
     0
179
     0
273
     0
  0
XRECORD
  5
6B1C
102
{ACAD_REACTORS
330
6B1A
102
}
330
6B1A
100
AcDbXrecord
280
     1
270
     1
271
     1
  0
XRECORD
  5
6B1B
102
{ACAD_REACTORS
330
6B1A
102
}
330
6B1A
100
AcDbXrecord
280
     1
270
     1
271
     1
  0
XRECORD
  5
6B1F
102
{ACAD_REACTORS
330
6B1A
102
}
330
6B1A
100
AcDbXrecord
280
     1
270
     1
271
     1
  0
XRECORD
  5
6B1E
102
{ACAD_REACTORS
330
6B1A
102
}
330
6B1A
100
AcDbXrecord
280
     1
270
     1
271
     1
  0
XRECORD
  5
6B20
102
{ACAD_REACTORS
330
6B1A
102
}
330
6B1A
100
AcDbXrecord
280
     1
270
     1
271
     1
  0
XRECORD
  5
6B1D
102
{ACAD_REACTORS
330
6B1A
102
}
330
6B1A
100
AcDbXrecord
280
     1
270
     1
271
     1
  0
XRECORD
  5
6B79
102
{ACAD_REACTORS
330
6B2A
102
}
330
6B2A
100
AcDbXrecord
280
     1
102
MATERIAL
148
0.0
149
0.0
149
0.0
 93
        0
 94
      127
282
     0
 72
     0
 77
     0
171
     0
175
     0
179
     0
273
     0
  0
XRECORD
  5
6B2C
102
{ACAD_REACTORS
330
6B2A
102
}
330
6B2A
100
AcDbXrecord
280
     1
270
     1
271
     1
  0
XRECORD
  5
6B2B
102
{ACAD_REACTORS
330
6B2A
102
}
330
6B2A
100
AcDbXrecord
280
     1
270
     1
271
     1
  0
XRECORD
  5
6B2F
102
{ACAD_REACTORS
330
6B2A
102
}
330
6B2A
100
AcDbXrecord
280
     1
270
     1
271
     1
  0
XRECORD
  5
6B2E
102
{ACAD_REACTORS
330
6B2A
102
}
330
6B2A
100
AcDbXrecord
280
     1
270
     1
271
     1
  0
XRECORD
  5
6B30
102
{ACAD_REACTORS
330
6B2A
102
}
330
6B2A
100
AcDbXrecord
280
     1
270
     1
271
     1
  0
XRECORD
  5
6B2D
102
{ACAD_REACTORS
330
6B2A
102
}
330
6B2A
100
AcDbXrecord
280
     1
270
     1
271
     1
  0
CELLSTYLEMAP
  5
6B75
102
{ACAD_REACTORS
330
6B74
102
}
330
6B74
100
AcDbCellStyleMap
 90
        3
300
CELLSTYLE
  1
TABLEFORMAT_BEGIN
 90
        5
170
     1
 91
        0
 92
    32768
 62
   257
 93
        1
300
CONTENTFORMAT
  1
CONTENTFORMAT_BEGIN
 90
        0
 91
        0
 92
      512
 93
        0
300

 40
0.0
140
1.0
 94
        5
 62
     0
340
F
144
6.0
309
CONTENTFORMAT_END
171
     1
301
MARGIN
  1
CELLMARGIN_BEGIN
 40
1.5
 40
1.5
 40
1.5
 40
1.5
 40
4.5
 40
4.5
309
CELLMARGIN_END
 94
        6
 95
        1
302
GRIDFORMAT
  1
GRIDFORMAT_BEGIN
 90
        0
 91
        1
 62
     0
 92
       -2
340
0
 93
        0
 40
1.125
309
GRIDFORMAT_END
 95
        2
302
GRIDFORMAT
  1
GRIDFORMAT_BEGIN
 90
        0
 91
        1
 62
     0
 92
       -2
340
0
 93
        0
 40
1.125
309
GRIDFORMAT_END
 95
        4
302
GRIDFORMAT
  1
GRIDFORMAT_BEGIN
 90
        0
 91
        1
 62
     0
 92
       -2
340
0
 93
        0
 40
1.125
309
GRIDFORMAT_END
 95
        8
302
GRIDFORMAT
  1
GRIDFORMAT_BEGIN
 90
        0
 91
        1
 62
     0
 92
       -2
340
0
 93
        0
 40
1.125
309
GRIDFORMAT_END
 95
       16
302
GRIDFORMAT
  1
GRIDFORMAT_BEGIN
 90
        0
 91
        1
 62
     0
 92
       -2
340
0
 93
        0
 40
1.125
309
GRIDFORMAT_END
 95
       32
302
GRIDFORMAT
  1
GRIDFORMAT_BEGIN
 90
        0
 91
        1
 62
     0
 92
       -2
340
0
 93
        0
 40
1.125
309
GRIDFORMAT_END
309
TABLEFORMAT_END
  1
CELLSTYLE_BEGIN
 90
        1
 91
        1
300
_TITLE
309
CELLSTYLE_END
300
CELLSTYLE
  1
TABLEFORMAT_BEGIN
 90
        5
170
     1
 91
        0
 92
        0
 62
   257
 93
        1
300
CONTENTFORMAT
  1
CONTENTFORMAT_BEGIN
 90
        0
 91
        0
 92
      512
 93
        0
300

 40
0.0
140
1.0
 94
        5
 62
     0
340
F
144
4.5
309
CONTENTFORMAT_END
171
     1
301
MARGIN
  1
CELLMARGIN_BEGIN
 40
1.5
 40
1.5
 40
1.5
 40
1.5
 40
4.5
 40
4.5
309
CELLMARGIN_END
 94
        6
 95
        1
302
GRIDFORMAT
  1
GRIDFORMAT_BEGIN
 90
        0
 91
        1
 62
     0
 92
       -2
340
0
 93
        0
 40
1.125
309
GRIDFORMAT_END
 95
        2
302
GRIDFORMAT
  1
GRIDFORMAT_BEGIN
 90
        0
 91
        1
 62
     0
 92
       -2
340
0
 93
        0
 40
1.125
309
GRIDFORMAT_END
 95
        4
302
GRIDFORMAT
  1
GRIDFORMAT_BEGIN
 90
        0
 91
        1
 62
     0
 92
       -2
340
0
 93
        0
 40
1.125
309
GRIDFORMAT_END
 95
        8
302
GRIDFORMAT
  1
GRIDFORMAT_BEGIN
 90
        0
 91
        1
 62
     0
 92
       -2
340
0
 93
        0
 40
1.125
309
GRIDFORMAT_END
 95
       16
302
GRIDFORMAT
  1
GRIDFORMAT_BEGIN
 90
        0
 91
        1
 62
     0
 92
       -2
340
0
 93
        0
 40
1.125
309
GRIDFORMAT_END
 95
       32
302
GRIDFORMAT
  1
GRIDFORMAT_BEGIN
 90
        0
 91
        1
 62
     0
 92
       -2
340
0
 93
        0
 40
1.125
309
GRIDFORMAT_END
309
TABLEFORMAT_END
  1
CELLSTYLE_BEGIN
 90
        2
 91
        1
300
_HEADER
309
CELLSTYLE_END
300
CELLSTYLE
  1
TABLEFORMAT_BEGIN
 90
        5
170
     1
 91
        0
 92
        0
 62
   257
 93
        1
300
CONTENTFORMAT
  1
CONTENTFORMAT_BEGIN
 90
        0
 91
        0
 92
      512
 93
        0
300

 40
0.0
140
1.0
 94
        2
 62
     0
340
F
144
4.5
309
CONTENTFORMAT_END
171
     1
301
MARGIN
  1
CELLMARGIN_BEGIN
 40
1.5
 40
1.5
 40
1.5
 40
1.5
 40
4.5
 40
4.5
309
CELLMARGIN_END
 94
        6
 95
        1
302
GRIDFORMAT
  1
GRIDFORMAT_BEGIN
 90
        0
 91
        1
 62
     0
 92
       -2
340
0
 93
        0
 40
1.125
309
GRIDFORMAT_END
 95
        2
302
GRIDFORMAT
  1
GRIDFORMAT_BEGIN
 90
        0
 91
        1
 62
     0
 92
       -2
340
0
 93
        0
 40
1.125
309
GRIDFORMAT_END
 95
        4
302
GRIDFORMAT
  1
GRIDFORMAT_BEGIN
 90
        0
 91
        1
 62
     0
 92
       -2
340
0
 93
        0
 40
1.125
309
GRIDFORMAT_END
 95
        8
302
GRIDFORMAT
  1
GRIDFORMAT_BEGIN
 90
        0
 91
        1
 62
     0
 92
       -2
340
0
 93
        0
 40
1.125
309
GRIDFORMAT_END
 95
       16
302
GRIDFORMAT
  1
GRIDFORMAT_BEGIN
 90
        0
 91
        1
 62
     0
 92
       -2
340
0
 93
        0
 40
1.125
309
GRIDFORMAT_END
 95
       32
302
GRIDFORMAT
  1
GRIDFORMAT_BEGIN
 90
        0
 91
        1
 62
     0
 92
       -2
340
0
 93
        0
 40
1.125
309
GRIDFORMAT_END
309
TABLEFORMAT_END
  1
CELLSTYLE_BEGIN
 90
        3
 91
        2
300
_DATA
309
CELLSTYLE_END
  0
XRECORD
  5
6B7A
102
{ACAD_REACTORS
330
6B74
102
}
330
6B74
100
AcDbXrecord
280
     1
102
ACAD_ROUNDTRIP_PRE2007_TABLESTYLE
 90
      512
 91
        0
  1

 92
      512
 93
        0
  2

 94
      512
 95
        0
  3

  0
ACAD_PROXY_OBJECT
  5
6926
330
6925
100
AcDbProxyObject
 90
      499
 91
      552
 95
   851991
 70
     0
 93
       96
310
57020E80A0280A0280A0280800
 94
        0
  0
ACAD_PROXY_OBJECT
  5
6927
330
6925
100
AcDbProxyObject
 90
      499
 91
      553
 95
   851991
 70
     0
 93
      332
310
5710E405014050140501405014050140501405014250140501405014050140501200000000000000040C
340
6912
 94
        0
  0
ACAD_PROXY_OBJECT
  5
6928
330
6925
100
AcDbProxyObject
 90
      499
 91
      554
 95
   851991
 70
     0
 93
      402
310
570C199999999999E99F91F405014050140501405014050140501405014050140501405014050140501405014050140501404C
340
0
 94
        0
  0
ACAD_PROXY_OBJECT
  5
6929
330
6925
100
AcDbProxyObject
 90
      499
 91
      555
 95
   851991
 70
     0
 93
       10
310
570C
 94
        0
  0
ACAD_PROXY_OBJECT
  5
692A
330
6925
100
AcDbProxyObject
 90
      499
 91
      556
 95
   851991
 70
     0
 93
      223
310
572290EA22A7D90F49F9353333333333727F44D4CCCCCCCCCDC9FA04
340
690F
340
6910
 94
        0
  0
ACAD_PROXY_OBJECT
  5
692B
330
6925
100
AcDbProxyObject
 90
      499
 91
      557
 95
   851991
 70
     0
 93
    12881
310
5710E4112551153501411413D4CB901405014069011349A4F2590CB64FD3347454E545241434F2C4954412C302C504F532E2C47454E54524154582C25732C2847454E4D53472067656E647767203232322940690120281A8AA2CA0281A8AA602028120280A03202269349E4B2196C9FA648E8A9CA8A482869E5892A8825860
310
58A2A980588E8A9CA8A482A8B0584AE658508E8A9C9AA68E40CECADCC8EECE406464665280D202405044E414D45405044E4F4D454051C40640A8BA5C2E97CBE502404CD1D15395149050D3CB1255104B0C0B1393D3514B11D15395149055160B095CCB0A11D1539354D1C819D95B991DD9C80C8C8D8A50190B3D424C4F434B
310
3A4E414D4540480A0A888AA686A480A16888AA686A492B4929E9C8A80A3A80C81D10782C06030180C809D23A2A72A2920A1A79624AA209618162222A9A1A924AD24A7A7229623A2A72A2920AA2C1612B9961423A2A726A9A39033B2B7323BB39019189B94A024809014214D51053911054911014214D510539110549110147
310
501904A383BFDFEFF5FBFCFD3747454E545241434F2C4954412C302C5354414E444152442C47454E54524154582C25732C2847454E4D53472067656E64776720323138294049012028426A0AA22A924A0A620284A6A0AA22A924A0A622A028EA0320B41416D838E9017D9FA708E8A9CA8A482869E5892A8825860589A82A88
310
AA49282988A588E8A9CA8A482A8B0584AE658508E8A9C9AA68E40CECADCC8EECE406464625280D202405044E4F5445405044E4F54414051D40641A8BA5C2E97CBE5F23F4CD1D15395149050D3CB1255104B0C0B1393D5104B11D15395149055160B095CCB0A11D1539354D1C819D95B991DD9C80C8C8D4A501A40480A0CAC8
310
A9C889EA480A128C9EA49C92A89EA48A80A3A80C83D174B85D2F97CBE47E9C23A2A72A2920A1A79624AA209618162327A92724AA27A9229623A2A72A2920AA2C1612B9961423A2A726A9A39033B2B7323BB39019191A14A0348090141911154D0D48C90143511154D0D492569253D391480C90147501908A20F0580C060301
310
9013B47454E545241434F2C4954412C302C4445534352495A494F4E4520322C47454E54524154582C25732C2847454E4D53472067656E6477672033362940490120284A9AA20A72220A922192028529AA20A72220A92210192028EA0321347077FBFDFEBF7F9FA728E8A9CA8A482869E5892A882586058A6A8829C8882A488
310
4064588E8A9CA8A482A8B0584AE658508E8A9C9AA68E40CECADCC8EECE4064646052809202405094D4154455249414C324050B4D4154455249414C4520324051D40642A8282DB071D202FB3F4E51D15395149050D3CB1255104B0C0B135055115492505311480C8B11D15395149055160B095CCB0A11D1539354D1C819D95B
310
991DD9C80D0C0A501240480A089A82A6A680A0A9A82A6A68280A3A80A0485A0681174B85D2F97CBE47E99A3A2A72A2920A1A79624AA2096181626A0A9A9A09623A2A72A2920AA2C1612B9961423A2A726A9A39033B2B7323BB3901A1914A024809014154149250D150141941491569693D01475014090C409022E970BA5F2F
310
97C8FD3447454E545241434F2C4954412C302C5052455A5A4F2C47454E54524154582C25732C2847454E4D53472067656E6477672034332940490120281A224A6A028326A4A9AAA920A028EA028121A81A045D2E174BE5F2F91FA688E8A9CA8A482869E5892A8825860589A92A6AAA482588E8A9CA8A482A8B0584AE658508
310
E8A9C9AA68E40CECADCC8EECE406868528092024050E441022E07A17AD46E338FD1E004062B355AAD56AB7D8FCACD56AB55AADF63F41CF4F125511534F9014062B355AAD56AB7D8FCACD56AB55AADF63F41CF4F125511534F9014062431F8FC5E0F3B8FC90C7E3F1783CEE3F41CF4F125511534F9014062431F8FC5E0F3B8F
310
C90C7E3F1783CEE3F41CF4F125511534F90140A404ACD56AB55AADF63F2B355AAD56AB7D8FD073D3C4954454D3E405063D3C5154593E405018ACD56AB55AADF63F2B355AAD56AB7D8FD073D3C4954454D3E40640400ACD56AB55AADF63F2B355AAD56AB7D8FE8800000000000002081A0881A068120480A032208521122080
310
D21480D211480A1485214852050000000000003C2FC000000000000F0BF4050241C3BDF4F8D976EA23F0EF7D3E365DBA88FCB81E85EB51B8BE3FC80D069014090541D06901A5C0F42F5A8DC5F1FA0483A048098A0280CC
340
0
340
0
 94
        0
  0
ACAD_PROXY_OBJECT
  5
692C
330
6925
100
AcDbProxyObject
 90
      499
 91
      558
 95
   851991
 70
     0
 93
      960
310
5700B81E85EB51B8CE3F4BCF511155105253080F11115510525317D3105091530F971414D0D05311480F11115510525317D05094D4D0D053114F92341C9A9999999999B93F26A666666666724FC000000000000E03F40000000000000040000000000000051000000000000002440478B81E85EB51B8CE3F00
340
690B
340
6911
 94
        0
  0
ACAD_PROXY_OBJECT
  5
692D
330
6925
100
AcDbProxyObject
 90
      499
 91
      559
 95
   851991
 70
     0
 93
      745
310
570031703D0BD6A3719C7E999EA9A2A1AA24A7A7101E29A2A1AA24A7A72FA620A122A62FA324A929AA1F169E29A2A1AA24A7A72FA620A122A62FA620A9AA1F1353333333333B27EFF41C8823C4D4CCCCCCCCCEC9FC5C0F42F5A8DC671FCC
340
690B
340
6911
 94
        0
  0
ACAD_PROXY_OBJECT
  5
692E
330
6925
100
AcDbProxyObject
 90
      499
 91
      560
 95
   851991
 70
     0
 93
      279
310
5702B8716D9CEF7C33F0A5723F0BD4A2F0FC295C8FC2F528BC3FA199999999999F99FC
 94
        0
  0
ACAD_PROXY_OBJECT
  5
692F
330
6925
100
AcDbProxyObject
 90
      499
 91
      561
 95
   851991
 70
     0
 93
     5890
310
571084050B90142A40502405094D6F64656C6C6F2031405EA3D3C696628657175616C28486F6C653A7461707065642C223022292C222525632220486F6C653A6469612C20486F6C653A6E6F6D696E616C2022202220696628657175616C28486F6C653A756E6974732C223122292C2278222C222D22292022202220486F6C6
310
53A706974636864657363293E207B5C46414D4744543B787D203C696628657175616C28486F6C653A7465726D696E6174696F6E2C223022292C486F6C653A64657074682C225448525522293E5C507B5C46414D4744543B767D2525633C486F6C653A63746469613E207B5C46414D4744543B787D203C486F6C653A6374646
310
57074683E40640503405094D6F64656C6C6F2031405E33D3C696628657175616C28486F6C653A7461707065642C223022292C222525632220486F6C653A6469612C20486F6C653A6E6F6D696E616C2022202220696628657175616C28486F6C653A756E6974732C223122292C2278222C222D22292022202220486F6C653A7
310
06974636864657363293E207B5C46414D4744543B787D203C696628657175616C28486F6C653A7465726D696E6174696F6E2C223022292C486F6C653A64657074682C225448525522293E5C507B5C46414D4744543B777D2525633C486F6C653A63746469613E2058203C486F6C653A6374616E676C653E252564406405014
310
05094D6F64656C6C6F2031405B43D3C696628657175616C28486F6C653A7461707065642C223022292C222525632220486F6C653A6469612C20486F6C653A6E6F6D696E616C2022202220696628657175616C28486F6C653A756E6974732C223122292C2278222C222D22292022202220486F6C653A7069746368646573632
310
93E5C507B5C46414D4744543B787D203C696628657175616C28486F6C653A7465726D696E6174696F6E2C223022292C486F6C653A64657074682C225448525522293E4064051E405094D6F64656C6C6F20314050C3D3C535444503A444553433E40640515A8C
 94
        0
  0
ACAD_PROXY_OBJECT
  5
6930
330
6925
100
AcDbProxyObject
 90
      499
 91
      538
 95
   851991
 70
     0
 93
       20
310
57101C
340
0
 94
        0
  0
ACAD_PROXY_OBJECT
  5
6931
330
6925
100
AcDbProxyObject
 90
      499
 91
      539
 95
   851991
 70
     0
 93
      258
310
57102000000000000380FC000000000000E03F408F0F9023C3E40DB18CCCFFFF8C
340
6913
340
0
340
0
340
6914
340
6915
340
0
340
6916
340
6917
340
6918
340
0
 94
        0
  0
ACAD_PROXY_OBJECT
  5
6932
330
6925
100
AcDbProxyObject
 90
      499
 91
      562
 95
   851991
 70
     0
 93
    13409
310
5711A023FFFFFFFD010300002E07A17AD46E2F8FC09010300002E07A17AD46E2F8FC080511454C454E434F20434F4F5244494E415445015011D15395149050D3CB1255104B0C0B1153115390D3C810D3D3D49112539055114B11D15395149055160B095CCB0A11D1539354D1C819D95B991A5B5E880CCC0A78000C00000000
310
0000000000000000000000007B14AE47E17AA43F2E07A17AD46E2F8FD021EC52B91F85EA90FCB81E85EB51B8BE3F40A014315105091531310481193D4924053B47454E545241434F2C4954412C302C544142454C4C4120464F52492C47454E54524154582C25732C2847454E4D53472067656E64696D7A20333129E0003000
310
000000000000000000000000000001EC52B91F85EA90FCB81E85EB51B8BE3F4087B14AE47E17AA43F2E07A17AD46E2F8FD0290B4410F4450240D04415014391244D05449074510C4350F000141D3D49251D253914053547454E545241434F2C4954412C302C4F524947494E452C47454E54524154582C25732C2847454E4D5
310
3472067656E64696D7A20312900010105002214000283A7A924A3A4A72280A6A8E8A9CA8A482869E5892A8825860589EA4928E929C8A588E8A9CA8A482A8B0584AE658508E8A9C9AA68E40CECADCC8D2DAF4406252000202080043E8000504464F524F014C91D15395149050D3CB1255104B0C0B1193D493CB11D153951490
310
55160B095CCB0A11D1539354D1C819D95B991A5B5E880C8A405163D3C486F6C654974656D3E3C486F6C65496E6465783E010104002234000280AC00A5E8E8A9CA8A482869E5892A882586058B0588E8A9CA8A482A8B0584AE658508E8A9C9AA68E40CECADCC8D2DAF4406652000202000040A800050159014BD1D153951490
310
50D3CB1255104B0C0B164B11D15395149055160B095CCB0A11D1539354D1C819D95B991A5B5E880D0A4000404000081D0000A02A40297A3A2A72A2920A1A79624AA20961816291623A2A72A2920AA2C1612B9961423A2A726A9A39033B2B73234B6BD101B148000808000104A000141954ACC0D0D0D0053447454E54524143
310
4F2C4954412C302C552B303434342C47454E54524154582C25732C2847454E4D53472067656E64696D7A203729000101030020B40002822827A99700A668E8A9CA8A482869E5892A882586058A09EA65C588E8A9CA8A482A8B0584AE658508E8A9C9AA68E40CECADCC8D2DAF4406268520002020A004068000506494E44494
310
345014D51D15395149050D3CB1255104B0C0B1253911250D14B11D15395149055160B095CCB0A11D1539354D1C819D95B991A5B5E880C4D4A400040414008750000A088C9EA49E0299A3A2A72A2920A1A79624AA209618162327A9279623A2A72A2920AA2C1612B9961423A2A726A9A39033B2B73234B6BD10189B14800080
310
8200112A000142D253911250D1481193D493C053A47454E545241434F2C4954412C302C494E4449434520464F524F2C47454E54524154582C25732C2847454E4D53472067656E64696D7A20313729000101050022740002819292A180A628E8A9CA8A482869E5892A8825860584A4A86588E8A9CA8A482A8B0584AE658508E
310
8A9C9AA68E40CECADCC8D2DAF4407052000202020041E80005035154C0014C91D15395149050D3CB1255104B0C0B1455300B11D15395149055160B095CCB0A11D1539354D1C819D95B991A5B5E880C4E4A400040418008A50000A16888AA686A492B4929E9C8A029D23A2A72A2920A1A79624AA209618162222A9A1A924AD2
310
4A7A7229623A2A72A2920AA2C1612B9961423A2A726A9A39033B2B73234B6BD10191814800080020010CA00014214D51053911054910053747454E545241434F2C4954412C302C5354414E444152442C47454E54524154582C25732C2847454E4D53472067656E64696D7A20323129000100040021B4878030026A66666666
310
67A4FE064D4CCCCCCCCCF49FC049A9999999999E93F809353333333333D27F0226A6666666667A4FE044D4CCCCCCCCCF49FC009A9999999999D93F801353333333333D27F0026A6666666667A4FE004D4CCCCCCCCCF49FC0D819703D0BD6A371BC7F03000000000000001020633B333333333032050F006004D4CCCCCCCCCF
310
49FC0C9A9999999999E93F819353333333333D27F0326A6666666667A4FE064D4CCCCCCCCCF49FC0C9A9999999999E93F801353333333333B27F0026A6666666667A4FE064D4CCCCCCCCCF49FC009A9999999999E93F81B032E07A17AD46E378FE06000000000000002040C6766666666660640A088800000021E000000890
310
000002260000008220E00020089000000206000200810000804C
340
0
340
0
340
0
340
0
 94
        0
  0
ACAD_PROXY_OBJECT
  5
6933
330
6925
100
AcDbProxyObject
 90
      499
 91
      541
 95
   851991
 70
     0
 93
     5766
310
5719741105394D2506414E53495F4342905394D257D512551554D15414E53495F54525F5265766973696F6E6C697374614191243202831372E307832322E30706F6C6C2E2941905394D257D0D1246202832382E307834302E30706F6C6C2E2941905394D257D1911412028382E357831312E30706F6C6C2E2941905394D257
310
D051242202831312E307831372E30706F6C6C2E2941905394D257D091244202832322E307833342E30706F6C6C2E2941905394D257D111245202833342E307834342E30706F6C6C2E2941905394D257D150544505394D24810D85C9D1A59DB1A5BC81050D0C414E53495F5449544C4541434310D85C9D1A59DB1A5BC81554D
310
0A414E53495F544954555344105394D24810D85C9D1A59DB1A5BC81050B414E53495F5449544C454144105394D24810D85C9D1A59DB1A5BC81110B414E53495F5449544C454444505394D24810D85C9D1A59DB1A5BC81110D0C414E53495F5449544C45444342116456C656E636F207265766973696F6E6920445F54525F45
310
505394D257D51497D4995D9A5CDA5BDB9B1A5CDD19116456C656E636F207265766973696F6E6920415F424C5F45505394D257D09317D4995D9A5CDA5BDB9B1A5CDD18516456C656E636F207265766973696F6E6920415F544C5F45505394D257D51317D4995D9A5CDA5BDB9B1A5CDD18516456C656E636F207265766973696
310
F6E6920445F424C5F45505394D257D09317D4995D9A5CDA5BDB9B1A5CDD19116456C656E636F207265766973696F6E6920445F544C5F45505394D257D51317D4995D9A5CDA5BDB9B1A5CDD19116456C656E636F207265766973696F6E6920415F42525F45505394D257D09497D4995D9A5CDA5BDB9B1A5CDD18516456C656E
310
636F207265766973696F6E6920415F54525F45505394D257D51497D4995D9A5CDA5BDB9B1A5CDD18516456C656E636F207265766973696F6E6920445F42525F45505394D257D09497D4995D9A5CDA5BDB9B1A5CDD190
 94
        0
  0
ACAD_PROXY_OBJECT
  5
67BA
330
67B8
100
AcDbProxyObject
 90
      499
 91
      527
 95
   851991
 70
     0
 93
       12
310
571C
 94
        0
  0
ACAD_PROXY_OBJECT
  5
67BB
330
67B8
100
AcDbProxyObject
 90
      499
 91
      528
 95
   851991
 70
     0
 93
       96
310
572A0E80A0280A0280A0280F00
 94
        0
  0
ACAD_PROXY_OBJECT
  5
67BC
330
67B8
100
AcDbProxyObject
 90
      499
 91
      529
 95
   851991
 70
     0
 93
      272
310
5710E4050140501405014050140501405014050140D01405012C00000000000000406C
340
48F9
 94
        0
  0
ACAD_PROXY_OBJECT
  5
67BD
330
67B8
100
AcDbProxyObject
 90
      499
 91
      530
 95
   851991
 70
     0
 93
      496
310
5728666666666667A67E199999999999E99FD22405014050140501405014050140501405014050140501405014050140501405014050140501405014050100
340
48FA
 94
        0
  0
ACAD_PROXY_OBJECT
  5
67BE
330
67B8
100
AcDbProxyObject
 90
      499
 91
      531
 95
   851991
 70
     0
 93
       10
310
570C
 94
        0
  0
ACAD_PROXY_OBJECT
  5
67BF
330
67B8
100
AcDbProxyObject
 90
      499
 91
      532
 95
   851991
 70
     0
 93
      223
310
572290EA22A7D90F49F8000000000000108140000000000000420204
340
48FB
340
48FC
 94
        0
  0
ACAD_PROXY_OBJECT
  5
67C0
330
67B8
100
AcDbProxyObject
 90
      499
 91
      533
 95
   851991
 70
     0
 93
    12879
310
5710E411255115350141141BDCCB90140501406901000000000000091013347454E545241434F2C4954412C302C506F732E2C47454E54524154582C25732C2847454E4D53472067656E647767203232322940690120281A8AA2CA0281A8BA702028120280A0320200000000000012202648E8A9CA8A482869E5892A8825860
310
58A2E9C0588E8A9CA8A482A8B0584AE658508E8A9C9AA68E40CECADCC8EECE406464665280D202405044E414D45405044E6F6D654051C40640A80000000000004E404CD1D15395149050D3CB1255104B0C0B139BDB594B11D15395149055160B095CCB0A11D1539354D1C819D95B991DD9C80C8C8D8A50190B3D424C4F434B
310
3A4E414D4540480A0A888AA686A480A1688CAE6C6E4D2F4D2DEDCCA80A3A80C81D0000000000100A2809D23A2A72A2920A1A79624AA209618162232B9B1B934BD34B7B7329623A2A72A2920AA2C1612B9961423A2A726A9A39033B2B7323BB39019189B94A034809014214D51053911054911014214DD185B99185C9910147
310
501904A000000000000125013747454E545241434F2C4954412C302C5374616E646172642C47454E54524154582C25732C2847454E4D53472067656E64776720323138294069012028426A0AA22A924A0A620284A6B0BA32B934B0B632A028EA0320B40000000000001CA02708E8A9CA8A482869E5892A8825860589AC2E8C
310
AE4D2C2D8CA588E8A9CA8A482A8B0584AE658508E8A9C9AA68E40CECADCC8EECE406464625280D202405044E4F5445405044E6F74614051D40641A80000000000003E404CD1D15395149050D3CB1255104B0C0B139BDD184B11D15395149055160B095CCB0A11D1539354D1C819D95B991DD9C80C8C8D4A501240480A0CAC8
310
A9C889EA480A128CDEE4DCD2E8DEE4CA80A3A80C83D00000000000007C809C23A2A72A2920A1A79624AA209618162337B93734BA37B9329623A2A72A2920AA2C1612B9961423A2A726A9A39033B2B7323BB39019191A14A0248090141911154D0D48C9014351195CD8DC9A5E9A5BDB99480C90147501908A00000000002014
310
5013B47454E545241434F2C4954412C302C4465736372697A696F6E6520322C47454E54524154582C25732C2847454E4D53472067656E6477672033362940490120284A9AA20A72220A922192028529BA30B73230B93210192028EA03213400000000000024A02728E8A9CA8A482869E5892A882586058A6E8C2DCC8C2E4C8
310
4064588E8A9CA8A482A8B0584AE658508E8A9C9AA68E40CECADCC8EECE4064646052809202405094D4154455249414C324050B4D6174657269616C6520324051D40642A8713D0AD7A37045404E51D15395149050D3CB1255104B0C0B13585D195C9A585B19480C8B11D15395149055160B095CCB0A11D1539354D1C819D95B
310
991DD9C80D0C0A501240480A089A82A6A680A0A9AC2E6E6C280A3A80A0485A068100000000000007C8099A3A2A72A2920A1A79624AA2096181626B0B9B9B09623A2A72A2920AA2C1612B9961423A2A726A9A39033B2B7323BB3901A1914A024809014154149250D150141941C995E9E9BD01475014090C4090200000000000
310
00F9013447454E545241434F2C4954412C302C5072657A7A6F2C47454E54524154582C25732C2847454E4D53472067656E6477672034332940490120281A224A6A028326B4B9BAB930A028EA028121A81A040000000000001F202688E8A9CA8A482869E5892A8825860589AD2E6EAE4C2588E8A9CA8A482A8B0584AE658508
310
E8A9C9AA68E40CECADCC8EECE406868528092024050E445020000000000000510107004060000000000000F9000000000000003E4041CF4F125511534F9014060000000000000F9000000000000003E4041CF4F125511534F9014060000000000000D100000000000000344041CF4F125511534F9014060000000000000D10
310
0000000000000344041CF4F125511534F90140A4040000000000003E400000000000000F901073D3C4954454D3E405063D3C5154593E4050180000000000003E400000000000000F901073D3C4954454D3E406404000000000000003E400000000000000F902888000000000000208081A0881A068120480A0322085211220
310
80D21480D211480A1485214852050000000000003C2FC000000000000F0BF4050241CCDCCCCCCCCCCEC3F3373333333333B0FC0000000000000C40480D0590140D04416406800000000000018808120480A026280A02
340
0
340
0
 94
        0
  0
ACAD_PROXY_OBJECT
  5
67C1
330
67B8
100
AcDbProxyObject
 90
      499
 91
      534
 95
   851991
 70
     0
 93
      864
310
5704000000000000144048CF4F11115510525317D3105091530F880A0F11115510525317D05094D4D0D053114F8A51141C9A9999999999B93F26A666666666724FC000000000000E03F4000000000000004000000000000005100000000000000244041C000000000000144000
340
14
340
48ED
 94
        0
  0
ACAD_PROXY_OBJECT
  5
67C2
330
67B8
100
AcDbProxyObject
 90
      499
 91
      535
 95
   851991
 70
     0
 93
      745
310
5700B00000000000002880959E9E29A2A1AA24A7A72FA620A122A62FA324A929AA1F169E29A2A1AA24A7A72FA620A122A62FA620A9AA1F00000000000004880FF41C88A0E0000000000001220000000000000028800000000000000A204C
340
15F
340
48ED
 94
        0
  0
ACAD_PROXY_OBJECT
  5
67C3
330
67B8
100
AcDbProxyObject
 90
      499
 91
      536
 95
   851991
 70
     0
 93
      151
310
57280000000000000840A3D0A5723F0BD1F200
 94
        0
  0
ACAD_PROXY_OBJECT
  5
67C4
330
67B8
100
AcDbProxyObject
 90
      499
 91
      537
 95
   851991
 70
     0
 93
     5762
310
571084050B90142A40502405094D6F64656C6C6F2031405DC3D2525633C486F6C653A63746469613E2078203C486F6C653A637464657074683E20555C503C696628657175616C28486F6C653A7461707065642C223022292C222525632220486F6C653A6469612C20486F6C653A6E6F6D696E616C20222078202220486F6C6
310
53A70697463686465736320696628657175616C28486F6C653A7461707065642C223122292C222078202220486F6C653A74617064657074682C222229293E203C696628657175616C28486F6C653A7465726D696E6174696F6E2C223022292C22202F202220486F6C653A64657074682C222022293E40640503405094D6F64
310
656C6C6F2031405DD3D2525633C486F6C653A63746469613E2078203C486F6C653A6374616E676C653E2525645C503C696628657175616C28486F6C653A7461707065642C223022292C222525632220486F6C653A6469612C20486F6C653A6E6F6D696E616C20222078202220486F6C653A706974636864657363206966286
310
57175616C28486F6C653A7461707065642C223122292C222078202220486F6C653A74617064657074682C222229293E203C696628657175616C28486F6C653A7465726D696E6174696F6E2C223022292C22202F202220486F6C653A64657074682C222022293E40640501405094D6F64656C6C6F2031405B83D3C696628657
310
175616C28486F6C653A7461707065642C223022292C222525632220486F6C653A6469612C20486F6C653A6E6F6D696E616C20222078202220486F6C653A70697463686465736320696628657175616C28486F6C653A7461707065642C223122292C222078202220486F6C653A74617064657074682C222229293E203C69662
310
8657175616C28486F6C653A7465726D696E6174696F6E2C223022292C22202F202220486F6C653A64657074682C222022293E4064051E405094D6F64656C6C6F20314050C3D3C535444503A444553433E40640515A8C
 94
        0
  0
ACAD_PROXY_OBJECT
  5
67C5
330
67B8
100
AcDbProxyObject
 90
      499
 91
      538
 95
   851991
 70
     0
 93
       20
310
57101C
340
67B9
 94
        0
  0
ACAD_PROXY_OBJECT
  5
67C6
330
67B8
100
AcDbProxyObject
 90
      499
 91
      539
 95
   851991
 70
     0
 93
      250
310
571020000000000000A1000000000000002440408F0F9023C3E409A0DCFFFF8C
340
4900
340
0
340
0
340
4901
340
4902
340
4903
340
4904
340
4905
340
490A
340
0
 94
        0
  0
ACAD_PROXY_OBJECT
  5
67C7
330
67B8
100
AcDbProxyObject
 90
      499
 91
      540
 95
   851991
 70
     0
 93
    13755
310
5711A003FFFFFFFD0303000300000000000003100090303000300000000000003100080511456C656E636F20636F6F7264696E617465015011D15395149050D3CB1255104B0C0B115B195B98DBC818DBDBDC991A5B985D194B11D15395149055160B095CCB0A11D1539354D1C819D95B991A5B5E880CCC0A78000C00000000
310
000000000000000000000001000000000000031010240000000000000C4040A0143151858995B1B1848199BDC9A4053B47454E545241434F2C4954412C302C546162656C6C6120666F72692C47454E54524154582C25732C2847454E4D53472067656E64696D7A20333129E000300000000000000000000000000000000400
310
00000000000C40409000000000000031010290D44111409034110541D0C4350F4050E44D03449074510F000141D3DC9A59DA5B994053547454E545241434F2C4954412C302C4F726967696E652C47454E54524154582C25732C2847454E4D53472067656E64696D7A203129000101050022140002822337B93780A648E8A9C
310
A8A482869E5892A8825860588CDEE4DE588E8A9CA8A482A8B0584AE658508E8A9C9AA68E40CECADCC8D2DAF4406452029F9E9E27B934B3B4B71F1E24A31427A91424A9A12620A7259427B934B3B4B7149624A9A12620A7259424B73232BC149496111116111711149F1E24B73232BC1F00808200111A000140560052F47454
310
E545241434F2C4954412C302C582C47454E54524154582C25732C2847454E4D53472067656E64696D7A20332900010100002054000280AC80A5E8E8A9CA8A482869E5892A882586058B2588E8A9CA8A482A8B0584AE658508E8A9C9AA68E40CECADCC8D2DAF4406852000202000040E800050172014BD1D15395149050D3CB
310
1255104B0C0B1C8B11D15395149055160B095CCB0A11D1539354D1C819D95B991A5B5E880D8A400040400008250000A0CAA5660686868029A23A2A72A2920A1A79624AA209618162A95981A1A1A1623A2A72A2920AA2C1612B9961423A2A726A9A39033B2B73234B6BD101B948000808180105A000140C94958C053147454E
310
545241434F2C4954412C302C2525632C47454E54524154582C25732C2847454E4D53472067656E64696D7A203829000101010020F4000285A232B9B1B934BD34B7B73280A748E8A9CA8A482869E5892A88258605888CAE6C6E4D2F4D2DEDCCA588E8A9CA8A482A8B0584AE658508E8A9C9AA68E40CECADCC8D2DAF44064605
310
2000200080043280005085374616E64617264014DD1D15395149050D3CB1255104B0C0B14DD185B99185C990B11D15395149055160B095CCB0A11D1539354D1C819D95B991A5B5E880C8C4A4000400100086D0000A0E9EE4D2CED2DCCA029AA3A2A72A2920A1A79624AA2096181627B934B3B4B7329623A2A72A2920AA2C16
310
12B9961423A2A726A9A39033B2B73234B6BD10189480A026202020A0043E8000504506F732E014CD1D15395149050D3CB1255104B0C0B141BDCCB8B11D15395149055160B095CCB0A11D1539354D1C819D95B991A5B5E880C4D0A4000404140080D0000A0C92DCC8D2C6CA029AA3A2A72A2920A1A79624AA2096181624B732
310
34B1B29623A2A72A2920AA2C1612B9961423A2A726A9A39033B2B73234B6BD10189A94800080828010EA000142D25B991A58D948199BDC9BC053A47454E545241434F2C4954412C302C496E6469636520666F726F2C47454E54524154582C25732C2847454E4D53472067656E64696D7A20313729000101050022740002822
310
337B93780A668E8A9CA8A482869E5892A8825860588CDEE4DE588E8A9CA8A482A8B0584AE658508E8A9C9AA68E40CECADCC8D2DAF440626C52000202080044A80005035174E0014C91D15395149050D3CB1255104B0C0B145D380B11D15395149055160B095CCB0A11D1539354D1C819D95B991A5B5E880C4E4A4000404180
310
08A521E000000000000001CA040C00000000000034408080000000000006881010000000000000D102040000000000001A204080000000000003440818000000000000728103000000000000125020600000000004028A040000000000000034408000000000000004881000000000000000D102000000000000001A204000
310
000000000003440818000000000000508143C0000000000000039408180000000000006881030000000000000D102060000000000001A2040C00000000000034408180000000000006881030000000000000E5020600000000000024A040C00000000008051408000000000000006881000000000000000910200000000000
310
0001A2040000000000000034408180000000000006881030000000000000A10283A2000000087800000204000000818000002080000008280000020E00000080A24000000C
340
0
340
0
340
0
340
0
 94
        0
  0
ACAD_PROXY_OBJECT
  5
67C8
330
67B8
100
AcDbProxyObject
 90
      499
 91
      541
 95
   851991
 70
     0
 93
     7258
310
5719740D254D3D0649534F5F4133429254D3D7D5125513115051349534F5F42525F5265766973696F6E6C69737446111413478342028323937783834316D6D2920421254D3D7D04D1E0D11141327835202835393478323130326D6D29421254D3D7D04C9E0D51141337837202834323078323038306D6D29421254D3D7D04C
310
DE0DD1141347839202832393778313839326D6D29421254D3D7D04D1E0E50E41312028353934783834316D6D29419254D3D7D04C51141327834202835393478313638326D6D29421254D3D7D04C9E0D11141347838202832393778313638326D6D29421254D3D7D04D1E0E10E41332028323937783432306D6D29419254D3D
310
7D04CD104130202838343078313138396D6D2920419254D3D7D04C11141347835202832393778313035316D6D29421254D3D7D04D1E0D51141347836202832393778313236316D6D29421254D3D7D04D1E0D91141347837202832393778313437316D6D29421254D3D7D04D1E0DD1141327833202835393478313236316D6D
310
29421254D3D7D04C9E0CD1141337834202834323078313138396D6D29421254D3D7D04CDE0D110413478332028323937783633306D6D29421254D3D7D04D1E0CD1141337835202834323078313438366D6D29421254D3D7D04CDE0D51141337836202834323078313738336D6D29421254D3D7D04CDE0D9104133783320283
310
43230783839316D6D29421254D3D7D04CDE0CD0E41322028343230783539346D6D29419254D3D7D04C9124130783220283131383978313638326D6D29421254D3D7D04C1E0C90E41342028323937783231306D6D29419254D3D7D04D1124130783320283131383978323532336D6D29421254D3D7D04C1E0CD114131783420
310
2838343178323337386D6D29421254D3D7D04C5E0D11141317833202838343178313738336D6D29421254D3D7D04C5E0CD0243D254D3C810D85C9D1A59DB1A5BC81050A49534F5F5449544C454143D254D3C810D85C9D1A59DB1A5BC81090A49534F5F5449544C454241114456C656E636F207265766973696F6E695F54525
310
F44D254D3D7D51497D4995D9A5CDA5BDB9B1A5CDD114456C656E636F207265766973696F6E695F424C5F44D254D3D7D09317D4995D9A5CDA5BDB9B1A5CDD114456C656E636F207265766973696F6E695F544C5F44D254D3D7D51317D4995D9A5CDA5BDB9B1A5CDD114456C656E636F207265766973696F6E695F42525F44D2
310
54D3D7D09497D4995D9A5CDA5BDB9B1A5CDD0C
 94
        0
  0
ENDSEC
  0
EOF
