  0
SECTION
  2
HEADER
  9
$ACADVER
  1
AC1018
  9
$ACADMAINTVER
 70
   104
  9
$DWGCODEPAGE
  3
ANSI_1252
  9
$LASTSAVEDBY
  1
Achim
  9
$CUSTOMPROPERTYTAG
  1
AmdtFileType
  9
$CUSTOMPROPERTY
  1
84
  9
$INSBASE
 10
0.0
 20
0.0
 30
0.0
  9
$EXTMIN
 10
-454.0430205650919
 20
-200.0000000000004
 30
0.0
  9
$EXTMAX
 10
1795.642076015934
 20
599.7136704531376
 30
0.0
  9
$LIMMIN
 10
0.0
 20
0.0
  9
$LIMMAX
 10
420.0
 20
297.0
  9
$ORTHOMODE
 70
     0
  9
$REGENMODE
 70
     1
  9
$FILLMODE
 70
     1
  9
$QTEXTMODE
 70
     0
  9
$MIRRTEXT
 70
     1
  9
$LTSCALE
 40
20.0
  9
$ATTMODE
 70
     1
  9
$TEXTSIZE
 40
2.5
  9
$TRACEWID
 40
1.0
  9
$TEXTSTYLE
  7
STANDARD
  9
$CLAYER
  8
ASSI
  9
$CELTYPE
  6
BYLAYER
  9
$CECOLOR
 62
   256
  9
$CELTSCALE
 40
1.0
  9
$DISPSILH
 70
     0
  9
$DIMSCALE
 40
1.0
  9
$DIMASZ
 40
2.5
  9
$DIMEXO
 40
0.625
  9
$DIMDLI
 40
3.75
  9
$DIMRND
 40
0.0
  9
$DIMDLE
 40
0.0
  9
$DIMEXE
 40
1.25
  9
$DIMTP
 40
0.0
  9
$DIMTM
 40
0.0
  9
$DIMTXT
 40
5.0
  9
$DIMCEN
 40
2.5
  9
$DIMTSZ
 40
0.0
  9
$DIMTOL
 70
     0
  9
$DIMLIM
 70
     0
  9
$DIMTIH
 70
     0
  9
$DIMTOH
 70
     0
  9
$DIMSE1
 70
     0
  9
$DIMSE2
 70
     0
  9
$DIMTAD
 70
     1
  9
$DIMZIN
 70
     8
  9
$DIMBLK
  1

  9
$DIMASO
 70
     1
  9
$DIMSHO
 70
     1
  9
$DIMPOST
  1

  9
$DIMAPOST
  1

  9
$DIMALT
 70
     0
  9
$DIMALTD
 70
     4
  9
$DIMALTF
 40
0.0394
  9
$DIMLFAC
 40
1.0
  9
$DIMTOFL
 70
     1
  9
$DIMTVP
 40
0.0
  9
$DIMTIX
 70
     0
  9
$DIMSOXD
 70
     0
  9
$DIMSAH
 70
     0
  9
$DIMBLK1
  1

  9
$DIMBLK2
  1

  9
$DIMSTYLE
  2
STANDARD
  9
$DIMCLRD
 70
     0
  9
$DIMCLRE
 70
     0
  9
$DIMCLRT
 70
     0
  9
$DIMTFAC
 40
1.0
  9
$DIMGAP
 40
0.625
  9
$DIMJUST
 70
     0
  9
$DIMSD1
 70
     0
  9
$DIMSD2
 70
     0
  9
$DIMTOLJ
 70
     1
  9
$DIMTZIN
 70
     0
  9
$DIMALTZ
 70
     0
  9
$DIMALTTZ
 70
     0
  9
$DIMUPT
 70
     0
  9
$DIMDEC
 70
     4
  9
$DIMTDEC
 70
     4
  9
$DIMALTU
 70
     8
  9
$DIMALTTD
 70
     4
  9
$DIMTXSTY
  7
STANDARD
  9
$DIMAUNIT
 70
     0
  9
$DIMADEC
 70
     0
  9
$DIMALTRND
 40
0.0
  9
$DIMAZIN
 70
     0
  9
$DIMDSEP
 70
    46
  9
$DIMATFIT
 70
     3
  9
$DIMFRAC
 70
     0
  9
$DIMLDRBLK
  1

  9
$DIMLUNIT
 70
     2
  9
$DIMLWD
 70
    -2
  9
$DIMLWE
 70
    -2
  9
$DIMTMOVE
 70
     0
  9
$LUNITS
 70
     2
  9
$LUPREC
 70
     4
  9
$SKETCHINC
 40
1.0
  9
$FILLETRAD
 40
10.0
  9
$AUNITS
 70
     0
  9
$AUPREC
 70
     0
  9
$MENU
  1
.
  9
$ELEVATION
 40
0.0
  9
$PELEVATION
 40
0.0
  9
$THICKNESS
 40
0.0
  9
$LIMCHECK
 70
     0
  9
$CHAMFERA
 40
10.0
  9
$CHAMFERB
 40
10.0
  9
$CHAMFERC
 40
20.0
  9
$CHAMFERD
 40
0.0
  9
$SKPOLY
 70
     0
  9
$TDCREATE
 40
2452088.678836968
  9
$TDUCREATE
 40
2452088.595503635
  9
$TDUPDATE
 40
2455404.461536678
  9
$TDUUPDATE
 40
2455404.378203345
  9
$TDINDWG
 40
0.2390680093
  9
$TDUSRTIMER
 40
0.2390677315
  9
$USRTIMER
 70
     1
  9
$ANGBASE
 50
0.0
  9
$ANGDIR
 70
     0
  9
$PDMODE
 70
     0
  9
$PDSIZE
 40
0.0
  9
$PLINEWID
 40
0.0
  9
$SPLFRAME
 70
     0
  9
$SPLINETYPE
 70
     6
  9
$SPLINESEGS
 70
     8
  9
$HANDSEED
  5
33FD
  9
$SURFTAB1
 70
     6
  9
$SURFTAB2
 70
     6
  9
$SURFTYPE
 70
     6
  9
$SURFU
 70
     6
  9
$SURFV
 70
     6
  9
$UCSBASE
  2

  9
$UCSNAME
  2

  9
$UCSORG
 10
0.0
 20
0.0
 30
0.0
  9
$UCSXDIR
 10
1.0
 20
0.0
 30
0.0
  9
$UCSYDIR
 10
0.0
 20
1.0
 30
0.0
  9
$UCSORTHOREF
  2

  9
$UCSORTHOVIEW
 70
     0
  9
$UCSORGTOP
 10
0.0
 20
0.0
 30
0.0
  9
$UCSORGBOTTOM
 10
0.0
 20
0.0
 30
0.0
  9
$UCSORGLEFT
 10
0.0
 20
0.0
 30
0.0
  9
$UCSORGRIGHT
 10
0.0
 20
0.0
 30
0.0
  9
$UCSORGFRONT
 10
0.0
 20
0.0
 30
0.0
  9
$UCSORGBACK
 10
0.0
 20
0.0
 30
0.0
  9
$PUCSBASE
  2

  9
$PUCSNAME
  2

  9
$PUCSORG
 10
0.0
 20
0.0
 30
0.0
  9
$PUCSXDIR
 10
1.0
 20
0.0
 30
0.0
  9
$PUCSYDIR
 10
0.0
 20
1.0
 30
0.0
  9
$PUCSORTHOREF
  2

  9
$PUCSORTHOVIEW
 70
     0
  9
$PUCSORGTOP
 10
0.0
 20
0.0
 30
0.0
  9
$PUCSORGBOTTOM
 10
0.0
 20
0.0
 30
0.0
  9
$PUCSORGLEFT
 10
0.0
 20
0.0
 30
0.0
  9
$PUCSORGRIGHT
 10
0.0
 20
0.0
 30
0.0
  9
$PUCSORGFRONT
 10
0.0
 20
0.0
 30
0.0
  9
$PUCSORGBACK
 10
0.0
 20
0.0
 30
0.0
  9
$USERI1
 70
     0
  9
$USERI2
 70
     0
  9
$USERI3
 70
     0
  9
$USERI4
 70
     0
  9
$USERI5
 70
     0
  9
$USERR1
 40
0.0
  9
$USERR2
 40
0.0
  9
$USERR3
 40
0.0
  9
$USERR4
 40
0.0
  9
$USERR5
 40
0.0
  9
$WORLDVIEW
 70
     1
  9
$SHADEDGE
 70
     3
  9
$SHADEDIF
 70
    70
  9
$TILEMODE
 70
     1
  9
$MAXACTVP
 70
    48
  9
$PINSBASE
 10
0.0
 20
0.0
 30
0.0
  9
$PLIMCHECK
 70
     0
  9
$PEXTMIN
 10
1.000000000000000E+20
 20
1.000000000000000E+20
 30
1.000000000000000E+20
  9
$PEXTMAX
 10
-1.000000000000000E+20
 20
-1.000000000000000E+20
 30
-1.000000000000000E+20
  9
$PLIMMIN
 10
0.0
 20
0.0
  9
$PLIMMAX
 10
420.0
 20
297.0
  9
$UNITMODE
 70
     0
  9
$VISRETAIN
 70
     1
  9
$PLINEGEN
 70
     0
  9
$PSLTSCALE
 70
     1
  9
$TREEDEPTH
 70
  3020
  9
$CMLSTYLE
  2
STANDARD
  9
$CMLJUST
 70
     0
  9
$CMLSCALE
 40
20.0
  9
$PROXYGRAPHICS
 70
     1
  9
$MEASUREMENT
 70
     1
  9
$CELWEIGHT
370
    -1
  9
$ENDCAPS
280
     0
  9
$JOINSTYLE
280
     0
  9
$LWDISPLAY
290
     0
  9
$INSUNITS
 70
     0
  9
$HYPERLINKBASE
  1

  9
$STYLESHEET
  1
Tecno center Stampante.ctb
  9
$XEDIT
290
     1
  9
$CEPSNTYPE
380
     0
  9
$PSTYLEMODE
290
     1
  9
$FINGERPRINTGUID
  2
{B1CDB610-46F3-11D6-99F9-000102212E7C}
  9
$VERSIONGUID
  2
{2D8599DE-2638-4998-BD5A-EE35528C5402}
  9
$EXTNAMES
290
     1
  9
$PSVPSCALE
 40
0.0
  9
$OLESTARTUP
290
     0
  9
$SORTENTS
280
   127
  9
$INDEXCTL
280
     1
  9
$HIDETEXT
280
     0
  9
$XCLIPFRAME
290
     0
  9
$HALOGAP
280
     0
  9
$OBSCOLOR
 70
   257
  9
$OBSLTYPE
280
     0
  9
$INTERSECTIONDISPLAY
280
     0
  9
$INTERSECTIONCOLOR
 70
   257
  9
$DIMASSOC
280
     1
  9
$PROJECTNAME
  1

  0
ENDSEC
  0
SECTION
  2
CLASSES
  0
CLASS
  1
LWPOLYLINE
  2
AcDbPolyline
  3
ObjectDBX Classes
 90
        0
 91
        0
280
     0
281
     1
  0
CLASS
  1
ACDBDICTIONARYWDFLT
  2
AcDbDictionaryWithDefault
  3
ObjectDBX Classes
 90
        0
 91
        1
280
     0
281
     0
  0
CLASS
  1
ACDBPLACEHOLDER
  2
AcDbPlaceHolder
  3
ObjectDBX Classes
 90
        0
 91
        1
280
     0
281
     0
  0
CLASS
  1
LAYOUT
  2
AcDbLayout
  3
ObjectDBX Classes
 90
        0
 91
        2
280
     0
281
     0
  0
CLASS
  1
ACME_DOCUMENT
  2
AcMeDbDoc
  3
AcMeServices
 90
        0
 91
        0
280
     0
281
     0
  0
CLASS
  1
AMGSETTINGSOBJ
  2
AmgSettingsObj
  3
"AcadM|Product Description: AutoCAD Mechanical 2000|Company: Autodesk"
 90
        0
 91
        4
280
     0
281
     0
  0
CLASS
  1
ACMESCOPE
  2
AcMeScope
  3
AcMeServices
 90
        0
 91
        2
280
     0
281
     0
  0
CLASS
  1
ACMECOMMANDHISTORY
  2
AcMeCommandHistory
  3
AcMeServices
 90
        0
 91
        2
280
     0
281
     0
  0
CLASS
  1
ACIMSYSVARMAN
  2
AcImSysVarManager
  3
AcMeServices
 90
        0
 91
        4
280
     0
281
     0
  0
CLASS
  1
ACIMREALSYSVAR
  2
AcImRealSysVar
  3
AcMeServices
 90
        0
 91
        4
280
     0
281
     0
  0
CLASS
  1
ACIMINTSYSVAR
  2
AcImIntSysVar
  3
AcMeServices
 90
        0
 91
        2
280
     0
281
     0
  0
CLASS
  1
ACMEDRAWINGMAN
  2
AcMeDrawingMan
  3
AcMeServices
 90
        0
 91
        2
280
     0
281
     0
  0
CLASS
  1
ACMEVIEW
  2
AcMeView
  3
AcMeServices
 90
        0
 91
        2
280
     0
281
     0
  0
CLASS
  1
ACDBENTITYCACHE
  2
AcMeEntityCache
  3
AcMeServices
 90
        0
 91
        0
280
     0
281
     0
  0
CLASS
  1
GSMANAGER
  2
AcMeGSManager
  3
AcMeServices
 90
        0
 91
        0
280
     0
281
     0
  0
CLASS
  1
AMDTINTERNALREACTOR
  2
AmdtInternalReactor
  3
AcMeServices
 90
        0
 91
        0
280
     0
281
     0
  0
CLASS
  1
ACMESTATEMGR
  2
AcMeStateMgr
  3
AcMeServices
 90
        0
 91
        2
280
     0
281
     0
  0
CLASS
  1
ACGREFMASTER
  2
AcGrefMaster
  3
AcAttribServices
 90
        0
 91
        2
280
     0
281
     0
  0
CLASS
  1
ACME_DATABASE
  2
AcMeDbDatabase
  3
AcMeServices
 90
        0
 91
        0
280
     0
281
     0
  0
CLASS
  1
ACRFINSADJUSTERMGR
  2
AcRfInsAdjusterMgr
  3
AcMeServices
 90
        0
 91
        0
280
     0
281
     0
  0
CLASS
  1
ACGREFACADMASTER
  2
AcGrefacadMaster
  3
AcGrefServices
 90
        0
 91
        2
280
     0
281
     0
  0
CLASS
  1
AMIMASTER
  2
AmiMaster
  3
AmiServices
 90
        0
 91
        2
280
     0
281
     0
  0
CLASS
  1
ACMDATADICTIONARY
  2
AcmDataDictionary
  3
"AcmSymBB|Product Description: AutoCAD Mechanical 2000|Company: Autodesk"
 90
        0
 91
        2
280
     0
281
     0
  0
CLASS
  1
ACMDATAENTRYBLOCK
  2
AcmDataEntryBlock
  3
"AcmSymBB|Product Description: AutoCAD Mechanical 2000|Company: Autodesk"
 90
        0
 91
        2
280
     0
281
     0
  0
CLASS
  1
ACIMSTRSYSVAR
  2
AcImStrSysVar
  3
AcMeServices
 90
        0
 91
        2
280
     0
281
     0
  0
CLASS
  1
ACMSTANDARDISO
  2
AcmStandardISO
  3
"Amdt_StdImp|Product Description: AutoCAD Mechanical 2000|Company: Autodesk"
 90
        0
 91
        2
280
     0
281
     0
  0
CLASS
  1
AMGOBJPROPCFG
  2
AmgObjPropCfg
  3
"AmgLay|Product Description: AutoCAD Mechanical 2000|Company: Autodesk"
 90
        1
 91
        2
280
     0
281
     0
  0
CLASS
  1
AMDTEDGESTANDARDISO
  2
AmdtEdgeStdISO
  3
"Amdt_StdImp|Product Description: AutoCAD Mechanical 2000|Company: Autodesk"
 90
        0
 91
        2
280
     0
281
     0
  0
CLASS
  1
ACMSURFSTANDARDISO
  2
AcmSurfTextStdISO
  3
"Amdt_StdImp|Product Description: AutoCAD Mechanical 2000|Company: Autodesk"
 90
        0
 91
        2
280
     0
281
     0
  0
CLASS
  1
ACMFCFSTANDARDISO
  2
AcmFCFStdISO
  3
"Amdt_StdImp|Product Description: AutoCAD Mechanical 2000|Company: Autodesk"
 90
        0
 91
        2
280
     0
281
     0
  0
CLASS
  1
ACMWELDSTANDARDISO
  2
AcmWeldingStdISO
  3
"Amdt_StdImp|Product Description: AutoCAD Mechanical 2000|Company: Autodesk"
 90
        0
 91
        2
280
     0
281
     0
  0
CLASS
  1
ACMIDSTANDARDISO
  2
AcmIdStdISO
  3
"Amdt_StdImp|Product Description: AutoCAD Mechanical 2000|Company: Autodesk"
 90
        0
 91
        2
280
     0
281
     0
  0
CLASS
  1
ACMDATUMSTANDARDISO
  2
AcmDatumStdISO
  3
"Amdt_StdImp|Product Description: AutoCAD Mechanical 2000|Company: Autodesk"
 90
        0
 91
        2
280
     0
281
     0
  0
CLASS
  1
ACMBOMSTANDARDISO
  2
AcmBOMStdISO
  3
"Amdt_StdImp|Product Description: AutoCAD Mechanical 2000|Company: Autodesk"
 90
        0
 91
        2
280
     0
281
     0
  0
CLASS
  1
ACMDETAILSTANDARDISO
  2
AmdtDetailSymStdISO
  3
"Amdt_StdImp|Product Description: AutoCAD Mechanical 2000|Company: Autodesk"
 90
        0
 91
        2
280
     0
281
     0
  0
CLASS
  1
ACMSECTIONSTANDARDISO
  2
AmdtSectionSymStdISO
  3
"Amdt_StdImp|Product Description: AutoCAD Mechanical 2000|Company: Autodesk"
 90
        0
 91
        2
280
     0
281
     0
  0
CLASS
  1
ACMCENTERLINESTANDARDISO
  2
AmdtCenterLineStdISO
  3
"Amdt_StdImp|Product Description: AutoCAD Mechanical 2000|Company: Autodesk"
 90
        0
 91
        2
280
     0
281
     0
  0
CLASS
  1
ACMNOTESTANDARDISO
  2
AmdtNoteStdISO
  3
"Amdt_StdImp|Product Description: AutoCAD Mechanical 2000|Company: Autodesk"
 90
        0
 91
        2
280
     0
281
     0
  0
CLASS
  1
ACAMGLAYSTD
  2
AcAmgLayStd
  3
"AcAmgLayStd|Product Description: AutoCAD Mechanical 2000|Company: Autodesk"
 90
        0
 91
        2
280
     0
281
     0
  0
CLASS
  1
ACAMGDIMSTD
  2
AcAmgDimStd
  3
"AcAmgDimStd|Product Description: AutoCAD Mechanical 2000|Company: Autodesk"
 90
        0
 91
        2
280
     0
281
     0
  0
CLASS
  1
ACAMGHOLECHARTSTDISO
  2
AcAmgHoleChartStdISO
  3
ACMSYMBB_MODULE_NAME
 90
        0
 91
        2
280
     0
281
     0
  0
CLASS
  1
ACAMGTITLESTD
  2
AcAmgTitleStd
  3
"TITLEAPP"
 90
        0
 91
        2
280
     0
281
     0
  0
CLASS
  1
ACAMGFILTERDAT
  2
AcAmgFilterDat
  3
"AcadM|Product Description: AutoCAD Mechanical 2000|Company: Autodesk"
 90
        0
 91
        0
280
     0
281
     0
  0
CLASS
  1
LAYER_INDEX
  2
AcDbLayerIndex
  3
ObjectDBX Classes
 90
        0
 91
        1
280
     0
281
     0
  0
CLASS
  1
IDBUFFER
  2
AcDbIdBuffer
  3
ObjectDBX Classes
 90
        0
 91
        8
280
     0
281
     0
  0
CLASS
  1
DICTIONARYVAR
  2
AcDbDictionaryVar
  3
ObjectDBX Classes
 90
        0
 91
        5
280
     0
281
     0
  0
CLASS
  1
LONG_TRANSACTION
  2
AcDbLongTransaction
  3
ObjectDBX Classes
 90
        0
 91
        0
280
     0
281
     0
  0
CLASS
  1
LWPOLYLINE
  2
AcDbPolyline
  3
ObjectDBX Classes
 90
        0
 91
        0
280
     0
281
     1
  0
CLASS
  1
HATCH
  2
AcDbHatch
  3
ObjectDBX Classes
 90
        0
 91
        0
280
     0
281
     1
  0
CLASS
  1
XRECORD
  2
AcDbXrecord
  3
ObjectDBX Classes
 90
        0
 91
       67
280
     0
281
     0
  0
CLASS
  1
LONG_TRANSACTION
  2
AcDbLongTransaction
  3
ObjectDBX Classes
 90
        0
 91
        0
280
     0
281
     0
  0
CLASS
  1
LWPOLYLINE
  2
AcDbPolyline
  3
ObjectDBX Classes
 90
        0
 91
        0
280
     0
281
     1
  0
CLASS
  1
HATCH
  2
AcDbHatch
  3
ObjectDBX Classes
 90
        0
 91
        0
280
     0
281
     1
  0
CLASS
  1
XRECORD
  2
AcDbXrecord
  3
ObjectDBX Classes
 90
        0
 91
       67
280
     0
281
     0
  0
CLASS
  1
AMDTFORMULAUPDATEDISPATCHER
  2
AmdtFormulaUpdateDispatcher
  3
AcMeServices
 90
        0
 91
        2
280
     0
281
     0
  0
CLASS
  1
ACMSTANDARDANSI
  2
AcmStandardANSI
  3
"Amdt_StdImp|Product Description: AutoCAD Mechanical 2000|Company: Autodesk"
 90
        0
 91
        0
280
     0
281
     0
  0
CLASS
  1
ACMSURFSTANDARDANSI
  2
AcmSurfTextStdANSI
  3
"Amdt_StdImp|Product Description: AutoCAD Mechanical 2000|Company: Autodesk"
 90
        0
 91
        0
280
     0
281
     0
  0
CLASS
  1
ACMFCFSTANDARDANSI
  2
AcmFCFStdANSI
  3
"Amdt_StdImp|Product Description: AutoCAD Mechanical 2000|Company: Autodesk"
 90
        0
 91
        0
280
     0
281
     0
  0
CLASS
  1
ACMWELDSTANDARDANSI
  2
AcmWeldingStdANSI
  3
"Amdt_StdImp|Product Description: AutoCAD Mechanical 2000|Company: Autodesk"
 90
        0
 91
        0
280
     0
281
     0
  0
CLASS
  1
ACMIDSTANDARDANSI
  2
AcmIdStdANSI
  3
"Amdt_StdImp|Product Description: AutoCAD Mechanical 2000|Company: Autodesk"
 90
        0
 91
        0
280
     0
281
     0
  0
CLASS
  1
ACMDATUMSTANDARDANSI
  2
AcmDatumStdANSI
  3
"Amdt_StdImp|Product Description: AutoCAD Mechanical 2000|Company: Autodesk"
 90
        0
 91
        0
280
     0
281
     0
  0
CLASS
  1
ACMBOMSTANDARDANSI
  2
AcmBOMStdANSI
  3
"Amdt_StdImp|Product Description: AutoCAD Mechanical 2000|Company: Autodesk"
 90
        0
 91
        0
280
     0
281
     0
  0
CLASS
  1
ACMDETAILSTANDARDANSI
  2
AmdtDetailSymStdANSI
  3
"Amdt_StdImp|Product Description: AutoCAD Mechanical 2000|Company: Autodesk"
 90
        0
 91
        0
280
     0
281
     0
  0
CLASS
  1
ACMSECTIONSTANDARDANSI
  2
AmdtSectionSymStdANSI
  3
"Amdt_StdImp|Product Description: AutoCAD Mechanical 2000|Company: Autodesk"
 90
        0
 91
        0
280
     0
281
     0
  0
CLASS
  1
ACMCENTERLINESTANDARDANSI
  2
AmdtCenterLineStdANSI
  3
"Amdt_StdImp|Product Description: AutoCAD Mechanical 2000|Company: Autodesk"
 90
        0
 91
        0
280
     0
281
     0
  0
CLASS
  1
ACMNOTESTANDARDANSI
  2
AmdtNoteStdANSI
  3
"Amdt_StdImp|Product Description: AutoCAD Mechanical 2000|Company: Autodesk"
 90
        0
 91
        0
280
     0
281
     0
  0
CLASS
  1
ACAMGHOLECHARTSTDANSI
  2
AcAmgHoleChartStdANSI
  3
ACMSYMBB_MODULE_NAME
 90
        0
 91
        0
280
     0
281
     0
  0
CLASS
  1
LONG_TRANSACTION
  2
AcDbLongTransaction
  3
ObjectDBX Classes
 90
        0
 91
        0
280
     0
281
     0
  0
CLASS
  1
LWPOLYLINE
  2
AcDbPolyline
  3
ObjectDBX Classes
 90
        0
 91
        0
280
     0
281
     1
  0
CLASS
  1
HATCH
  2
AcDbHatch
  3
ObjectDBX Classes
 90
        0
 91
        0
280
     0
281
     1
  0
CLASS
  1
XRECORD
  2
AcDbXrecord
  3
ObjectDBX Classes
 90
        0
 91
       67
280
     0
281
     0
  0
CLASS
  1
LONG_TRANSACTION
  2
AcDbLongTransaction
  3
ObjectDBX Classes
 90
        0
 91
        0
280
     0
281
     0
  0
CLASS
  1
LWPOLYLINE
  2
AcDbPolyline
  3
ObjectDBX Classes
 90
        0
 91
        0
280
     0
281
     1
  0
CLASS
  1
HATCH
  2
AcDbHatch
  3
ObjectDBX Classes
 90
        0
 91
        0
280
     0
281
     1
  0
CLASS
  1
XRECORD
  2
AcDbXrecord
  3
ObjectDBX Classes
 90
        0
 91
       67
280
     0
281
     0
  0
CLASS
  1
LONG_TRANSACTION
  2
AcDbLongTransaction
  3
ObjectDBX Classes
 90
        0
 91
        0
280
     0
281
     0
  0
CLASS
  1
LWPOLYLINE
  2
AcDbPolyline
  3
ObjectDBX Classes
 90
        0
 91
        0
280
     0
281
     1
  0
CLASS
  1
HATCH
  2
AcDbHatch
  3
ObjectDBX Classes
 90
        0
 91
        0
280
     0
281
     1
  0
CLASS
  1
XRECORD
  2
AcDbXrecord
  3
ObjectDBX Classes
 90
        0
 91
       67
280
     0
281
     0
  0
CLASS
  1
ACAD_PROXY_OBJECT_WRAPPER
  2
AcDbProxyObjectWrapper
  3
ObjectDBX Classes
 90
        0
 91
        0
280
     0
281
     0
  0
CLASS
  1
LONG_TRANSACTION
  2
AcDbLongTransaction
  3
ObjectDBX Classes
 90
        0
 91
        0
280
     0
281
     0
  0
CLASS
  1
LWPOLYLINE
  2
AcDbPolyline
  3
ObjectDBX Classes
 90
        0
 91
        0
280
     0
281
     1
  0
CLASS
  1
HATCH
  2
AcDbHatch
  3
ObjectDBX Classes
 90
        0
 91
        0
280
     0
281
     1
  0
CLASS
  1
XRECORD
  2
AcDbXrecord
  3
ObjectDBX Classes
 90
        0
 91
       67
280
     0
281
     0
  0
CLASS
  1
MATERIAL
  2
AcDbMaterial
  3
ObjectDBX Classes
 90
     1153
 91
        3
280
     0
281
     0
  0
CLASS
  1
VISUALSTYLE
  2
AcDbVisualStyle
  3
ObjectDBX Classes
 90
     4095
 91
       16
280
     0
281
     0
  0
CLASS
  1
TABLESTYLE
  2
AcDbTableStyle
  3
ObjectDBX Classes
 90
     4095
 91
        1
280
     0
281
     0
  0
CLASS
  1
SCALE
  2
AcDbScale
  3
ObjectDBX Classes
 90
     1153
 91
       33
280
     0
281
     0
  0
CLASS
  1
MLEADERSTYLE
  2
AcDbMLeaderStyle
  3
ACDB_MLEADERSTYLE_CLASS
 90
     4095
 91
        1
280
     0
281
     0
  0
CLASS
  1
CELLSTYLEMAP
  2
AcDbCellStyleMap
  3
ObjectDBX Classes
 90
     1152
 91
        1
280
     0
281
     0
  0
ENDSEC
  0
SECTION
  2
TABLES
  0
TABLE
  2
VPORT
  5
8
330
0
100
AcDbSymbolTable
 70
     1
  0
VPORT
  5
3366
330
8
100
AcDbSymbolTableRecord
100
AcDbViewportTableRecord
  2
*ACTIVE
 70
     0
 10
0.0
 20
0.0
 11
1.0
 21
1.0
 12
746.0781539717957
 22
199.8568566407713
 13
0.0
 23
0.0
 14
10.0
 24
10.0
 15
10.0
 25
10.0
 16
0.0
 26
0.0
 36
1.0
 17
0.0
 27
0.0
 37
0.0
 40
1386.766604639254
 41
1.739910313901345
 42
50.0
 43
0.0
 44
0.0
 50
0.0
 51
0.0
 71
     0
 72
  1234
 73
     1
 74
     0
 75
     0
 76
     0
 77
     0
 78
     0
281
     0
 65
     1
110
0.0
120
0.0
130
0.0
111
1.0
121
0.0
131
0.0
112
0.0
122
1.0
132
0.0
 79
     0
146
0.0
  0
ENDTAB
  0
TABLE
  2
LTYPE
  5
5
330
0
100
AcDbSymbolTable
 70
    13
  0
LTYPE
  5
12
330
5
100
AcDbSymbolTableRecord
100
AcDbLinetypeTableRecord
  2
BYBLOCK
 70
     0
  3

 72
    65
 73
     0
 40
0.0
  0
LTYPE
  5
13
330
5
100
AcDbSymbolTableRecord
100
AcDbLinetypeTableRecord
  2
BYLAYER
 70
     0
  3

 72
    65
 73
     0
 40
0.0
  0
LTYPE
  5
14
330
5
100
AcDbSymbolTableRecord
100
AcDbLinetypeTableRecord
  2
CONTINUOUS
 70
     0
  3
Solid line
 72
    65
 73
     0
 40
0.0
  0
LTYPE
  5
141
330
5
100
AcDbSymbolTableRecord
100
AcDbLinetypeTableRecord
  2
CENTER
 70
     0
  3
____ _ ____ _ ____ _ ____ _ ____ _ ____ _ ____ 
 72
    65
 73
     4
 40
2.0
 49
1.25
 74
     0
 49
-0.25
 74
     0
 49
0.25
 74
     0
 49
-0.25
 74
     0
  0
LTYPE
  5
142
330
5
100
AcDbSymbolTableRecord
100
AcDbLinetypeTableRecord
  2
DASHED
 70
     0
  3
Dashed __ __ __ __ __ __ __ __ __ __ __ __ __ _
 72
    65
 73
     2
 40
19.04999999999999
 49
12.7
 74
     0
 49
-6.349999999999998
 74
     0
  0
LTYPE
  5
C58
330
5
100
AcDbSymbolTableRecord
100
AcDbLinetypeTableRecord
  2
AM_ISO02W050
 70
     0
  3
__ __ __ __ __ __ __ __ __ __ __ __ __ __ __
 72
    65
 73
     2
 40
7.5
 49
6.0
 74
     0
 49
-1.5
 74
     0
  0
LTYPE
  5
C59
330
5
100
AcDbSymbolTableRecord
100
AcDbLinetypeTableRecord
  2
AM_ISO08W050
 70
     0
  3
____ . ____ . ____ . ____ . ____ . ____ . ____
 72
    65
 73
     4
 40
18.0
 49
12.0
 74
     0
 49
-1.5
 74
     0
 49
3.0
 74
     0
 49
-1.5
 74
     0
  0
LTYPE
  5
C5A
330
5
100
AcDbSymbolTableRecord
100
AcDbLinetypeTableRecord
  2
AM_ISO09W050
 70
     0
  3
_____ . . _____ . . _____ . . ____ .. ____
 72
    65
 73
     6
 40
22.5
 49
12.0
 74
     0
 49
-1.5
 74
     0
 49
3.0
 74
     0
 49
-1.5
 74
     0
 49
3.0
 74
     0
 49
-1.5
 74
     0
  0
LTYPE
  5
C5B
330
5
100
AcDbSymbolTableRecord
100
AcDbLinetypeTableRecord
  2
AMCONSTR
 70
     0
  3
_______________________
 72
    65
 73
     2
 40
9999.0
 49
9999.0
 74
     0
 49
0.0
 74
     0
  0
LTYPE
  5
C5C
330
5
100
AcDbSymbolTableRecord
100
AcDbLinetypeTableRecord
  2
AM_ISO08W050X2
 70
     0
  3
__ . __ . __ . __ . __ . __
 72
    65
 73
     4
 40
9.0
 49
6.0
 74
     0
 49
-0.75
 74
     0
 49
1.5
 74
     0
 49
-0.75
 74
     0
  0
LTYPE
  5
C5D
330
5
100
AcDbSymbolTableRecord
100
AcDbLinetypeTableRecord
  2
AM_ISO02W050X2
 70
     0
  3
 _ _ _ _ _ _ _ _ _ _ _ _
 72
    65
 73
     2
 40
3.75
 49
3.0
 74
     0
 49
-0.75
 74
     0
  0
LTYPE
  5
C60
330
5
100
AcDbSymbolTableRecord
100
AcDbLinetypeTableRecord
  2
AMZIGZAG
 70
     0
  3
/\/-/\/-/\/-/\/-/\/-/\/
 72
    65
 73
     2
 40
11.00009999999999
 49
0.0001
 74
     4
 75
   135
340
C5F
 46
0.04
 50
0.0
 44
0.0
 45
0.0
 49
-11.0
 74
     0
  0
LTYPE
  5
C6E
330
5
100
AcDbSymbolTableRecord
100
AcDbLinetypeTableRecord
  2
ACISOWELD
 70
     0
  3
_ _ _ _ _
 72
    65
 73
     2
 40
2.0
 49
2.0
 74
     0
 49
-1.0
 74
     0
  0
LTYPE
  5
C6F
330
5
100
AcDbSymbolTableRecord
100
AcDbLinetypeTableRecord
  2
ACISOTGB
 70
     0
  3
__ . . __ . .
 72
    65
 73
     6
 40
9.0
 49
4.0
 74
     0
 49
-1.0
 74
     0
 49
1.0
 74
     0
 49
-1.0
 74
     0
 49
1.0
 74
     0
 49
-1.0
 74
     0
  0
LTYPE
  5
C70
330
5
100
AcDbSymbolTableRecord
100
AcDbLinetypeTableRecord
  2
ACISOTGL
 70
     0
  3
_ _ _ _ _
 72
    65
 73
     2
 40
3.0
 49
2.0
 74
     0
 49
-1.0
 74
     0
  0
ENDTAB
  0
TABLE
  2
LAYER
  5
2
102
{ACAD_XDICTIONARY
360
2BEE
102
}
330
0
100
AcDbSymbolTable
 70
     8
  0
LAYER
  5
E
102
{ACAD_XDICTIONARY
360
33E5
102
}
330
2
100
AcDbSymbolTableRecord
100
AcDbLayerTableRecord
  2
0
 70
     0
 62
     7
  6
CONTINUOUS
370
    -3
390
C2D
  0
LAYER
  5
143
102
{ACAD_XDICTIONARY
360
33E7
102
}
330
2
100
AcDbSymbolTableRecord
100
AcDbLayerTableRecord
  2
DISEGNO
 70
     0
 62
     7
  6
CONTINUOUS
370
    -3
390
C2D
  0
LAYER
  5
145
102
{ACAD_XDICTIONARY
360
33E9
102
}
330
2
100
AcDbSymbolTableRecord
100
AcDbLayerTableRecord
  2
ASSI
 70
     0
 62
     2
  6
CENTER
370
    -3
390
C2D
  0
LAYER
  5
146
102
{ACAD_XDICTIONARY
360
33EB
102
}
330
2
100
AcDbSymbolTableRecord
100
AcDbLayerTableRecord
  2
NORMALI
 70
     0
 62
     6
  6
CONTINUOUS
370
    -3
390
C2D
  0
LAYER
  5
147
102
{ACAD_XDICTIONARY
360
33ED
102
}
330
2
100
AcDbSymbolTableRecord
100
AcDbLayerTableRecord
  2
NORM_TR
 70
     0
 62
     6
  6
DASHED
370
    -3
390
C2D
  0
LAYER
  5
148
330
2
100
AcDbSymbolTableRecord
100
AcDbLayerTableRecord
  2
DEFPOINTS
 70
     0
 62
     7
  6
CONTINUOUS
290
     0
370
    -3
390
C2D
  0
LAYER
  5
31BC
102
{ACAD_XDICTIONARY
360
33EF
102
}
330
2
100
AcDbSymbolTableRecord
100
AcDbLayerTableRecord
  2
TRATTEGGI
 70
     0
 62
     8
  6
DASHED
370
    -3
390
C2D
  0
LAYER
  5
31BD
102
{ACAD_XDICTIONARY
360
33F1
102
}
330
2
100
AcDbSymbolTableRecord
100
AcDbLayerTableRecord
  2
9180143-COMPLESSIVO_DI_MON
 70
     0
 62
     7
  6
CONTINUOUS
370
    -3
390
C2D
  0
ENDTAB
  0
TABLE
  2
STYLE
  5
3
330
0
100
AcDbSymbolTable
 70
     4
  0
STYLE
  5
F
330
3
100
AcDbSymbolTableRecord
100
AcDbTextStyleTableRecord
  2
STANDARD
 70
     0
 40
0.0
 41
1.0
 50
0.0
 71
     0
 42
2.5
  3
txt
  4

  0
STYLE
  5
C5F
330
3
100
AcDbSymbolTableRecord
100
AcDbTextStyleTableRecord
  2

 70
     1
 40
0.0
 41
1.0
 50
0.0
 71
     0
 42
2.5
  3
ltypeshp.shx
  4

  0
STYLE
  5
C61
330
3
100
AcDbSymbolTableRecord
100
AcDbTextStyleTableRecord
  2
ACISOTS
 70
     0
 40
1.0
 41
1.0
 50
0.0
 71
     0
 42
2.5
  3
isocp.shx
  4

  0
STYLE
  5
C6D
330
3
100
AcDbSymbolTableRecord
100
AcDbTextStyleTableRecord
  2
ACISOGDT
 70
     0
 40
0.0
 41
1.0
 50
0.0
 71
     0
 42
2.5
  3
amgdt.shx
  4

  0
ENDTAB
  0
TABLE
  2
VIEW
  5
6
330
0
100
AcDbSymbolTable
 70
     0
  0
ENDTAB
  0
TABLE
  2
UCS
  5
7
330
0
100
AcDbSymbolTable
 70
     0
  0
ENDTAB
  0
TABLE
  2
APPID
  5
9
330
0
100
AcDbSymbolTable
 70
     9
  0
APPID
  5
10
330
9
100
AcDbSymbolTableRecord
100
AcDbRegAppTableRecord
  2
ACAD
 70
     0
  0
APPID
  5
20
330
9
100
AcDbSymbolTableRecord
100
AcDbRegAppTableRecord
  2
ZIMM
 70
     0
  0
APPID
  5
14F
330
9
100
AcDbSymbolTableRecord
100
AcDbRegAppTableRecord
  2
COMAU_ACADLIB
 70
     0
  0
APPID
  5
C3A
330
9
100
AcDbSymbolTableRecord
100
AcDbRegAppTableRecord
  2
MCAD_NO_VIS
 70
     0
  0
APPID
  5
C3B
330
9
100
AcDbSymbolTableRecord
100
AcDbRegAppTableRecord
  2
ACAD_TEMP_GRAPHIC
 70
     0
  0
APPID
  5
C4C
330
9
100
AcDbSymbolTableRecord
100
AcDbRegAppTableRecord
  2
ACATTRIBSERVICES
 70
     0
  0
APPID
  5
DC4
330
9
100
AcDbSymbolTableRecord
100
AcDbRegAppTableRecord
  2
CONTENTBLOCKICON
 70
     0
  0
APPID
  5
32BF
330
9
100
AcDbSymbolTableRecord
100
AcDbRegAppTableRecord
  2
DCO15
 70
     0
  0
APPID
  5
33DD
330
9
100
AcDbSymbolTableRecord
100
AcDbRegAppTableRecord
  2
ACAD_MLEADERVER
 70
     0
  0
ENDTAB
  0
TABLE
  2
DIMSTYLE
  5
A
330
0
100
AcDbSymbolTable
 70
     8
100
AcDbDimStyleTable
 71
     0
  0
DIMSTYLE
105
1D
330
A
100
AcDbSymbolTableRecord
100
AcDbDimStyleTableRecord
  2
STANDARD
 70
     0
340
F
  0
DIMSTYLE
105
C74
330
A
100
AcDbSymbolTableRecord
100
AcDbDimStyleTableRecord
  2
AM_ISO
 70
     0
  4
"
 41
2.5
 42
1.0
 43
10.0
 44
1.0
 47
0.1
 48
0.1
 73
     0
 74
     0
 77
     1
 78
     8
140
3.5
141
0.0
143
0.0393701
146
0.71
147
1.5
172
     1
176
   256
177
   256
178
     2
271
     2
272
     3
274
     4
283
     0
284
     8
340
F
  0
DIMSTYLE
105
C75
330
A
100
AcDbSymbolTableRecord
100
AcDbDimStyleTableRecord
  2
AM_ISO$3
 70
     0
  4
"
 41
2.5
 42
1.0
 43
10.0
 44
1.0
 47
0.1
 48
0.1
 73
     0
 77
     1
 78
     8
140
3.5
141
0.0
143
0.0393701
146
0.71
147
1.5
176
   256
177
   256
178
     2
271
     2
272
     3
274
     4
283
     0
284
     8
288
     1
340
F
  0
DIMSTYLE
105
C76
330
A
100
AcDbSymbolTableRecord
100
AcDbDimStyleTableRecord
  2
AM_ISO$4
 70
     0
  4
"
 41
2.5
 42
1.0
 43
10.0
 44
1.0
 47
0.1
 48
0.1
 73
     0
 77
     1
 78
     8
140
3.5
141
0.0
143
0.0393701
146
0.71
147
1.5
176
   256
177
   256
178
     2
271
     2
272
     3
274
     4
283
     0
284
     8
288
     1
340
F
  0
DIMSTYLE
105
C77
330
A
100
AcDbSymbolTableRecord
100
AcDbDimStyleTableRecord
  2
AM_ISO$6
 70
     0
  4
"
 41
2.5
 42
1.0
 43
10.0
 44
1.0
 47
0.1
 48
0.1
 73
     0
 74
     0
 78
     8
140
3.5
141
0.0
143
0.0393701
146
0.71
147
1.5
172
     1
176
   256
177
   256
178
     2
271
     2
272
     3
274
     4
283
     0
284
     8
340
F
  0
DIMSTYLE
105
C78
330
A
100
AcDbSymbolTableRecord
100
AcDbDimStyleTableRecord
  2
AM_ISO$7
 70
     0
  4
"
 41
2.5
 42
1.0
 43
10.0
 44
1.0
 47
0.1
 48
0.1
 73
     0
 74
     0
 77
     1
 78
     8
140
5.0
141
0.0
143
0.0393701
146
0.71
147
1.5
172
     1
176
   256
177
   256
178
     2
271
     2
272
     3
274
     4
283
     0
284
     8
340
F
  0
DIMSTYLE
105
C79
330
A
100
AcDbSymbolTableRecord
100
AcDbDimStyleTableRecord
  2
AM_ISO$SF
 70
     0
  4
"
 41
2.5
 42
1.0
 43
10.0
 44
1.0
 47
0.1
 48
0.1
 73
     0
 74
     0
 75
     1
 76
     1
 77
     1
 78
     8
140
3.5
141
0.0
143
0.0393701
146
0.71
147
1.5
172
     1
176
   256
177
   256
178
     2
271
     2
272
     3
274
     4
283
     0
284
     8
340
F
  0
DIMSTYLE
105
C7E
330
A
100
AcDbSymbolTableRecord
100
AcDbDimStyleTableRecord
  2
AM_ISO$SH
 70
     0
  4
"
 41
2.5
 42
1.0
 43
10.0
 44
1.0
 47
0.1
 48
0.1
 73
     0
 74
     0
 75
     1
 76
     1
 77
     1
 78
     8
140
3.5
141
0.0
143
0.0393701
144
2.0
146
0.71
147
1.5
172
     1
173
     1
176
   256
177
   256
178
     2
271
     2
272
     3
274
     4
283
     0
284
     8
340
F
341
C7A
343
C7A
  0
ENDTAB
  0
TABLE
  2
BLOCK_RECORD
  5
1
330
0
100
AcDbSymbolTable
 70
     1
  0
BLOCK_RECORD
  5
18
102
{ACAD_XDICTIONARY
360
D57
102
}
330
1
100
AcDbSymbolTableRecord
100
AcDbBlockTableRecord
  2
*MODEL_SPACE
340
33DE
  0
BLOCK_RECORD
  5
15
102
{ACAD_XDICTIONARY
360
DA9
102
}
330
1
100
AcDbSymbolTableRecord
100
AcDbBlockTableRecord
  2
*PAPER_SPACE
340
33DF
  0
BLOCK_RECORD
  5
C7A
330
1
100
AcDbSymbolTableRecord
100
AcDbBlockTableRecord
  2
GENAXEH
340
0
  0
ENDTAB
  0
ENDSEC
  0
SECTION
  2
BLOCKS
  0
BLOCK
  5
19
330
18
100
AcDbEntity
  8
0
100
AcDbBlockBegin
  2
*MODEL_SPACE
 70
     0
 10
0.0
 20
0.0
 30
0.0
  3
*MODEL_SPACE
  1

  0
ENDBLK
  5
1A
330
18
100
AcDbEntity
  8
0
100
AcDbBlockEnd
  0
BLOCK
  5
16
330
15
100
AcDbEntity
 67
     1
  8
0
100
AcDbBlockBegin
  2
*PAPER_SPACE
 70
     0
 10
0.0
 20
0.0
 30
0.0
  3
*PAPER_SPACE
  1

  0
ENDBLK
  5
17
330
15
100
AcDbEntity
 67
     1
  8
0
100
AcDbBlockEnd
  0
BLOCK
  5
C7C
330
C7A
100
AcDbEntity
  8
0
100
AcDbBlockBegin
  2
GENAXEH
 70
     0
 10
0.0
 20
0.0
 30
0.0
  3
GENAXEH
  1

  0
LINE
  5
C7B
330
C7A
100
AcDbEntity
  8
0
100
AcDbLine
 10
-1.0
 20
0.0
 30
0.0
 11
1.0
 21
0.0
 31
0.0
  0
ENDBLK
  5
C7D
330
C7A
100
AcDbEntity
  8
0
100
AcDbBlockEnd
  0
ENDSEC
  0
SECTION
  2
ENTITIES
  0
LINE
  5
51A
330
18
100
AcDbEntity
  8
NORMALI
100
AcDbLine
 10
1739.172453374422
 20
476.599405583584
 30
0.0
 11
1742.213453374422
 21
473.5594055835831
 31
0.0
  0
LINE
  5
51B
330
18
100
AcDbEntity
  8
DISEGNO
100
AcDbLine
 10
415.4526457742449
 20
37.50000000000136
 30
0.0
 11
415.4526457742449
 21
195.0000000000013
 31
0.0
  0
LINE
  5
51C
330
18
100
AcDbEntity
  8
DISEGNO
100
AcDbLine
 10
895.4526457742447
 20
37.50000000000136
 30
0.0
 11
895.4526457742467
 21
194.9999999999976
 31
0.0
  0
LINE
  5
51D
330
18
100
AcDbEntity
  8
DISEGNO
100
AcDbLine
 10
1655.22465171089
 20
567.2194055835839
 30
0.0
 11
1795.642076015934
 21
567.2194055835839
 31
0.0
  0
LINE
  5
51E
330
18
100
AcDbEntity
  8
DISEGNO
100
AcDbLine
 10
1655.64207601593
 20
547.2194055835839
 30
0.0
 11
1795.642076015932
 21
547.2194055835839
 31
0.0
  0
LINE
  5
51F
330
18
100
AcDbEntity
  8
ASSI
100
AcDbLine
 10
1761.86293691978
 20
497.2242498448695
 30
0.0
 11
1678.007298032984
 21
497.2242498448695
 31
0.0
  0
LINE
  5
524
330
18
100
AcDbEntity
  8
NORMALI
100
AcDbLine
 10
1754.426453374422
 20
494.469405583583
 30
0.0
 11
1734.174453374422
 21
474.219405583583
 31
0.0
  0
ARC
  5
525
330
18
100
AcDbEntity
  8
NORMALI
100
AcDbCircle
 10
1743.115453374421
 20
476.1194055835849
 30
0.0
 40
3.978
100
AcDbArc
 50
96.99499999999517
 51
172.9799999999982
  0
LINE
  5
526
330
18
100
AcDbEntity
  8
NORMALI
100
AcDbLine
 10
1754.426453374422
 20
499.969405583583
 30
0.0
 11
1734.174105548335
 21
520.219405583583
 31
0.0
  0
LINE
  5
528
330
18
100
AcDbEntity
  8
DISEGNO
100
AcDbLine
 10
420.4526457742441
 20
-200.0000000000004
 30
0.0
 11
890.452645774244
 21
-200.0000000000004
 31
0.0
  0
LINE
  5
52E
330
18
100
AcDbEntity
  8
DISEGNO
100
AcDbLine
 10
415.4526457742449
 20
-195.0000000000004
 30
0.0
 11
415.4526457742449
 21
37.50000000000136
 31
0.0
  0
LINE
  5
534
330
18
100
AcDbEntity
  8
DISEGNO
100
AcDbLine
 10
285.5077931438996
 20
85.00000000000865
 30
0.0
 11
262.3323258702864
 21
85.00000000000317
 31
0.0
  0
LINE
  5
535
330
18
100
AcDbEntity
  8
DISEGNO
100
AcDbLine
 10
262.3323258702864
 20
33.49999999999863
 30
0.0
 11
277.3323258702864
 21
33.49999999999863
 31
0.0
  0
LINE
  5
537
330
18
100
AcDbEntity
  8
DISEGNO
100
AcDbLine
 10
262.3323258702864
 20
-33.50000000000045
 30
0.0
 11
277.3323258702864
 21
-33.50000000000045
 31
0.0
  0
LINE
  5
539
330
18
100
AcDbEntity
  8
DISEGNO
100
AcDbLine
 10
275.5077931438996
 20
-85.00000000000046
 30
0.0
 11
262.3323258702864
 21
-84.99999999999955
 31
0.0
  0
LINE
  5
53F
330
18
100
AcDbEntity
  8
DISEGNO
100
AcDbLine
 10
262.3323258702864
 20
-84.99999999999955
 30
0.0
 11
262.3323258702864
 21
85.00000000000275
 31
0.0
  0
LINE
  5
557
330
18
100
AcDbEntity
  8
DISEGNO
100
AcDbLine
 10
277.3323258702864
 20
-85.00000000000589
 30
0.0
 11
277.3323258702864
 21
85.25000000000138
 31
0.0
  0
LINE
  5
558
330
18
100
AcDbEntity
  8
DISEGNO
100
AcDbLine
 10
277.3323258702864
 20
85.25000000000138
 30
0.0
 11
277.3323258702864
 21
-85.00000000000589
 31
0.0
  0
LINE
  5
55B
330
18
100
AcDbEntity
  8
DISEGNO
100
AcDbLine
 10
435.4526457742458
 20
37.49999999999818
 30
0.0
 11
435.452645774245
 21
-37.5
 31
0.0
  0
LINE
  5
55D
330
18
100
AcDbEntity
  8
DISEGNO
100
AcDbLine
 10
415.4526457742449
 20
-85.00000000000046
 30
0.0
 11
275.5077931438996
 21
-85.00000000000046
 31
0.0
  0
LINE
  5
55E
330
18
100
AcDbEntity
  8
NORMALI
100
AcDbLine
 10
415.4526457742441
 20
-100.9993773584978
 30
0.0
 11
285.5077931438941
 21
-100.9993773584978
 31
0.0
  0
LINE
  5
55F
330
18
100
AcDbEntity
  8
NORMALI
100
AcDbLine
 10
277.3323258702864
 20
-100.9993773584978
 30
0.0
 11
277.3323258702864
 21
-85.00000000000589
 31
0.0
  0
LINE
  5
560
330
18
100
AcDbEntity
  8
NORMALI
100
AcDbLine
 10
285.5077931438941
 20
-100.9993773584978
 30
0.0
 11
277.3323258702864
 21
-100.9993773584978
 31
0.0
  0
LINE
  5
561
330
18
100
AcDbEntity
  8
DISEGNO
100
AcDbLine
 10
297.3323258702868
 20
-43.75000000000205
 30
0.0
 11
415.4526457742449
 21
-43.75000000000045
 31
0.0
  0
LINE
  5
562
330
18
100
AcDbEntity
  8
DISEGNO
100
AcDbLine
 10
297.3323258702872
 20
-56.25000000000028
 30
0.0
 11
415.4526457742449
 21
-56.24999999999864
 31
0.0
  0
LINE
  5
564
330
18
100
AcDbEntity
  8
NORMALI
100
AcDbLine
 10
277.3323258702864
 20
-25.00000000000063
 30
0.0
 11
415.4526457742449
 21
-25.00000000000045
 31
0.0
  0
LINE
  5
565
330
18
100
AcDbEntity
  8
NORMALI
100
AcDbLine
 10
296.3323258702871
 20
-33.50000000000136
 30
0.0
 11
296.3323258702871
 21
-46.00000000000045
 31
0.0
  0
LINE
  5
566
330
18
100
AcDbEntity
  8
NORMALI
100
AcDbLine
 10
297.3323258702872
 20
-57.50000000000046
 30
0.0
 11
297.3323258702864
 21
-34.50000000000136
 31
0.0
  0
LINE
  5
567
330
18
100
AcDbEntity
  8
NORMALI
100
AcDbLine
 10
296.3323258702871
 20
-58.50000000000045
 30
0.0
 11
296.3323258702871
 21
-46.00000000000045
 31
0.0
  0
LINE
  5
568
330
18
100
AcDbEntity
  8
NORMALI
100
AcDbLine
 10
296.3323258702871
 20
-58.50000000000045
 30
0.0
 11
277.3323258702871
 21
-58.50000000000045
 31
0.0
  0
LINE
  5
569
330
18
100
AcDbEntity
  8
NORMALI
100
AcDbLine
 10
296.3323258702871
 20
-58.50000000000045
 30
0.0
 11
297.3323258702872
 21
-57.50000000000046
 31
0.0
  0
LINE
  5
56A
330
18
100
AcDbEntity
  8
NORMALI
100
AcDbLine
 10
296.3323258702871
 20
-33.50000000000045
 30
0.0
 11
277.3323258702871
 21
-33.50000000000045
 31
0.0
  0
LINE
  5
56B
330
18
100
AcDbEntity
  8
NORMALI
100
AcDbLine
 10
297.3323258702864
 20
-34.50000000000136
 30
0.0
 11
296.3323258702864
 21
-33.50000000000136
 31
0.0
  0
LINE
  5
56C
330
18
100
AcDbEntity
  8
DISEGNO
100
AcDbLine
 10
435.452645774245
 20
-37.5
 30
0.0
 11
415.4526457742459
 21
-37.50000000000091
 31
0.0
  0
LINE
  5
5A2
330
18
100
AcDbEntity
  8
DISEGNO
100
AcDbLine
 10
297.3323258702868
 20
43.74999999999954
 30
0.0
 11
415.4526457742449
 21
43.74999999999954
 31
0.0
  0
LINE
  5
5A3
330
18
100
AcDbEntity
  8
NORMALI
100
AcDbLine
 10
277.3323258702864
 20
24.99999999999954
 30
0.0
 11
415.4526457742441
 21
24.99999999999954
 31
0.0
  0
LINE
  5
5A4
330
18
100
AcDbEntity
  8
DISEGNO
100
AcDbLine
 10
297.3323258702872
 20
56.25000000000034
 30
0.0
 11
415.4526457742449
 21
56.25000000000136
 31
0.0
  0
LINE
  5
5A6
330
18
100
AcDbEntity
  8
NORMALI
100
AcDbLine
 10
297.3323258702868
 20
57.49999999999954
 30
0.0
 11
297.3323258702864
 21
34.50000000000045
 31
0.0
  0
LINE
  5
5A7
330
18
100
AcDbEntity
  8
NORMALI
100
AcDbLine
 10
296.3323258702867
 20
33.50000000000045
 30
0.0
 11
296.3323258702867
 21
45.99999999999942
 31
0.0
  0
LINE
  5
5A8
330
18
100
AcDbEntity
  8
NORMALI
100
AcDbLine
 10
296.3323258702867
 20
33.50000000000045
 30
0.0
 11
277.3323258702871
 21
33.49999999999954
 31
0.0
  0
LINE
  5
5A9
330
18
100
AcDbEntity
  8
NORMALI
100
AcDbLine
 10
297.3323258702864
 20
34.50000000000045
 30
0.0
 11
296.3323258702864
 21
33.50000000000045
 31
0.0
  0
LINE
  5
5AA
330
18
100
AcDbEntity
  8
NORMALI
100
AcDbLine
 10
296.3323258702867
 20
58.49999999999955
 30
0.0
 11
296.3323258702871
 21
45.99999999999954
 31
0.0
  0
LINE
  5
5AB
330
18
100
AcDbEntity
  8
NORMALI
100
AcDbLine
 10
296.3323258702867
 20
58.49999999999955
 30
0.0
 11
277.3323258702867
 21
58.49999999999955
 31
0.0
  0
LINE
  5
5AC
330
18
100
AcDbEntity
  8
NORMALI
100
AcDbLine
 10
296.3323258702867
 20
58.49999999999955
 30
0.0
 11
297.3323258702868
 21
57.49999999999954
 31
0.0
  0
LINE
  5
5DE
330
18
100
AcDbEntity
  8
DISEGNO
100
AcDbLine
 10
435.4526457742458
 20
37.49999999999818
 30
0.0
 11
415.4526457742449
 21
37.5
 31
0.0
  0
LINE
  5
5E2
330
18
100
AcDbEntity
  8
DISEGNO
100
AcDbLine
 10
415.4526457742449
 20
85.00000000001227
 30
0.0
 11
285.5077931438996
 21
85.00000000000865
 31
0.0
  0
LINE
  5
5E3
330
18
100
AcDbEntity
  8
NORMALI
100
AcDbLine
 10
415.4526457742441
 20
100.9993773584969
 30
0.0
 11
285.5077931438941
 21
100.9993773584969
 31
0.0
  0
LINE
  5
5E4
330
18
100
AcDbEntity
  8
NORMALI
100
AcDbLine
 10
277.3323258702864
 20
100.9993773584969
 30
0.0
 11
277.3323258702864
 21
85.25000000000138
 31
0.0
  0
LINE
  5
5E5
330
18
100
AcDbEntity
  8
NORMALI
100
AcDbLine
 10
285.5077931438941
 20
100.9993773584969
 30
0.0
 11
277.3323258702864
 21
100.9993773584969
 31
0.0
  0
LINE
  5
5E7
330
18
100
AcDbEntity
  8
NORMALI
100
AcDbLine
 10
1452.111698657442
 20
476.5992434328855
 30
0.0
 11
1449.070698657441
 21
473.5592434328846
 31
0.0
  0
ARC
  5
5E8
330
18
100
AcDbEntity
  8
NORMALI
100
AcDbCircle
 10
1448.168698657441
 20
476.1192434328868
 30
0.0
 40
3.978
100
AcDbArc
 50
7.020000000001784
 51
83.00500000000488
  0
LINE
  5
5E9
330
18
100
AcDbEntity
  8
NORMALI
100
AcDbLine
 10
1451.433698657442
 20
478.4792434328863
 30
0.0
 11
1452.140698657441
 21
479.1892434328856
 31
0.0
  0
LINE
  5
5EA
330
18
100
AcDbEntity
  8
DISEGNO
100
AcDbLine
 10
895.4526457742414
 20
-195.0000000000022
 30
0.0
 11
895.4526457742447
 21
37.50000000000136
 31
0.0
  0
LINE
  5
5EB
330
18
100
AcDbEntity
  8
DISEGNO
100
AcDbLine
 10
1395.642076015932
 20
547.2194055835874
 30
0.0
 11
1535.642076015929
 21
547.2194055835874
 31
0.0
  0
LINE
  5
5EC
330
18
100
AcDbEntity
  8
DISEGNO
100
AcDbLine
 10
1395.642076015932
 20
567.2194055835839
 30
0.0
 11
1536.059500320976
 21
567.2194055835839
 31
0.0
  0
LINE
  5
5EF
330
18
100
AcDbEntity
  8
NORMALI
100
AcDbLine
 10
1436.857698657442
 20
494.4692434328843
 30
0.0
 11
1457.109698657441
 21
474.2192434328845
 31
0.0
  0
LINE
  5
5F0
330
18
100
AcDbEntity
  8
NORMALI
100
AcDbLine
 10
1436.857698657442
 20
499.9692434328843
 30
0.0
 11
1457.110046483528
 21
520.2192434328845
 31
0.0
  0
LINE
  5
5F3
330
18
100
AcDbEntity
  8
ASSI
100
AcDbLine
 10
1429.421215112083
 20
497.2240876941708
 30
0.0
 11
1513.276853998879
 21
497.2240876941708
 31
0.0
  0
LINE
  5
5F4
330
18
100
AcDbEntity
  8
NORM_TR
100
AcDbLine
 10
1436.857698657442
 20
494.4692434328843
 30
0.0
 11
1436.857698657442
 21
487.7192434328843
 31
0.0
  0
LINE
  5
5F5
330
18
100
AcDbEntity
  8
NORMALI
100
AcDbLine
 10
1430.854698657441
 20
547.2192434328843
 30
0.0
 11
1430.854698657441
 21
487.2192434328844
 31
0.0
  0
LINE
  5
5F8
330
18
100
AcDbEntity
  8
NORMALI
100
AcDbLine
 10
1433.401698657442
 20
477.4192434328852
 30
0.0
 11
1438.705698657442
 21
482.7292434328865
 31
0.0
  0
LINE
  5
5F9
330
18
100
AcDbEntity
  8
NORMALI
100
AcDbLine
 10
1433.401698657442
 20
476.0092434328853
 30
0.0
 11
1437.644698657441
 21
471.7692434328873
 31
0.0
  0
LINE
  5
5FA
330
18
100
AcDbEntity
  8
NORMALI
100
AcDbLine
 10
1436.857698657442
 20
487.2192434328844
 30
0.0
 11
1430.854698657441
 21
487.2192434328844
 31
0.0
  0
LINE
  5
5FB
330
18
100
AcDbEntity
  8
NORMALI
100
AcDbLine
 10
1433.401698657442
 20
477.4192434328852
 30
0.0
 11
1433.401698657442
 21
476.0092434328853
 31
0.0
  0
LINE
  5
5FC
330
18
100
AcDbEntity
  8
NORMALI
100
AcDbLine
 10
1448.649698657441
 20
480.0692434328866
 30
0.0
 11
1445.608698657441
 21
477.0292434328856
 31
0.0
  0
ARC
  5
5FD
330
18
100
AcDbEntity
  8
NORMALI
100
AcDbCircle
 10
1435.366698657441
 20
473.7292434328873
 30
0.0
 40
14.722
100
AcDbArc
 50
25.51099999996985
 51
52.20800000000326
  0
LINE
  5
5FE
330
18
100
AcDbEntity
  8
NORMALI
100
AcDbLine
 10
1444.606698657442
 20
485.3092434328845
 30
0.0
 11
1450.981698657441
 21
478.9392434328855
 31
0.0
  0
LINE
  5
5FF
330
18
100
AcDbEntity
  8
NORMALI
100
AcDbLine
 10
1444.008698657442
 20
476.7192434328843
 30
0.0
 11
1444.716698657441
 21
476.7192434328843
 31
0.0
  0
ARC
  5
600
330
18
100
AcDbEntity
  8
NORMALI
100
AcDbCircle
 10
1449.55169865744
 20
477.5092434328861
 30
0.0
 40
3.978
100
AcDbArc
 50
186.9953400000023
 51
262.9796999999945
  0
LINE
  5
601
330
18
100
AcDbEntity
  8
NORMALI
100
AcDbLine
 10
1434.108698657441
 20
476.7192434328843
 30
0.0
 11
1434.108698657441
 21
475.2992434328862
 31
0.0
  0
LINE
  5
602
330
18
100
AcDbEntity
  8
NORMALI
100
AcDbLine
 10
1438.351698657442
 20
483.0792434328849
 30
0.0
 11
1438.351698657442
 21
482.3692434328858
 31
0.0
  0
LINE
  5
603
330
18
100
AcDbEntity
  8
NORMALI
100
AcDbLine
 10
1434.108698657441
 20
476.7192434328843
 30
0.0
 11
1438.351698657442
 21
480.9592434328861
 31
0.0
  0
LINE
  5
604
330
18
100
AcDbEntity
  8
NORMALI
100
AcDbLine
 10
1436.937698657442
 20
472.4692434328845
 30
0.0
 11
1438.351698657442
 21
472.4692434328845
 31
0.0
  0
LINE
  5
605
330
18
100
AcDbEntity
  8
NORMALI
100
AcDbLine
 10
1437.644698657441
 20
471.7692434328873
 30
0.0
 11
1439.058698657442
 21
471.7692434328873
 31
0.0
  0
LINE
  5
606
330
18
100
AcDbEntity
  8
NORMALI
100
AcDbLine
 10
1438.351698657442
 20
480.9592434328861
 30
0.0
 11
1436.937698657442
 21
472.4692434328845
 31
0.0
  0
LINE
  5
607
330
18
100
AcDbEntity
  8
NORMALI
100
AcDbLine
 10
1438.351698657442
 20
482.3692434328858
 30
0.0
 11
1444.008698657442
 21
476.7192434328843
 31
0.0
  0
ARC
  5
608
330
18
100
AcDbEntity
  8
NORMALI
100
AcDbCircle
 10
1451.94369865744
 20
490.3092434328855
 30
0.0
 40
14.722
100
AcDbArc
 50
205.5108999999687
 51
244.4889999999951
  0
LINE
  5
609
330
18
100
AcDbEntity
  8
NORMALI
100
AcDbLine
 10
1438.351698657442
 20
480.9592434328861
 30
0.0
 11
1442.594698657442
 21
476.7192434328843
 31
0.0
  0
LINE
  5
60A
330
18
100
AcDbEntity
  8
NORMALI
100
AcDbLine
 10
1440.910698657441
 20
486.2192434328845
 30
0.0
 11
1438.660698657442
 21
483.9692434328845
 31
0.0
  0
LINE
  5
60B
330
18
100
AcDbEntity
  8
NORMALI
100
AcDbLine
 10
1436.328698657441
 20
485.0992434328855
 30
0.0
 11
1446.738698657441
 21
474.6892434328855
 31
0.0
  0
LINE
  5
60C
330
18
100
AcDbEntity
  8
NORMALI
100
AcDbLine
 10
1434.108698657441
 20
475.2992434328862
 30
0.0
 11
1442.594698657442
 21
476.7192434328843
 31
0.0
  0
LINE
  5
60D
330
18
100
AcDbEntity
  8
NORMALI
100
AcDbLine
 10
1439.058698657442
 20
471.7692434328873
 30
0.0
 11
1444.362698657442
 21
477.0692434328866
 31
0.0
  0
LINE
  5
60E
330
18
100
AcDbEntity
  8
NORMALI
100
AcDbLine
 10
1442.594698657442
 20
476.7192434328843
 30
0.0
 11
1438.351698657442
 21
472.4692434328845
 31
0.0
  0
ARC
  5
60F
330
18
100
AcDbEntity
  8
NORMALI
100
AcDbCircle
 10
1436.357698657441
 20
487.7192434328852
 30
0.0
 40
0.5
100
AcDbArc
 50
270.0
 51
0.0
  0
LINE
  5
610
330
18
100
AcDbEntity
  8
NORMALI
100
AcDbLine
 10
1436.857698657442
 20
487.2192434328844
 30
0.0
 11
1446.483698657441
 21
484.8492434328854
 31
0.0
  0
ARC
  5
611
330
18
100
AcDbEntity
  8
NORMALI
100
AcDbCircle
 10
1439.141698657441
 20
487.9192434328861
 30
0.0
 40
3.978
100
AcDbArc
 50
190.1349843385921
 51
263.0045000000001
  0
LINE
  5
612
330
18
100
AcDbEntity
  8
DISEGNO
100
AcDbLine
 10
1395.642076015932
 20
547.2194055835839
 30
0.0
 11
1395.642076015932
 21
567.2194055835839
 31
0.0
  0
LINE
  5
615
330
18
100
AcDbEntity
  8
NORMALI
100
AcDbLine
 10
1436.857698657442
 20
499.9692434328843
 30
0.0
 11
1436.857698657442
 21
494.4692434328843
 31
0.0
  0
LINE
  5
617
330
18
100
AcDbEntity
  8
NORMALI
100
AcDbLine
 10
1696.641453374422
 20
489.719405583583
 30
0.0
 11
1696.641453374422
 21
504.719405583583
 31
0.0
  0
LINE
  5
619
330
18
100
AcDbEntity
  8
DISEGNO
100
AcDbLine
 10
1680.642076015931
 20
531.2194055835821
 30
0.0
 11
1680.642076015932
 21
440.9694055835816
 31
0.0
  0
LINE
  5
61A
330
18
100
AcDbEntity
  8
NORMALI
100
AcDbLine
 10
1686.110953409781
 20
479.1889056189433
 30
0.0
 11
1699.241448323659
 21
492.3194005328191
 31
0.0
  0
LINE
  5
61C
330
18
100
AcDbEntity
  8
DISEGNO
100
AcDbLine
 10
1655.64207601593
 20
433.2194055836004
 30
0.0
 11
1655.64207601593
 21
561.2194055835939
 31
0.0
  0
LINE
  5
61D
330
18
100
AcDbEntity
  8
DISEGNO
100
AcDbLine
 10
1535.642076015929
 20
433.2194055836004
 30
0.0
 11
1535.642076015929
 21
561.2194055835939
 31
0.0
  0
LINE
  5
61E
330
18
100
AcDbEntity
  8
ASSI
100
AcDbLine
 10
1595.642076015932
 20
412.2194055835816
 30
0.0
 11
1595.64207601593
 21
561.2194055835939
 31
0.0
  0
LINE
  5
61F
330
18
100
AcDbEntity
  8
ASSI
100
AcDbLine
 10
1595.642076015932
 20
374.8639525127732
 30
0.0
 11
1595.642076015933
 21
599.7136704531376
 31
0.0
  0
LINE
  5
621
330
18
100
AcDbEntity
  8
NORMALI
100
AcDbLine
 10
1494.642698657442
 20
489.7192434328843
 30
0.0
 11
1494.642698657442
 21
504.7192434328843
 31
0.0
  0
LINE
  5
622
330
18
100
AcDbEntity
  8
DISEGNO
100
AcDbLine
 10
1510.642076015932
 20
531.2194055835821
 30
0.0
 11
1510.642076015932
 21
413.2194055835816
 31
0.0
  0
LINE
  5
624
330
18
100
AcDbEntity
  8
NORMALI
100
AcDbLine
 10
1505.173198622083
 20
479.1887434682449
 30
0.0
 11
1492.042703708205
 21
492.3192383821206
 31
0.0
  0
LINE
  5
627
330
18
100
AcDbEntity
  8
DISEGNO
100
AcDbLine
 10
1027.332291781657
 20
85.24999999999772
 30
0.0
 11
1027.332291781657
 21
-85.00000000000227
 31
0.0
  0
LINE
  5
628
330
18
100
AcDbEntity
  8
DISEGNO
100
AcDbLine
 10
1027.332291781655
 20
85.00000000000317
 30
0.0
 11
1027.332291781668
 21
-85.25000000000046
 31
0.0
  0
LINE
  5
629
330
18
100
AcDbEntity
  8
ASSI
100
AcDbLine
 10
1114.332291781657
 20
101.0783566576715
 30
0.0
 11
1114.332291781657
 21
-105.001057914053
 31
0.0
  0
LINE
  5
62C
330
18
100
AcDbEntity
  8
DISEGNO
100
AcDbLine
 10
875.4526457742421
 20
37.49999999999818
 30
0.0
 11
875.452645774243
 21
-37.5
 31
0.0
  0
LINE
  5
62F
330
18
100
AcDbEntity
  8
DISEGNO
100
AcDbLine
 10
1219.332291781657
 20
79.99999999999772
 30
0.0
 11
1219.332291781657
 21
-80.00000000000227
 31
0.0
  0
LINE
  5
632
330
18
100
AcDbEntity
  8
DISEGNO
100
AcDbLine
 10
1539.392076015933
 20
412.2194055835816
 30
0.0
 11
1651.892076015932
 21
412.2194055835816
 31
0.0
  0
LINE
  5
634
330
18
100
AcDbEntity
  8
DISEGNO
100
AcDbLine
 10
1027.332291781657
 20
-59.50000000000226
 30
0.0
 11
1214.332291781657
 21
-59.50000000000226
 31
0.0
  0
LINE
  5
635
330
18
100
AcDbEntity
  8
DISEGNO
100
AcDbLine
 10
1214.332291781657
 20
-85.00000000000227
 30
0.0
 11
1027.332291781657
 21
-85.00000000000227
 31
0.0
  0
LINE
  5
636
330
18
100
AcDbEntity
  8
DISEGNO
100
AcDbLine
 10
1082.332291781657
 20
-63.25000000000226
 30
0.0
 11
1082.332291781657
 21
-82.25000000000227
 31
0.0
  0
LINE
  5
637
330
18
100
AcDbEntity
  8
NORMALI
100
AcDbLine
 10
1007.332291781659
 20
-61.25000000000046
 30
0.0
 11
1007.332291781663
 21
-84.25000000000045
 31
0.0
  0
LINE
  5
638
330
18
100
AcDbEntity
  8
NORMALI
100
AcDbLine
 10
1007.332291781657
 20
-84.25000000000228
 30
0.0
 11
1007.332291781657
 21
-61.25000000000409
 31
0.0
  0
LINE
  5
639
330
18
100
AcDbEntity
  8
NORMALI
100
AcDbLine
 10
1008.332291781657
 20
-85.25000000000227
 30
0.0
 11
1008.332291781657
 21
-60.25000000000409
 31
0.0
  0
LINE
  5
63E
330
18
100
AcDbEntity
  8
NORMALI
100
AcDbLine
 10
1008.332291781663
 20
-85.25000000000046
 30
0.0
 11
1027.332291781663
 21
-85.25000000000046
 31
0.0
  0
LINE
  5
63F
330
18
100
AcDbEntity
  8
NORMALI
100
AcDbLine
 10
1008.332291781657
 20
-85.25000000000227
 30
0.0
 11
1027.332291781657
 21
-85.25000000000227
 31
0.0
  0
LINE
  5
641
330
18
100
AcDbEntity
  8
DISEGNO
100
AcDbLine
 10
895.4526457742431
 20
-85.00000000000026
 30
0.0
 11
1008.082291781655
 21
-85.00000000000046
 31
0.0
  0
LINE
  5
642
330
18
100
AcDbEntity
  8
NORMALI
100
AcDbLine
 10
895.4526457742439
 20
-100.9993773584978
 30
0.0
 11
1027.332291781657
 21
-100.999377358498
 31
0.0
  0
LINE
  5
643
330
18
100
AcDbEntity
  8
NORMALI
100
AcDbLine
 10
1008.332291781663
 20
-85.25000000000046
 30
0.0
 11
1008.332291781663
 21
-76.37794062080911
 31
0.0
  0
LINE
  5
644
330
18
100
AcDbEntity
  8
NORMALI
100
AcDbLine
 10
1008.332291781662
 20
-85.25000000000046
 30
0.0
 11
1007.332291781662
 21
-84.25000000000045
 31
0.0
  0
LINE
  5
645
330
18
100
AcDbEntity
  8
NORMALI
100
AcDbLine
 10
1008.332291781657
 20
-85.25000000000227
 30
0.0
 11
1007.332291781657
 21
-84.25000000000228
 31
0.0
  0
LINE
  5
646
330
18
100
AcDbEntity
  8
NORMALI
100
AcDbLine
 10
1027.332291781657
 20
-100.9993773584978
 30
0.0
 11
1027.332291781657
 21
-85.25000000000046
 31
0.0
  0
LINE
  5
647
330
18
100
AcDbEntity
  8
DISEGNO
100
AcDbLine
 10
1079.332291781657
 20
-85.25000000000227
 30
0.0
 11
1027.332291781657
 21
-85.25000000000227
 31
0.0
  0
ARC
  5
648
330
18
100
AcDbEntity
  8
DISEGNO
100
AcDbCircle
 10
1079.332291781657
 20
-82.25000000000227
 30
0.0
 40
3.0
100
AcDbArc
 50
270.0
 51
0.000000000000007
  0
LINE
  5
649
330
18
100
AcDbEntity
  8
NORMALI
100
AcDbLine
 10
1008.332291781659
 20
-60.25000000000045
 30
0.0
 11
1027.33229178166
 21
-60.25000000000045
 31
0.0
  0
LINE
  5
64A
330
18
100
AcDbEntity
  8
NORMALI
100
AcDbLine
 10
1008.332291781657
 20
-60.25000000000226
 30
0.0
 11
1027.332291781657
 21
-60.25000000000226
 31
0.0
  0
LINE
  5
64B
330
18
100
AcDbEntity
  8
DISEGNO
100
AcDbLine
 10
1027.332291781659
 20
-56.25000000000227
 30
0.0
 11
895.4526457742447
 21
-56.25000000000409
 31
0.0
  0
LINE
  5
64C
330
18
100
AcDbEntity
  8
DISEGNO
100
AcDbLine
 10
1027.332291781659
 20
-43.75000000000045
 30
0.0
 11
895.4526457742431
 21
-43.75000000000045
 31
0.0
  0
LINE
  5
64D
330
18
100
AcDbEntity
  8
DISEGNO
100
AcDbLine
 10
1027.332291781656
 20
-43.75000000000045
 30
0.0
 11
895.4526457742439
 21
-43.75000000000045
 31
0.0
  0
LINE
  5
64E
330
18
100
AcDbEntity
  8
DISEGNO
100
AcDbLine
 10
1027.332291781657
 20
-56.25000000000887
 30
0.0
 11
895.4526457742431
 21
-56.24999999999864
 31
0.0
  0
LINE
  5
64F
330
18
100
AcDbEntity
  8
NORMALI
100
AcDbLine
 10
1027.332291781657
 20
-25.00000000000045
 30
0.0
 11
895.4526457742447
 21
-25.00000000000045
 31
0.0
  0
LINE
  5
650
330
18
100
AcDbEntity
  8
NORMALI
100
AcDbLine
 10
1007.332291781659
 20
-61.25000000000046
 30
0.0
 11
1008.332291781659
 21
-60.25000000000045
 31
0.0
  0
LINE
  5
651
330
18
100
AcDbEntity
  8
NORMALI
100
AcDbLine
 10
1007.332291781657
 20
-61.25000000000409
 30
0.0
 11
1008.332291781657
 21
-60.25000000000409
 31
0.0
  0
LINE
  5
652
330
18
100
AcDbEntity
  8
NORMALI
100
AcDbLine
 10
1008.332291781659
 20
-60.25000000000045
 30
0.0
 11
1008.332291781663
 21
-69.62205937919179
 31
0.0
  0
LINE
  5
655
330
18
100
AcDbEntity
  8
DISEGNO
100
AcDbLine
 10
875.452645774243
 20
-37.5
 30
0.0
 11
895.4526457742423
 21
-37.50000000000091
 31
0.0
  0
LINE
  5
656
330
18
100
AcDbEntity
  8
DISEGNO
100
AcDbLine
 10
882.4526457742422
 20
-37.5
 30
0.0
 11
894.4526457742433
 21
-37.50000000000091
 31
0.0
  0
LINE
  5
68A
330
18
100
AcDbEntity
  8
DISEGNO
100
AcDbLine
 10
1079.332291781657
 20
-60.25000000000226
 30
0.0
 11
1027.332291781657
 21
-60.25000000000226
 31
0.0
  0
ARC
  5
68C
330
18
100
AcDbEntity
  8
DISEGNO
100
AcDbCircle
 10
1079.332291781657
 20
-63.25000000000226
 30
0.0
 40
3.0
100
AcDbArc
 50
0.000000000000007
 51
90.0
  0
LINE
  5
692
330
18
100
AcDbEntity
  8
DISEGNO
100
AcDbLine
 10
1511.642076015933
 20
412.2194055835816
 30
0.0
 11
1539.392076015933
 21
412.2194055835816
 31
0.0
  0
ARC
  5
694
330
18
100
AcDbEntity
  8
DISEGNO
100
AcDbCircle
 10
1214.332291781657
 20
-80.00000000000227
 30
0.0
 40
5.0
100
AcDbArc
 50
270.0
 51
0.000000000000007
  0
POINT
  5
695
330
18
100
AcDbEntity
  8
DEFPOINTS
  6
ByBlock
 62
     0
100
AcDbPoint
 10
1214.332291781657
 20
-85.00000000000227
 30
0.0
  0
LINE
  5
696
330
18
100
AcDbEntity
  8
NORMALI
100
AcDbLine
 10
1503.759698657442
 20
471.4092434328867
 30
0.0
 11
1484.667698657441
 21
452.3192434328866
 31
0.0
  0
LINE
  5
697
330
18
100
AcDbEntity
  8
NORMALI
100
AcDbLine
 10
1503.203420015291
 20
477.2192434328843
 30
0.0
 11
1476.889698657441
 21
450.9092434328866
 31
0.0
  0
LINE
  5
699
330
18
100
AcDbEntity
  8
NORMALI
100
AcDbLine
 10
1454.109698657441
 20
477.2192434328843
 30
0.0
 11
1505.173698657442
 21
477.2192434328843
 31
0.0
  0
LINE
  5
69A
330
18
100
AcDbEntity
  8
NORMALI
100
AcDbLine
 10
1472.646698657442
 20
469.289243432884
 30
0.0
 11
1464.161698657442
 21
477.7792434328858
 31
0.0
  0
LINE
  5
69B
330
18
100
AcDbEntity
  8
NORMALI
100
AcDbLine
 10
1465.575698657442
 20
462.2192434328844
 30
0.0
 11
1476.889698657441
 21
450.9092434328866
 31
0.0
  0
LINE
  5
69C
330
18
100
AcDbEntity
  8
NORMALI
100
AcDbLine
 10
1465.575698657442
 20
462.2192434328844
 30
0.0
 11
1480.577820298177
 21
477.2192434328843
 31
0.0
  0
LINE
  5
69D
330
18
100
AcDbEntity
  8
NORMALI
100
AcDbLine
 10
1457.109698657441
 20
474.2192434328845
 30
0.0
 11
1460.606698657441
 21
474.2192434328845
 31
0.0
  0
LINE
  5
69E
330
18
100
AcDbEntity
  8
NORMALI
100
AcDbLine
 10
1463.606839833912
 20
477.2192434328843
 30
0.0
 11
1460.606698657441
 21
474.2192434328845
 31
0.0
  0
LINE
  5
69F
330
18
100
AcDbEntity
  8
NORMALI
100
AcDbLine
 10
1484.667698657441
 20
452.3192434328866
 30
0.0
 11
1481.485698657442
 21
455.4992434328869
 31
0.0
  0
ARC
  5
6A2
330
18
100
AcDbEntity
  8
DISEGNO
100
AcDbCircle
 10
1511.642076015932
 20
413.2194055835821
 30
0.0
 40
1.0
100
AcDbArc
 50
180.0
 51
269.9999892802007
  0
LINE
  5
6A3
330
18
100
AcDbEntity
  8
NORMALI
100
AcDbLine
 10
1510.642186078825
 20
479.7192434328843
 30
0.0
 11
1504.642698657442
 21
479.7192434328843
 31
0.0
  0
LINE
  5
6A4
330
18
100
AcDbEntity
  8
NORMALI
100
AcDbLine
 10
1500.577698657441
 20
474.5992434328853
 30
0.0
 11
1503.759698657442
 21
471.4092434328867
 31
0.0
  0
LINE
  5
6A5
330
18
100
AcDbEntity
  8
NORMALI
100
AcDbLine
 10
1505.173698657442
 20
479.1892434328856
 30
0.0
 11
1505.173698657442
 21
477.2192434328843
 31
0.0
  0
ARC
  5
6A7
330
18
100
AcDbEntity
  8
DISEGNO
100
AcDbCircle
 10
1214.332291781657
 20
-54.50000000000226
 30
0.0
 40
5.0
100
AcDbArc
 50
270.0
 51
0.000000000000007
  0
LINE
  5
6AA
330
18
100
AcDbEntity
  8
DISEGNO
100
AcDbLine
 10
1214.332291781657
 20
84.99999999999772
 30
0.0
 11
1080.531249662486
 21
84.99999999999772
 31
0.0
  0
LINE
  5
6AB
330
18
100
AcDbEntity
  8
DISEGNO
100
AcDbLine
 10
1027.332291781657
 20
59.50000000000136
 30
0.0
 11
1214.332291781657
 21
59.50000000000136
 31
0.0
  0
LINE
  5
6AD
330
18
100
AcDbEntity
  8
NORMALI
100
AcDbLine
 10
1008.332291781657
 20
85.24999999999772
 30
0.0
 11
1008.332291781657
 21
60.24999999999772
 31
0.0
  0
LINE
  5
6AE
330
18
100
AcDbEntity
  8
NORMALI
100
AcDbLine
 10
1007.332291781659
 20
61.24999999999954
 30
0.0
 11
1007.332291781663
 21
84.24999999999954
 31
0.0
  0
LINE
  5
6AF
330
18
100
AcDbEntity
  8
NORMALI
100
AcDbLine
 10
1007.332291781657
 20
84.24999999999773
 30
0.0
 11
1007.332291781657
 21
61.24999999999772
 31
0.0
  0
LINE
  5
6B0
330
18
100
AcDbEntity
  8
DISEGNO
100
AcDbLine
 10
1082.332291781657
 20
63.24999999999771
 30
0.0
 11
1082.332291781657
 21
82.24999999999772
 31
0.0
  0
LINE
  5
6B7
330
18
100
AcDbEntity
  8
DISEGNO
100
AcDbLine
 10
1027.332291781657
 20
56.25000000000136
 30
0.0
 11
895.4526457742467
 21
56.25000000000136
 31
0.0
  0
LINE
  5
6B8
330
18
100
AcDbEntity
  8
NORMALI
100
AcDbLine
 10
1008.332291781659
 20
60.24999999999955
 30
0.0
 11
1027.33229178166
 21
60.24999999999955
 31
0.0
  0
LINE
  5
6B9
330
18
100
AcDbEntity
  8
NORMALI
100
AcDbLine
 10
1008.332291781657
 20
60.24999999999772
 30
0.0
 11
1027.332291781657
 21
60.24999999999772
 31
0.0
  0
LINE
  5
6BA
330
18
100
AcDbEntity
  8
DISEGNO
100
AcDbLine
 10
1027.332291781657
 20
43.74999999999954
 30
0.0
 11
895.4526457742447
 21
43.74999999999954
 31
0.0
  0
LINE
  5
6BB
330
18
100
AcDbEntity
  8
NORMALI
100
AcDbLine
 10
1027.332291781657
 20
24.99999999999954
 30
0.0
 11
895.4526457742447
 21
24.99999999999954
 31
0.0
  0
LINE
  5
6BC
330
18
100
AcDbEntity
  8
DISEGNO
100
AcDbLine
 10
1027.332291781657
 20
56.24999999999125
 30
0.0
 11
895.4526457742447
 21
56.25000000000136
 31
0.0
  0
LINE
  5
6EE
330
18
100
AcDbEntity
  8
DISEGNO
100
AcDbLine
 10
875.4526457742421
 20
37.49999999999818
 30
0.0
 11
895.4526457742431
 21
37.5
 31
0.0
  0
LINE
  5
6EF
330
18
100
AcDbEntity
  8
DISEGNO
100
AcDbLine
 10
882.4526457742411
 20
37.49999999999818
 30
0.0
 11
894.4526457742433
 21
37.49999999999909
 31
0.0
  0
LINE
  5
6F2
330
18
100
AcDbEntity
  8
NORMALI
100
AcDbLine
 10
1008.332291781659
 20
60.24999999999955
 30
0.0
 11
1008.332291781663
 21
69.62205937919089
 31
0.0
  0
LINE
  5
6F3
330
18
100
AcDbEntity
  8
NORMALI
100
AcDbLine
 10
1007.332291781659
 20
61.24999999999954
 30
0.0
 11
1008.332291781659
 21
60.24999999999955
 31
0.0
  0
LINE
  5
6F4
330
18
100
AcDbEntity
  8
NORMALI
100
AcDbLine
 10
1007.332291781657
 20
61.24999999999772
 30
0.0
 11
1008.332291781657
 21
60.24999999999772
 31
0.0
  0
LINE
  5
6FB
330
18
100
AcDbEntity
  8
DISEGNO
100
AcDbLine
 10
1079.332291781657
 20
60.24999999999772
 30
0.0
 11
1027.332291781657
 21
60.24999999999772
 31
0.0
  0
ARC
  5
6FC
330
18
100
AcDbEntity
  8
DISEGNO
100
AcDbCircle
 10
1079.332291781657
 20
63.24999999999771
 30
0.0
 40
3.0
100
AcDbArc
 50
270.0
 51
0.000000000000007
  0
LINE
  5
6FD
330
18
100
AcDbEntity
  8
NORMALI
100
AcDbLine
 10
1008.332291781663
 20
85.24999999999954
 30
0.0
 11
1027.332291781663
 21
85.24999999999954
 31
0.0
  0
LINE
  5
6FE
330
18
100
AcDbEntity
  8
NORMALI
100
AcDbLine
 10
1008.332291781657
 20
85.24999999999772
 30
0.0
 11
1027.332291781657
 21
85.24999999999772
 31
0.0
  0
LINE
  5
700
330
18
100
AcDbEntity
  8
DISEGNO
100
AcDbLine
 10
895.4526457742455
 20
85.00000000001239
 30
0.0
 11
1008.08229178167
 21
85.00000000001152
 31
0.0
  0
LINE
  5
701
330
18
100
AcDbEntity
  8
NORMALI
100
AcDbLine
 10
895.4526457742439
 20
100.9993773584969
 30
0.0
 11
1027.332291781655
 21
100.9993773584968
 31
0.0
  0
LINE
  5
702
330
18
100
AcDbEntity
  8
NORMALI
100
AcDbLine
 10
1008.332291781663
 20
85.24999999999954
 30
0.0
 11
1008.332291781663
 21
76.3779406208082
 31
0.0
  0
LINE
  5
703
330
18
100
AcDbEntity
  8
NORMALI
100
AcDbLine
 10
1008.332291781662
 20
85.24999999999954
 30
0.0
 11
1007.332291781662
 21
84.24999999999954
 31
0.0
  0
LINE
  5
704
330
18
100
AcDbEntity
  8
NORMALI
100
AcDbLine
 10
1008.332291781657
 20
85.24999999999772
 30
0.0
 11
1007.332291781657
 21
84.24999999999773
 31
0.0
  0
LINE
  5
705
330
18
100
AcDbEntity
  8
NORMALI
100
AcDbLine
 10
1027.332291781655
 20
100.9993773584969
 30
0.0
 11
1027.332291781655
 21
85.00000000000317
 31
0.0
  0
LINE
  5
706
330
18
100
AcDbEntity
  8
DISEGNO
100
AcDbLine
 10
1079.332291781657
 20
85.24999999999772
 30
0.0
 11
1027.332291781657
 21
85.24999999999772
 31
0.0
  0
ARC
  5
707
330
18
100
AcDbEntity
  8
DISEGNO
100
AcDbCircle
 10
1079.332291781657
 20
82.24999999999772
 30
0.0
 40
3.0
100
AcDbArc
 50
0.000000000000007
 51
90.0
  0
LINE
  5
709
330
18
100
AcDbEntity
  8
DISEGNO
100
AcDbLine
 10
1679.642076015932
 20
412.2194055835816
 30
0.0
 11
1651.892076015932
 21
412.2194055835816
 31
0.0
  0
ARC
  5
70B
330
18
100
AcDbEntity
  8
DISEGNO
100
AcDbCircle
 10
1214.332291781657
 20
54.50000000000136
 30
0.0
 40
5.0
100
AcDbArc
 50
0.000000000000007
 51
90.0
  0
ARC
  5
70E
330
18
100
AcDbEntity
  8
DISEGNO
100
AcDbCircle
 10
1214.332291781657
 20
79.99999999999772
 30
0.0
 40
5.0
100
AcDbArc
 50
0.000000000000007
 51
90.0
  0
POINT
  5
70F
330
18
100
AcDbEntity
  8
DEFPOINTS
  6
ByBlock
 62
     0
100
AcDbPoint
 10
1214.332291781657
 20
84.99999999999772
 30
0.0
  0
LINE
  5
710
330
18
100
AcDbEntity
  8
NORMALI
100
AcDbLine
 10
1737.174453374422
 20
477.219405583583
 30
0.0
 11
1686.110453374421
 21
477.219405583583
 31
0.0
  0
LINE
  5
711
330
18
100
AcDbEntity
  8
NORMALI
100
AcDbLine
 10
1688.080732016572
 20
477.219405583583
 30
0.0
 11
1714.394453374422
 21
450.9094055835852
 31
0.0
  0
LINE
  5
712
330
18
100
AcDbEntity
  8
NORMALI
100
AcDbLine
 10
1687.524453374422
 20
471.4094055835852
 30
0.0
 11
1706.616453374422
 21
452.3194055835851
 31
0.0
  0
LINE
  5
715
330
18
100
AcDbEntity
  8
DISEGNO
100
AcDbLine
 10
1680.642076015932
 20
413.2194055835816
 30
0.0
 11
1680.642076015932
 21
440.9694055835816
 31
0.0
  0
ARC
  5
716
330
18
100
AcDbEntity
  8
DISEGNO
100
AcDbCircle
 10
1679.642076015932
 20
413.2194055835816
 30
0.0
 40
1.0
100
AcDbArc
 50
270.0
 51
0.0
  0
LINE
  5
717
330
18
100
AcDbEntity
  8
NORMALI
100
AcDbLine
 10
1680.641965953038
 20
479.7194055835825
 30
0.0
 11
1686.641453374422
 21
479.719405583583
 31
0.0
  0
LINE
  5
718
330
18
100
AcDbEntity
  8
NORMALI
100
AcDbLine
 10
1686.110453374421
 20
479.189405583584
 30
0.0
 11
1686.110453374421
 21
477.219405583583
 31
0.0
  0
LINE
  5
71A
330
18
100
AcDbEntity
  8
NORMALI
100
AcDbLine
 10
1690.706453374422
 20
474.5994055835839
 30
0.0
 11
1687.524453374422
 21
471.4094055835852
 31
0.0
  0
LINE
  5
71B
330
18
100
AcDbEntity
  8
NORMALI
100
AcDbLine
 10
1725.708453374422
 20
462.219405583583
 30
0.0
 11
1714.394453374422
 21
450.9094055835852
 31
0.0
  0
LINE
  5
71C
330
18
100
AcDbEntity
  8
NORMALI
100
AcDbLine
 10
1725.708453374422
 20
462.219405583583
 30
0.0
 11
1710.706331733687
 21
477.219405583583
 31
0.0
  0
LINE
  5
71D
330
18
100
AcDbEntity
  8
NORMALI
100
AcDbLine
 10
1718.637453374422
 20
469.2894055835826
 30
0.0
 11
1727.122453374422
 21
477.7794055835842
 31
0.0
  0
LINE
  5
71E
330
18
100
AcDbEntity
  8
NORMALI
100
AcDbLine
 10
1706.616453374422
 20
452.3194055835851
 30
0.0
 11
1709.798453374422
 21
455.4994055835853
 31
0.0
  0
LINE
  5
720
330
18
100
AcDbEntity
  8
NORMALI
100
AcDbLine
 10
1739.850453374422
 20
478.479405583585
 30
0.0
 11
1739.143453374422
 21
479.189405583584
 31
0.0
  0
LINE
  5
721
330
18
100
AcDbEntity
  8
NORMALI
100
AcDbLine
 10
1727.677312197951
 20
477.219405583583
 30
0.0
 11
1730.677453374422
 21
474.219405583583
 31
0.0
  0
LINE
  5
722
330
18
100
AcDbEntity
  8
NORMALI
100
AcDbLine
 10
1734.174453374422
 20
474.219405583583
 30
0.0
 11
1730.677453374422
 21
474.219405583583
 31
0.0
  0
LINE
  5
723
330
18
100
AcDbEntity
  8
DISEGNO
100
AcDbLine
 10
1535.642076015929
 20
561.2194055835933
 30
0.0
 11
1655.64207601593
 21
561.2194055835939
 31
0.0
  0
LINE
  5
724
330
18
100
AcDbEntity
  8
DISEGNO
100
AcDbLine
 10
1560.22465171089
 20
567.2194055835839
 30
0.0
 11
1631.059500320977
 21
567.2194055835833
 31
0.0
  0
LINE
  5
729
330
18
100
AcDbEntity
  8
DISEGNO
100
AcDbLine
 10
1511.642076015933
 20
532.2194055835816
 30
0.0
 11
1535.642076015929
 21
532.2194055835816
 31
0.0
  0
LINE
  5
72D
330
18
100
AcDbEntity
  8
NORMALI
100
AcDbLine
 10
1490.866698657442
 20
534.2192434328843
 30
0.0
 11
1486.521932699995
 21
517.2192434328843
 31
0.0
  0
LINE
  5
72F
330
18
100
AcDbEntity
  8
NORMALI
100
AcDbLine
 10
1454.109698657441
 20
517.2192434328843
 30
0.0
 11
1505.173698657442
 21
517.2192434328843
 31
0.0
  0
LINE
  5
733
330
18
100
AcDbEntity
  8
NORMALI
100
AcDbLine
 10
1460.606698657441
 20
520.2192434328845
 30
0.0
 11
1463.606839833912
 21
517.2192434328843
 31
0.0
  0
LINE
  5
734
330
18
100
AcDbEntity
  8
NORMALI
100
AcDbLine
 10
1460.606698657441
 20
520.2192434328845
 30
0.0
 11
1457.110046483528
 21
520.2192434328845
 31
0.0
  0
LINE
  5
739
330
18
100
AcDbEntity
  8
NORMALI
100
AcDbLine
 10
1504.642698657442
 20
514.7192434328843
 30
0.0
 11
1510.642076015932
 21
514.7192434328843
 31
0.0
  0
LINE
  5
73A
330
18
100
AcDbEntity
  8
NORMALI
100
AcDbLine
 10
1503.204215040141
 20
517.2192434328843
 30
0.0
 11
1489.917698657441
 21
530.5092434328852
 31
0.0
  0
LINE
  5
73B
330
18
100
AcDbEntity
  8
NORMALI
100
AcDbLine
 10
1503.759698657442
 20
523.0292434328856
 30
0.0
 11
1490.866698657442
 21
535.9253261618232
 31
0.0
  0
LINE
  5
73C
330
18
100
AcDbEntity
  8
NORMALI
100
AcDbLine
 10
1492.042703708203
 20
502.1192484836483
 30
0.0
 11
1505.173198722981
 21
515.2497434984232
 31
0.0
  0
LINE
  5
73D
330
18
100
AcDbEntity
  8
NORMALI
100
AcDbLine
 10
1505.173698657442
 20
515.2492434328869
 30
0.0
 11
1505.173698657442
 21
517.2192434328843
 31
0.0
  0
LINE
  5
73F
330
18
100
AcDbEntity
  8
NORMALI
100
AcDbLine
 10
1500.577698657441
 20
519.8492434328853
 30
0.0
 11
1503.759698657442
 21
523.0292434328856
 31
0.0
  0
ARC
  5
740
330
18
100
AcDbEntity
  8
NORMALI
100
AcDbCircle
 10
1497.04169865744
 20
497.2192434328852
 30
0.0
 40
7.0
100
AcDbArc
 50
134.9999999999953
 51
224.9999000000026
  0
LINE
  5
741
330
18
100
AcDbEntity
  8
NORMALI
100
AcDbLine
 10
1490.866698657442
 20
547.2192434328843
 30
0.0
 11
1490.866698657442
 21
534.2192434328843
 31
0.0
  0
ARC
  5
745
330
18
100
AcDbEntity
  8
DISEGNO
100
AcDbCircle
 10
1511.642076015932
 20
531.2194055835821
 30
0.0
 40
1.0
100
AcDbArc
 50
90.0
 51
180.0
  0
ARC
  5
746
330
18
100
AcDbEntity
  8
DISEGNO
100
AcDbCircle
 10
1555.642076015934
 20
565.2194055835833
 30
0.0
 40
5.0
100
AcDbArc
 50
0.0
 51
90.0
  0
LINE
  5
748
330
18
100
AcDbEntity
  8
DISEGNO
100
AcDbLine
 10
1535.642076015932
 20
548.7164095835936
 30
0.0
 11
1535.642076015932
 21
565.2194055835833
 31
0.0
  0
ARC
  5
749
330
18
100
AcDbEntity
  8
DISEGNO
100
AcDbCircle
 10
1540.642076015932
 20
565.2194055835833
 30
0.0
 40
5.0
100
AcDbArc
 50
90.0
 51
180.0
  0
LINE
  5
74A
330
18
100
AcDbEntity
  8
DISEGNO
100
AcDbLine
 10
1540.642076015932
 20
570.2194055835835
 30
0.0
 11
1555.642076015934
 21
570.2194055835835
 31
0.0
  0
LINE
  5
75A
330
18
100
AcDbEntity
  8
DISEGNO
100
AcDbLine
 10
1679.642076015932
 20
532.2194055835816
 30
0.0
 11
1655.64207601593
 21
532.2194055835816
 31
0.0
  0
ARC
  5
75C
330
18
100
AcDbEntity
  8
DISEGNO
100
AcDbCircle
 10
1635.642076015933
 20
565.2194055835839
 30
0.0
 40
5.0
100
AcDbArc
 50
90.0
 51
180.0
  0
LINE
  5
769
330
18
100
AcDbEntity
  8
DISEGNO
100
AcDbLine
 10
1630.642076015932
 20
561.2194055835939
 30
0.0
 11
1630.642076015933
 21
565.2194055835839
 31
0.0
  0
LINE
  5
76C
330
18
100
AcDbEntity
  8
DISEGNO
100
AcDbLine
 10
1655.642076015934
 20
548.7164095835936
 30
0.0
 11
1655.642076015934
 21
565.2194055835844
 31
0.0
  0
ARC
  5
76D
330
18
100
AcDbEntity
  8
DISEGNO
100
AcDbCircle
 10
1650.642076015934
 20
565.2194055835844
 30
0.0
 40
5.0
100
AcDbArc
 50
0.0
 51
90.0
  0
LINE
  5
76E
330
18
100
AcDbEntity
  8
DISEGNO
100
AcDbLine
 10
1635.642076015933
 20
570.2194055835839
 30
0.0
 11
1650.642076015934
 21
570.2194055835843
 31
0.0
  0
LINE
  5
770
330
18
100
AcDbEntity
  8
NORMALI
100
AcDbLine
 10
1737.174453374422
 20
517.219405583583
 30
0.0
 11
1686.110453374421
 21
517.219405583583
 31
0.0
  0
LINE
  5
772
330
18
100
AcDbEntity
  8
NORMALI
100
AcDbLine
 10
1700.417453374422
 20
534.219405583583
 30
0.0
 11
1704.762219331868
 21
517.219405583583
 31
0.0
  0
LINE
  5
775
330
18
100
AcDbEntity
  8
NORMALI
100
AcDbLine
 10
1686.641453374422
 20
514.719405583583
 30
0.0
 11
1680.642076015932
 21
514.7194055835825
 31
0.0
  0
ARC
  5
777
330
18
100
AcDbEntity
  8
DISEGNO
100
AcDbCircle
 10
1679.642076015932
 20
531.2194055835816
 30
0.0
 40
1.0
100
AcDbArc
 50
0.0
 51
90.0
  0
LINE
  5
778
330
18
100
AcDbEntity
  8
NORMALI
100
AcDbLine
 10
1688.079936991722
 20
517.219405583583
 30
0.0
 11
1701.366453374422
 21
530.5094055835838
 31
0.0
  0
LINE
  5
779
330
18
100
AcDbEntity
  8
NORMALI
100
AcDbLine
 10
1687.524453374422
 20
523.0294055835843
 30
0.0
 11
1700.417453374422
 21
535.9254883125218
 31
0.0
  0
LINE
  5
77A
330
18
100
AcDbEntity
  8
NORMALI
100
AcDbLine
 10
1699.241448323661
 20
502.1194106343468
 30
0.0
 11
1686.110953308883
 21
515.2499056491218
 31
0.0
  0
ARC
  5
77B
330
18
100
AcDbEntity
  8
NORMALI
100
AcDbCircle
 10
1694.242453374422
 20
497.2194055835833
 30
0.0
 40
7.0
100
AcDbArc
 50
315.0000999999974
 51
45.00000000000464
  0
LINE
  5
77C
330
18
100
AcDbEntity
  8
NORMALI
100
AcDbLine
 10
1686.110453374421
 20
515.2494055835854
 30
0.0
 11
1686.110453374421
 21
517.219405583583
 31
0.0
  0
LINE
  5
77E
330
18
100
AcDbEntity
  8
NORMALI
100
AcDbLine
 10
1690.706453374422
 20
519.849405583584
 30
0.0
 11
1687.524453374422
 21
523.0294055835843
 31
0.0
  0
LINE
  5
77F
330
18
100
AcDbEntity
  8
NORMALI
100
AcDbLine
 10
1700.417453374422
 20
547.219405583583
 30
0.0
 11
1700.417453374422
 21
534.219405583583
 31
0.0
  0
LINE
  5
789
330
18
100
AcDbEntity
  8
NORMALI
100
AcDbLine
 10
1730.677453374422
 20
520.219405583583
 30
0.0
 11
1727.677312197951
 21
517.219405583583
 31
0.0
  0
LINE
  5
78A
330
18
100
AcDbEntity
  8
NORMALI
100
AcDbLine
 10
1730.677453374422
 20
520.219405583583
 30
0.0
 11
1734.174105548335
 21
520.219405583583
 31
0.0
  0
LINE
  5
78D
330
18
100
AcDbEntity
  8
ASSI
100
AcDbLine
 10
1227.466605705338
 20
447.2194055835816
 30
0.0
 11
277.3323258702859
 21
447.2194055835818
 31
0.0
  0
LINE
  5
78E
330
18
100
AcDbEntity
  8
ASSI
100
AcDbLine
 10
1228.722011859852
 20
497.2194055835816
 30
0.0
 11
68.42976934215312
 21
497.2194055835816
 31
0.0
  0
LINE
  5
791
330
18
100
AcDbEntity
  8
NORMALI
100
AcDbLine
 10
782.4526457742467
 20
487.2194055835852
 30
0.0
 11
755.4526457742468
 21
487.2194055835852
 31
0.0
  0
LINE
  5
792
330
18
100
AcDbEntity
  8
DISEGNO
100
AcDbLine
 10
1027.332291781657
 20
412.2194055835816
 30
0.0
 11
262.3323258702864
 21
412.2194055835914
 31
0.0
  0
LINE
  5
793
330
18
100
AcDbEntity
  8
DISEGNO
100
AcDbLine
 10
277.3323258702864
 20
440.9694055835871
 30
0.0
 11
1027.332291781657
 21
440.9694055835871
 31
0.0
  0
LINE
  5
794
330
18
100
AcDbEntity
  8
DISEGNO
100
AcDbLine
 10
895.4526457742467
 20
547.2194055835853
 30
0.0
 11
415.4526457742468
 21
547.2194055835833
 31
0.0
  0
LINE
  5
795
330
18
100
AcDbEntity
  8
DISEGNO
100
AcDbLine
 10
415.4526457742468
 20
567.2194055835833
 30
0.0
 11
895.4526457742467
 21
567.2194055835833
 31
0.0
  0
LINE
  5
797
330
18
100
AcDbEntity
  8
DISEGNO
100
AcDbLine
 10
508.3264444437531
 20
453.4694055835871
 30
0.0
 11
825.3730926957491
 21
453.4694055835859
 31
0.0
  0
LINE
  5
798
330
18
100
AcDbEntity
  8
NORMALI
100
AcDbLine
 10
772.4571595353227
 20
479.7194055835833
 30
0.0
 11
538.4481320131708
 21
479.7194055835833
 31
0.0
  0
LINE
  5
7EB
330
18
100
AcDbEntity
  8
DISEGNO
100
AcDbLine
 10
528.4526457742469
 20
532.2194055835836
 30
0.0
 11
493.933102630755
 21
532.2194055835836
 31
0.0
  0
LINE
  5
7EC
330
18
100
AcDbEntity
  8
DISEGNO
100
AcDbLine
 10
490.1894416566161
 20
538.0194055835835
 30
0.0
 11
520.4526457742463
 21
538.0194055835835
 31
0.0
  0
LINE
  5
7EF
330
18
100
AcDbEntity
  8
NORMALI
100
AcDbLine
 10
442.4526457742468
 20
497.2194055835833
 30
0.0
 11
528.4526457742469
 21
497.2194055835833
 31
0.0
  0
LINE
  5
7F0
330
18
100
AcDbEntity
  8
NORMALI
100
AcDbLine
 10
442.4526457742468
 20
498.9694055835833
 30
0.0
 11
528.4526457742469
 21
498.9694055835833
 31
0.0
  0
LINE
  5
7F1
330
18
100
AcDbEntity
  8
NORMALI
100
AcDbLine
 10
442.4526457742468
 20
495.4694055835833
 30
0.0
 11
528.4526457742469
 21
495.4694055835833
 31
0.0
  0
LINE
  5
7F2
330
18
100
AcDbEntity
  8
NORMALI
100
AcDbLine
 10
442.4526457742468
 20
520.2194055835835
 30
0.0
 11
528.4526457742469
 21
520.2194055835835
 31
0.0
  0
LINE
  5
7F4
330
18
100
AcDbEntity
  8
NORMALI
100
AcDbLine
 10
436.4526457742469
 20
474.2194055835835
 30
0.0
 11
534.4526457742468
 21
474.2194055835835
 31
0.0
  0
ELLIPSE
  5
7F5
330
18
100
AcDbEntity
  8
NORMALI
100
AcDbEllipse
 10
496.8497685697485
 20
476.3627402970386
 30
0.0
 11
20.00000005274088
 21
0.0000000000000057
 31
0.0
210
0.0
220
0.0
230
-1.0
 40
0.7071667356727611
 41
0.1521299263250988
 42
2.989462727264693
  0
ELLIPSE
  5
7F6
330
18
100
AcDbEntity
  8
NORMALI
100
AcDbEllipse
 10
496.8497685697485
 20
465.0508479583595
 30
0.0
 11
-20.00000005274114
 21
-0.0000000000006431
 31
0.0
210
0.0
220
0.0
230
-1.0
 40
0.70707212418107
 41
3.141592653589837
 42
6.28318530717963
  0
LINE
  5
7F8
330
18
100
AcDbEntity
  8
NORMALI
100
AcDbLine
 10
415.4526457742468
 20
547.2194055835833
 30
0.0
 11
415.4526457742468
 21
487.2194055835833
 31
0.0
  0
LINE
  5
7F9
330
18
100
AcDbEntity
  8
NORMALI
100
AcDbLine
 10
442.4526457742468
 20
547.2194055835833
 30
0.0
 11
442.4526457742468
 21
487.2194055835833
 31
0.0
  0
LINE
  5
7FC
330
18
100
AcDbEntity
  8
NORMALI
100
AcDbLine
 10
277.3323258702864
 20
489.7194055835816
 30
0.0
 11
415.4526457742468
 21
489.7194055835816
 31
0.0
  0
LINE
  5
7FD
330
18
100
AcDbEntity
  8
DISEGNO
100
AcDbLine
 10
277.3323258702864
 20
453.469405583587
 30
0.0
 11
485.3730926957437
 21
453.4694055835871
 31
0.0
  0
LINE
  5
7FE
330
18
100
AcDbEntity
  8
NORMALI
100
AcDbLine
 10
277.3323258702864
 20
479.7194055835706
 30
0.0
 11
432.4618404269241
 21
479.7194055835888
 31
0.0
  0
LINE
  5
7FF
330
18
100
AcDbEntity
  8
NORMALI
100
AcDbLine
 10
476.8497685170069
 20
474.2194055835835
 30
0.0
 11
476.8497685170069
 21
465.0508479583595
 31
0.0
  0
LINE
  5
800
330
18
100
AcDbEntity
  8
NORMALI
100
AcDbLine
 10
442.4526457742468
 20
487.2194055835833
 30
0.0
 11
415.4526457742468
 21
487.2194055835833
 31
0.0
  0
LINE
  5
801
330
18
100
AcDbEntity
  8
NORMALI
100
AcDbLine
 10
436.4526457742469
 20
487.2194055835833
 30
0.0
 11
436.4526457742469
 21
474.2194055835835
 31
0.0
  0
LINE
  5
802
330
18
100
AcDbEntity
  8
NORMALI
100
AcDbLine
 10
432.4606730243959
 20
487.2194055835833
 30
0.0
 11
432.4622295611008
 21
477.2194055835833
 31
0.0
  0
LINE
  5
803
330
18
100
AcDbEntity
  8
NORMALI
100
AcDbLine
 10
436.4526457742469
 20
477.2194055835833
 30
0.0
 11
432.4622295611008
 21
477.2194055835833
 31
0.0
  0
LINE
  5
804
330
18
100
AcDbEntity
  8
NORMALI
100
AcDbLine
 10
277.3323258702864
 20
541.7194055835791
 30
0.0
 11
412.2576120130034
 21
541.7194055835794
 31
0.0
  0
LINE
  5
805
330
18
100
AcDbEntity
  8
DISEGNO
100
AcDbLine
 10
277.3323258702864
 20
532.2194055835836
 30
0.0
 11
415.6698494194361
 21
532.2194055835836
 31
0.0
  0
LINE
  5
806
330
18
100
AcDbEntity
  8
NORMALI
100
AcDbLine
 10
277.3323258702864
 20
514.7194055835816
 30
0.0
 11
415.4526457742449
 21
514.7194055835816
 31
0.0
  0
LINE
  5
807
330
18
100
AcDbEntity
  8
NORMALI
100
AcDbLine
 10
277.3323258702864
 20
504.7194055835816
 30
0.0
 11
415.4526457742468
 21
504.7194055835816
 31
0.0
  0
LINE
  5
808
330
18
100
AcDbEntity
  8
NORMALI
100
AcDbLine
 10
297.3323258702799
 20
546.5194055835792
 30
0.0
 11
415.4526457742468
 21
546.5194055835792
 31
0.0
  0
ELLIPSE
  5
811
330
18
100
AcDbEntity
  8
NORMALI
100
AcDbEllipse
 10
474.3340977413573
 20
529.4027934222367
 30
0.0
 11
20.00000005274068
 21
-0.0000000000023322
 31
0.0
210
0.0
220
0.0
230
-1.0
 40
0.7068306062034754
 41
3.141592653589757
 42
6.283185307179548
  0
ELLIPSE
  5
812
330
18
100
AcDbEntity
  8
NORMALI
100
AcDbEllipse
 10
474.3340977413573
 20
518.0827934595154
 30
0.0
 11
20.000000052741
 21
0.000000000000916
 31
0.0
210
0.0
220
0.0
230
-0.9999999999999998
 40
0.7068306062033734
 41
3.293314399514225
 42
6.131463561255217
  0
LINE
  5
813
330
18
100
AcDbEntity
  8
NORMALI
100
AcDbLine
 10
454.3342528557896
 20
520.2194055835835
 30
0.0
 11
454.3349197809257
 21
529.4027934222367
 31
0.0
  0
LINE
  5
814
330
18
100
AcDbEntity
  8
NORMALI
100
AcDbLine
 10
494.3342529612711
 20
520.2194055835835
 30
0.0
 11
494.334919886409
 21
529.4027934222367
 31
0.0
  0
LINE
  5
816
330
18
100
AcDbEntity
  8
DISEGNO
100
AcDbLine
 10
454.7350928519591
 20
532.2194055835836
 30
0.0
 11
442.4526457742463
 21
532.2194055835836
 31
0.0
  0
LINE
  5
817
330
18
100
AcDbEntity
  8
DISEGNO
100
AcDbLine
 10
442.4526457742468
 20
538.0194055835834
 30
0.0
 11
458.4787538260972
 21
538.0194055835834
 31
0.0
  0
LINE
  5
81B
330
18
100
AcDbEntity
  8
DISEGNO
100
AcDbLine
 10
415.4526457742468
 20
567.219405583583
 30
0.0
 11
415.4526457742468
 21
547.2194055835833
 31
0.0
  0
LINE
  5
81C
330
18
100
AcDbEntity
  8
NORMALI
100
AcDbLine
 10
412.2576120130034
 20
541.7194055835794
 30
0.0
 11
415.4526457742464
 21
541.7194055835791
 31
0.0
  0
LINE
  5
81E
330
18
100
AcDbEntity
  8
NORMALI
100
AcDbLine
 10
528.4526457742469
 20
547.2194055835833
 30
0.0
 11
528.4526457742469
 21
487.2194055835833
 31
0.0
  0
LINE
  5
821
330
18
100
AcDbEntity
  8
NORMALI
100
AcDbLine
 10
555.4526457742468
 20
487.2194055835833
 30
0.0
 11
555.4526457742468
 21
547.2194055835833
 31
0.0
  0
LINE
  5
822
330
18
100
AcDbEntity
  8
NORMALI
100
AcDbLine
 10
755.4526457742468
 20
547.2194055835853
 30
0.0
 11
755.4526457742468
 21
487.2194055835852
 31
0.0
  0
LINE
  5
823
330
18
100
AcDbEntity
  8
NORMALI
100
AcDbLine
 10
755.4526457742468
 20
489.7194055835833
 30
0.0
 11
555.4526457742468
 21
489.7194055835833
 31
0.0
  0
LINE
  5
824
330
18
100
AcDbEntity
  8
NORMALI
100
AcDbLine
 10
516.8497686224883
 20
474.2194055835835
 30
0.0
 11
516.8497686224883
 21
465.0508479583595
 31
0.0
  0
LINE
  5
825
330
18
100
AcDbEntity
  8
NORMALI
100
AcDbLine
 10
534.4526457742468
 20
487.2194055835833
 30
0.0
 11
534.4526457742468
 21
474.2194055835835
 31
0.0
  0
LINE
  5
826
330
18
100
AcDbEntity
  8
NORMALI
100
AcDbLine
 10
538.4481320131708
 20
487.2194055835833
 30
0.0
 11
538.4481320131708
 21
477.2194055835833
 31
0.0
  0
LINE
  5
827
330
18
100
AcDbEntity
  8
NORMALI
100
AcDbLine
 10
534.4526457742468
 20
477.2194055835833
 30
0.0
 11
538.4481320131708
 21
477.2194055835833
 31
0.0
  0
LINE
  5
828
330
18
100
AcDbEntity
  8
NORMALI
100
AcDbLine
 10
555.4526457742468
 20
487.2194055835833
 30
0.0
 11
528.4526457742469
 21
487.2194055835833
 31
0.0
  0
LINE
  5
829
330
18
100
AcDbEntity
  8
DISEGNO
100
AcDbLine
 10
755.4526457742468
 20
532.2194055835836
 30
0.0
 11
555.4526457742468
 21
532.2194055835836
 31
0.0
  0
LINE
  5
82A
330
18
100
AcDbEntity
  8
NORMALI
100
AcDbLine
 10
755.4526457742468
 20
514.7194055835833
 30
0.0
 11
555.4526457742468
 21
514.7194055835833
 31
0.0
  0
LINE
  5
82B
330
18
100
AcDbEntity
  8
NORMALI
100
AcDbLine
 10
755.4526457742468
 20
504.7194055835833
 30
0.0
 11
555.4526457742468
 21
504.7194055835833
 31
0.0
  0
LINE
  5
82D
330
18
100
AcDbEntity
  8
DISEGNO
100
AcDbLine
 10
520.4526457742469
 20
547.2194055835833
 30
0.0
 11
520.4526457742463
 21
538.0194055835835
 31
0.0
  0
LINE
  5
834
330
18
100
AcDbEntity
  8
DISEGNO
100
AcDbLine
 10
1027.332291781657
 20
570.2194055835816
 30
0.0
 11
1027.332291781657
 21
412.2194055835816
 31
0.0
  0
LINE
  5
835
330
18
100
AcDbEntity
  8
DISEGNO
100
AcDbLine
 10
1027.332291781657
 20
412.2194055835816
 30
0.0
 11
1027.332291781657
 21
532.2194055835836
 31
0.0
  0
LINE
  5
836
330
18
100
AcDbEntity
  8
DISEGNO
100
AcDbLine
 10
1207.332291781657
 20
532.2194055835816
 30
0.0
 11
1207.332291781657
 21
412.2194055835833
 31
0.0
  0
LINE
  5
837
330
18
100
AcDbEntity
  8
ASSI
100
AcDbLine
 10
1114.332291781657
 20
576.2795422928362
 30
0.0
 11
1114.332291781657
 21
397.8401481403489
 31
0.0
  0
LINE
  5
838
330
18
100
AcDbEntity
  8
DISEGNO
100
AcDbLine
 10
1219.332291781657
 20
527.2194055835816
 30
0.0
 11
1219.332291781657
 21
417.2194055835816
 31
0.0
  0
LINE
  5
839
330
18
100
AcDbEntity
  8
NORMALI
100
AcDbLine
 10
1760.429453374422
 20
547.219405583583
 30
0.0
 11
1760.429453374422
 21
487.219405583583
 31
0.0
  0
LINE
  5
83A
330
18
100
AcDbEntity
  8
NORM_TR
100
AcDbLine
 10
1754.426453374422
 20
494.469405583583
 30
0.0
 11
1754.426453374422
 21
487.719405583583
 31
0.0
  0
LINE
  5
83C
330
18
100
AcDbEntity
  8
NORMALI
100
AcDbLine
 10
1754.426453374422
 20
487.219405583583
 30
0.0
 11
1760.429453374422
 21
487.219405583583
 31
0.0
  0
LINE
  5
83D
330
18
100
AcDbEntity
  8
NORMALI
100
AcDbLine
 10
1757.882453374422
 20
477.4194055835836
 30
0.0
 11
1757.882453374422
 21
476.0094055835838
 31
0.0
  0
LINE
  5
83E
330
18
100
AcDbEntity
  8
NORMALI
100
AcDbLine
 10
1757.175453374423
 20
476.719405583583
 30
0.0
 11
1757.175453374423
 21
475.2994055835848
 31
0.0
  0
LINE
  5
83F
330
18
100
AcDbEntity
  8
NORMALI
100
AcDbLine
 10
1746.677453374422
 20
485.3094055835831
 30
0.0
 11
1740.302453374422
 21
478.9394055835841
 31
0.0
  0
ARC
  5
840
330
18
100
AcDbEntity
  8
NORMALI
100
AcDbCircle
 10
1755.917453374421
 20
473.7294055835855
 30
0.0
 40
14.722
100
AcDbArc
 50
127.7919999999967
 51
154.4890000000301
  0
LINE
  5
841
330
18
100
AcDbEntity
  8
NORMALI
100
AcDbLine
 10
1742.634453374422
 20
480.0694055835852
 30
0.0
 11
1745.675453374422
 21
477.0294055835842
 31
0.0
  0
ARC
  5
842
330
18
100
AcDbEntity
  8
NORMALI
100
AcDbCircle
 10
1741.732453374421
 20
477.5094055835842
 30
0.0
 40
3.978
100
AcDbArc
 50
277.0203000000053
 51
353.0046599999976
  0
LINE
  5
843
330
18
100
AcDbEntity
  8
NORMALI
100
AcDbLine
 10
1754.955453374422
 20
485.0994055835839
 30
0.0
 11
1744.545453374422
 21
474.6894055835841
 31
0.0
  0
LINE
  5
844
330
18
100
AcDbEntity
  8
NORMALI
100
AcDbLine
 10
1747.275453374422
 20
476.719405583583
 30
0.0
 11
1746.567453374422
 21
476.719405583583
 31
0.0
  0
LINE
  5
845
330
18
100
AcDbEntity
  8
NORMALI
100
AcDbLine
 10
1752.932453374422
 20
483.0794055835836
 30
0.0
 11
1752.932453374422
 21
482.3694055835843
 31
0.0
  0
ARC
  5
846
330
18
100
AcDbEntity
  8
NORMALI
100
AcDbCircle
 10
1739.340453374422
 20
490.3094055835835
 30
0.0
 40
14.722
100
AcDbArc
 50
295.5110000000048
 51
334.4891000000312
  0
LINE
  5
847
330
18
100
AcDbEntity
  8
NORMALI
100
AcDbLine
 10
1750.373453374422
 20
486.2194055835828
 30
0.0
 11
1752.623453374422
 21
483.9694055835828
 31
0.0
  0
LINE
  5
848
330
18
100
AcDbEntity
  8
NORMALI
100
AcDbLine
 10
1752.932453374422
 20
480.9594055835844
 30
0.0
 11
1748.689453374422
 21
476.719405583583
 31
0.0
  0
LINE
  5
849
330
18
100
AcDbEntity
  8
NORMALI
100
AcDbLine
 10
1752.932453374422
 20
482.3694055835843
 30
0.0
 11
1747.275453374422
 21
476.719405583583
 31
0.0
  0
LINE
  5
84A
330
18
100
AcDbEntity
  8
NORMALI
100
AcDbLine
 10
1753.639453374423
 20
471.7694055835858
 30
0.0
 11
1752.225453374422
 21
471.7694055835858
 31
0.0
  0
LINE
  5
84B
330
18
100
AcDbEntity
  8
NORMALI
100
AcDbLine
 10
1754.346453374422
 20
472.469405583583
 30
0.0
 11
1752.932453374422
 21
472.469405583583
 31
0.0
  0
LINE
  5
84C
330
18
100
AcDbEntity
  8
NORMALI
100
AcDbLine
 10
1752.932453374422
 20
480.9594055835844
 30
0.0
 11
1754.346453374422
 21
472.469405583583
 31
0.0
  0
LINE
  5
84D
330
18
100
AcDbEntity
  8
NORMALI
100
AcDbLine
 10
1748.689453374422
 20
476.719405583583
 30
0.0
 11
1752.932453374422
 21
472.469405583583
 31
0.0
  0
LINE
  5
84E
330
18
100
AcDbEntity
  8
NORMALI
100
AcDbLine
 10
1752.225453374422
 20
471.7694055835858
 30
0.0
 11
1746.921453374422
 21
477.0694055835852
 31
0.0
  0
LINE
  5
84F
330
18
100
AcDbEntity
  8
NORMALI
100
AcDbLine
 10
1757.175453374423
 20
476.719405583583
 30
0.0
 11
1752.932453374422
 21
480.9594055835844
 31
0.0
  0
LINE
  5
850
330
18
100
AcDbEntity
  8
NORMALI
100
AcDbLine
 10
1757.882453374422
 20
477.4194055835836
 30
0.0
 11
1752.578453374422
 21
482.7294055835849
 31
0.0
  0
LINE
  5
851
330
18
100
AcDbEntity
  8
NORMALI
100
AcDbLine
 10
1757.175453374423
 20
475.2994055835848
 30
0.0
 11
1748.689453374422
 21
476.719405583583
 31
0.0
  0
LINE
  5
852
330
18
100
AcDbEntity
  8
NORMALI
100
AcDbLine
 10
1757.882453374422
 20
476.0094055835838
 30
0.0
 11
1753.639453374423
 21
471.7694055835858
 31
0.0
  0
ARC
  5
853
330
18
100
AcDbEntity
  8
NORMALI
100
AcDbCircle
 10
1754.926453374421
 20
487.7194055835833
 30
0.0
 40
0.5
100
AcDbArc
 50
180.0
 51
270.0
  0
ARC
  5
854
330
18
100
AcDbEntity
  8
NORMALI
100
AcDbCircle
 10
1752.142453374421
 20
487.9194055835841
 30
0.0
 40
3.978
100
AcDbArc
 50
276.9954999999999
 51
349.8650156614078
  0
LINE
  5
855
330
18
100
AcDbEntity
  8
NORMALI
100
AcDbLine
 10
1754.426453374422
 20
487.219405583583
 30
0.0
 11
1744.800453374423
 21
484.8494055835839
 31
0.0
  0
LINE
  5
857
330
18
100
AcDbEntity
  8
DISEGNO
100
AcDbLine
 10
1214.332291781657
 20
412.2194055835816
 30
0.0
 11
1027.332291781657
 21
412.2194055835833
 31
0.0
  0
ARC
  5
859
330
18
100
AcDbEntity
  8
DISEGNO
100
AcDbCircle
 10
1214.332291781657
 20
417.2194055835816
 30
0.0
 40
5.0
100
AcDbArc
 50
270.0
 51
0.000000000000007
  0
LINE
  5
85B
330
18
100
AcDbEntity
  8
NORMALI
100
AcDbLine
 10
1754.426453374422
 20
499.969405583583
 30
0.0
 11
1754.426453374422
 21
494.469405583583
 31
0.0
  0
LINE
  5
85E
330
18
100
AcDbEntity
  8
DISEGNO
100
AcDbLine
 10
1795.642076015932
 20
547.2194055835839
 30
0.0
 11
1795.642076015934
 21
567.2194055835839
 31
0.0
  0
LINE
  5
85F
330
18
100
AcDbEntity
  8
DISEGNO
100
AcDbLine
 10
1219.332291781657
 20
532.2194055835816
 30
0.0
 11
1027.332291781657
 21
532.2194055835816
 31
0.0
  0
LINE
  5
860
330
18
100
AcDbEntity
  8
DISEGNO
100
AcDbLine
 10
1207.332291781657
 20
503.4724055835804
 30
0.0
 11
1077.679662993709
 21
503.4724055835804
 31
0.0
  0
LINE
  5
861
330
18
100
AcDbEntity
  8
DISEGNO
100
AcDbLine
 10
1077.683286468158
 20
490.9724055835804
 30
0.0
 11
1207.332291781657
 21
490.9724055835804
 31
0.0
  0
LINE
  5
862
330
18
100
AcDbEntity
  8
DISEGNO
100
AcDbLine
 10
1214.332291781657
 20
556.9694055835817
 30
0.0
 11
1082.332291781657
 21
556.9694055835817
 31
0.0
  0
LINE
  5
863
330
18
100
AcDbEntity
  8
DISEGNO
100
AcDbLine
 10
1207.332291781657
 20
440.9724055835804
 30
0.0
 11
1077.683286468157
 21
440.9724055835804
 31
0.0
  0
LINE
  5
864
330
18
100
AcDbEntity
  8
DISEGNO
100
AcDbLine
 10
1077.679662993709
 20
453.4724055835786
 30
0.0
 11
1207.332291781657
 21
453.4724055835804
 31
0.0
  0
LINE
  5
866
330
18
100
AcDbEntity
  8
NORMALI
100
AcDbLine
 10
782.4526457742467
 20
547.2194055835853
 30
0.0
 11
782.4526457742467
 21
487.2194055835852
 31
0.0
  0
LINE
  5
869
330
18
100
AcDbEntity
  8
NORMALI
100
AcDbLine
 10
868.4526457742467
 20
547.2194055835853
 30
0.0
 11
868.4526457742467
 21
487.2194055835852
 31
0.0
  0
LINE
  5
86C
330
18
100
AcDbEntity
  8
NORMALI
100
AcDbLine
 10
895.4526457742467
 20
487.2194055835852
 30
0.0
 11
895.4526457742467
 21
547.2194055835853
 31
0.0
  0
ARC
  5
86D
330
18
100
AcDbEntity
  8
DISEGNO
100
AcDbCircle
 10
1047.332291781657
 20
502.7224055835803
 30
0.0
 40
5.0
100
AcDbArc
 50
8.626926558676631
 51
90.0
  0
LINE
  5
86E
330
18
100
AcDbEntity
  8
ASSI
 48
40.0
100
AcDbLine
 10
1067.332291781657
 20
510.7373970223917
 30
0.0
 11
1067.332291781657
 21
482.8549405918773
 31
0.0
  0
ARC
  5
86F
330
18
100
AcDbEntity
  8
DISEGNO
100
AcDbCircle
 10
1067.332291781657
 20
497.2194055835816
 30
0.0
 40
12.09
100
AcDbArc
 50
31.14490768223053
 51
148.8550923177793
  0
LINE
  5
870
330
18
100
AcDbEntity
  8
DISEGNO
100
AcDbLine
 10
848.3264444437461
 20
453.4694055835853
 30
0.0
 11
1027.332291781657
 21
453.4694055835853
 31
0.0
  0
LINE
  5
871
330
18
100
AcDbEntity
  8
NORMALI
100
AcDbLine
 10
1027.332291781657
 20
489.7194055835816
 30
0.0
 11
895.4526457742467
 21
489.7194055835816
 31
0.0
  0
LINE
  5
872
330
18
100
AcDbEntity
  8
NORMALI
100
AcDbLine
 10
1027.332291781657
 20
479.7194055835701
 30
0.0
 11
878.4434511215694
 21
479.7194055835888
 31
0.0
  0
LINE
  5
873
330
18
100
AcDbEntity
  8
NORMALI
100
AcDbLine
 10
816.849768517007
 20
474.2194055835851
 30
0.0
 11
816.849768517007
 21
465.0508479583614
 31
0.0
  0
LINE
  5
874
330
18
100
AcDbEntity
  8
NORMALI
100
AcDbLine
 10
856.8497686224882
 20
474.2194055835851
 30
0.0
 11
856.8497686224882
 21
465.0508479583614
 31
0.0
  0
ELLIPSE
  5
875
330
18
100
AcDbEntity
  8
NORMALI
100
AcDbEllipse
 10
836.8497685697485
 20
476.3627402970405
 30
0.0
 11
20.00000005274088
 21
0.0000000000000057
 31
0.0
210
0.0
220
0.0
230
-1.0
 40
0.7071667356727611
 41
0.1521299263250988
 42
2.989462727264693
  0
ELLIPSE
  5
876
330
18
100
AcDbEntity
  8
NORMALI
100
AcDbEllipse
 10
836.8497685697485
 20
465.0508479583614
 30
0.0
 11
-20.00000005274114
 21
-0.0000000000006431
 31
0.0
210
0.0
220
0.0
230
-1.0
 40
0.70707212418107
 41
3.141592653589837
 42
6.28318530717963
  0
LINE
  5
877
330
18
100
AcDbEntity
  8
NORMALI
100
AcDbLine
 10
782.4526457742467
 20
497.2194055835853
 30
0.0
 11
868.4526457742467
 21
497.2194055835853
 31
0.0
  0
LINE
  5
878
330
18
100
AcDbEntity
  8
NORMALI
100
AcDbLine
 10
782.4526457742467
 20
498.9694055835853
 30
0.0
 11
868.4526457742467
 21
498.9694055835853
 31
0.0
  0
LINE
  5
879
330
18
100
AcDbEntity
  8
NORMALI
100
AcDbLine
 10
782.4526457742467
 20
495.4694055835853
 30
0.0
 11
868.4526457742467
 21
495.4694055835853
 31
0.0
  0
LINE
  5
87A
330
18
100
AcDbEntity
  8
NORMALI
100
AcDbLine
 10
776.4526457742467
 20
474.2194055835851
 30
0.0
 11
874.4526457742468
 21
474.2194055835851
 31
0.0
  0
LINE
  5
87B
330
18
100
AcDbEntity
  8
NORMALI
100
AcDbLine
 10
772.460673024396
 20
487.2194055835852
 30
0.0
 11
772.4622295611007
 21
477.2194055835853
 31
0.0
  0
LINE
  5
87C
330
18
100
AcDbEntity
  8
NORMALI
100
AcDbLine
 10
776.4526457742467
 20
487.2194055835852
 30
0.0
 11
776.4526457742467
 21
474.2194055835851
 31
0.0
  0
LINE
  5
87D
330
18
100
AcDbEntity
  8
NORMALI
100
AcDbLine
 10
776.4526457742467
 20
477.2194055835853
 30
0.0
 11
772.4622295611007
 21
477.2194055835853
 31
0.0
  0
LINE
  5
87E
330
18
100
AcDbEntity
  8
NORMALI
100
AcDbLine
 10
878.4481320131709
 20
487.2194055835852
 30
0.0
 11
878.4481320131709
 21
477.2194055835853
 31
0.0
  0
LINE
  5
87F
330
18
100
AcDbEntity
  8
NORMALI
100
AcDbLine
 10
874.4526457742468
 20
487.2194055835852
 30
0.0
 11
874.4526457742468
 21
474.2194055835851
 31
0.0
  0
LINE
  5
880
330
18
100
AcDbEntity
  8
NORMALI
100
AcDbLine
 10
874.4526457742468
 20
477.2194055835853
 30
0.0
 11
878.4481320131709
 21
477.2194055835853
 31
0.0
  0
LINE
  5
881
330
18
100
AcDbEntity
  8
NORMALI
100
AcDbLine
 10
895.4526457742467
 20
487.2194055835852
 30
0.0
 11
868.4526457742467
 21
487.2194055835852
 31
0.0
  0
LINE
  5
885
330
18
100
AcDbEntity
  8
ASSI
 48
40.0
100
AcDbLine
 10
1067.332291781657
 20
433.7179055835831
 30
0.0
 11
1067.332291781657
 21
460.7209055835818
 31
0.0
  0
ARC
  5
886
330
18
100
AcDbEntity
  8
DISEGNO
100
AcDbCircle
 10
1067.332291781657
 20
447.2194055835816
 30
0.0
 40
12.09
100
AcDbArc
 50
31.14490768222035
 51
148.8550923177793
  0
ARC
  5
888
330
18
100
AcDbEntity
  8
DISEGNO
100
AcDbCircle
 10
1047.332291781657
 20
441.7194055835797
 30
0.0
 40
5.0
100
AcDbArc
 50
270.0
 51
351.4078427082985
  0
LINE
  5
889
330
18
100
AcDbEntity
  8
DISEGNO
100
AcDbLine
 10
1027.332291781657
 20
436.7194055835816
 30
0.0
 11
1047.332291781657
 21
436.7194055835797
 31
0.0
  0
LINE
  5
88A
330
18
100
AcDbEntity
  8
DISEGNO
100
AcDbLine
 10
1056.981297095155
 20
440.9724055835804
 30
0.0
 11
1052.276175983375
 21
440.9724055835804
 31
0.0
  0
ARC
  5
88F
330
18
100
AcDbEntity
  8
DISEGNO
100
AcDbCircle
 10
1047.332291781657
 20
452.7224055835803
 30
0.0
 40
5.0
100
AcDbArc
 50
8.626926558676631
 51
90.0
  0
LINE
  5
890
330
18
100
AcDbEntity
  8
DISEGNO
100
AcDbLine
 10
1027.332291781657
 20
457.7224055835803
 30
0.0
 11
1047.332291781657
 21
457.7224055835803
 31
0.0
  0
LINE
  5
891
330
18
100
AcDbEntity
  8
DISEGNO
100
AcDbLine
 10
1052.275721764978
 20
453.4724055835804
 30
0.0
 11
1056.984920569603
 21
453.4724055835786
 31
0.0
  0
ARC
  5
892
330
18
100
AcDbEntity
  8
DISEGNO
100
AcDbCircle
 10
1047.332291781657
 20
491.7194055835797
 30
0.0
 40
5.0
100
AcDbArc
 50
270.0
 51
351.4078427082985
  0
LINE
  5
893
330
18
100
AcDbEntity
  8
DISEGNO
100
AcDbLine
 10
1027.332291781657
 20
486.7194055835797
 30
0.0
 11
1047.332291781657
 21
486.7194055835797
 31
0.0
  0
LINE
  5
895
330
18
100
AcDbEntity
  8
DISEGNO
100
AcDbLine
 10
1052.276175983375
 20
490.9724055835804
 30
0.0
 11
1056.981297095154
 21
490.9724055835804
 31
0.0
  0
LINE
  5
896
330
18
100
AcDbEntity
  8
DISEGNO
100
AcDbLine
 10
1056.981297095155
 20
490.9724055835804
 30
0.0
 11
1052.276175983375
 21
490.9724055835804
 31
0.0
  0
LINE
  5
89E
330
18
100
AcDbEntity
  8
DISEGNO
100
AcDbLine
 10
1052.275721764978
 20
503.4724055835804
 30
0.0
 11
1056.984920569603
 21
503.4724055835786
 31
0.0
  0
LINE
  5
89F
330
18
100
AcDbEntity
  8
DISEGNO
100
AcDbLine
 10
1056.984920569603
 20
503.4724055835804
 30
0.0
 11
1052.275721764978
 21
503.4724055835804
 31
0.0
  0
LINE
  5
8A0
330
18
100
AcDbEntity
  8
NORMALI
100
AcDbLine
 10
1008.332291781662
 20
569.7224055835786
 30
0.0
 11
1027.332291781662
 21
569.7224055835786
 31
0.0
  0
LINE
  5
8A1
330
18
100
AcDbEntity
  8
NORMALI
100
AcDbLine
 10
1008.332291781662
 20
544.7224055835804
 30
0.0
 11
1027.332291781662
 21
544.7224055835786
 31
0.0
  0
LINE
  5
8A2
330
18
100
AcDbEntity
  8
DISEGNO
100
AcDbLine
 10
1027.332291781657
 20
532.2194055835832
 30
0.0
 11
895.4526457742488
 21
532.2194055835836
 31
0.0
  0
LINE
  5
8A3
330
18
100
AcDbEntity
  8
NORMALI
100
AcDbLine
 10
1027.332291781657
 20
504.7194055835816
 30
0.0
 11
895.4526457742467
 21
504.7194055835816
 31
0.0
  0
LINE
  5
8A4
330
18
100
AcDbEntity
  8
NORMALI
100
AcDbLine
 10
1027.332291781657
 20
514.7194055835816
 30
0.0
 11
895.4526457742488
 21
514.7194055835816
 31
0.0
  0
LINE
  5
8A5
330
18
100
AcDbEntity
  8
NORMALI
100
AcDbLine
 10
1027.332291781657
 20
541.7194055835791
 30
0.0
 11
895.4526457742472
 21
541.7194055835791
 31
0.0
  0
ELLIPSE
  5
8A7
330
18
100
AcDbEntity
  8
NORMALI
100
AcDbEllipse
 10
814.3340977413574
 20
529.4027934222384
 30
0.0
 11
20.00000005274068
 21
-0.0000000000024126
 31
0.0
210
0.0
220
0.0
230
-1.0
 40
0.7068306062034754
 41
3.141592653589751
 42
6.283185307179545
  0
LINE
  5
8A8
330
18
100
AcDbEntity
  8
DISEGNO
100
AcDbLine
 10
790.4526457742467
 20
547.2194055835833
 30
0.0
 11
790.4526457742472
 21
538.0194055835835
 31
0.0
  0
LINE
  5
8AA
330
18
100
AcDbEntity
  8
NORMALI
100
AcDbLine
 10
782.4526457742467
 20
520.2194055835851
 30
0.0
 11
868.4526457742467
 21
520.2194055835851
 31
0.0
  0
LINE
  5
8AB
330
18
100
AcDbEntity
  8
DISEGNO
100
AcDbLine
 10
868.4526457742485
 20
532.2194055835836
 30
0.0
 11
833.9331026307569
 21
532.2194055835836
 31
0.0
  0
LINE
  5
8AC
330
18
100
AcDbEntity
  8
DISEGNO
100
AcDbLine
 10
868.4526457742467
 20
538.0194055835834
 30
0.0
 11
830.1894416566183
 21
538.0194055835834
 31
0.0
  0
ELLIPSE
  5
8AD
330
18
100
AcDbEntity
  8
NORMALI
100
AcDbEllipse
 10
814.3340977413574
 20
518.0827934595172
 30
0.0
 11
20.000000052741
 21
0.0000000000009249
 31
0.0
210
0.0
220
0.0
230
-0.9999999999999998
 40
0.7068306062033731
 41
3.293314399514226
 42
6.131463561255217
  0
LINE
  5
8AE
330
18
100
AcDbEntity
  8
NORMALI
100
AcDbLine
 10
794.3342528557898
 20
520.2194055835851
 30
0.0
 11
794.3349197809257
 21
529.4027934222384
 31
0.0
  0
LINE
  5
8AF
330
18
100
AcDbEntity
  8
NORMALI
100
AcDbLine
 10
834.334252961271
 20
520.2194055835851
 30
0.0
 11
834.3349198864089
 21
529.4027934222384
 31
0.0
  0
LINE
  5
8B1
330
18
100
AcDbEntity
  8
DISEGNO
100
AcDbLine
 10
794.7350928519608
 20
532.2194055835836
 30
0.0
 11
782.4526457742482
 21
532.2194055835836
 31
0.0
  0
LINE
  5
8B2
330
18
100
AcDbEntity
  8
DISEGNO
100
AcDbLine
 10
798.4787538260952
 20
538.0194055835835
 30
0.0
 11
790.4526457742472
 21
538.0194055835835
 31
0.0
  0
LINE
  5
8B7
330
18
100
AcDbEntity
  8
NORM_TR
100
AcDbLine
 10
825.5931665123299
 20
541.2194055835835
 30
0.0
 11
825.3121250361679
 21
541.2194055835835
 31
0.0
  0
LINE
  5
8B9
330
18
100
AcDbEntity
  8
NORMALI
100
AcDbLine
 10
1007.332291781662
 20
568.7224055835786
 30
0.0
 11
1007.332291781662
 21
545.7224055835804
 31
0.0
  0
LINE
  5
8BB
330
18
100
AcDbEntity
  8
NORMALI
100
AcDbLine
 10
1008.332291781662
 20
544.7224055835804
 30
0.0
 11
1008.332291781662
 21
552.1250841289575
 31
0.0
  0
LINE
  5
8BC
330
18
100
AcDbEntity
  8
NORMALI
100
AcDbLine
 10
1007.332291781662
 20
545.7224055835804
 30
0.0
 11
1008.332291781662
 21
544.7224055835804
 31
0.0
  0
LINE
  5
8BE
330
18
100
AcDbEntity
  8
NORMALI
100
AcDbLine
 10
1008.332291781662
 20
569.7224055835786
 30
0.0
 11
1008.332291781662
 21
562.3197270382015
 31
0.0
  0
LINE
  5
8BF
330
18
100
AcDbEntity
  8
NORMALI
100
AcDbLine
 10
1008.332291781662
 20
569.7224055835786
 30
0.0
 11
1007.332291781662
 21
568.7224055835786
 31
0.0
  0
LINE
  5
8C0
330
18
100
AcDbEntity
  8
DISEGNO
100
AcDbLine
 10
1082.332291781657
 20
532.2194055835816
 30
0.0
 11
1082.332291781657
 21
567.2194055835816
 31
0.0
  0
LINE
  5
8C1
330
18
100
AcDbEntity
  8
DISEGNO
100
AcDbLine
 10
1027.332291781657
 20
507.7224055835803
 30
0.0
 11
1047.332291781657
 21
507.7224055835803
 31
0.0
  0
LINE
  5
8C3
330
18
100
AcDbEntity
  8
DISEGNO
100
AcDbLine
 10
1079.332291781657
 20
570.2194055835816
 30
0.0
 11
1027.332291781657
 21
570.2194055835816
 31
0.0
  0
ARC
  5
8C4
330
18
100
AcDbEntity
  8
DISEGNO
100
AcDbCircle
 10
1079.332291781657
 20
567.2194055835816
 30
0.0
 40
3.0
100
AcDbArc
 50
0.000000000000007
 51
90.0
  0
LINE
  5
8C5
330
18
100
AcDbEntity
  8
DISEGNO
100
AcDbLine
 10
1219.332291781657
 20
527.2194055835816
 30
0.0
 11
1219.332291781657
 21
551.9694055835816
 31
0.0
  0
ARC
  5
8C6
330
18
100
AcDbEntity
  8
DISEGNO
100
AcDbCircle
 10
1214.332291781657
 20
527.2194055835816
 30
0.0
 40
5.0
100
AcDbArc
 50
0.000000000000007
 51
90.0
  0
ARC
  5
8C7
330
18
100
AcDbEntity
  8
DISEGNO
100
AcDbCircle
 10
1214.332291781657
 20
551.9694055835816
 30
0.0
 40
5.0
100
AcDbArc
 50
0.000000000000007
 51
90.0
  0
LINE
  5
BB6
330
18
100
AcDbEntity
  8
DISEGNO
100
AcDbLine
 10
1560.642076015934
 20
561.2194055835939
 30
0.0
 11
1560.642076015934
 21
565.2194055835839
 31
0.0
  0
LINE
  5
BC4
330
18
100
AcDbEntity
  8
0
100
AcDbLine
 10
895.4526457742467
 20
547.2194055835853
 30
0.0
 11
895.4526457742467
 21
567.2194055835833
 31
0.0
  0
LINE
  5
BEA
330
18
100
AcDbEntity
  8
DISEGNO
100
AcDbLine
 10
895.4526457742439
 20
194.9999999999995
 30
0.0
 11
890.452645774244
 21
199.9999999999995
 31
0.0
  0
LINE
  5
BF2
330
18
100
AcDbEntity
  8
DISEGNO
100
AcDbLine
 10
415.452645774244
 20
194.9999999999995
 30
0.0
 11
420.4526457742439
 21
199.9999999999995
 31
0.0
  0
LINE
  5
BFA
330
18
100
AcDbEntity
  8
DISEGNO
100
AcDbLine
 10
415.452645774244
 20
-195.0000000000004
 30
0.0
 11
420.4526457742439
 21
-200.0000000000004
 31
0.0
  0
LINE
  5
C02
330
18
100
AcDbEntity
  8
DISEGNO
100
AcDbLine
 10
895.4526457742439
 20
-195.0000000000004
 30
0.0
 11
890.452645774244
 21
-200.0000000000004
 31
0.0
  0
LINE
  5
E87
330
18
100
AcDbEntity
  8
NORMALI
100
AcDbLine
 10
1007.332291781662
 20
546.5194055835792
 30
0.0
 11
895.4526457742467
 21
546.5194055835792
 31
0.0
  0
LINE
  5
1BF4
330
18
100
AcDbEntity
  8
ASSI
100
AcDbLine
 10
416.28041680512
 20
129.7875000000001
 30
0.0
 11
434.6248747433683
 21
129.7875000000001
 31
0.0
1001
ACAD
1000
ASC_BOUNDS
1002
{
1070
    19
1002
}
  0
LINE
  5
1BF6
330
18
100
AcDbEntity
  8
ASSI
100
AcDbLine
 10
425.4526457742441
 20
153.9597289691243
 30
0.0
 11
425.4526457742441
 21
105.6152710308758
 31
0.0
1001
ACAD
1000
ASC_BOUNDS
1002
{
1070
    19
1002
}
  0
LINE
  5
1BF7
330
18
100
AcDbEntity
  8
ASSI
100
AcDbLine
 10
416.2804168051198
 20
114.7875000000001
 30
0.0
 11
434.6248747433683
 21
114.7875000000001
 31
0.0
  0
LINE
  5
1C03
330
18
100
AcDbEntity
  8
ASSI
100
AcDbLine
 10
416.2804168051198
 20
144.7875000000001
 30
0.0
 11
434.6248747433683
 21
144.7875000000001
 31
0.0
  0
LINE
  5
1C06
330
18
100
AcDbEntity
  8
ASSI
100
AcDbLine
 10
545.4526457742441
 20
153.9597289691243
 30
0.0
 11
545.4526457742441
 21
105.6152710308758
 31
0.0
  0
LINE
  5
1C12
330
18
100
AcDbEntity
  8
ASSI
100
AcDbLine
 10
554.6248747433684
 20
114.7875000000001
 30
0.0
 11
536.2804168051199
 21
114.7875000000001
 31
0.0
  0
LINE
  5
1C14
330
18
100
AcDbEntity
  8
ASSI
100
AcDbLine
 10
554.6248747433684
 20
144.7875000000001
 30
0.0
 11
536.2804168051199
 21
144.7875000000001
 31
0.0
  0
LINE
  5
1C17
330
18
100
AcDbEntity
  8
ASSI
100
AcDbLine
 10
765.4526457742441
 20
153.9597289691243
 30
0.0
 11
765.4526457742441
 21
105.6152710308758
 31
0.0
  0
LINE
  5
1C18
330
18
100
AcDbEntity
  8
ASSI
100
AcDbLine
 10
756.2804168051199
 20
114.7875000000001
 30
0.0
 11
774.6248747433684
 21
114.7875000000001
 31
0.0
  0
LINE
  5
1C24
330
18
100
AcDbEntity
  8
ASSI
100
AcDbLine
 10
756.2804168051199
 20
144.7875000000001
 30
0.0
 11
774.6248747433684
 21
144.7875000000001
 31
0.0
  0
LINE
  5
1C26
330
18
100
AcDbEntity
  8
ASSI
100
AcDbLine
 10
894.6248747433681
 20
144.7875000000001
 30
0.0
 11
876.2804168051198
 21
144.7875000000001
 31
0.0
  0
LINE
  5
1C28
330
18
100
AcDbEntity
  8
ASSI
100
AcDbLine
 10
894.6248747433681
 20
114.7875000000001
 30
0.0
 11
876.2804168051198
 21
114.7875000000001
 31
0.0
  0
LINE
  5
1C2A
330
18
100
AcDbEntity
  8
ASSI
100
AcDbLine
 10
885.4526457742441
 20
153.9597289691243
 30
0.0
 11
885.4526457742441
 21
105.6152710308758
 31
0.0
1001
ACAD
1000
ASC_BOUNDS
1002
{
1070
    19
1002
}
  0
LINE
  5
1C38
330
18
100
AcDbEntity
  8
ASSI
100
AcDbLine
 10
817.9526457742483
 20
16.86388302183081
 30
0.0
 11
817.9526457742483
 21
-19.40550734053135
 31
0.0
  0
LINE
  5
1C39
330
18
100
AcDbEntity
  8
ASSI
100
AcDbLine
 10
813.0772191343599
 20
-9.999999999999316
 30
0.0
 11
826.0970478589749
 21
-9.999999999999316
 31
0.0
  0
LINE
  5
1C3A
330
18
100
AcDbEntity
  8
ASSI
100
AcDbLine
 10
812.8225438722326
 20
10.00000000000056
 30
0.0
 11
826.0970478589749
 21
10.00000000000056
 31
0.0
  0
LINE
  5
1C3D
330
18
100
AcDbEntity
  8
ASSI
100
AcDbLine
 10
492.9526457742441
 20
20.61468717947195
 30
0.0
 11
492.9526457742441
 21
-19.40550734053135
 31
0.0
  0
LINE
  5
1C42
330
18
100
AcDbEntity
  8
ASSI
100
AcDbLine
 10
498.0827476762557
 20
10.00000000000056
 30
0.0
 11
485.3082436895133
 21
10.00000000000056
 31
0.0
  0
LINE
  5
1C43
330
18
100
AcDbEntity
  8
ASSI
100
AcDbLine
 10
497.8280724141283
 20
-9.999999999999316
 30
0.0
 11
485.3082436895133
 21
-9.999999999999316
 31
0.0
  0
LINE
  5
1C4A
330
18
100
AcDbEntity
  8
ASSI
100
AcDbLine
 10
425.4526457742441
 20
-153.9597289691237
 30
0.0
 11
425.4526457742441
 21
-105.6152710308752
 31
0.0
1001
ACAD
1000
ASC_BOUNDS
1002
{
1070
    19
1002
}
  0
LINE
  5
1C4D
330
18
100
AcDbEntity
  8
ASSI
100
AcDbLine
 10
416.2804168051198
 20
-144.7874999999994
 30
0.0
 11
434.6248747433683
 21
-144.7874999999994
 31
0.0
  0
LINE
  5
1C54
330
18
100
AcDbEntity
  8
ASSI
100
AcDbLine
 10
416.2804168051198
 20
-114.7874999999994
 30
0.0
 11
434.6248747433683
 21
-114.7874999999994
 31
0.0
  0
LINE
  5
1C5A
330
18
100
AcDbEntity
  8
ASSI
100
AcDbLine
 10
545.4526457742441
 20
-153.9597289691237
 30
0.0
 11
545.4526457742441
 21
-105.6152710308752
 31
0.0
  0
LINE
  5
1C5D
330
18
100
AcDbEntity
  8
ASSI
100
AcDbLine
 10
554.6248747433684
 20
-144.7874999999994
 30
0.0
 11
536.2804168051199
 21
-144.7874999999994
 31
0.0
  0
LINE
  5
1C64
330
18
100
AcDbEntity
  8
ASSI
100
AcDbLine
 10
554.6248747433684
 20
-114.7874999999994
 30
0.0
 11
536.2804168051199
 21
-114.7874999999994
 31
0.0
  0
LINE
  5
1C6B
330
18
100
AcDbEntity
  8
ASSI
100
AcDbLine
 10
765.4526457742441
 20
-153.9597289691237
 30
0.0
 11
765.4526457742441
 21
-105.6152710308752
 31
0.0
  0
LINE
  5
1C6C
330
18
100
AcDbEntity
  8
ASSI
100
AcDbLine
 10
756.2804168051199
 20
-144.7874999999994
 30
0.0
 11
774.6248747433684
 21
-144.7874999999994
 31
0.0
  0
LINE
  5
1C6F
330
18
100
AcDbEntity
  8
ASSI
100
AcDbLine
 10
756.2804168051199
 20
-114.7874999999994
 30
0.0
 11
774.6248747433684
 21
-114.7874999999994
 31
0.0
  0
LINE
  5
1C76
330
18
100
AcDbEntity
  8
ASSI
100
AcDbLine
 10
894.6248747433681
 20
-114.7874999999994
 30
0.0
 11
876.2804168051198
 21
-114.7874999999994
 31
0.0
  0
LINE
  5
1C78
330
18
100
AcDbEntity
  8
ASSI
100
AcDbLine
 10
894.6248747433681
 20
-144.7874999999994
 30
0.0
 11
876.2804168051198
 21
-144.7874999999994
 31
0.0
  0
LINE
  5
1C7F
330
18
100
AcDbEntity
  8
ASSI
100
AcDbLine
 10
885.4526457742441
 20
-153.9597289691237
 30
0.0
 11
885.4526457742441
 21
-107.0728455833095
 31
0.0
1001
ACAD
1000
ASC_BOUNDS
1002
{
1070
    19
1002
}
  0
LINE
  5
27A6
330
18
100
AcDbEntity
  8
DISEGNO
100
AcDbLine
 10
-187.9520205650915
 20
428.299405583589
 30
0.0
 11
-194.3210205650939
 21
434.6684055835877
 31
0.0
  0
LINE
  5
27A7
330
18
100
AcDbEntity
  8
DISEGNO
100
AcDbLine
 10
-185.1230205650936
 20
431.1284055835868
 30
0.0
 11
-191.4920205650924
 21
437.4974055835893
 31
0.0
  0
LINE
  5
27A8
330
18
100
AcDbEntity
  8
DISEGNO
100
AcDbLine
 10
-169.0430205650918
 20
413.2194055835872
 30
0.0
 11
-169.0430205650918
 21
440.9694055835871
 31
0.0
  0
LINE
  5
27A9
330
18
100
AcDbEntity
  8
ASSI
100
AcDbLine
 10
-204.0430205650955
 20
534.9367506724711
 30
0.0
 11
-204.0430205650955
 21
408.6316694722783
 31
0.0
  0
LINE
  5
27AC
330
18
100
AcDbEntity
  8
ASSI
100
AcDbLine
 10
-254.0430205650918
 20
387.7231577925914
 30
0.0
 11
-254.0430205650918
 21
571.7795422928402
 31
0.0
  0
LINE
  5
27AE
330
18
100
AcDbEntity
  8
DISEGNO
100
AcDbLine
 10
-320.133020565092
 20
428.299405583589
 30
0.0
 11
-313.763020565093
 21
434.6684055835877
 31
0.0
  0
LINE
  5
27AF
330
18
100
AcDbEntity
  8
DISEGNO
100
AcDbLine
 10
-339.0430205650918
 20
413.2194055835872
 30
0.0
 11
-339.0430205650918
 21
440.9694055835871
 31
0.0
  0
LINE
  5
27B0
330
18
100
AcDbEntity
  8
DISEGNO
100
AcDbLine
 10
-322.9630205650937
 20
431.1284055835868
 30
0.0
 11
-316.5930205650947
 21
437.4974055835893
 31
0.0
  0
LINE
  5
27B1
330
18
100
AcDbEntity
  8
ASSI
100
AcDbLine
 10
-304.0430205650955
 20
534.9367506724711
 30
0.0
 11
-304.0430205650955
 21
408.6316694722783
 31
0.0
  0
LINE
  5
27C2
330
18
100
AcDbEntity
  8
DISEGNO
100
AcDbLine
 10
-210.2930205650918
 20
412.2194055835871
 30
0.0
 11
-297.7930205650918
 21
412.2194055835871
 31
0.0
  0
LINE
  5
27C3
330
18
100
AcDbEntity
  8
DISEGNO
100
AcDbLine
 10
-220.3430205650947
 20
433.6194055835886
 30
0.0
 11
-287.7430205650925
 21
433.6194055835886
 31
0.0
  0
LINE
  5
27C4
330
18
100
AcDbEntity
  8
DISEGNO
100
AcDbLine
 10
-223.3430205650947
 20
417.0194055835865
 30
0.0
 11
-284.7430205650926
 21
417.0194055835865
 31
0.0
  0
ARC
  5
27C5
330
18
100
AcDbEntity
  8
DISEGNO
100
AcDbCircle
 10
-304.0430205650918
 20
418.4364055835876
 30
0.0
 40
15.0
100
AcDbArc
 50
47.26800000001445
 51
132.7319999999855
  0
LINE
  5
27C6
330
18
100
AcDbEntity
  8
DISEGNO
100
AcDbLine
 10
-314.5430205650918
 20
428.7194055835871
 30
0.0
 11
-314.5430205650918
 21
418.2194055835871
 31
0.0
  0
LINE
  5
27C7
330
18
100
AcDbEntity
  8
DISEGNO
100
AcDbLine
 10
-310.2930205650918
 20
418.2194055835871
 30
0.0
 11
-310.2930205650918
 21
412.2204055835873
 31
0.0
  0
LINE
  5
27C8
330
18
100
AcDbEntity
  8
DISEGNO
100
AcDbLine
 10
-310.2930205650918
 20
418.2194055835871
 30
0.0
 11
-314.5430205650918
 21
418.2194055835871
 31
0.0
  0
ARC
  5
27C9
330
18
100
AcDbEntity
  8
DISEGNO
100
AcDbCircle
 10
-313.5430205650918
 20
428.7194055835871
 30
0.0
 40
1.0
100
AcDbArc
 50
132.7319999999855
 51
180.0
  0
ARC
  5
27CA
330
18
100
AcDbEntity
  8
DISEGNO
100
AcDbCircle
 10
-319.4330205650931
 20
427.5924055835868
 30
0.0
 40
1.0
100
AcDbArc
 50
135.0000000000092
 51
202.9750000000086
  0
ARC
  5
27CB
330
18
100
AcDbEntity
  8
DISEGNO
100
AcDbCircle
 10
-326.7930205650918
 20
424.4694055835871
 30
0.0
 40
7.0
100
AcDbArc
 50
336.8629999999948
 51
22.97500000000868
  0
ARC
  5
27CC
330
18
100
AcDbEntity
  8
DISEGNO
100
AcDbCircle
 10
-319.4330205650931
 20
421.3264055835871
 30
0.0
 40
1.0
100
AcDbArc
 50
156.8629999999948
 51
218.2319999999862
  0
ARC
  5
27CD
330
18
100
AcDbEntity
  8
DISEGNO
100
AcDbCircle
 10
-284.7430205650926
 20
421.0194055835865
 30
0.0
 40
4.0
100
AcDbArc
 50
180.0
 51
270.0
  0
ARC
  5
27CE
330
18
100
AcDbEntity
  8
DISEGNO
100
AcDbCircle
 10
-287.7430205650925
 20
432.6194055835887
 30
0.0
 40
1.0
100
AcDbArc
 50
90.0
 51
180.0
  0
LINE
  5
27CF
330
18
100
AcDbEntity
  8
DISEGNO
100
AcDbLine
 10
-288.7430205650925
 20
432.6194055835887
 30
0.0
 11
-288.7430205650925
 21
421.0194055835865
 31
0.0
  0
LINE
  5
27D0
330
18
100
AcDbEntity
  8
DISEGNO
100
AcDbLine
 10
-293.5430205650918
 20
428.7194055835871
 30
0.0
 11
-293.5430205650918
 21
418.2194055835871
 31
0.0
  0
LINE
  5
27D1
330
18
100
AcDbEntity
  8
DISEGNO
100
AcDbLine
 10
-297.7930205650918
 20
412.2194055835871
 30
0.0
 11
-297.7930205650918
 21
418.2194055835871
 31
0.0
  0
LINE
  5
27D2
330
18
100
AcDbEntity
  8
DISEGNO
100
AcDbLine
 10
-293.5430205650918
 20
418.2194055835871
 30
0.0
 11
-297.7930205650918
 21
418.2194055835871
 31
0.0
  0
ARC
  5
27D3
330
18
100
AcDbEntity
  8
DISEGNO
100
AcDbCircle
 10
-294.5430205650918
 20
428.7194055835871
 30
0.0
 40
1.0
100
AcDbArc
 50
0.0
 51
47.26800000001445
  0
ARC
  5
27D4
330
18
100
AcDbEntity
  8
DISEGNO
100
AcDbCircle
 10
-331.7930205650918
 20
419.4694055835872
 30
0.0
 40
2.0
100
AcDbArc
 50
141.7680000000137
 51
308.2319999999771
  0
ARC
  5
27D5
330
18
100
AcDbEntity
  8
DISEGNO
100
AcDbCircle
 10
-326.7930205650918
 20
424.4694055835871
 30
0.0
 40
7.0
100
AcDbArc
 50
246.8628999999869
 51
293.136999999976
  0
ARC
  5
27D6
330
18
100
AcDbEntity
  8
DISEGNO
100
AcDbCircle
 10
-329.9330205650931
 20
417.1134055835873
 30
0.0
 40
1.0
100
AcDbArc
 50
66.86300000002393
 51
128.2319999999771
  0
ARC
  5
27D7
330
18
100
AcDbEntity
  8
DISEGNO
100
AcDbCircle
 10
-323.6530205650924
 20
417.1134055835873
 30
0.0
 40
1.0
100
AcDbArc
 50
51.76800000002287
 51
113.136999999976
  0
ARC
  5
27D8
330
18
100
AcDbEntity
  8
DISEGNO
100
AcDbCircle
 10
-326.7930205650918
 20
424.4694055835871
 30
0.0
 40
7.0
100
AcDbArc
 50
156.8629999999948
 51
203.1370000000051
  0
ARC
  5
27D9
330
18
100
AcDbEntity
  8
DISEGNO
100
AcDbCircle
 10
-334.1530205650924
 20
427.6134055835873
 30
0.0
 40
1.0
100
AcDbArc
 50
336.8629999999948
 51
38.23199999998628
  0
ARC
  5
27DA
330
18
100
AcDbEntity
  8
DISEGNO
100
AcDbCircle
 10
-334.1530205650924
 20
421.3264055835871
 30
0.0
 40
1.0
100
AcDbArc
 50
321.7680000000137
 51
23.13700000000515
  0
ARC
  5
27DB
330
18
100
AcDbEntity
  8
DISEGNO
100
AcDbCircle
 10
-326.7930205650918
 20
424.4694055835871
 30
0.0
 40
7.0
100
AcDbArc
 50
67.02400000002931
 51
113.136999999976
  0
ARC
  5
27DC
330
18
100
AcDbEntity
  8
DISEGNO
100
AcDbCircle
 10
-323.6730205650928
 20
431.8354055835889
 30
0.0
 40
1.0
100
AcDbArc
 50
247.0237000000022
 51
315.0000000000092
  0
ARC
  5
27DD
330
18
100
AcDbEntity
  8
DISEGNO
100
AcDbCircle
 10
-329.9330205650931
 20
431.8264055835872
 30
0.0
 40
1.0
100
AcDbArc
 50
231.7678000000202
 51
293.136999999976
  0
ARC
  5
27DE
330
18
100
AcDbEntity
  8
DISEGNO
100
AcDbCircle
 10
-331.7930205650918
 20
429.4694055835871
 30
0.0
 40
2.0
100
AcDbArc
 50
51.76800000002287
 51
218.2319999999862
  0
ARC
  5
27DF
330
18
100
AcDbEntity
  8
DISEGNO
100
AcDbCircle
 10
-338.0430205650918
 20
413.2194055835872
 30
0.0
 40
1.0
100
AcDbArc
 50
180.0
 51
269.9999892802007
  0
LINE
  5
27E0
330
18
100
AcDbEntity
  8
DISEGNO
100
AcDbLine
 10
-338.0430205650918
 20
412.2194055835871
 30
0.0
 11
-310.2930205650918
 21
412.2194055835871
 31
0.0
  0
ARC
  5
27E1
330
18
100
AcDbEntity
  8
DISEGNO
100
AcDbCircle
 10
-321.7930205650918
 20
419.4694055835872
 30
0.0
 40
2.0
100
AcDbArc
 50
231.7678000000202
 51
38.23199999998628
  0
ARC
  5
27E2
330
18
100
AcDbEntity
  8
DISEGNO
100
AcDbCircle
 10
-181.2930205650918
 20
424.4694055835871
 30
0.0
 40
7.0
100
AcDbArc
 50
246.8628999999869
 51
293.136999999976
  0
ARC
  5
27E3
330
18
100
AcDbEntity
  8
DISEGNO
100
AcDbCircle
 10
-181.2930205650918
 20
424.4694055835871
 30
0.0
 40
7.0
100
AcDbArc
 50
66.86300000002393
 51
112.9759999999706
  0
LINE
  5
27E4
330
18
100
AcDbEntity
  8
DISEGNO
100
AcDbLine
 10
-170.0430205650918
 20
412.2194055835871
 30
0.0
 11
-197.7930205650918
 21
412.2194055835871
 31
0.0
  0
LINE
  5
27E5
330
18
100
AcDbEntity
  8
DISEGNO
100
AcDbLine
 10
-193.5430205650918
 20
428.7194055835871
 30
0.0
 11
-193.5430205650918
 21
418.2194055835871
 31
0.0
  0
ARC
  5
27E6
330
18
100
AcDbEntity
  8
DISEGNO
100
AcDbCircle
 10
-186.2930205650918
 20
419.4694055835872
 30
0.0
 40
2.0
100
AcDbArc
 50
141.7680000000137
 51
308.2319999999771
  0
LINE
  5
27E7
330
18
100
AcDbEntity
  8
DISEGNO
100
AcDbLine
 10
-197.7930205650918
 20
418.2194055835871
 30
0.0
 11
-197.7930205650918
 21
412.2194055835871
 31
0.0
  0
LINE
  5
27E8
330
18
100
AcDbEntity
  8
DISEGNO
100
AcDbLine
 10
-197.7930205650918
 20
418.2194055835871
 30
0.0
 11
-193.5430205650918
 21
418.2194055835871
 31
0.0
  0
ARC
  5
27E9
330
18
100
AcDbEntity
  8
DISEGNO
100
AcDbCircle
 10
-184.437020565092
 20
417.1134055835873
 30
0.0
 40
1.0
100
AcDbArc
 50
66.86300000002393
 51
128.2319999999771
  0
ARC
  5
27EA
330
18
100
AcDbEntity
  8
DISEGNO
100
AcDbCircle
 10
-194.5430205650918
 20
428.7194055835871
 30
0.0
 40
1.0
100
AcDbArc
 50
0.0
 51
47.26800000001445
  0
ARC
  5
27EB
330
18
100
AcDbEntity
  8
DISEGNO
100
AcDbCircle
 10
-181.2930205650918
 20
424.4694055835871
 30
0.0
 40
7.0
100
AcDbArc
 50
157.0249999999913
 51
203.1370000000051
  0
ARC
  5
27EC
330
18
100
AcDbEntity
  8
DISEGNO
100
AcDbCircle
 10
-188.6500205650918
 20
421.3264055835871
 30
0.0
 40
1.0
100
AcDbArc
 50
321.7680000000137
 51
23.13700000000515
  0
ARC
  5
27ED
330
18
100
AcDbEntity
  8
DISEGNO
100
AcDbCircle
 10
-188.6590205650918
 20
427.5924055835868
 30
0.0
 40
1.0
100
AcDbArc
 50
337.0249999999913
 51
44.99999999999078
  0
ARC
  5
27EE
330
18
100
AcDbEntity
  8
DISEGNO
100
AcDbCircle
 10
-184.4160205650914
 20
431.8354055835889
 30
0.0
 40
1.0
100
AcDbArc
 50
224.9999999999908
 51
292.9759999999706
  0
ARC
  5
27EF
330
18
100
AcDbEntity
  8
DISEGNO
100
AcDbCircle
 10
-176.2930205650918
 20
419.4694055835872
 30
0.0
 40
2.0
100
AcDbArc
 50
231.7680000000228
 51
38.23199999998628
  0
ARC
  5
27F0
330
18
100
AcDbEntity
  8
DISEGNO
100
AcDbCircle
 10
-178.1500205650918
 20
417.1134055835873
 30
0.0
 40
1.0
100
AcDbArc
 50
51.76800000002287
 51
113.136999999976
  0
ARC
  5
27F1
330
18
100
AcDbEntity
  8
DISEGNO
100
AcDbCircle
 10
-178.1500205650918
 20
431.8264055835872
 30
0.0
 40
1.0
100
AcDbArc
 50
246.8630000000239
 51
308.2319999999771
  0
ARC
  5
27F2
330
18
100
AcDbEntity
  8
DISEGNO
100
AcDbCircle
 10
-173.9370205650921
 20
421.3264055835871
 30
0.0
 40
1.0
100
AcDbArc
 50
156.8629999999948
 51
218.2322000000214
  0
ARC
  5
27F3
330
18
100
AcDbEntity
  8
DISEGNO
100
AcDbCircle
 10
-181.2930205650918
 20
424.4694055835871
 30
0.0
 40
7.0
100
AcDbArc
 50
336.8629999999948
 51
23.13700000000515
  0
ARC
  5
27F4
330
18
100
AcDbEntity
  8
DISEGNO
100
AcDbCircle
 10
-173.9370205650921
 20
427.6134055835873
 30
0.0
 40
1.0
100
AcDbArc
 50
141.7680000000137
 51
203.1371999999814
  0
ARC
  5
27F5
330
18
100
AcDbEntity
  8
DISEGNO
100
AcDbCircle
 10
-176.2930205650918
 20
429.4694055835871
 30
0.0
 40
2.0
100
AcDbArc
 50
321.7680000000137
 51
128.2319999999771
  0
ARC
  5
27F6
330
18
100
AcDbEntity
  8
DISEGNO
100
AcDbCircle
 10
-170.0430205650918
 20
413.2194055835872
 30
0.0
 40
1.0
100
AcDbArc
 50
270.0
 51
0.0
  0
ARC
  5
27F7
330
18
100
AcDbEntity
  8
DISEGNO
100
AcDbCircle
 10
-223.3430205650929
 20
421.0194055835865
 30
0.0
 40
4.0
100
AcDbArc
 50
270.0
 51
0.0
  0
LINE
  5
27F8
330
18
100
AcDbEntity
  8
DISEGNO
100
AcDbLine
 10
-214.5430205650918
 20
418.2194055835871
 30
0.0
 11
-210.2930205650918
 21
418.2194055835871
 31
0.0
  0
LINE
  5
27F9
330
18
100
AcDbEntity
  8
DISEGNO
100
AcDbLine
 10
-210.2930205650918
 20
418.2194055835871
 30
0.0
 11
-210.2930205650918
 21
412.2194055835871
 31
0.0
  0
LINE
  5
27FA
330
18
100
AcDbEntity
  8
DISEGNO
100
AcDbLine
 10
-214.5430205650918
 20
428.7194055835871
 30
0.0
 11
-214.5430205650918
 21
418.2194055835871
 31
0.0
  0
ARC
  5
27FB
330
18
100
AcDbEntity
  8
DISEGNO
100
AcDbCircle
 10
-220.3430205650929
 20
432.6194055835887
 30
0.0
 40
1.0
100
AcDbArc
 50
0.0
 51
90.0
  0
LINE
  5
27FC
330
18
100
AcDbEntity
  8
DISEGNO
100
AcDbLine
 10
-219.3430205650947
 20
432.6194055835887
 30
0.0
 11
-219.3430205650947
 21
421.0194055835865
 31
0.0
  0
ARC
  5
27FD
330
18
100
AcDbEntity
  8
DISEGNO
100
AcDbCircle
 10
-213.5430205650918
 20
428.7194055835871
 30
0.0
 40
1.0
100
AcDbArc
 50
132.7319999999855
 51
180.0
  0
ARC
  5
27FE
330
18
100
AcDbEntity
  8
DISEGNO
100
AcDbCircle
 10
-204.0430205650918
 20
418.4364055835876
 30
0.0
 40
15.0
100
AcDbArc
 50
47.26800000001445
 51
132.7319999999855
  0
LINE
  5
27FF
330
18
100
AcDbEntity
  8
DISEGNO
100
AcDbLine
 10
-216.5430205650918
 20
547.2194055835838
 30
0.0
 11
-54.04302056509187
 21
547.2194055835835
 31
0.0
  0
LINE
  5
2800
330
18
100
AcDbEntity
  8
NORMALI
100
AcDbLine
 10
-161.6052696521947
 20
517.2194055835872
 30
0.0
 11
-148.3187532694973
 21
530.5094055835881
 31
0.0
  0
LINE
  5
2801
330
18
100
AcDbEntity
  8
NORMALI
100
AcDbLine
 10
-150.4437583202561
 20
502.1194106343511
 30
0.0
 11
-163.5742533350348
 21
515.2499056491262
 31
0.0
  0
LINE
  5
2802
330
18
100
AcDbEntity
  8
NORMALI
100
AcDbLine
 10
-163.5742532341391
 20
479.1889056189476
 30
0.0
 11
-150.4437583202598
 21
492.3194005328233
 31
0.0
  0
LINE
  5
2803
330
18
100
AcDbEntity
  8
NORMALI
100
AcDbLine
 10
-162.1607532694943
 20
471.4094055835895
 30
0.0
 11
-143.0687532694973
 21
452.3194055835894
 31
0.0
  0
LINE
  5
2804
330
18
100
AcDbEntity
  8
NORMALI
100
AcDbLine
 10
-112.5107532694964
 20
517.2194055835872
 30
0.0
 11
-163.5747532694949
 21
517.2194055835872
 31
0.0
  0
LINE
  5
2805
330
18
100
AcDbEntity
  8
NORMALI
100
AcDbLine
 10
-112.5107532694964
 20
477.2194055835871
 30
0.0
 11
-163.5747532694949
 21
477.2194055835871
 31
0.0
  0
LINE
  5
2806
330
18
100
AcDbEntity
  8
NORMALI
100
AcDbLine
 10
-161.6044746273473
 20
477.2194055835871
 30
0.0
 11
-135.2907532694953
 21
450.9094055835895
 31
0.0
  0
LINE
  5
2807
330
18
100
AcDbEntity
  8
NORMALI
100
AcDbLine
 10
-162.1607532694943
 20
523.0294055835885
 30
0.0
 11
-149.2677532694942
 21
535.9254883125259
 31
0.0
  0
LINE
  5
2808
330
18
100
AcDbEntity
  8
ASSI
100
AcDbLine
 10
-429.7533344082149
 20
497.2194055835871
 30
0.0
 11
-79.02200950619226
 21
497.2194055835871
 31
0.0
  0
LINE
  5
2809
330
18
100
AcDbEntity
  8
DISEGNO
100
AcDbLine
 10
-454.0430205650919
 20
567.2194055835835
 30
0.0
 11
-54.04302056509187
 21
567.2194055835835
 31
0.0
  0
LINE
  5
2811
330
18
100
AcDbEntity
  8
DISEGNO
100
AcDbLine
 10
-454.0430205650919
 20
547.2194055835871
 30
0.0
 11
-291.5430205650936
 21
547.2194055835871
 31
0.0
  0
LINE
  5
2813
330
18
100
AcDbEntity
  8
NORMALI
100
AcDbLine
 10
-358.8185079864779
 20
534.2194055835872
 30
0.0
 11
-363.1632739439228
 21
517.2194055835872
 31
0.0
  0
LINE
  5
2815
330
18
100
AcDbEntity
  8
NORMALI
100
AcDbLine
 10
-345.9255079864778
 20
471.4094055835895
 30
0.0
 11
-365.0175079864784
 21
452.3194055835894
 31
0.0
  0
LINE
  5
2816
330
18
100
AcDbEntity
  8
NORMALI
100
AcDbLine
 10
-346.4817866286284
 20
477.2194055835871
 30
0.0
 11
-372.7955079864768
 21
450.9094055835895
 31
0.0
  0
LINE
  5
2817
330
18
100
AcDbEntity
  8
NORMALI
100
AcDbLine
 10
-395.5755079864756
 20
517.2194055835872
 30
0.0
 11
-344.5115079864772
 21
517.2194055835872
 31
0.0
  0
LINE
  5
2818
330
18
100
AcDbEntity
  8
NORMALI
100
AcDbLine
 10
-395.5755079864756
 20
477.2194055835871
 30
0.0
 11
-344.5115079864772
 21
477.2194055835871
 31
0.0
  0
LINE
  5
281E
330
18
100
AcDbEntity
  8
NORMALI
100
AcDbLine
 10
-412.8275079864761
 20
499.9694055835871
 30
0.0
 11
-392.5751601603915
 21
520.2194055835872
 31
0.0
  0
LINE
  5
2821
330
18
100
AcDbEntity
  8
NORMALI
100
AcDbLine
 10
-418.8305079864766
 20
547.2194055835871
 30
0.0
 11
-418.8305079864766
 21
487.2194055835871
 31
0.0
  0
LINE
  5
2829
330
18
100
AcDbEntity
  8
NORMALI
100
AcDbLine
 10
-365.0175079864784
 20
452.3194055835894
 30
0.0
 11
-368.1995079864755
 21
455.4994055835897
 31
0.0
  0
LINE
  5
282A
330
18
100
AcDbEntity
  8
NORMALI
100
AcDbLine
 10
-411.3335079864772
 20
480.9594055835888
 30
0.0
 11
-412.7475079864779
 21
472.4694055835871
 31
0.0
  0
LINE
  5
282B
330
18
100
AcDbEntity
  8
NORMALI
100
AcDbLine
 10
-416.2835079864779
 20
477.4194055835878
 30
0.0
 11
-410.9795079864778
 21
482.7294055835891
 31
0.0
  0
LINE
  5
282C
330
18
100
AcDbEntity
  8
NORMALI
100
AcDbLine
 10
-415.5765079864758
 20
476.719405583587
 30
0.0
 11
-411.3335079864772
 21
480.9594055835888
 31
0.0
  0
LINE
  5
282D
330
18
100
AcDbEntity
  8
NORMALI
100
AcDbLine
 10
-416.2835079864779
 20
476.0094055835881
 30
0.0
 11
-412.0405079864758
 21
471.7694055835901
 31
0.0
  0
LINE
  5
282E
330
18
100
AcDbEntity
  8
NORMALI
100
AcDbLine
 10
-416.2835079864779
 20
477.4194055835878
 30
0.0
 11
-416.2835079864779
 21
476.0094055835881
 31
0.0
  0
LINE
  5
282F
330
18
100
AcDbEntity
  8
NORMALI
100
AcDbLine
 10
-415.5765079864758
 20
476.719405583587
 30
0.0
 11
-415.5765079864758
 21
475.2994055835888
 31
0.0
  0
LINE
  5
2830
330
18
100
AcDbEntity
  8
NORMALI
100
AcDbLine
 10
-412.0405079864758
 20
471.7694055835901
 30
0.0
 11
-410.6265079864751
 21
471.7694055835901
 31
0.0
  0
LINE
  5
2831
330
18
100
AcDbEntity
  8
NORMALI
100
AcDbLine
 10
-412.7475079864779
 20
472.4694055835871
 30
0.0
 11
-411.3335079864772
 21
472.4694055835871
 31
0.0
  0
LINE
  5
2833
330
18
100
AcDbEntity
  8
NORMALI
100
AcDbLine
 10
-412.8275079864761
 20
499.9694055835871
 30
0.0
 11
-412.8275079864761
 21
494.4694055835872
 31
0.0
  0
ARC
  5
2835
330
18
100
AcDbEntity
  8
NORMALI
100
AcDbCircle
 10
-410.5435079864763
 20
487.9194055835879
 30
0.0
 40
3.978
100
AcDbArc
 50
190.1349843385985
 51
263.0044999999605
  0
LINE
  5
2836
330
18
100
AcDbEntity
  8
NORMALI
100
AcDbLine
 10
-411.3335079864772
 20
483.0794055835878
 30
0.0
 11
-411.3335079864772
 21
482.3694055835885
 31
0.0
  0
LINE
  5
2837
330
18
100
AcDbEntity
  8
NORMALI
100
AcDbLine
 10
-408.7745079864762
 20
486.2194055835871
 30
0.0
 11
-411.0245079864762
 21
483.9694055835871
 31
0.0
  0
LINE
  5
2838
330
18
100
AcDbEntity
  8
NORMALI
100
AcDbLine
 10
-412.8275079864761
 20
487.2194055835871
 30
0.0
 11
-418.8305079864766
 21
487.2194055835871
 31
0.0
  0
LINE
  5
2839
330
18
100
AcDbEntity
  8
NORMALI
100
AcDbLine
 10
-405.0785079864763
 20
485.3094055835874
 30
0.0
 11
-398.7035079864763
 21
478.9394055835884
 31
0.0
  0
LINE
  5
283A
330
18
100
AcDbEntity
  8
NORMALI
100
AcDbLine
 10
-398.2515079864752
 20
478.4794055835893
 30
0.0
 11
-397.5445079864766
 21
479.1894055835883
 31
0.0
  0
LINE
  5
283B
330
18
100
AcDbEntity
  8
NORMALI
100
AcDbLine
 10
-401.0355079864783
 20
480.0694055835894
 30
0.0
 11
-404.0765079864759
 21
477.0294055835885
 31
0.0
  0
ARC
  5
283C
330
18
100
AcDbEntity
  8
NORMALI
100
AcDbCircle
 10
-401.5165079864763
 20
476.1194055835885
 30
0.0
 40
3.978
100
AcDbArc
 50
7.019999999988006
 51
83.00499999996606
  0
LINE
  5
283D
330
18
100
AcDbEntity
  8
NORMALI
100
AcDbLine
 10
-392.5755079864757
 20
474.2194055835871
 30
0.0
 11
-389.0785079864763
 21
474.2194055835871
 31
0.0
  0
LINE
  5
283E
330
18
100
AcDbEntity
  8
NORMALI
100
AcDbLine
 10
-386.0783668100048
 20
477.2194055835871
 30
0.0
 11
-389.0785079864763
 21
474.2194055835871
 31
0.0
  0
ARC
  5
283F
330
18
100
AcDbEntity
  8
NORMALI
100
AcDbCircle
 10
-400.1335079864766
 20
477.509405583588
 30
0.0
 40
3.978
100
AcDbArc
 50
186.9953400000031
 51
262.9797000000083
  0
LINE
  5
2840
330
18
100
AcDbEntity
  8
NORMALI
100
AcDbLine
 10
-397.5735079864753
 20
476.5994055835881
 30
0.0
 11
-400.6145079864762
 21
473.5594055835873
 31
0.0
  0
LINE
  5
2841
330
18
100
AcDbEntity
  8
NORMALI
100
AcDbLine
 10
-405.676507986478
 20
476.719405583587
 30
0.0
 11
-404.9685079864756
 21
476.719405583587
 31
0.0
  0
ARC
  5
2842
330
18
100
AcDbEntity
  8
NORMALI
100
AcDbCircle
 10
-414.318507986476
 20
473.7294055835891
 30
0.0
 40
14.722
100
AcDbArc
 50
25.51099999996985
 51
52.20799999997468
  0
LINE
  5
2843
330
18
100
AcDbEntity
  8
NORMALI
100
AcDbLine
 10
-412.8275079864761
 20
494.4694055835872
 30
0.0
 11
-392.5755079864757
 21
474.2194055835871
 31
0.0
  0
LINE
  5
2844
330
18
100
AcDbEntity
  8
NORMALI
100
AcDbLine
 10
-413.3565079864783
 20
485.0994055835881
 30
0.0
 11
-402.9465079864785
 21
474.6894055835883
 31
0.0
  0
ARC
  5
2845
330
18
100
AcDbEntity
  8
NORMALI
100
AcDbCircle
 10
-397.7415079864767
 20
490.3094055835873
 30
0.0
 40
14.722
100
AcDbArc
 50
205.510899999966
 51
244.4889999999951
  0
LINE
  5
2846
330
18
100
AcDbEntity
  8
NORMALI
100
AcDbLine
 10
-411.3335079864772
 20
482.3694055835885
 30
0.0
 11
-405.676507986478
 21
476.719405583587
 31
0.0
  0
LINE
  5
2847
330
18
100
AcDbEntity
  8
NORMALI
100
AcDbLine
 10
-411.3335079864772
 20
480.9594055835888
 30
0.0
 11
-407.0905079864751
 21
476.719405583587
 31
0.0
  0
LINE
  5
2848
330
18
100
AcDbEntity
  8
NORMALI
100
AcDbLine
 10
-410.6265079864751
 20
471.7694055835901
 30
0.0
 11
-405.3225079864749
 21
477.0694055835893
 31
0.0
  0
LINE
  5
2849
330
18
100
AcDbEntity
  8
NORMALI
100
AcDbLine
 10
-407.0905079864751
 20
476.719405583587
 30
0.0
 11
-411.3335079864772
 21
472.4694055835871
 31
0.0
  0
LINE
  5
284A
330
18
100
AcDbEntity
  8
NORMALI
100
AcDbLine
 10
-415.5765079864758
 20
475.2994055835888
 30
0.0
 11
-407.0905079864751
 21
476.719405583587
 31
0.0
  0
LINE
  5
284B
330
18
100
AcDbEntity
  8
NORMALI
100
AcDbLine
 10
-412.8275079864761
 20
487.2194055835871
 30
0.0
 11
-403.2015079864759
 21
484.8494055835882
 31
0.0
  0
LINE
  5
284D
330
18
100
AcDbEntity
  8
NORMALI
100
AcDbLine
 10
-377.0385079864754
 20
469.2894055835869
 30
0.0
 11
-385.523507986476
 21
477.7794055835884
 31
0.0
  0
LINE
  5
284E
330
18
100
AcDbEntity
  8
NORMALI
100
AcDbLine
 10
-384.1095079864753
 20
462.2194055835871
 30
0.0
 11
-372.7955079864768
 21
450.9094055835895
 31
0.0
  0
LINE
  5
284F
330
18
100
AcDbEntity
  8
NORMALI
100
AcDbLine
 10
-384.1095079864753
 20
462.2194055835871
 30
0.0
 11
-369.1073863457422
 21
477.2194055835871
 31
0.0
  0
LINE
  5
2878
330
18
100
AcDbEntity
  8
DISEGNO
100
AcDbLine
 10
-454.0430205650919
 20
547.2194055835873
 30
0.0
 11
-454.0430205650919
 21
567.2194055835835
 31
0.0
  0
LINE
  5
2880
330
18
100
AcDbEntity
  8
NORMALI
100
AcDbLine
 10
-389.0785079864763
 20
520.2194055835872
 30
0.0
 11
-386.0783668100048
 21
517.2194055835872
 31
0.0
  0
LINE
  5
2882
330
18
100
AcDbEntity
  8
NORMALI
100
AcDbLine
 10
-389.0785079864763
 20
520.2194055835872
 30
0.0
 11
-392.5751601603915
 21
520.2194055835872
 31
0.0
  0
LINE
  5
288C
330
18
100
AcDbEntity
  8
DISEGNO
100
AcDbLine
 10
-185.1230205650936
 20
513.3114055835878
 30
0.0
 11
-191.4920205650924
 21
506.942405583589
 31
0.0
  0
ARC
  5
288D
330
18
100
AcDbEntity
  8
DISEGNO
100
AcDbCircle
 10
-185.5430205650936
 20
506.7194055835871
 30
0.0
 40
1.0
100
AcDbArc
 50
90.0
 51
137.2679999999776
  0
ARC
  5
288E
330
18
100
AcDbEntity
  8
DISEGNO
100
AcDbCircle
 10
-192.906020565093
 20
508.3564055835895
 30
0.0
 40
2.0
100
AcDbArc
 50
135.0000000000092
 51
315.0000000000092
  0
LINE
  5
288F
330
18
100
AcDbEntity
  8
DISEGNO
100
AcDbLine
 10
-175.0430205650918
 20
507.7194055835871
 30
0.0
 11
-175.0430205650955
 21
503.4694055835871
 31
0.0
  0
LINE
  5
2890
330
18
100
AcDbEntity
  8
DISEGNO
100
AcDbLine
 10
-169.0430205650918
 20
531.2194055835872
 30
0.0
 11
-169.0430205650918
 21
503.4694055835871
 31
0.0
  0
ARC
  5
2891
330
18
100
AcDbEntity
  8
DISEGNO
100
AcDbCircle
 10
-221.0430205650918
 20
504.3194055835893
 30
0.0
 40
4.0
100
AcDbArc
 50
0.0
 51
90.0
  0
ARC
  5
2892
330
18
100
AcDbEntity
  8
DISEGNO
100
AcDbCircle
 10
-315.1830205650931
 20
508.3564055835895
 30
0.0
 40
2.0
100
AcDbArc
 50
224.9999999999908
 51
44.99999999999078
  0
ARC
  5
2893
330
18
100
AcDbEntity
  8
DISEGNO
100
AcDbCircle
 10
-287.0430205650918
 20
504.3194055835893
 30
0.0
 40
4.0
100
AcDbArc
 50
90.0
 51
180.0
  0
LINE
  5
2894
330
18
100
AcDbEntity
  8
NORMALI
100
AcDbLine
 10
-357.6425029357161
 20
502.1194106343511
 30
0.0
 11
-344.5120079209373
 21
515.2499056491262
 31
0.0
  0
LINE
  5
2895
330
18
100
AcDbEntity
  8
DISEGNO
100
AcDbLine
 10
-333.0430205650918
 20
507.7194055835871
 30
0.0
 11
-333.0430205650918
 21
503.4694055835871
 31
0.0
  0
LINE
  5
2896
330
18
100
AcDbEntity
  8
DISEGNO
100
AcDbLine
 10
-339.0430205650918
 20
531.2194055835872
 30
0.0
 11
-339.0430205650918
 21
503.4694055835871
 31
0.0
  0
LINE
  5
2897
330
18
100
AcDbEntity
  8
DISEGNO
100
AcDbLine
 10
-322.9630205650937
 20
513.3114055835878
 30
0.0
 11
-316.5930205650947
 21
506.942405583589
 31
0.0
  0
ARC
  5
2898
330
18
100
AcDbEntity
  8
DISEGNO
100
AcDbCircle
 10
-322.5430205650918
 20
506.7194055835871
 30
0.0
 40
1.0
100
AcDbArc
 50
42.73200000002234
 51
90.0
  0
LINE
  5
2899
330
18
100
AcDbEntity
  8
ASSI
100
AcDbLine
 10
-165.1781021193055
 20
447.2194055835871
 30
0.0
 11
-343.5269292053744
 21
447.2194055835871
 31
0.0
  0
LINE
  5
289A
330
18
100
AcDbEntity
  8
DISEGNO
100
AcDbLine
 10
-221.0430205650918
 20
436.1194055835887
 30
0.0
 11
-287.0430205650918
 21
436.1194055835887
 31
0.0
  0
ARC
  5
289C
330
18
100
AcDbEntity
  8
DISEGNO
100
AcDbCircle
 10
-304.0430205650918
 20
497.2194055835871
 30
0.0
 40
8.75
100
AcDbArc
 50
258.5405999999574
 51
284.4589999999721
  0
ARC
  5
289D
330
18
100
AcDbEntity
  8
DISEGNO
100
AcDbCircle
 10
-304.0430205650918
 20
497.2194055835871
 30
0.0
 40
8.75
100
AcDbArc
 50
77.54099999995812
 51
103.4589999999516
  0
ARC
  5
289E
330
18
100
AcDbEntity
  8
DISEGNO
100
AcDbCircle
 10
-304.0430205650918
 20
497.2194055835871
 30
0.0
 40
13.0
100
AcDbArc
 50
222.746600000018
 51
312.7319999999855
  0
LINE
  5
289F
330
18
100
AcDbEntity
  8
NORMALI
100
AcDbLine
 10
-321.7430205650925
 20
506.2194055835871
 30
0.0
 11
-321.7430205650889
 21
488.2194055835872
 31
0.0
  0
ARC
  5
28A0
330
18
100
AcDbEntity
  8
DISEGNO
100
AcDbCircle
 10
-332.8230205650925
 20
497.2194055835871
 30
0.0
 40
15.0
100
AcDbArc
 50
317.2679999999776
 51
42.73200000002234
  0
ARC
  5
28A1
330
18
100
AcDbEntity
  8
DISEGNO
100
AcDbCircle
 10
-308.3430205650929
 20
488.5254055835877
 30
0.0
 40
0.3
100
AcDbArc
 50
159.0000000000085
 51
243.6762000000276
  0
ARC
  5
28A2
330
18
100
AcDbEntity
  8
DISEGNO
100
AcDbCircle
 10
-314.3230205650925
 20
487.7174055835868
 30
0.0
 40
1.0
100
AcDbArc
 50
42.74700000000065
 51
152.8159999999786
  0
ARC
  5
28A3
330
18
100
AcDbEntity
  8
DISEGNO
100
AcDbCircle
 10
-304.0430205650918
 20
497.2194055835871
 30
0.0
 40
8.75
100
AcDbArc
 50
168.541000000001
 51
194.459400000006
  0
ARC
  5
28A4
330
18
100
AcDbEntity
  8
DISEGNO
100
AcDbCircle
 10
-312.9130205650926
 20
499.0174055835897
 30
0.0
 40
0.3
100
AcDbArc
 50
348.541000000001
 51
68.99999999996737
  0
LINE
  5
28A5
330
18
100
AcDbEntity
  8
DISEGNO
100
AcDbLine
 10
-313.4930205650925
 20
499.5604055835875
 30
0.0
 11
-312.8030205650939
 21
499.2974055835885
 31
0.0
  0
ARC
  5
28A6
330
18
100
AcDbEntity
  8
DISEGNO
100
AcDbCircle
 10
-313.3830205650919
 20
499.8404055835863
 30
0.0
 40
0.3
100
AcDbArc
 50
164.3240000000127
 51
248.9999999999673
  0
ARC
  5
28A7
330
18
100
AcDbEntity
  8
DISEGNO
100
AcDbCircle
 10
-312.7330205650924
 20
501.5214055835867
 30
0.0
 40
0.3
100
AcDbArc
 50
68.99999999996737
 51
153.6759999999896
  0
LINE
  5
28A8
330
18
100
AcDbEntity
  8
DISEGNO
100
AcDbLine
 10
-312.633020565092
 20
501.8014055835894
 30
0.0
 11
-311.9430205650933
 21
501.5384055835866
 31
0.0
  0
ARC
  5
28A9
330
18
100
AcDbEntity
  8
DISEGNO
100
AcDbCircle
 10
-311.8430205650929
 20
501.8184055835892
 30
0.0
 40
0.3
100
AcDbArc
 50
248.9999999999673
 51
329.458999999983
  0
ARC
  5
28AA
330
18
100
AcDbEntity
  8
DISEGNO
100
AcDbCircle
 10
-304.0430205650918
 20
497.2194055835871
 30
0.0
 40
8.75
100
AcDbArc
 50
122.5409999999808
 51
149.4589999999829
  0
ARC
  5
28AB
330
18
100
AcDbEntity
  8
DISEGNO
100
AcDbCircle
 10
-308.9130205650926
 20
504.8494055835881
 30
0.0
 40
0.3
100
AcDbArc
 50
302.5409999999808
 51
22.99999999998471
  0
LINE
  5
28AC
330
18
100
AcDbEntity
  8
DISEGNO
100
AcDbLine
 10
-308.9230205650928
 20
505.6414055835894
 30
0.0
 11
-308.633020565092
 21
504.9664055835866
 31
0.0
  0
ARC
  5
28AD
330
18
100
AcDbEntity
  8
DISEGNO
100
AcDbCircle
 10
-308.6430205650922
 20
505.7584055835879
 30
0.0
 40
0.3
100
AcDbArc
 50
118.3239999999669
 51
202.9999999999847
  0
ARC
  5
28AE
330
18
100
AcDbEntity
  8
DISEGNO
100
AcDbCircle
 10
-304.0430205650918
 20
497.2194055835871
 30
0.0
 40
10.0
100
AcDbArc
 50
107.6760000000171
 51
118.3239999999669
  0
ARC
  5
28AF
330
18
100
AcDbEntity
  8
DISEGNO
100
AcDbCircle
 10
-304.0430205650918
 20
497.2194055835871
 30
0.0
 40
10.0
100
AcDbArc
 50
153.6759999999896
 51
164.3240000000127
  0
ARC
  5
28B0
330
18
100
AcDbEntity
  8
DISEGNO
100
AcDbCircle
 10
-306.9930205650925
 20
506.4614055835892
 30
0.0
 40
0.3
100
AcDbArc
 50
22.99999999998471
 51
107.6760000000171
  0
LINE
  5
28B1
330
18
100
AcDbEntity
  8
DISEGNO
100
AcDbLine
 10
-308.3630205650915
 20
489.3174055835888
 30
0.0
 11
-308.6230205650936
 21
488.6334055835877
 31
0.0
  0
ARC
  5
28B2
330
18
100
AcDbEntity
  8
DISEGNO
100
AcDbCircle
 10
-308.6430205650922
 20
489.4254055835891
 30
0.0
 40
0.3
100
AcDbArc
 50
339.0000000000085
 51
59.45900000003552
  0
ARC
  5
28B3
330
18
100
AcDbEntity
  8
DISEGNO
100
AcDbCircle
 10
-304.0430205650918
 20
497.2194055835871
 30
0.0
 40
8.75
100
AcDbArc
 50
213.5406000000093
 51
239.4593999999767
  0
ARC
  5
28B4
330
18
100
AcDbEntity
  8
DISEGNO
100
AcDbCircle
 10
-311.5830205650927
 20
492.2194055835872
 30
0.0
 40
0.3
100
AcDbArc
 50
33.54099999996988
 51
113.999999999983
  0
LINE
  5
28B5
330
18
100
AcDbEntity
  8
DISEGNO
100
AcDbLine
 10
-311.7130205650937
 20
492.4934055835883
 30
0.0
 11
-312.383020565092
 21
492.1954055835896
 31
0.0
  0
ARC
  5
28B6
330
18
100
AcDbEntity
  8
DISEGNO
100
AcDbCircle
 10
-312.5030205650928
 20
492.4694055835871
 30
0.0
 40
0.3
100
AcDbArc
 50
209.3236999999791
 51
293.999999999983
  0
ARC
  5
28B7
330
18
100
AcDbEntity
  8
DISEGNO
100
AcDbCircle
 10
-304.0430205650918
 20
497.2194055835871
 30
0.0
 40
10.0
100
AcDbArc
 50
198.6761999999871
 51
209.3236999999791
  0
ARC
  5
28B8
330
18
100
AcDbEntity
  8
DISEGNO
100
AcDbCircle
 10
-313.2330205650923
 20
494.1134055835873
 30
0.0
 40
0.3
100
AcDbArc
 50
113.999999999983
 51
198.6761999999871
  0
LINE
  5
28B9
330
18
100
AcDbEntity
  8
DISEGNO
100
AcDbLine
 10
-312.6830205650949
 20
494.6864055835876
 30
0.0
 11
-313.3530205650931
 21
494.3874055835887
 31
0.0
  0
ARC
  5
28BA
330
18
100
AcDbEntity
  8
DISEGNO
100
AcDbCircle
 10
-312.8030205650921
 20
494.960405583589
 30
0.0
 40
0.3
100
AcDbArc
 50
293.999999999983
 51
14.4590000000053
  0
ARC
  5
28BB
330
18
100
AcDbEntity
  8
DISEGNO
100
AcDbCircle
 10
-332.8230205650925
 20
497.2194055835871
 30
0.0
 40
19.8
100
AcDbArc
 50
317.2679999999776
 51
332.8159999999787
  0
ARC
  5
28BC
330
18
100
AcDbEntity
  8
DISEGNO
100
AcDbCircle
 10
-304.0430205650918
 20
497.2194055835871
 30
0.0
 40
10.0
100
AcDbArc
 50
243.6762000000276
 51
254.323800000039
  0
ARC
  5
28BD
330
18
100
AcDbEntity
  8
DISEGNO
100
AcDbCircle
 10
-305.8430205650929
 20
488.3504055835883
 30
0.0
 40
0.3
100
AcDbArc
 50
78.54100000004699
 51
159.0000000000085
  0
LINE
  5
28BE
330
18
100
AcDbEntity
  8
DISEGNO
100
AcDbLine
 10
-306.1230205650936
 20
488.4574055835884
 30
0.0
 11
-306.383020565092
 21
487.7734055835873
 31
0.0
  0
LINE
  5
28BF
330
18
100
AcDbEntity
  8
DISEGNO
100
AcDbLine
 10
-306.7130205650937
 20
506.5794055835878
 30
0.0
 11
-306.4230205650928
 21
505.9044055835884
 31
0.0
  0
ARC
  5
28C0
330
18
100
AcDbEntity
  8
DISEGNO
100
AcDbCircle
 10
-306.1530205650924
 20
506.0214055835869
 30
0.0
 40
0.3
100
AcDbArc
 50
202.9999999999847
 51
283.4589999999516
  0
ARC
  5
28C1
330
18
100
AcDbEntity
  8
DISEGNO
100
AcDbCircle
 10
-306.6630205650926
 20
487.8804055835871
 30
0.0
 40
0.3
100
AcDbArc
 50
254.323800000039
 51
339.0000000000085
  0
ARC
  5
28C2
330
18
100
AcDbEntity
  8
DISEGNO
100
AcDbCircle
 10
-294.5430205650918
 20
486.9364055835878
 30
0.0
 40
1.0
100
AcDbArc
 50
0.0
 51
132.7319999999855
  0
ARC
  5
28C3
330
18
100
AcDbEntity
  8
DISEGNO
100
AcDbCircle
 10
-299.2930205650918
 20
488.7624055835886
 30
0.0
 40
0.3
100
AcDbArc
 50
299.3239999999783
 51
24.00000000000358
  0
LINE
  5
28C4
330
18
100
AcDbEntity
  8
DISEGNO
100
AcDbLine
 10
-301.513020565093
 20
488.5784055835876
 30
0.0
 11
-301.2130205650937
 21
487.9084055835893
 31
0.0
  0
ARC
  5
28C5
330
18
100
AcDbEntity
  8
DISEGNO
100
AcDbCircle
 10
-304.0430205650918
 20
497.2194055835871
 30
0.0
 40
8.75
100
AcDbArc
 50
347.541000000004
 51
13.45900000001176
  0
LINE
  5
28C6
330
18
100
AcDbEntity
  8
DISEGNO
100
AcDbLine
 10
-295.3630205650915
 20
499.6024055835888
 30
0.0
 11
-294.6830205650948
 21
499.8894055835891
 31
0.0
  0
ARC
  5
28C7
330
18
100
AcDbEntity
  8
DISEGNO
100
AcDbCircle
 10
-295.2430205650926
 20
499.3264055835871
 30
0.0
 40
0.3
100
AcDbArc
 50
112.9999999999992
 51
193.4594000000095
  0
ARC
  5
28C8
330
18
100
AcDbEntity
  8
DISEGNO
100
AcDbCircle
 10
-302.0930205650929
 20
506.0564055835866
 30
0.0
 40
0.3
100
AcDbArc
 50
257.5406000000439
 51
337.9999999999992
  0
LINE
  5
28C9
330
18
100
AcDbEntity
  8
DISEGNO
100
AcDbLine
 10
-301.8130205650923
 20
505.9444055835894
 30
0.0
 11
-301.5430205650918
 21
506.6244055835896
 31
0.0
  0
ARC
  5
28CA
330
18
100
AcDbEntity
  8
DISEGNO
100
AcDbCircle
 10
-301.263020565093
 20
506.5114055835883
 30
0.0
 40
0.3
100
AcDbArc
 50
73.32400000000223
 51
157.9999999999992
  0
ARC
  5
28CB
330
18
100
AcDbEntity
  8
DISEGNO
100
AcDbCircle
 10
-304.0430205650918
 20
497.2194055835871
 30
0.0
 40
10.0
100
AcDbArc
 50
62.67600000003083
 51
73.32400000000223
  0
ARC
  5
28CC
330
18
100
AcDbEntity
  8
DISEGNO
100
AcDbCircle
 10
-299.5930205650929
 20
505.8374055835894
 30
0.0
 40
0.3
100
AcDbArc
 50
337.9999999999992
 51
62.67600000003083
  0
LINE
  5
28CD
330
18
100
AcDbEntity
  8
DISEGNO
100
AcDbLine
 10
-299.5830205650927
 20
505.0454055835881
 30
0.0
 11
-299.3130205650923
 21
505.7254055835883
 31
0.0
  0
ARC
  5
28CE
330
18
100
AcDbEntity
  8
DISEGNO
100
AcDbCircle
 10
-299.3130205650923
 20
504.9324055835868
 30
0.0
 40
0.3
100
AcDbArc
 50
157.9999999999992
 51
238.4593999999813
  0
ARC
  5
28CF
330
18
100
AcDbEntity
  8
DISEGNO
100
AcDbCircle
 10
-304.0430205650918
 20
497.2194055835871
 30
0.0
 40
8.75
100
AcDbArc
 50
32.54100000001331
 51
58.45899999997058
  0
ARC
  5
28D0
330
18
100
AcDbEntity
  8
DISEGNO
100
AcDbCircle
 10
-296.4130205650926
 20
502.0874055835894
 30
0.0
 40
0.3
100
AcDbArc
 50
212.5406000000135
 51
292.9999999999992
  0
LINE
  5
28D1
330
18
100
AcDbEntity
  8
DISEGNO
100
AcDbLine
 10
-296.2930205650918
 20
501.8114055835876
 30
0.0
 11
-295.6230205650935
 21
502.098405583588
 31
0.0
  0
ARC
  5
28D2
330
18
100
AcDbEntity
  8
DISEGNO
100
AcDbCircle
 10
-295.5030205650928
 20
501.82240558359
 30
0.0
 40
0.3
100
AcDbArc
 50
28.32400000002514
 51
112.9999999999992
  0
ARC
  5
28D3
330
18
100
AcDbEntity
  8
DISEGNO
100
AcDbCircle
 10
-304.0430205650918
 20
497.2194055835871
 30
0.0
 40
10.0
100
AcDbArc
 50
17.67600000001719
 51
28.32400000002514
  0
ARC
  5
28D4
330
18
100
AcDbEntity
  8
DISEGNO
100
AcDbCircle
 10
-294.803020565092
 20
500.1654055835871
 30
0.0
 40
0.3
100
AcDbArc
 50
292.9999999999992
 51
17.67600000001719
  0
ARC
  5
28D5
330
18
100
AcDbEntity
  8
DISEGNO
100
AcDbCircle
 10
-295.2030205650917
 20
495.2674055835897
 30
0.0
 40
0.3
100
AcDbArc
 50
167.541000000004
 51
248.0000000000138
  0
LINE
  5
28D6
330
18
100
AcDbEntity
  8
DISEGNO
100
AcDbLine
 10
-295.3230205650943
 20
494.9894055835876
 30
0.0
 11
-294.643020565094
 21
494.7144055835861
 31
0.0
  0
ARC
  5
28D7
330
18
100
AcDbEntity
  8
DISEGNO
100
AcDbCircle
 10
-294.7530205650928
 20
494.4364055835877
 30
0.0
 40
0.3
100
AcDbArc
 50
343.3240000000021
 51
68.0000000000138
  0
ARC
  5
28D8
330
18
100
AcDbEntity
  8
DISEGNO
100
AcDbCircle
 10
-304.0430205650918
 20
497.2194055835871
 30
0.0
 40
10.0
100
AcDbArc
 50
332.6759999999958
 51
343.3240000000021
  0
ARC
  5
28D9
330
18
100
AcDbEntity
  8
DISEGNO
100
AcDbCircle
 10
-295.4230205650929
 20
492.7674055835897
 30
0.0
 40
0.3
100
AcDbArc
 50
248.0000000000138
 51
332.6759999999958
  0
LINE
  5
28DA
330
18
100
AcDbEntity
  8
DISEGNO
100
AcDbLine
 10
-296.2230205650921
 20
492.7634055835888
 30
0.0
 11
-295.5430205650918
 21
492.4894055835876
 31
0.0
  0
ARC
  5
28DB
330
18
100
AcDbEntity
  8
DISEGNO
100
AcDbCircle
 10
-296.3330205650927
 20
492.4854055835868
 30
0.0
 40
0.3
100
AcDbArc
 50
68.0000000000138
 51
148.4589999999705
  0
ARC
  5
28DC
330
18
100
AcDbEntity
  8
DISEGNO
100
AcDbCircle
 10
-304.0430205650918
 20
497.2194055835871
 30
0.0
 40
8.75
100
AcDbArc
 50
303.5410000000023
 51
328.4589999999705
  0
ARC
  5
28DD
330
18
100
AcDbEntity
  8
DISEGNO
100
AcDbCircle
 10
-299.0430205650918
 20
489.6764055835894
 30
0.0
 40
0.3
100
AcDbArc
 50
123.5410000000022
 51
204.0000000000035
  0
LINE
  5
28DE
330
18
100
AcDbEntity
  8
DISEGNO
100
AcDbLine
 10
-299.3130205650923
 20
489.5544055835863
 30
0.0
 11
-299.0230205650913
 21
488.8844055835881
 31
0.0
  0
ARC
  5
28DF
330
18
100
AcDbEntity
  8
DISEGNO
100
AcDbCircle
 10
-301.7830205650917
 20
488.456405583588
 30
0.0
 40
0.3
100
AcDbArc
 50
24.00000000000358
 51
104.4589999999721
  0
ARC
  5
28E0
330
18
100
AcDbEntity
  8
DISEGNO
100
AcDbCircle
 10
-304.0430205650918
 20
497.2194055835871
 30
0.0
 40
10.0
100
AcDbArc
 50
288.6759999999778
 51
299.3239999999783
  0
ARC
  5
28E1
330
18
100
AcDbEntity
  8
DISEGNO
100
AcDbCircle
 10
-300.9330205650931
 20
488.0304055835887
 30
0.0
 40
0.3
100
AcDbArc
 50
204.0000000000035
 51
288.6759999999778
  0
LINE
  5
28E4
330
18
100
AcDbEntity
  8
NORMALI
100
AcDbLine
 10
-339.0430205650918
 20
479.7194055835872
 30
0.0
 11
-345.0425079864762
 21
479.7194055835872
 31
0.0
  0
LINE
  5
28E5
330
18
100
AcDbEntity
  8
NORMALI
100
AcDbLine
 10
-344.5115079864772
 20
479.1894055835883
 30
0.0
 11
-344.5115079864772
 21
477.2194055835871
 31
0.0
  0
LINE
  5
28E7
330
18
100
AcDbEntity
  8
NORMALI
100
AcDbLine
 10
-349.1075079864785
 20
474.5994055835882
 30
0.0
 11
-345.9255079864778
 21
471.4094055835895
 31
0.0
  0
ARC
  5
28E8
330
18
100
AcDbEntity
  8
NORMALI
100
AcDbCircle
 10
-352.6435079864768
 20
497.2194055835871
 30
0.0
 40
7.0
100
AcDbArc
 50
135.0000000000092
 51
224.9998999999795
  0
LINE
  5
28E9
330
18
100
AcDbEntity
  8
NORMALI
100
AcDbLine
 10
-344.5120080218366
 20
479.1889056189476
 30
0.0
 11
-357.6425029357123
 21
492.3194005328233
 31
0.0
  0
LINE
  5
28EA
330
18
100
AcDbEntity
  8
NORMALI
100
AcDbLine
 10
-355.0425079864762
 20
489.7194055835871
 30
0.0
 11
-355.0425079864762
 21
504.7194055835872
 31
0.0
  0
LINE
  5
28F6
330
18
100
AcDbEntity
  8
DISEGNO
100
AcDbLine
 10
-334.2430205650925
 20
479.9194055835878
 30
0.0
 11
-334.2430205650925
 21
464.5194055835863
 31
0.0
  0
LINE
  5
28F7
330
18
100
AcDbEntity
  8
DISEGNO
100
AcDbLine
 10
-322.5430205650918
 20
462.5194055835865
 30
0.0
 11
-332.2430205650925
 21
462.5194055835865
 31
0.0
  0
ARC
  5
28F8
330
18
100
AcDbEntity
  8
DISEGNO
100
AcDbCircle
 10
-332.2430205650925
 20
464.5194055835863
 30
0.0
 40
2.0
100
AcDbArc
 50
180.0
 51
270.0
  0
LINE
  5
28F9
330
18
100
AcDbEntity
  8
DISEGNO
100
AcDbLine
 10
-339.0430205650918
 20
503.4694055835871
 30
0.0
 11
-333.0430205650918
 21
503.4694055835871
 31
0.0
  0
LINE
  5
28FB
330
18
100
AcDbEntity
  8
DISEGNO
100
AcDbLine
 10
-333.0430205650918
 20
490.9694055835871
 30
0.0
 11
-339.0430205650918
 21
490.9694055835871
 31
0.0
  0
LINE
  5
28FD
330
18
100
AcDbEntity
  8
DISEGNO
100
AcDbLine
 10
-333.0430205650918
 20
490.9694055835871
 30
0.0
 11
-333.0430205650918
 21
486.7194055835871
 31
0.0
  0
LINE
  5
2900
330
18
100
AcDbEntity
  8
NORMALI
100
AcDbLine
 10
-333.0430205650918
 20
507.2194055835871
 30
0.0
 11
-322.7430205650926
 21
507.2194055835871
 31
0.0
  0
LINE
  5
2903
330
18
100
AcDbEntity
  8
NORMALI
100
AcDbLine
 10
-333.0430205650918
 20
487.2194055835871
 30
0.0
 11
-322.7430205650889
 21
487.2194055835871
 31
0.0
  0
LINE
  5
2904
330
18
100
AcDbEntity
  8
DISEGNO
100
AcDbLine
 10
-322.5430205650918
 20
486.7194055835871
 30
0.0
 11
-333.0430205650918
 21
486.7194055835871
 31
0.0
  0
LINE
  5
2905
330
18
100
AcDbEntity
  8
DISEGNO
100
AcDbLine
 10
-322.5430205650918
 20
481.9194055835878
 30
0.0
 11
-332.2430205650925
 21
481.9194055835878
 31
0.0
  0
ARC
  5
2906
330
18
100
AcDbEntity
  8
DISEGNO
100
AcDbCircle
 10
-332.2430205650925
 20
479.9194055835878
 30
0.0
 40
2.0
100
AcDbArc
 50
90.0
 51
180.0
  0
LINE
  5
2907
330
18
100
AcDbEntity
  8
NORMALI
100
AcDbLine
 10
-339.0430205650918
 20
490.9694055835871
 30
0.0
 11
-339.0430205650918
 21
493.2194055835871
 31
0.0
  0
LINE
  5
2908
330
18
100
AcDbEntity
  8
NORMALI
100
AcDbLine
 10
-339.0430205650918
 20
503.4694055835871
 30
0.0
 11
-339.0430205650918
 21
501.2194055835871
 31
0.0
  0
LINE
  5
2909
330
18
100
AcDbEntity
  8
NORMALI
100
AcDbLine
 10
-342.2431054708177
 20
493.2194055835871
 30
0.0
 11
-338.5430205650882
 21
493.2194055835871
 31
0.0
  0
LINE
  5
290A
330
18
100
AcDbEntity
  8
NORMALI
100
AcDbLine
 10
-342.2431557852833
 20
501.2194055835871
 30
0.0
 11
-338.5430205650918
 21
501.2194055835871
 31
0.0
  0
LINE
  5
290B
330
18
100
AcDbEntity
  8
NORMALI
100
AcDbLine
 10
-338.5430205650918
 20
503.4694055835871
 30
0.0
 11
-338.5430205650918
 21
501.2194055835871
 31
0.0
  0
LINE
  5
290C
330
18
100
AcDbEntity
  8
NORMALI
100
AcDbLine
 10
-338.5430205650882
 20
493.2194055835871
 30
0.0
 11
-338.5430205650882
 21
490.9694055835871
 31
0.0
  0
LINE
  5
290D
330
18
100
AcDbEntity
  8
NORMALI
100
AcDbLine
 10
-341.7430205650926
 20
501.2194055835871
 30
0.0
 11
-341.7430205650889
 21
493.2194055835871
 31
0.0
  0
LINE
  5
290E
330
18
100
AcDbEntity
  8
NORMALI
100
AcDbLine
 10
-342.2431054708177
 20
493.2194055835871
 30
0.0
 11
-342.2431557852833
 21
501.2194055835871
 31
0.0
  0
LINE
  5
2910
330
18
100
AcDbEntity
  8
NORMALI
100
AcDbLine
 10
-322.7430205650926
 20
507.2194055835871
 30
0.0
 11
-321.7430205650925
 21
506.2194055835871
 31
0.0
  0
LINE
  5
2911
330
18
100
AcDbEntity
  8
NORMALI
100
AcDbLine
 10
-321.7430205650889
 20
488.2194055835872
 30
0.0
 11
-322.7430205650889
 21
487.2194055835871
 31
0.0
  0
ARC
  5
2912
330
18
100
AcDbEntity
  8
DISEGNO
100
AcDbCircle
 10
-322.5430205650918
 20
487.7194055835871
 30
0.0
 40
1.0
100
AcDbArc
 50
270.0
 51
317.2679999999776
  0
ARC
  5
2913
330
18
100
AcDbEntity
  8
DISEGNO
100
AcDbCircle
 10
-322.5430205650918
 20
487.7194055835871
 30
0.0
 40
5.799999999999998
100
AcDbArc
 50
269.9999892531033
 51
317.2679999999776
  0
ARC
  5
2914
330
18
100
AcDbEntity
  8
DISEGNO
100
AcDbCircle
 10
-304.0430205650918
 20
447.2194055835871
 30
0.0
 40
8.75
100
AcDbArc
 50
75.54100000002788
 51
101.458999999953
  0
ARC
  5
2915
330
18
100
AcDbEntity
  8
DISEGNO
100
AcDbCircle
 10
-304.0430205650918
 20
447.2194055835871
 30
0.0
 40
8.75
100
AcDbArc
 50
256.5406000000363
 51
282.4590000000418
  0
ARC
  5
2916
330
18
100
AcDbEntity
  8
DISEGNO
100
AcDbCircle
 10
-304.0430205650918
 20
447.2194055835871
 30
0.0
 40
13.0
100
AcDbArc
 50
47.26800000001445
 51
137.2529999999993
  0
ARC
  5
2917
330
18
100
AcDbEntity
  8
DISEGNO
100
AcDbCircle
 10
-332.8230205650925
 20
447.2194055835871
 30
0.0
 40
15.0
100
AcDbArc
 50
317.2679999999776
 51
42.73200000002234
  0
ARC
  5
2918
330
18
100
AcDbEntity
  8
DISEGNO
100
AcDbCircle
 10
-304.0430205650918
 20
447.2194055835871
 30
0.0
 40
10.0
100
AcDbArc
 50
241.6762000000291
 51
252.3237999999821
  0
ARC
  5
2919
330
18
100
AcDbEntity
  8
DISEGNO
100
AcDbCircle
 10
-315.1830205650931
 20
436.0824055835884
 30
0.0
 40
2.0
100
AcDbArc
 50
315.0000000000092
 51
135.0000000000092
  0
ARC
  5
291A
330
18
100
AcDbEntity
  8
DISEGNO
100
AcDbCircle
 10
-306.9930205650925
 20
437.9774055835888
 30
0.0
 40
0.3
100
AcDbArc
 50
252.3237999999821
 51
337.0000000000152
  0
ARC
  5
291B
330
18
100
AcDbEntity
  8
DISEGNO
100
AcDbCircle
 10
-304.0430205650918
 20
447.2194055835871
 30
0.0
 40
8.75
100
AcDbArc
 50
165.5409999999946
 51
191.459400000003
  0
ARC
  5
291C
330
18
100
AcDbEntity
  8
DISEGNO
100
AcDbCircle
 10
-308.3430205650929
 20
455.9144055835869
 30
0.0
 40
0.3
100
AcDbArc
 50
116.324000000025
 51
200.9999999999914
  0
LINE
  5
291D
330
18
100
AcDbEntity
  8
DISEGNO
100
AcDbLine
 10
-308.3630205650915
 20
455.1214055835891
 30
0.0
 11
-308.6230205650936
 21
455.8064055835866
 31
0.0
  0
ARC
  5
291E
330
18
100
AcDbEntity
  8
DISEGNO
100
AcDbCircle
 10
-308.6430205650922
 20
455.014405583589
 30
0.0
 40
0.3
100
AcDbArc
 50
300.5409999999644
 51
20.99999999999147
  0
ARC
  5
291F
330
18
100
AcDbEntity
  8
DISEGNO
100
AcDbCircle
 10
-304.0430205650918
 20
447.2194055835871
 30
0.0
 40
8.75
100
AcDbArc
 50
120.5409999999644
 51
146.4590000000301
  0
ARC
  5
2920
330
18
100
AcDbEntity
  8
DISEGNO
100
AcDbCircle
 10
-311.5830205650927
 20
452.2204055835874
 30
0.0
 40
0.3
100
AcDbArc
 50
246.0000000000169
 51
326.4590000000301
  0
LINE
  5
2921
330
18
100
AcDbEntity
  8
DISEGNO
100
AcDbLine
 10
-311.7130205650937
 20
451.9464055835861
 30
0.0
 11
-312.383020565092
 21
452.2444055835887
 31
0.0
  0
ARC
  5
2922
330
18
100
AcDbEntity
  8
DISEGNO
100
AcDbCircle
 10
-312.5030205650928
 20
451.9704055835873
 30
0.0
 40
0.3
100
AcDbArc
 50
66.00000000001692
 51
150.6759999999925
  0
ARC
  5
2923
330
18
100
AcDbEntity
  8
DISEGNO
100
AcDbCircle
 10
-304.0430205650918
 20
447.2194055835871
 30
0.0
 40
10.0
100
AcDbArc
 50
150.6759999999925
 51
161.3240000000015
  0
ARC
  5
2924
330
18
100
AcDbEntity
  8
DISEGNO
100
AcDbCircle
 10
-313.2330205650923
 20
450.3264055835871
 30
0.0
 40
0.3
100
AcDbArc
 50
161.3240000000015
 51
246.0000000000169
  0
LINE
  5
2925
330
18
100
AcDbEntity
  8
DISEGNO
100
AcDbLine
 10
-312.6830205650949
 20
449.7534055835869
 30
0.0
 11
-313.3530205650931
 21
450.0514055835894
 31
0.0
  0
ARC
  5
2926
330
18
100
AcDbEntity
  8
DISEGNO
100
AcDbCircle
 10
-312.8030205650921
 20
449.4794055835892
 30
0.0
 40
0.3
100
AcDbArc
 50
345.5409999999947
 51
66.00000000001692
  0
ARC
  5
2927
330
18
100
AcDbEntity
  8
DISEGNO
100
AcDbCircle
 10
-314.3230205650925
 20
456.7224055835877
 30
0.0
 40
1.0
100
AcDbArc
 50
207.1844999999981
 51
317.2529999999993
  0
ARC
  5
2928
330
18
100
AcDbEntity
  8
DISEGNO
100
AcDbCircle
 10
-304.0430205650918
 20
447.2194055835871
 30
0.0
 40
10.0
100
AcDbArc
 50
105.6759999999935
 51
116.324000000025
  0
ARC
  5
2929
330
18
100
AcDbEntity
  8
DISEGNO
100
AcDbCircle
 10
-332.8230205650925
 20
447.2194055835871
 30
0.0
 40
19.8
100
AcDbArc
 50
27.18400000002136
 51
42.73200000002234
  0
ARC
  5
292A
330
18
100
AcDbEntity
  8
DISEGNO
100
AcDbCircle
 10
-312.9130205650926
 20
445.4214055835883
 30
0.0
 40
0.3
100
AcDbArc
 50
291.0000000000326
 51
11.45899999999897
  0
LINE
  5
292B
330
18
100
AcDbEntity
  8
DISEGNO
100
AcDbLine
 10
-313.4930205650925
 20
444.879405583587
 30
0.0
 11
-312.8030205650939
 21
445.1414055835894
 31
0.0
  0
ARC
  5
292C
330
18
100
AcDbEntity
  8
DISEGNO
100
AcDbCircle
 10
-313.3830205650919
 20
444.598405583588
 30
0.0
 40
0.3
100
AcDbArc
 50
111.0000000000326
 51
195.6762000000084
  0
ARC
  5
292D
330
18
100
AcDbEntity
  8
DISEGNO
100
AcDbCircle
 10
-304.0430205650918
 20
447.2194055835871
 30
0.0
 40
10.0
100
AcDbArc
 50
195.6762000000084
 51
206.323799999981
  0
ARC
  5
292E
330
18
100
AcDbEntity
  8
DISEGNO
100
AcDbCircle
 10
-312.7330205650924
 20
442.9184055835877
 30
0.0
 40
0.3
100
AcDbArc
 50
206.323799999981
 51
291.0000000000326
  0
LINE
  5
292F
330
18
100
AcDbEntity
  8
DISEGNO
100
AcDbLine
 10
-312.633020565092
 20
442.6384055835888
 30
0.0
 11
-311.9430205650933
 21
442.9014055835878
 31
0.0
  0
ARC
  5
2930
330
18
100
AcDbEntity
  8
DISEGNO
100
AcDbCircle
 10
-311.8430205650929
 20
442.6214055835891
 30
0.0
 40
0.3
100
AcDbArc
 50
30.54100000001699
 51
111.0000000000326
  0
ARC
  5
2931
330
18
100
AcDbEntity
  8
DISEGNO
100
AcDbCircle
 10
-304.0430205650918
 20
447.2194055835871
 30
0.0
 40
8.75
100
AcDbArc
 50
210.5405999999997
 51
237.4593999999575
  0
ARC
  5
2932
330
18
100
AcDbEntity
  8
DISEGNO
100
AcDbCircle
 10
-308.9130205650926
 20
439.5904055835863
 30
0.0
 40
0.3
100
AcDbArc
 50
337.0000000000152
 51
57.45900000001917
  0
LINE
  5
2933
330
18
100
AcDbEntity
  8
DISEGNO
100
AcDbLine
 10
-308.9230205650928
 20
438.7984055835887
 30
0.0
 11
-308.633020565092
 21
439.473405583588
 31
0.0
  0
ARC
  5
2934
330
18
100
AcDbEntity
  8
DISEGNO
100
AcDbCircle
 10
-308.6430205650922
 20
438.6814055835866
 30
0.0
 40
0.3
100
AcDbArc
 50
157.0000000000151
 51
241.6762000000291
  0
ARC
  5
2935
330
18
100
AcDbEntity
  8
DISEGNO
100
AcDbCircle
 10
-305.8430205650929
 20
456.0894055835897
 30
0.0
 40
0.3
100
AcDbArc
 50
200.9999999999914
 51
281.458999999953
  0
LINE
  5
2936
330
18
100
AcDbEntity
  8
DISEGNO
100
AcDbLine
 10
-306.1230205650936
 20
455.9814055835859
 30
0.0
 11
-306.383020565092
 21
456.6664055835873
 31
0.0
  0
LINE
  5
2937
330
18
100
AcDbEntity
  8
DISEGNO
100
AcDbLine
 10
-306.7130205650937
 20
437.8604055835867
 30
0.0
 11
-306.4230205650928
 21
438.5354055835859
 31
0.0
  0
ARC
  5
2938
330
18
100
AcDbEntity
  8
DISEGNO
100
AcDbCircle
 10
-306.6630205650926
 20
456.5594055835873
 30
0.0
 40
0.3
100
AcDbArc
 50
20.99999999999147
 51
105.6759999999935
  0
ARC
  5
2939
330
18
100
AcDbEntity
  8
DISEGNO
100
AcDbCircle
 10
-306.1530205650924
 20
438.4184055835877
 30
0.0
 40
0.3
100
AcDbArc
 50
76.54100000004828
 51
157.0000000000151
  0
ARC
  5
293A
330
18
100
AcDbEntity
  8
DISEGNO
100
AcDbCircle
 10
-287.0430205650918
 20
440.1194055835886
 30
0.0
 40
4.0
100
AcDbArc
 50
180.0
 51
270.0
  0
LINE
  5
293B
330
18
100
AcDbEntity
  8
DISEGNO
100
AcDbLine
 10
-301.8130205650923
 20
438.4954055835889
 30
0.0
 11
-301.5430205650918
 21
437.8154055835884
 31
0.0
  0
ARC
  5
293C
330
18
100
AcDbEntity
  8
DISEGNO
100
AcDbCircle
 10
-304.0430205650918
 20
447.2194055835871
 30
0.0
 40
10.0
100
AcDbArc
 50
286.6759999999978
 51
297.3239999999691
  0
ARC
  5
293D
330
18
100
AcDbEntity
  8
DISEGNO
100
AcDbCircle
 10
-301.263020565093
 20
437.9274055835894
 30
0.0
 40
0.3
100
AcDbArc
 50
202.0000000000007
 51
286.6759999999978
  0
ARC
  5
293E
330
18
100
AcDbEntity
  8
DISEGNO
100
AcDbCircle
 10
-304.0430205650918
 20
447.2194055835871
 30
0.0
 40
8.75
100
AcDbArc
 50
346.5409999999882
 51
12.45899999999596
  0
ARC
  5
293F
330
18
100
AcDbEntity
  8
DISEGNO
100
AcDbCircle
 10
-294.5430205650918
 20
457.5034055835867
 30
0.0
 40
1.0
100
AcDbArc
 50
227.2681999999663
 51
0.0
  0
ARC
  5
2940
330
18
100
AcDbEntity
  8
DISEGNO
100
AcDbCircle
 10
-295.2030205650917
 20
449.1724055835884
 30
0.0
 40
0.3
100
AcDbArc
 50
111.9999999999861
 51
192.4593999999829
  0
LINE
  5
2941
330
18
100
AcDbEntity
  8
DISEGNO
100
AcDbLine
 10
-295.3230205650943
 20
449.450405583587
 30
0.0
 11
-294.643020565094
 21
449.7254055835884
 31
0.0
  0
ARC
  5
2942
330
18
100
AcDbEntity
  8
DISEGNO
100
AcDbCircle
 10
-294.7530205650928
 20
450.0034055835867
 30
0.0
 40
0.3
100
AcDbArc
 50
291.9999999999861
 51
16.67599999999778
  0
ARC
  5
2943
330
18
100
AcDbEntity
  8
DISEGNO
100
AcDbCircle
 10
-304.0430205650918
 20
447.2194055835871
 30
0.0
 40
10.0
100
AcDbArc
 50
16.67599999999778
 51
27.32400000000408
  0
ARC
  5
2944
330
18
100
AcDbEntity
  8
DISEGNO
100
AcDbCircle
 10
-295.4230205650929
 20
451.6724055835886
 30
0.0
 40
0.3
100
AcDbArc
 50
27.32400000000408
 51
111.9999999999861
  0
LINE
  5
2945
330
18
100
AcDbEntity
  8
DISEGNO
100
AcDbLine
 10
-296.2230205650921
 20
451.6754055835892
 30
0.0
 11
-295.5430205650918
 21
451.9504055835868
 31
0.0
  0
ARC
  5
2946
330
18
100
AcDbEntity
  8
DISEGNO
100
AcDbCircle
 10
-296.3330205650927
 20
451.9534055835874
 30
0.0
 40
0.3
100
AcDbArc
 50
211.5405999999951
 51
291.9999999999861
  0
ARC
  5
2947
330
18
100
AcDbEntity
  8
DISEGNO
100
AcDbCircle
 10
-304.0430205650918
 20
447.2194055835871
 30
0.0
 40
8.75
100
AcDbArc
 50
31.54100000002943
 51
56.45899999999761
  0
ARC
  5
2948
330
18
100
AcDbEntity
  8
DISEGNO
100
AcDbCircle
 10
-299.0430205650918
 20
454.7634055835888
 30
0.0
 40
0.3
100
AcDbArc
 50
155.9999999999964
 51
236.4594000000086
  0
LINE
  5
2949
330
18
100
AcDbEntity
  8
DISEGNO
100
AcDbLine
 10
-299.3130205650923
 20
454.8854055835882
 30
0.0
 11
-299.0230205650913
 21
455.5544055835863
 31
0.0
  0
ARC
  5
294A
330
18
100
AcDbEntity
  8
DISEGNO
100
AcDbCircle
 10
-299.2930205650918
 20
455.6774055835894
 30
0.0
 40
0.3
100
AcDbArc
 50
335.9999999999964
 51
60.67600000002166
  0
ARC
  5
294B
330
18
100
AcDbEntity
  8
DISEGNO
100
AcDbCircle
 10
-304.0430205650918
 20
447.2194055835871
 30
0.0
 40
10.0
100
AcDbArc
 50
60.67600000002166
 51
71.3240000000222
  0
ARC
  5
294C
330
18
100
AcDbEntity
  8
DISEGNO
100
AcDbCircle
 10
-300.9330205650931
 20
456.4094055835894
 30
0.0
 40
0.3
100
AcDbArc
 50
71.3240000000222
 51
155.9999999999964
  0
LINE
  5
294D
330
18
100
AcDbEntity
  8
DISEGNO
100
AcDbLine
 10
-301.513020565093
 20
455.861405583587
 30
0.0
 11
-301.2130205650937
 21
456.5314055835888
 31
0.0
  0
ARC
  5
294E
330
18
100
AcDbEntity
  8
DISEGNO
100
AcDbCircle
 10
-301.7830205650917
 20
455.9834055835863
 30
0.0
 40
0.3
100
AcDbArc
 50
255.540600000027
 51
335.9999999999964
  0
ARC
  5
294F
330
18
100
AcDbEntity
  8
DISEGNO
100
AcDbCircle
 10
-302.0930205650929
 20
438.3834055835879
 30
0.0
 40
0.3
100
AcDbArc
 50
22.00000000000073
 51
102.4590000000355
  0
ARC
  5
2950
330
18
100
AcDbEntity
  8
DISEGNO
100
AcDbCircle
 10
-299.5930205650929
 20
438.6024055835887
 30
0.0
 40
0.3
100
AcDbArc
 50
297.3239999999691
 51
22.00000000000073
  0
LINE
  5
2951
330
18
100
AcDbEntity
  8
DISEGNO
100
AcDbLine
 10
-299.5830205650927
 20
439.3944055835865
 30
0.0
 11
-299.3130205650923
 21
438.7144055835862
 31
0.0
  0
ARC
  5
2952
330
18
100
AcDbEntity
  8
DISEGNO
100
AcDbCircle
 10
-299.3130205650923
 20
439.5064055835875
 30
0.0
 40
0.3
100
AcDbArc
 50
121.5410000000294
 51
202.0000000000007
  0
ARC
  5
2953
330
18
100
AcDbEntity
  8
DISEGNO
100
AcDbCircle
 10
-304.0430205650918
 20
447.2194055835871
 30
0.0
 40
8.75
100
AcDbArc
 50
301.5410000000294
 51
327.4589999999866
  0
ARC
  5
2954
330
18
100
AcDbEntity
  8
DISEGNO
100
AcDbCircle
 10
-296.4130205650926
 20
442.3514055835886
 30
0.0
 40
0.3
100
AcDbArc
 50
67.00000000000075
 51
147.4589999999867
  0
LINE
  5
2955
330
18
100
AcDbEntity
  8
DISEGNO
100
AcDbLine
 10
-296.2930205650918
 20
442.6284055835869
 30
0.0
 11
-295.6230205650935
 21
442.3414055835864
 31
0.0
  0
ARC
  5
2956
330
18
100
AcDbEntity
  8
DISEGNO
100
AcDbCircle
 10
-295.5030205650928
 20
442.6174055835883
 30
0.0
 40
0.3
100
AcDbArc
 50
247.0000000000006
 51
331.6759999999748
  0
ARC
  5
2957
330
18
100
AcDbEntity
  8
DISEGNO
100
AcDbCircle
 10
-304.0430205650918
 20
447.2194055835871
 30
0.0
 40
10.0
100
AcDbArc
 50
331.6759999999748
 51
342.3239999999828
  0
ARC
  5
2958
330
18
100
AcDbEntity
  8
DISEGNO
100
AcDbCircle
 10
-294.803020565092
 20
444.2744055835873
 30
0.0
 40
0.3
100
AcDbArc
 50
342.3239999999828
 51
67.00000000000075
  0
LINE
  5
2959
330
18
100
AcDbEntity
  8
DISEGNO
100
AcDbLine
 10
-295.3630205650915
 20
444.8374055835894
 30
0.0
 11
-294.6830205650948
 21
444.5504055835892
 31
0.0
  0
ARC
  5
295A
330
18
100
AcDbEntity
  8
DISEGNO
100
AcDbCircle
 10
-295.2430205650926
 20
445.1134055835873
 30
0.0
 40
0.3
100
AcDbArc
 50
166.5409999999882
 51
247.0000000000006
  0
LINE
  5
295B
330
18
100
AcDbEntity
  8
DISEGNO
100
AcDbLine
 10
-333.0430205650918
 20
453.4694055835871
 30
0.0
 11
-339.0430205650918
 21
453.4694055835871
 31
0.0
  0
LINE
  5
295C
330
18
100
AcDbEntity
  8
DISEGNO
100
AcDbLine
 10
-339.0430205650918
 20
440.9694055835871
 30
0.0
 11
-333.0430205650918
 21
440.9694055835871
 31
0.0
  0
LINE
  5
295D
330
18
100
AcDbEntity
  8
DISEGNO
100
AcDbLine
 10
-333.0430205650918
 20
436.7194055835871
 30
0.0
 11
-333.0430205650918
 21
440.9694055835871
 31
0.0
  0
LINE
  5
295E
330
18
100
AcDbEntity
  8
DISEGNO
100
AcDbLine
 10
-322.5430205650918
 20
436.7194055835871
 30
0.0
 11
-333.0430205650918
 21
436.7194055835871
 31
0.0
  0
LINE
  5
295F
330
18
100
AcDbEntity
  8
DISEGNO
100
AcDbLine
 10
-322.5430205650918
 20
457.7194055835871
 30
0.0
 11
-333.0430205650918
 21
457.7194055835871
 31
0.0
  0
LINE
  5
2960
330
18
100
AcDbEntity
  8
DISEGNO
100
AcDbLine
 10
-333.0430205650918
 20
453.4694055835871
 30
0.0
 11
-333.0430205650918
 21
457.7194055835871
 31
0.0
  0
ARC
  5
2961
330
18
100
AcDbEntity
  8
DISEGNO
100
AcDbCircle
 10
-322.5430205650918
 20
437.7194055835871
 30
0.0
 40
1.0
100
AcDbArc
 50
270.0
 51
317.2679999999776
  0
ARC
  5
2962
330
18
100
AcDbEntity
  8
DISEGNO
100
AcDbCircle
 10
-322.5430205650918
 20
456.7194055835871
 30
0.0
 40
1.0
100
AcDbArc
 50
42.73200000002234
 51
90.0
  0
LINE
  5
2963
330
18
100
AcDbEntity
  8
DISEGNO
100
AcDbLine
 10
-339.0430205650918
 20
453.4694055835871
 30
0.0
 11
-339.0430205650918
 21
490.9694055835871
 31
0.0
  0
ARC
  5
2964
330
18
100
AcDbEntity
  8
DISEGNO
100
AcDbCircle
 10
-322.5430205650918
 20
456.7194055835871
 30
0.0
 40
5.799999999999998
100
AcDbArc
 50
42.73200000002234
 51
90.0
  0
LINE
  5
2965
330
18
100
AcDbEntity
  8
DISEGNO
100
AcDbLine
 10
-291.0430205650918
 20
504.3194055835893
 30
0.0
 11
-291.0430205650918
 21
440.1194055835886
 31
0.0
  0
LINE
  5
2966
330
18
100
AcDbEntity
  8
DISEGNO
100
AcDbLine
 10
-293.5430205650918
 20
486.9364055835878
 30
0.0
 11
-293.5430205650918
 21
457.5034055835867
 31
0.0
  0
LINE
  5
2967
330
18
100
AcDbEntity
  8
DISEGNO
100
AcDbLine
 10
-185.5430205650918
 20
462.6194055835886
 30
0.0
 11
-175.9430205650933
 21
462.6194055835886
 31
0.0
  0
LINE
  5
2968
330
18
100
AcDbEntity
  8
NORMALI
100
AcDbLine
 10
-175.0430205650955
 20
507.2194055835871
 30
0.0
 11
-185.3430205650947
 21
507.2194055835871
 31
0.0
  0
LINE
  5
2969
330
18
100
AcDbEntity
  8
DISEGNO
100
AcDbLine
 10
-185.5430205650918
 20
486.7194055835871
 30
0.0
 11
-175.0430205650918
 21
486.7194055835871
 31
0.0
  0
LINE
  5
296A
330
18
100
AcDbEntity
  8
NORMALI
100
AcDbLine
 10
-175.0430205650918
 20
487.2194055835871
 30
0.0
 11
-185.3430205650984
 21
487.2194055835871
 31
0.0
  0
LINE
  5
296B
330
18
100
AcDbEntity
  8
DISEGNO
100
AcDbLine
 10
-185.5430205650918
 20
481.8194055835894
 30
0.0
 11
-175.9430205650933
 21
481.8194055835894
 31
0.0
  0
ARC
  5
296C
330
18
100
AcDbEntity
  8
DISEGNO
100
AcDbCircle
 10
-175.263020565093
 20
497.2194055835871
 30
0.0
 40
15.0
100
AcDbArc
 50
137.2679999999776
 51
222.7320000000223
  0
LINE
  5
296D
330
18
100
AcDbEntity
  8
NORMALI
100
AcDbLine
 10
-186.3430205650947
 20
506.2194055835871
 30
0.0
 11
-186.3430205650984
 21
488.2194055835872
 31
0.0
  0
ARC
  5
296E
330
18
100
AcDbEntity
  8
DISEGNO
100
AcDbCircle
 10
-199.7420205650923
 20
488.5254055835877
 30
0.0
 40
0.3
100
AcDbArc
 50
296.3240000000249
 51
20.99999999999147
  0
ARC
  5
296F
330
18
100
AcDbEntity
  8
DISEGNO
100
AcDbCircle
 10
-193.8350205650931
 20
487.639405583589
 30
0.0
 40
1.0
100
AcDbArc
 50
27.28299999999938
 51
136.8179999999718
  0
ARC
  5
2970
330
18
100
AcDbEntity
  8
DISEGNO
100
AcDbCircle
 10
-204.0430205650918
 20
497.2194055835871
 30
0.0
 40
8.75
100
AcDbArc
 50
345.5409999999947
 51
11.45899999999897
  0
LINE
  5
2971
330
18
100
AcDbEntity
  8
NORMALI
100
AcDbLine
 10
-185.3430205650947
 20
507.2194055835871
 30
0.0
 11
-186.3430205650947
 21
506.2194055835871
 31
0.0
  0
ARC
  5
2972
330
18
100
AcDbEntity
  8
DISEGNO
100
AcDbCircle
 10
-195.174020565093
 20
499.0174055835897
 30
0.0
 40
0.3
100
AcDbArc
 50
111.0000000000326
 51
191.459400000003
  0
LINE
  5
2973
330
18
100
AcDbEntity
  8
DISEGNO
100
AcDbLine
 10
-194.5970205650919
 20
499.5604055835875
 30
0.0
 11
-195.281020565093
 21
499.2974055835885
 31
0.0
  0
ARC
  5
2974
330
18
100
AcDbEntity
  8
DISEGNO
100
AcDbCircle
 10
-194.7040205650919
 20
499.8404055835863
 30
0.0
 40
0.3
100
AcDbArc
 50
291.0000000000326
 51
15.67599999998727
  0
ARC
  5
2975
330
18
100
AcDbEntity
  8
DISEGNO
100
AcDbCircle
 10
-195.3490205650923
 20
501.5214055835867
 30
0.0
 40
0.3
100
AcDbArc
 50
26.32400000001043
 51
111.0000000000326
  0
LINE
  5
2976
330
18
100
AcDbEntity
  8
DISEGNO
100
AcDbLine
 10
-195.4570205650925
 20
501.8014055835894
 30
0.0
 11
-196.1410205650936
 21
501.5384055835866
 31
0.0
  0
ARC
  5
2977
330
18
100
AcDbEntity
  8
DISEGNO
100
AcDbCircle
 10
-196.2490205650919
 20
501.8184055835892
 30
0.0
 40
0.3
100
AcDbArc
 50
210.5405000000288
 51
291.0000000000326
  0
ARC
  5
2978
330
18
100
AcDbEntity
  8
DISEGNO
100
AcDbCircle
 10
-204.0430205650918
 20
497.2194055835871
 30
0.0
 40
8.75
100
AcDbArc
 50
30.54100000001699
 51
57.45900000001917
  0
ARC
  5
2979
330
18
100
AcDbEntity
  8
DISEGNO
100
AcDbCircle
 10
-199.1750205650932
 20
504.8494055835881
 30
0.0
 40
0.3
100
AcDbArc
 50
157.0000000000151
 51
237.4593999999575
  0
LINE
  5
297A
330
18
100
AcDbEntity
  8
DISEGNO
100
AcDbLine
 10
-199.1650205650948
 20
505.6414055835894
 30
0.0
 11
-199.4510205650949
 21
504.9664055835866
 31
0.0
  0
ARC
  5
297B
330
18
100
AcDbEntity
  8
DISEGNO
100
AcDbCircle
 10
-199.4410205650929
 20
505.7584055835879
 30
0.0
 40
0.3
100
AcDbArc
 50
337.0000000000152
 51
61.67600000003309
  0
ARC
  5
297C
330
18
100
AcDbEntity
  8
DISEGNO
100
AcDbCircle
 10
-204.0430205650918
 20
497.2194055835871
 30
0.0
 40
10.0
100
AcDbArc
 50
61.67600000003309
 51
72.32399999998282
  0
ARC
  5
297D
330
18
100
AcDbEntity
  8
DISEGNO
100
AcDbCircle
 10
-201.0980205650921
 20
506.4614055835892
 30
0.0
 40
0.3
100
AcDbArc
 50
72.32399999998282
 51
157.0000000000151
  0
LINE
  5
297E
330
18
100
AcDbEntity
  8
DISEGNO
100
AcDbLine
 10
-201.3740205650938
 20
506.5794055835878
 30
0.0
 11
-201.661020565094
 21
505.9044055835884
 31
0.0
  0
ARC
  5
297F
330
18
100
AcDbEntity
  8
DISEGNO
100
AcDbCircle
 10
-201.9370205650921
 20
506.0214055835869
 30
0.0
 40
0.3
100
AcDbArc
 50
256.5405000000373
 51
337.0000000000152
  0
ARC
  5
2980
330
18
100
AcDbEntity
  8
DISEGNO
100
AcDbCircle
 10
-204.0430205650918
 20
497.2194055835871
 30
0.0
 40
10.0
100
AcDbArc
 50
15.67599999998727
 51
26.32400000001043
  0
LINE
  5
2981
330
18
100
AcDbEntity
  8
DISEGNO
100
AcDbLine
 10
-199.7250205650925
 20
489.3174055835888
 30
0.0
 11
-199.4620205650935
 21
488.6334055835877
 31
0.0
  0
ARC
  5
2982
330
18
100
AcDbEntity
  8
DISEGNO
100
AcDbCircle
 10
-199.4450205650919
 20
489.4254055835891
 30
0.0
 40
0.3
100
AcDbArc
 50
120.5409999999644
 51
200.9999999999914
  0
ARC
  5
2983
330
18
100
AcDbEntity
  8
DISEGNO
100
AcDbCircle
 10
-204.0430205650918
 20
497.2194055835871
 30
0.0
 40
8.75
100
AcDbArc
 50
300.5409999999644
 51
326.4590000000301
  0
ARC
  5
2984
330
18
100
AcDbEntity
  8
DISEGNO
100
AcDbCircle
 10
-196.5000205650922
 20
492.2194055835872
 30
0.0
 40
0.3
100
AcDbArc
 50
66.00000000001692
 51
146.4590000000301
  0
LINE
  5
2985
330
18
100
AcDbEntity
  8
DISEGNO
100
AcDbLine
 10
-196.3780205650946
 20
492.4934055835883
 30
0.0
 11
-195.7080205650927
 21
492.1954055835896
 31
0.0
  0
ARC
  5
2986
330
18
100
AcDbEntity
  8
DISEGNO
100
AcDbCircle
 10
-195.5860205650933
 20
492.4694055835871
 30
0.0
 40
0.3
100
AcDbArc
 50
246.0000000000169
 51
330.6759999999925
  0
ARC
  5
2987
330
18
100
AcDbEntity
  8
DISEGNO
100
AcDbCircle
 10
-204.0430205650918
 20
497.2194055835871
 30
0.0
 40
10.0
100
AcDbArc
 50
330.6759999999925
 51
341.3240000000016
  0
ARC
  5
2988
330
18
100
AcDbEntity
  8
DISEGNO
100
AcDbCircle
 10
-194.8540205650933
 20
494.1134055835873
 30
0.0
 40
0.3
100
AcDbArc
 50
341.3240000000016
 51
66.00000000001692
  0
LINE
  5
2989
330
18
100
AcDbEntity
  8
DISEGNO
100
AcDbLine
 10
-195.4020205650922
 20
494.6864055835876
 30
0.0
 11
-194.732020565094
 21
494.3874055835887
 31
0.0
  0
ARC
  5
298A
330
18
100
AcDbEntity
  8
DISEGNO
100
AcDbCircle
 10
-195.2800205650928
 20
494.960405583589
 30
0.0
 40
0.3
100
AcDbArc
 50
165.5409999999946
 51
246.0000000000169
  0
ARC
  5
298B
330
18
100
AcDbEntity
  8
DISEGNO
100
AcDbCircle
 10
-185.5430205650936
 20
487.7194055835871
 30
0.0
 40
1.0
100
AcDbArc
 50
222.7320000000223
 51
270.0
  0
LINE
  5
298C
330
18
100
AcDbEntity
  8
NORMALI
100
AcDbLine
 10
-186.3430205650984
 20
488.2194055835872
 30
0.0
 11
-185.3430205650984
 21
487.2194055835871
 31
0.0
  0
ARC
  5
298D
330
18
100
AcDbEntity
  8
DISEGNO
100
AcDbCircle
 10
-201.4220205650926
 20
487.8804055835871
 30
0.0
 40
0.3
100
AcDbArc
 50
200.9999999999914
 51
285.6759999999935
  0
ARC
  5
298E
330
18
100
AcDbEntity
  8
DISEGNO
100
AcDbCircle
 10
-204.0430205650918
 20
497.2194055835871
 30
0.0
 40
10.0
100
AcDbArc
 50
285.6759999999935
 51
296.3240000000249
  0
LINE
  5
298F
330
18
100
AcDbEntity
  8
DISEGNO
100
AcDbLine
 10
-201.9650205650941
 20
488.4574055835884
 30
0.0
 11
-201.7020205650914
 21
487.7734055835873
 31
0.0
  0
ARC
  5
2990
330
18
100
AcDbEntity
  8
DISEGNO
100
AcDbCircle
 10
-175.2600205650924
 20
497.2194055835871
 30
0.0
 40
19.9
100
AcDbArc
 50
207.2834000000049
 51
222.7322000000248
  0
ARC
  5
2991
330
18
100
AcDbEntity
  8
DISEGNO
100
AcDbCircle
 10
-185.5430205650918
 20
487.7194055835871
 30
0.0
 40
5.9
100
AcDbArc
 50
222.7322000000248
 51
269.9999839139957
  0
LINE
  5
2992
330
18
100
AcDbEntity
  8
DISEGNO
100
AcDbLine
 10
-173.9430205650933
 20
479.8194055835893
 30
0.0
 11
-173.9430205650933
 21
464.6194055835886
 31
0.0
  0
LINE
  5
2993
330
18
100
AcDbEntity
  8
NORMALI
100
AcDbLine
 10
-163.5747532694949
 20
479.1894055835883
 30
0.0
 11
-163.5747532694949
 21
477.2194055835871
 31
0.0
  0
LINE
  5
2995
330
18
100
AcDbEntity
  8
NORMALI
100
AcDbLine
 10
-158.9787532694972
 20
474.5994055835882
 30
0.0
 11
-162.1607532694943
 21
471.4094055835895
 31
0.0
  0
ARC
  5
2996
330
18
100
AcDbEntity
  8
DISEGNO
100
AcDbCircle
 10
-175.9430205650933
 20
464.6194055835886
 30
0.0
 40
2.0
100
AcDbArc
 50
269.9999999952058
 51
0.0
  0
LINE
  5
2997
330
18
100
AcDbEntity
  8
DISEGNO
100
AcDbLine
 10
-175.0430205650955
 20
490.9694055835871
 30
0.0
 11
-175.0430205650918
 21
486.7194055835871
 31
0.0
  0
LINE
  5
2998
330
18
100
AcDbEntity
  8
NORMALI
100
AcDbLine
 10
-169.0430205650918
 20
490.9694055835871
 30
0.0
 11
-169.0430205650918
 21
493.2194055835871
 31
0.0
  0
LINE
  5
2999
330
18
100
AcDbEntity
  8
NORMALI
100
AcDbLine
 10
-169.0430205650918
 20
503.4694055835871
 30
0.0
 11
-169.0430205650918
 21
501.2194055835871
 31
0.0
  0
LINE
  5
299A
330
18
100
AcDbEntity
  8
NORMALI
100
AcDbLine
 10
-165.8429356593696
 20
493.2194055835871
 30
0.0
 11
-165.842885344904
 21
501.2194055835871
 31
0.0
  0
LINE
  5
299B
330
18
100
AcDbEntity
  8
NORMALI
100
AcDbLine
 10
-166.3430205650947
 20
501.2194055835871
 30
0.0
 11
-166.3430205650984
 21
493.2194055835871
 31
0.0
  0
LINE
  5
299C
330
18
100
AcDbEntity
  8
DISEGNO
100
AcDbLine
 10
-169.0430205650918
 20
503.4694055835871
 30
0.0
 11
-175.0430205650955
 21
503.4694055835871
 31
0.0
  0
LINE
  5
299D
330
18
100
AcDbEntity
  8
NORMALI
100
AcDbLine
 10
-169.5430205650955
 20
503.4694055835871
 30
0.0
 11
-169.5430205650955
 21
501.2194055835871
 31
0.0
  0
LINE
  5
299E
330
18
100
AcDbEntity
  8
NORMALI
100
AcDbLine
 10
-165.842885344904
 20
501.2194055835871
 30
0.0
 11
-169.5430205650955
 21
501.2194055835871
 31
0.0
  0
LINE
  5
299F
330
18
100
AcDbEntity
  8
DISEGNO
100
AcDbLine
 10
-175.0430205650955
 20
490.9694055835871
 30
0.0
 11
-169.0430205650918
 21
490.9694055835871
 31
0.0
  0
LINE
  5
29A0
330
18
100
AcDbEntity
  8
NORMALI
100
AcDbLine
 10
-169.5430205650991
 20
493.2194055835871
 30
0.0
 11
-169.5430205650991
 21
490.9694055835871
 31
0.0
  0
LINE
  5
29A1
330
18
100
AcDbEntity
  8
NORMALI
100
AcDbLine
 10
-165.8429356593696
 20
493.2194055835871
 30
0.0
 11
-169.5430205650991
 21
493.2194055835871
 31
0.0
  0
ARC
  5
29A2
330
18
100
AcDbEntity
  8
DISEGNO
100
AcDbCircle
 10
-175.9430205650933
 20
479.8194055835893
 30
0.0
 40
2.0
100
AcDbArc
 50
0.0
 51
90.0
  0
LINE
  5
29A3
330
18
100
AcDbEntity
  8
NORMALI
100
AcDbLine
 10
-169.0432406908803
 20
479.7194055835872
 30
0.0
 11
-163.0437532694959
 21
479.7194055835872
 31
0.0
  0
LINE
  5
29A4
330
18
100
AcDbEntity
  8
DISEGNO
100
AcDbLine
 10
-212.7270205650929
 20
499.6024055835888
 30
0.0
 11
-213.4030205650924
 21
499.8894055835891
 31
0.0
  0
ARC
  5
29A5
330
18
100
AcDbEntity
  8
DISEGNO
100
AcDbCircle
 10
-212.5820205650925
 20
501.82240558359
 30
0.0
 40
0.3
100
AcDbArc
 50
67.00000000000075
 51
151.6759999999748
  0
ARC
  5
29A6
330
18
100
AcDbEntity
  8
DISEGNO
100
AcDbCircle
 10
-204.0430205650918
 20
497.2194055835871
 30
0.0
 40
10.0
100
AcDbArc
 50
151.6759999999748
 51
162.3239999999828
  0
LINE
  5
29A7
330
18
100
AcDbEntity
  8
DISEGNO
100
AcDbLine
 10
-212.768020565094
 20
494.9894055835876
 30
0.0
 11
-213.4480205650943
 21
494.7144055835861
 31
0.0
  0
ARC
  5
29A8
330
18
100
AcDbEntity
  8
DISEGNO
100
AcDbCircle
 10
-212.6610205650922
 20
492.7674055835897
 30
0.0
 40
0.3
100
AcDbArc
 50
207.3237000000125
 51
291.9999999999861
  0
ARC
  5
29A9
330
18
100
AcDbEntity
  8
DISEGNO
100
AcDbCircle
 10
-208.794020565092
 20
488.7624055835886
 30
0.0
 40
0.3
100
AcDbArc
 50
155.9999999999964
 51
240.6761999999643
  0
LINE
  5
29AA
330
18
100
AcDbEntity
  8
DISEGNO
100
AcDbLine
 10
-206.5770205650915
 20
488.5784055835876
 30
0.0
 11
-206.875020565094
 21
487.9084055835893
 31
0.0
  0
ARC
  5
29AB
330
18
100
AcDbEntity
  8
DISEGNO
100
AcDbCircle
 10
-204.0430205650918
 20
497.2194055835871
 30
0.0
 40
8.75
100
AcDbArc
 50
166.5409999999882
 51
192.4593999999829
  0
ARC
  5
29AC
330
18
100
AcDbEntity
  8
DISEGNO
100
AcDbCircle
 10
-212.8450205650915
 20
499.3264055835871
 30
0.0
 40
0.3
100
AcDbArc
 50
346.5409999999882
 51
67.00000000000075
  0
ARC
  5
29AD
330
18
100
AcDbEntity
  8
DISEGNO
100
AcDbCircle
 10
-205.9960205650932
 20
506.0564055835866
 30
0.0
 40
0.3
100
AcDbArc
 50
202.0000000000007
 51
282.4590000000418
  0
LINE
  5
29AE
330
18
100
AcDbEntity
  8
DISEGNO
100
AcDbLine
 10
-206.2740205650916
 20
505.9444055835894
 30
0.0
 11
-206.549020565093
 21
506.6244055835896
 31
0.0
  0
ARC
  5
29AF
330
18
100
AcDbEntity
  8
DISEGNO
100
AcDbCircle
 10
-206.8270205650915
 20
506.5114055835883
 30
0.0
 40
0.3
100
AcDbArc
 50
22.00000000000073
 51
106.6759999999977
  0
ARC
  5
29B0
330
18
100
AcDbEntity
  8
DISEGNO
100
AcDbCircle
 10
-204.0430205650918
 20
497.2194055835871
 30
0.0
 40
10.0
100
AcDbArc
 50
106.6759999999977
 51
117.3239999999691
  0
ARC
  5
29B1
330
18
100
AcDbEntity
  8
DISEGNO
100
AcDbCircle
 10
-208.4960205650931
 20
505.8374055835894
 30
0.0
 40
0.3
100
AcDbArc
 50
117.3239999999691
 51
202.0000000000007
  0
LINE
  5
29B2
330
18
100
AcDbEntity
  8
DISEGNO
100
AcDbLine
 10
-208.4990205650938
 20
505.0454055835881
 30
0.0
 11
-208.7740205650916
 21
505.7254055835883
 31
0.0
  0
ARC
  5
29B3
330
18
100
AcDbEntity
  8
DISEGNO
100
AcDbCircle
 10
-208.7770205650922
 20
504.9324055835868
 30
0.0
 40
0.3
100
AcDbArc
 50
301.5410000000294
 51
22.00000000000073
  0
ARC
  5
29B4
330
18
100
AcDbEntity
  8
DISEGNO
100
AcDbCircle
 10
-204.0430205650918
 20
497.2194055835871
 30
0.0
 40
8.75
100
AcDbArc
 50
121.5410000000294
 51
147.4589999999867
  0
ARC
  5
29B5
330
18
100
AcDbEntity
  8
DISEGNO
100
AcDbCircle
 10
-211.6730205650928
 20
502.0874055835894
 30
0.0
 40
0.3
100
AcDbArc
 50
247.0000000000006
 51
327.4589999999866
  0
LINE
  5
29B6
330
18
100
AcDbEntity
  8
DISEGNO
100
AcDbLine
 10
-211.7900205650948
 20
501.8114055835876
 30
0.0
 11
-212.4650205650941
 21
502.098405583588
 31
0.0
  0
ARC
  5
29B7
330
18
100
AcDbEntity
  8
DISEGNO
100
AcDbCircle
 10
-212.8800205650914
 20
495.2674055835897
 30
0.0
 40
0.3
100
AcDbArc
 50
291.9999999999861
 51
12.45899999999596
  0
LINE
  5
29B8
330
18
100
AcDbEntity
  8
DISEGNO
100
AcDbLine
 10
-211.8690205650927
 20
492.7634055835888
 30
0.0
 11
-212.5490205650931
 21
492.4894055835876
 31
0.0
  0
ARC
  5
29B9
330
18
100
AcDbEntity
  8
DISEGNO
100
AcDbCircle
 10
-211.7560205650915
 20
492.4854055835868
 30
0.0
 40
0.3
100
AcDbArc
 50
31.54100000002943
 51
111.9999999999861
  0
ARC
  5
29BA
330
18
100
AcDbEntity
  8
DISEGNO
100
AcDbCircle
 10
-204.0430205650918
 20
497.2194055835871
 30
0.0
 40
8.75
100
AcDbArc
 50
211.5404999999917
 51
236.4594000000086
  0
ARC
  5
29BB
330
18
100
AcDbEntity
  8
DISEGNO
100
AcDbCircle
 10
-209.044020565092
 20
489.6764055835894
 30
0.0
 40
0.3
100
AcDbArc
 50
335.9999999999964
 51
56.45899999999761
  0
LINE
  5
29BC
330
18
100
AcDbEntity
  8
DISEGNO
100
AcDbLine
 10
-208.7700205650944
 20
489.5544055835863
 30
0.0
 11
-209.0680205650933
 21
488.8844055835881
 31
0.0
  0
ARC
  5
29BD
330
18
100
AcDbEntity
  8
DISEGNO
100
AcDbCircle
 10
-206.303020565092
 20
488.456405583588
 30
0.0
 40
0.3
100
AcDbArc
 50
75.54100000002788
 51
155.9999999999964
  0
ARC
  5
29BE
330
18
100
AcDbEntity
  8
DISEGNO
100
AcDbCircle
 10
-204.0430205650918
 20
497.2194055835871
 30
0.0
 40
10.0
100
AcDbArc
 50
240.6761999999643
 51
251.3236999999885
  0
ARC
  5
29BF
330
18
100
AcDbEntity
  8
DISEGNO
100
AcDbCircle
 10
-207.1490205650916
 20
488.0304055835887
 30
0.0
 40
0.3
100
AcDbArc
 50
251.3236999999885
 51
335.9999999999964
  0
ARC
  5
29C0
330
18
100
AcDbEntity
  8
DISEGNO
100
AcDbCircle
 10
-213.285020565092
 20
500.1654055835871
 30
0.0
 40
0.3
100
AcDbArc
 50
162.3239999999828
 51
247.0000000000006
  0
ARC
  5
29C1
330
18
100
AcDbEntity
  8
DISEGNO
100
AcDbCircle
 10
-213.3350205650931
 20
494.4364055835877
 30
0.0
 40
0.3
100
AcDbArc
 50
111.9999999999861
 51
196.6761999999988
  0
ARC
  5
29C2
330
18
100
AcDbEntity
  8
DISEGNO
100
AcDbCircle
 10
-204.0430205650918
 20
497.2194055835871
 30
0.0
 40
10.0
100
AcDbArc
 50
196.6761999999988
 51
207.3237000000125
  0
ARC
  5
29C3
330
18
100
AcDbEntity
  8
DISEGNO
100
AcDbCircle
 10
-213.5430205650918
 20
486.9364055835878
 30
0.0
 40
1.0
100
AcDbArc
 50
47.26800000001445
 51
180.0
  0
ARC
  5
29C4
330
18
100
AcDbEntity
  8
DISEGNO
100
AcDbCircle
 10
-204.0430205650918
 20
497.2194055835871
 30
0.0
 40
8.75
100
AcDbArc
 50
255.5405000000481
 51
281.458999999953
  0
ARC
  5
29C5
330
18
100
AcDbEntity
  8
DISEGNO
100
AcDbCircle
 10
-202.245020565093
 20
488.3504055835883
 30
0.0
 40
0.3
100
AcDbArc
 50
20.99999999999147
 51
101.458999999953
  0
ARC
  5
29C6
330
18
100
AcDbEntity
  8
DISEGNO
100
AcDbCircle
 10
-204.0430205650918
 20
497.2194055835871
 30
0.0
 40
13.0
100
AcDbArc
 50
227.2681999999663
 51
316.8179999999718
  0
ARC
  5
29C7
330
18
100
AcDbEntity
  8
DISEGNO
100
AcDbCircle
 10
-204.0430205650918
 20
497.2194055835871
 30
0.0
 40
8.75
100
AcDbArc
 50
76.54100000004828
 51
102.4590000000355
  0
LINE
  5
29C8
330
18
100
AcDbEntity
  8
DISEGNO
100
AcDbLine
 10
-185.5430205650918
 20
436.7194055835871
 30
0.0
 11
-175.0430205650918
 21
436.7194055835871
 31
0.0
  0
LINE
  5
29C9
330
18
100
AcDbEntity
  8
DISEGNO
100
AcDbLine
 10
-185.5430205650918
 20
457.7194055835871
 30
0.0
 11
-175.0430205650918
 21
457.7194055835871
 31
0.0
  0
ARC
  5
29CA
330
18
100
AcDbEntity
  8
DISEGNO
100
AcDbCircle
 10
-175.2600205650924
 20
447.2194055835871
 30
0.0
 40
15.0
100
AcDbArc
 50
137.2679999999776
 51
222.7322000000248
  0
ARC
  5
29CB
330
18
100
AcDbEntity
  8
DISEGNO
100
AcDbCircle
 10
-204.0430205650918
 20
447.2194055835871
 30
0.0
 40
10.0
100
AcDbArc
 50
287.6760000000171
 51
298.3239999999669
  0
LINE
  5
29CC
330
18
100
AcDbEntity
  8
DISEGNO
100
AcDbLine
 10
-201.3740205650938
 20
437.8604055835867
 30
0.0
 11
-201.661020565094
 21
438.5354055835859
 31
0.0
  0
ARC
  5
29CD
330
18
100
AcDbEntity
  8
DISEGNO
100
AcDbCircle
 10
-192.906020565093
 20
436.0824055835884
 30
0.0
 40
2.0
100
AcDbArc
 50
44.99999999999078
 51
224.9999999999908
  0
ARC
  5
29CE
330
18
100
AcDbEntity
  8
DISEGNO
100
AcDbCircle
 10
-201.0980205650921
 20
437.9774055835888
 30
0.0
 40
0.3
100
AcDbArc
 50
202.9999999999847
 51
287.6760000000171
  0
ARC
  5
29CF
330
18
100
AcDbEntity
  8
DISEGNO
100
AcDbCircle
 10
-185.5430205650918
 20
437.7194055835871
 30
0.0
 40
1.0
100
AcDbArc
 50
222.7322000000248
 51
269.9999999949974
  0
ARC
  5
29D0
330
18
100
AcDbEntity
  8
DISEGNO
100
AcDbCircle
 10
-204.0430205650918
 20
447.2194055835871
 30
0.0
 40
8.75
100
AcDbArc
 50
348.541000000001
 51
14.4590000000053
  0
ARC
  5
29D1
330
18
100
AcDbEntity
  8
DISEGNO
100
AcDbCircle
 10
-185.5430205650918
 20
456.7194055835871
 30
0.0
 40
1.0
100
AcDbArc
 50
90.0
 51
137.2679999999776
  0
ARC
  5
29D2
330
18
100
AcDbEntity
  8
DISEGNO
100
AcDbCircle
 10
-201.4220205650926
 20
456.5594055835873
 30
0.0
 40
0.3
100
AcDbArc
 50
74.32400000000645
 51
159.0000000000085
  0
ARC
  5
29D3
330
18
100
AcDbEntity
  8
DISEGNO
100
AcDbCircle
 10
-204.0430205650918
 20
447.2194055835871
 30
0.0
 40
10.0
100
AcDbArc
 50
63.67599999997501
 51
74.32400000000645
  0
ARC
  5
29D4
330
18
100
AcDbEntity
  8
DISEGNO
100
AcDbCircle
 10
-199.7420205650923
 20
455.9144055835869
 30
0.0
 40
0.3
100
AcDbArc
 50
339.0000000000085
 51
63.67599999997501
  0
LINE
  5
29D5
330
18
100
AcDbEntity
  8
DISEGNO
100
AcDbLine
 10
-199.7250205650925
 20
455.1214055835891
 30
0.0
 11
-199.4620205650935
 21
455.8064055835866
 31
0.0
  0
ARC
  5
29D6
330
18
100
AcDbEntity
  8
DISEGNO
100
AcDbCircle
 10
-199.4450205650919
 20
455.014405583589
 30
0.0
 40
0.3
100
AcDbArc
 50
159.0000000000085
 51
239.4593999999767
  0
ARC
  5
29D7
330
18
100
AcDbEntity
  8
DISEGNO
100
AcDbCircle
 10
-204.0430205650918
 20
447.2194055835871
 30
0.0
 40
8.75
100
AcDbArc
 50
33.54099999996988
 51
59.45900000003552
  0
ARC
  5
29D8
330
18
100
AcDbEntity
  8
DISEGNO
100
AcDbCircle
 10
-196.5000205650922
 20
452.2204055835874
 30
0.0
 40
0.3
100
AcDbArc
 50
213.5406000000093
 51
293.999999999983
  0
LINE
  5
29D9
330
18
100
AcDbEntity
  8
DISEGNO
100
AcDbLine
 10
-196.3780205650946
 20
451.9464055835861
 30
0.0
 11
-195.7080205650927
 21
452.2444055835887
 31
0.0
  0
ARC
  5
29DA
330
18
100
AcDbEntity
  8
DISEGNO
100
AcDbCircle
 10
-195.5860205650933
 20
451.9704055835873
 30
0.0
 40
0.3
100
AcDbArc
 50
29.32400000000741
 51
113.999999999983
  0
ARC
  5
29DB
330
18
100
AcDbEntity
  8
DISEGNO
100
AcDbCircle
 10
-204.0430205650918
 20
447.2194055835871
 30
0.0
 40
10.0
100
AcDbArc
 50
18.67599999999841
 51
29.32400000000741
  0
ARC
  5
29DC
330
18
100
AcDbEntity
  8
DISEGNO
100
AcDbCircle
 10
-194.8540205650933
 20
450.3264055835871
 30
0.0
 40
0.3
100
AcDbArc
 50
293.999999999983
 51
18.67599999999841
  0
LINE
  5
29DD
330
18
100
AcDbEntity
  8
DISEGNO
100
AcDbLine
 10
-195.4020205650922
 20
449.7534055835869
 30
0.0
 11
-194.732020565094
 21
450.0514055835894
 31
0.0
  0
ARC
  5
29DE
330
18
100
AcDbEntity
  8
DISEGNO
100
AcDbCircle
 10
-195.2800205650928
 20
449.4794055835892
 30
0.0
 40
0.3
100
AcDbArc
 50
113.999999999983
 51
194.459400000006
  0
LINE
  5
29DF
330
18
100
AcDbEntity
  8
DISEGNO
100
AcDbLine
 10
-201.9650205650941
 20
455.9814055835859
 30
0.0
 11
-201.7020205650914
 21
456.6664055835873
 31
0.0
  0
ARC
  5
29E0
330
18
100
AcDbEntity
  8
DISEGNO
100
AcDbCircle
 10
-193.8350205650931
 20
456.8004055835891
 30
0.0
 40
1.0
100
AcDbArc
 50
223.1814999999893
 51
332.7170000000005
  0
ARC
  5
29E1
330
18
100
AcDbEntity
  8
DISEGNO
100
AcDbCircle
 10
-175.2600205650924
 20
447.2194055835871
 30
0.0
 40
19.9
100
AcDbArc
 50
137.2679999999776
 51
152.7170000000006
  0
ARC
  5
29E2
330
18
100
AcDbEntity
  8
DISEGNO
100
AcDbCircle
 10
-195.174020565093
 20
445.4214055835883
 30
0.0
 40
0.3
100
AcDbArc
 50
168.541000000001
 51
248.9999999999673
  0
LINE
  5
29E3
330
18
100
AcDbEntity
  8
DISEGNO
100
AcDbLine
 10
-194.5970205650919
 20
444.879405583587
 30
0.0
 11
-195.281020565093
 21
445.1414055835894
 31
0.0
  0
ARC
  5
29E4
330
18
100
AcDbEntity
  8
DISEGNO
100
AcDbCircle
 10
-194.7040205650919
 20
444.598405583588
 30
0.0
 40
0.3
100
AcDbArc
 50
344.3240000000127
 51
68.99999999996737
  0
ARC
  5
29E5
330
18
100
AcDbEntity
  8
DISEGNO
100
AcDbCircle
 10
-204.0430205650918
 20
447.2194055835871
 30
0.0
 40
10.0
100
AcDbArc
 50
333.6759999999896
 51
344.3240000000127
  0
ARC
  5
29E6
330
18
100
AcDbEntity
  8
DISEGNO
100
AcDbCircle
 10
-195.3490205650923
 20
442.9184055835877
 30
0.0
 40
0.3
100
AcDbArc
 50
248.9999999999673
 51
333.6759999999896
  0
LINE
  5
29E7
330
18
100
AcDbEntity
  8
DISEGNO
100
AcDbLine
 10
-195.4570205650925
 20
442.6384055835888
 30
0.0
 11
-196.1410205650936
 21
442.9014055835878
 31
0.0
  0
ARC
  5
29E8
330
18
100
AcDbEntity
  8
DISEGNO
100
AcDbCircle
 10
-196.2490205650919
 20
442.6214055835891
 30
0.0
 40
0.3
100
AcDbArc
 50
68.99999999996737
 51
149.4589999999829
  0
ARC
  5
29E9
330
18
100
AcDbEntity
  8
DISEGNO
100
AcDbCircle
 10
-204.0430205650918
 20
447.2194055835871
 30
0.0
 40
8.75
100
AcDbArc
 50
302.5409999999808
 51
329.458999999983
  0
ARC
  5
29EA
330
18
100
AcDbEntity
  8
DISEGNO
100
AcDbCircle
 10
-199.1750205650932
 20
439.5904055835863
 30
0.0
 40
0.3
100
AcDbArc
 50
122.5409999999808
 51
202.9999999999847
  0
LINE
  5
29EB
330
18
100
AcDbEntity
  8
DISEGNO
100
AcDbLine
 10
-199.1650205650948
 20
438.7984055835887
 30
0.0
 11
-199.4510205650949
 21
439.473405583588
 31
0.0
  0
ARC
  5
29EC
330
18
100
AcDbEntity
  8
DISEGNO
100
AcDbCircle
 10
-199.4410205650929
 20
438.6814055835866
 30
0.0
 40
0.3
100
AcDbArc
 50
298.3239999999669
 51
22.99999999998471
  0
ARC
  5
29ED
330
18
100
AcDbEntity
  8
DISEGNO
100
AcDbCircle
 10
-201.9370205650921
 20
438.4184055835877
 30
0.0
 40
0.3
100
AcDbArc
 50
22.99999999998471
 51
103.4589999999516
  0
LINE
  5
29EE
330
18
100
AcDbEntity
  8
DISEGNO
100
AcDbLine
 10
-175.0430205650918
 20
436.7194055835871
 30
0.0
 11
-175.0430205650918
 21
440.9694055835871
 31
0.0
  0
LINE
  5
29EF
330
18
100
AcDbEntity
  8
DISEGNO
100
AcDbLine
 10
-175.0430205650918
 20
453.4694055835871
 30
0.0
 11
-169.0430205650918
 21
453.4694055835871
 31
0.0
  0
LINE
  5
29F0
330
18
100
AcDbEntity
  8
DISEGNO
100
AcDbLine
 10
-175.0430205650918
 20
453.4694055835871
 30
0.0
 11
-175.0430205650918
 21
457.7194055835871
 31
0.0
  0
LINE
  5
29F1
330
18
100
AcDbEntity
  8
DISEGNO
100
AcDbLine
 10
-169.0430205650918
 20
440.9694055835871
 30
0.0
 11
-175.0430205650918
 21
440.9694055835871
 31
0.0
  0
LINE
  5
29F2
330
18
100
AcDbEntity
  8
DISEGNO
100
AcDbLine
 10
-212.768020565094
 20
449.450405583587
 30
0.0
 11
-213.4480205650943
 21
449.7254055835884
 31
0.0
  0
ARC
  5
29F3
330
18
100
AcDbEntity
  8
DISEGNO
100
AcDbCircle
 10
-212.6610205650922
 20
451.6724055835886
 30
0.0
 40
0.3
100
AcDbArc
 50
68.0000000000138
 51
152.6759999999959
  0
ARC
  5
29F4
330
18
100
AcDbEntity
  8
DISEGNO
100
AcDbCircle
 10
-212.5820205650925
 20
442.6174055835883
 30
0.0
 40
0.3
100
AcDbArc
 50
208.3238000000145
 51
292.9999999999992
  0
ARC
  5
29F5
330
18
100
AcDbEntity
  8
DISEGNO
100
AcDbCircle
 10
-204.0430205650918
 20
447.2194055835871
 30
0.0
 40
10.0
100
AcDbArc
 50
197.6763000000147
 51
208.3238000000145
  0
LINE
  5
29F6
330
18
100
AcDbEntity
  8
DISEGNO
100
AcDbLine
 10
-212.7270205650929
 20
444.8374055835894
 30
0.0
 11
-213.4030205650924
 21
444.5504055835892
 31
0.0
  0
LINE
  5
29F7
330
18
100
AcDbEntity
  8
DISEGNO
100
AcDbLine
 10
-206.2740205650916
 20
438.4954055835889
 30
0.0
 11
-206.549020565093
 21
437.8154055835884
 31
0.0
  0
ARC
  5
29F8
330
18
100
AcDbEntity
  8
DISEGNO
100
AcDbCircle
 10
-204.0430205650918
 20
447.2194055835871
 30
0.0
 40
10.0
100
AcDbArc
 50
242.6762000000383
 51
253.3237999999617
  0
ARC
  5
29F9
330
18
100
AcDbEntity
  8
DISEGNO
100
AcDbCircle
 10
-206.8270205650915
 20
437.9274055835894
 30
0.0
 40
0.3
100
AcDbArc
 50
253.3237999999617
 51
337.9999999999992
  0
ARC
  5
29FA
330
18
100
AcDbEntity
  8
DISEGNO
100
AcDbCircle
 10
-204.0430205650918
 20
447.2194055835871
 30
0.0
 40
8.75
100
AcDbArc
 50
167.541000000004
 51
193.4594999999958
  0
ARC
  5
29FB
330
18
100
AcDbEntity
  8
DISEGNO
100
AcDbCircle
 10
-212.8800205650914
 20
449.1724055835884
 30
0.0
 40
0.3
100
AcDbArc
 50
347.541000000004
 51
68.0000000000138
  0
LINE
  5
29FC
330
18
100
AcDbEntity
  8
DISEGNO
100
AcDbLine
 10
-211.8690205650927
 20
451.6754055835892
 30
0.0
 11
-212.5490205650931
 21
451.9504055835868
 31
0.0
  0
ARC
  5
29FD
330
18
100
AcDbEntity
  8
DISEGNO
100
AcDbCircle
 10
-211.7560205650915
 20
451.9534055835874
 30
0.0
 40
0.3
100
AcDbArc
 50
248.0000000000138
 51
328.4589999999705
  0
ARC
  5
29FE
330
18
100
AcDbEntity
  8
DISEGNO
100
AcDbCircle
 10
-204.0430205650918
 20
447.2194055835871
 30
0.0
 40
8.75
100
AcDbArc
 50
123.5410000000022
 51
148.4589999999705
  0
ARC
  5
29FF
330
18
100
AcDbEntity
  8
DISEGNO
100
AcDbCircle
 10
-209.044020565092
 20
454.7634055835888
 30
0.0
 40
0.3
100
AcDbArc
 50
303.5410000000023
 51
24.00000000000358
  0
LINE
  5
2A00
330
18
100
AcDbEntity
  8
DISEGNO
100
AcDbLine
 10
-208.7700205650944
 20
454.8854055835882
 30
0.0
 11
-209.0680205650933
 21
455.5544055835863
 31
0.0
  0
ARC
  5
2A01
330
18
100
AcDbEntity
  8
DISEGNO
100
AcDbCircle
 10
-208.794020565092
 20
455.6774055835894
 30
0.0
 40
0.3
100
AcDbArc
 50
119.3239999999783
 51
204.0000000000035
  0
ARC
  5
2A02
330
18
100
AcDbEntity
  8
DISEGNO
100
AcDbCircle
 10
-204.0430205650918
 20
447.2194055835871
 30
0.0
 40
10.0
100
AcDbArc
 50
108.6759999999778
 51
119.3239999999783
  0
ARC
  5
2A03
330
18
100
AcDbEntity
  8
DISEGNO
100
AcDbCircle
 10
-207.1490205650916
 20
456.4094055835894
 30
0.0
 40
0.3
100
AcDbArc
 50
24.00000000000358
 51
108.6759999999778
  0
LINE
  5
2A04
330
18
100
AcDbEntity
  8
DISEGNO
100
AcDbLine
 10
-206.5770205650915
 20
455.861405583587
 30
0.0
 11
-206.875020565094
 21
456.5314055835888
 31
0.0
  0
ARC
  5
2A05
330
18
100
AcDbEntity
  8
DISEGNO
100
AcDbCircle
 10
-206.303020565092
 20
455.9834055835863
 30
0.0
 40
0.3
100
AcDbArc
 50
204.0000000000035
 51
284.4589999999721
  0
ARC
  5
2A06
330
18
100
AcDbEntity
  8
DISEGNO
100
AcDbCircle
 10
-205.9960205650932
 20
438.3834055835879
 30
0.0
 40
0.3
100
AcDbArc
 50
77.54099999995812
 51
157.9999999999992
  0
ARC
  5
2A07
330
18
100
AcDbEntity
  8
DISEGNO
100
AcDbCircle
 10
-208.4960205650931
 20
438.6024055835887
 30
0.0
 40
0.3
100
AcDbArc
 50
157.9999999999992
 51
242.6762000000383
  0
LINE
  5
2A08
330
18
100
AcDbEntity
  8
DISEGNO
100
AcDbLine
 10
-208.4990205650938
 20
439.3944055835865
 30
0.0
 11
-208.7740205650916
 21
438.7144055835862
 31
0.0
  0
ARC
  5
2A09
330
18
100
AcDbEntity
  8
DISEGNO
100
AcDbCircle
 10
-208.7770205650922
 20
439.5064055835875
 30
0.0
 40
0.3
100
AcDbArc
 50
337.9999999999992
 51
58.45899999997058
  0
ARC
  5
2A0A
330
18
100
AcDbEntity
  8
DISEGNO
100
AcDbCircle
 10
-204.0430205650918
 20
447.2194055835871
 30
0.0
 40
8.75
100
AcDbArc
 50
212.5406000000135
 51
238.4593999999813
  0
ARC
  5
2A0B
330
18
100
AcDbEntity
  8
DISEGNO
100
AcDbCircle
 10
-211.6730205650928
 20
442.3514055835886
 30
0.0
 40
0.3
100
AcDbArc
 50
32.54100000001331
 51
112.9999999999992
  0
LINE
  5
2A0C
330
18
100
AcDbEntity
  8
DISEGNO
100
AcDbLine
 10
-211.7900205650948
 20
442.6284055835869
 30
0.0
 11
-212.4650205650941
 21
442.3414055835864
 31
0.0
  0
ARC
  5
2A0D
330
18
100
AcDbEntity
  8
DISEGNO
100
AcDbCircle
 10
-212.8450205650915
 20
445.1134055835873
 30
0.0
 40
0.3
100
AcDbArc
 50
292.9999999999992
 51
13.45900000001176
  0
ARC
  5
2A0E
330
18
100
AcDbEntity
  8
DISEGNO
100
AcDbCircle
 10
-221.0430205650918
 20
440.1194055835886
 30
0.0
 40
4.0
100
AcDbArc
 50
269.9999839082635
 51
0.0
  0
ARC
  5
2A0F
330
18
100
AcDbEntity
  8
DISEGNO
100
AcDbCircle
 10
-213.3350205650931
 20
450.0034055835867
 30
0.0
 40
0.3
100
AcDbArc
 50
163.3240000000022
 51
248.0000000000138
  0
ARC
  5
2A10
330
18
100
AcDbEntity
  8
DISEGNO
100
AcDbCircle
 10
-204.0430205650918
 20
447.2194055835871
 30
0.0
 40
10.0
100
AcDbArc
 50
152.6759999999959
 51
163.3240000000022
  0
ARC
  5
2A11
330
18
100
AcDbEntity
  8
DISEGNO
100
AcDbCircle
 10
-213.5430205650918
 20
457.5034055835867
 30
0.0
 40
1.0
100
AcDbArc
 50
180.0
 51
312.7319999999855
  0
ARC
  5
2A12
330
18
100
AcDbEntity
  8
DISEGNO
100
AcDbCircle
 10
-213.285020565092
 20
444.2744055835873
 30
0.0
 40
0.3
100
AcDbArc
 50
112.9999999999992
 51
197.6763000000147
  0
ARC
  5
2A13
330
18
100
AcDbEntity
  8
DISEGNO
100
AcDbCircle
 10
-204.0430205650918
 20
447.2194055835871
 30
0.0
 40
8.75
100
AcDbArc
 50
78.54100000004699
 51
104.4589999999721
  0
ARC
  5
2A14
330
18
100
AcDbEntity
  8
DISEGNO
100
AcDbCircle
 10
-202.245020565093
 20
456.0894055835897
 30
0.0
 40
0.3
100
AcDbArc
 50
258.5405999999574
 51
339.0000000000085
  0
ARC
  5
2A15
330
18
100
AcDbEntity
  8
DISEGNO
100
AcDbCircle
 10
-204.0430205650918
 20
447.2194055835871
 30
0.0
 40
13.0
100
AcDbArc
 50
43.18200000002811
 51
132.7319999999855
  0
ARC
  5
2A16
330
18
100
AcDbEntity
  8
DISEGNO
100
AcDbCircle
 10
-204.0430205650918
 20
447.2194055835871
 30
0.0
 40
8.75
100
AcDbArc
 50
257.5406000000439
 51
283.4589999999516
  0
LINE
  5
2A17
330
18
100
AcDbEntity
  8
DISEGNO
100
AcDbLine
 10
-217.0430205650918
 20
504.3194055835893
 30
0.0
 11
-217.0430205650918
 21
440.1194055835886
 31
0.0
  0
LINE
  5
2A18
330
18
100
AcDbEntity
  8
DISEGNO
100
AcDbLine
 10
-169.0430205650918
 20
453.4694055835871
 30
0.0
 11
-169.0430205650918
 21
490.9694055835871
 31
0.0
  0
LINE
  5
2A19
330
18
100
AcDbEntity
  8
DISEGNO
100
AcDbLine
 10
-214.5430205650918
 20
486.9364055835878
 30
0.0
 11
-214.5430205650918
 21
457.5034055835867
 31
0.0
  0
ARC
  5
2A1A
330
18
100
AcDbEntity
  8
DISEGNO
100
AcDbCircle
 10
-185.5430205650918
 20
456.7194055835871
 30
0.0
 40
5.9
100
AcDbArc
 50
90.0
 51
137.2679999999776
  0
LINE
  5
2A1D
330
18
100
AcDbEntity
  8
DISEGNO
100
AcDbLine
 10
-210.2930205650918
 20
532.2194055835872
 30
0.0
 11
-297.7930205650918
 21
532.2194055835872
 31
0.0
  0
LINE
  5
2A1E
330
18
100
AcDbEntity
  8
DISEGNO
100
AcDbLine
 10
-220.3430205650947
 20
510.8194055835894
 30
0.0
 11
-287.7430205650925
 21
510.8194055835894
 31
0.0
  0
LINE
  5
2A1F
330
18
100
AcDbEntity
  8
DISEGNO
100
AcDbLine
 10
-221.0430205650918
 20
508.3194055835893
 30
0.0
 11
-287.0430205650918
 21
508.3194055835893
 31
0.0
  0
LINE
  5
2A20
330
18
100
AcDbEntity
  8
DISEGNO
100
AcDbLine
 10
-223.3430205650947
 20
527.4194055835878
 30
0.0
 11
-284.7430205650926
 21
527.4194055835878
 31
0.0
  0
LINE
  5
2A21
330
18
100
AcDbEntity
  8
ASSI
100
AcDbLine
 10
-216.0988074790184
 20
559.0134095835789
 30
0.0
 11
-291.9872336511653
 21
559.0134095835789
 31
0.0
  0
LINE
  5
2A22
330
18
100
AcDbEntity
  8
DISEGNO
100
AcDbLine
 10
-291.5430205650918
 20
545.4094055835756
 30
0.0
 11
-216.5430205650936
 21
545.4094055835838
 31
0.0
  0
LINE
  5
2A23
330
18
100
AcDbEntity
  8
DISEGNO
100
AcDbLine
 10
-216.5430205650936
 20
535.5194055835836
 30
0.0
 11
-291.5430205650918
 21
535.5194055835836
 31
0.0
  0
LINE
  5
2A24
330
18
100
AcDbEntity
  8
NORMALI
100
AcDbLine
 10
-278.6022031133216
 20
540.6094055835839
 30
0.0
 11
-229.4838380168657
 21
540.6094055835835
 31
0.0
  0
LINE
  5
2A25
330
18
100
AcDbEntity
  8
NORMALI
100
AcDbLine
 10
-279.0430205650955
 20
545.4094055835841
 30
0.0
 11
-229.0430205650955
 21
545.4094055835838
 31
0.0
  0
LINE
  5
2A26
330
18
100
AcDbEntity
  8
NORMALI
100
AcDbLine
 10
-279.0430205650955
 20
543.1094055835838
 30
0.0
 11
-229.0430205650955
 21
543.1094055835838
 31
0.0
  0
LINE
  5
2A30
330
18
100
AcDbEntity
  8
DISEGNO
100
AcDbLine
 10
-291.5430205650918
 20
535.5194055835831
 30
0.0
 11
-291.5430205650936
 21
567.2194055835835
 31
0.0
  0
LINE
  5
2A31
330
18
100
AcDbEntity
  8
NORMALI
100
AcDbLine
 10
-279.0430205650936
 20
543.1094055835838
 30
0.0
 11
-278.6022031133216
 21
540.6094055835839
 31
0.0
  0
LINE
  5
2A32
330
18
100
AcDbEntity
  8
ASSI
100
AcDbLine
 10
-268.5430205650918
 20
549.6364645309117
 30
0.0
 11
-268.5430205650918
 21
569.8236664219515
 31
0.0
  0
LINE
  5
2A33
330
18
100
AcDbEntity
  8
NORMALI
100
AcDbLine
 10
-279.0430205650955
 20
543.1094055835837
 30
0.0
 11
-279.0430205650955
 21
545.4094055835838
 31
0.0
  0
LINE
  5
2A34
330
18
100
AcDbEntity
  8
ASSI
100
AcDbLine
 10
-283.0430205650918
 20
569.7421276688144
 30
0.0
 11
-283.0430205650918
 21
550.3757990790815
 31
0.0
  0
ARC
  5
2A3A
330
18
100
AcDbEntity
  8
DISEGNO
100
AcDbCircle
 10
-304.0430205650918
 20
526.0034055835867
 30
0.0
 40
15.0
100
AcDbArc
 50
227.2678000000119
 51
312.7319999999855
  0
ARC
  5
2A3B
330
18
100
AcDbEntity
  8
DISEGNO
100
AcDbCircle
 10
-326.7930205650918
 20
519.9694055835871
 30
0.0
 40
7.0
100
AcDbArc
 50
337.0249999999913
 51
23.13700000000515
  0
ARC
  5
2A3C
330
18
100
AcDbEntity
  8
DISEGNO
100
AcDbCircle
 10
-319.4330205650931
 20
516.8474055835878
 30
0.0
 40
1.0
100
AcDbArc
 50
157.0249999999913
 51
224.9999999999908
  0
LINE
  5
2A3D
330
18
100
AcDbEntity
  8
DISEGNO
100
AcDbLine
 10
-310.2930205650918
 20
526.2194055835871
 30
0.0
 11
-310.2930205650918
 21
532.2194055835872
 31
0.0
  0
ARC
  5
2A3E
330
18
100
AcDbEntity
  8
DISEGNO
100
AcDbCircle
 10
-319.4330205650931
 20
523.1134055835873
 30
0.0
 40
1.0
100
AcDbArc
 50
141.7680000000137
 51
203.1371999999814
  0
LINE
  5
2A3F
330
18
100
AcDbEntity
  8
DISEGNO
100
AcDbLine
 10
-310.2930205650918
 20
526.2194055835871
 30
0.0
 11
-314.5430205650918
 21
526.2194055835871
 31
0.0
  0
ARC
  5
2A40
330
18
100
AcDbEntity
  8
DISEGNO
100
AcDbCircle
 10
-313.5430205650918
 20
515.7194055835872
 30
0.0
 40
1.0
100
AcDbArc
 50
180.0
 51
227.2678000000119
  0
LINE
  5
2A41
330
18
100
AcDbEntity
  8
DISEGNO
100
AcDbLine
 10
-314.5430205650918
 20
515.7194055835872
 30
0.0
 11
-314.5430205650918
 21
526.2194055835871
 31
0.0
  0
LINE
  5
2A42
330
18
100
AcDbEntity
  8
DISEGNO
100
AcDbLine
 10
-320.133020565092
 20
516.1404055835893
 30
0.0
 11
-313.763020565093
 21
509.7714055835869
 31
0.0
  0
LINE
  5
2A43
330
18
100
AcDbEntity
  8
DISEGNO
100
AcDbLine
 10
-297.7930205650918
 20
532.2194055835872
 30
0.0
 11
-297.7930205650918
 21
526.2194055835871
 31
0.0
  0
ARC
  5
2A44
330
18
100
AcDbEntity
  8
DISEGNO
100
AcDbCircle
 10
-284.7430205650926
 20
523.4194055835878
 30
0.0
 40
4.0
100
AcDbArc
 50
90.0
 51
180.0
  0
LINE
  5
2A45
330
18
100
AcDbEntity
  8
DISEGNO
100
AcDbLine
 10
-293.5430205650918
 20
526.2194055835871
 30
0.0
 11
-297.7930205650918
 21
526.2194055835871
 31
0.0
  0
ARC
  5
2A46
330
18
100
AcDbEntity
  8
DISEGNO
100
AcDbCircle
 10
-287.7430205650925
 20
511.8194055835894
 30
0.0
 40
1.0
100
AcDbArc
 50
180.0
 51
269.9999892609199
  0
ARC
  5
2A47
330
18
100
AcDbEntity
  8
DISEGNO
100
AcDbCircle
 10
-294.5430205650918
 20
515.7194055835872
 30
0.0
 40
1.0
100
AcDbArc
 50
312.7319999999855
 51
0.0
  0
LINE
  5
2A48
330
18
100
AcDbEntity
  8
DISEGNO
100
AcDbLine
 10
-288.7430205650925
 20
511.8194055835894
 30
0.0
 11
-288.7430205650925
 21
523.4194055835878
 31
0.0
  0
LINE
  5
2A49
330
18
100
AcDbEntity
  8
DISEGNO
100
AcDbLine
 10
-293.5430205650918
 20
515.7194055835872
 30
0.0
 11
-293.5430205650918
 21
526.2194055835871
 31
0.0
  0
LINE
  5
2A4A
330
18
100
AcDbEntity
  8
NORMALI
100
AcDbLine
 10
-345.0425079864762
 20
514.7194055835872
 30
0.0
 11
-339.0431306279861
 21
514.7194055835872
 31
0.0
  0
LINE
  5
2A4B
330
18
100
AcDbEntity
  8
NORMALI
100
AcDbLine
 10
-346.4809916037775
 20
517.2194055835872
 30
0.0
 11
-359.7675079864783
 21
530.5094055835881
 31
0.0
  0
LINE
  5
2A4C
330
18
100
AcDbEntity
  8
NORMALI
100
AcDbLine
 10
-349.1075079864785
 20
519.8494055835882
 30
0.0
 11
-345.9255079864778
 21
523.0294055835885
 31
0.0
  0
LINE
  5
2A4D
330
18
100
AcDbEntity
  8
NORMALI
100
AcDbLine
 10
-344.5115079864772
 20
515.2494055835895
 30
0.0
 11
-344.5115079864772
 21
517.2194055835872
 31
0.0
  0
ARC
  5
2A4F
330
18
100
AcDbEntity
  8
DISEGNO
100
AcDbCircle
 10
-326.7930205650918
 20
519.9694055835871
 30
0.0
 40
7.0
100
AcDbArc
 50
156.8629999999948
 51
203.1371999999814
  0
ARC
  5
2A50
330
18
100
AcDbEntity
  8
DISEGNO
100
AcDbCircle
 10
-334.1530205650924
 20
516.826405583587
 30
0.0
 40
1.0
100
AcDbArc
 50
321.7680000000137
 51
23.13700000000515
  0
ARC
  5
2A51
330
18
100
AcDbEntity
  8
DISEGNO
100
AcDbCircle
 10
-334.1530205650924
 20
523.1134055835873
 30
0.0
 40
1.0
100
AcDbArc
 50
336.8629999999948
 51
38.23199999998628
  0
ARC
  5
2A52
330
18
100
AcDbEntity
  8
DISEGNO
100
AcDbCircle
 10
-329.9330205650931
 20
527.3264055835872
 30
0.0
 40
1.0
100
AcDbArc
 50
231.7680000000228
 51
293.136999999976
  0
ARC
  5
2A53
330
18
100
AcDbEntity
  8
DISEGNO
100
AcDbCircle
 10
-326.7930205650918
 20
519.9694055835871
 30
0.0
 40
7.0
100
AcDbArc
 50
66.86300000002393
 51
113.136999999976
  0
ARC
  5
2A54
330
18
100
AcDbEntity
  8
DISEGNO
100
AcDbCircle
 10
-323.6530205650924
 20
527.3264055835872
 30
0.0
 40
1.0
100
AcDbArc
 50
246.8630000000239
 51
308.2319999999771
  0
ARC
  5
2A55
330
18
100
AcDbEntity
  8
DISEGNO
100
AcDbCircle
 10
-331.7930205650918
 20
524.9694055835872
 30
0.0
 40
2.0
100
AcDbArc
 50
51.76800000002287
 51
218.2322000000214
  0
ARC
  5
2A56
330
18
100
AcDbEntity
  8
DISEGNO
100
AcDbCircle
 10
-338.0430205650918
 20
531.2194055835872
 30
0.0
 40
1.0
100
AcDbArc
 50
90.0
 51
180.0
  0
ARC
  5
2A57
330
18
100
AcDbEntity
  8
DISEGNO
100
AcDbCircle
 10
-326.7930205650918
 20
519.9694055835871
 30
0.0
 40
7.0
100
AcDbArc
 50
246.8630000000239
 51
292.9759999999706
  0
ARC
  5
2A58
330
18
100
AcDbEntity
  8
DISEGNO
100
AcDbCircle
 10
-323.6730205650928
 20
512.6044055835891
 30
0.0
 40
1.0
100
AcDbArc
 50
44.99999999999078
 51
112.9759999999706
  0
ARC
  5
2A59
330
18
100
AcDbEntity
  8
DISEGNO
100
AcDbCircle
 10
-329.9330205650931
 20
512.6134055835875
 30
0.0
 40
1.0
100
AcDbArc
 50
66.86300000002393
 51
128.2319999999771
  0
LINE
  5
2A5A
330
18
100
AcDbEntity
  8
DISEGNO
100
AcDbLine
 10
-322.5430205650918
 20
507.7194055835871
 30
0.0
 11
-333.0430205650918
 21
507.7194055835871
 31
0.0
  0
ARC
  5
2A5B
330
18
100
AcDbEntity
  8
DISEGNO
100
AcDbCircle
 10
-331.7930205650918
 20
514.9694055835872
 30
0.0
 40
2.0
100
AcDbArc
 50
141.7680000000137
 51
308.2319999999771
  0
LINE
  5
2A5C
330
18
100
AcDbEntity
  8
DISEGNO
100
AcDbLine
 10
-338.0430205650918
 20
532.2194055835872
 30
0.0
 11
-310.2930205650918
 21
532.2194055835872
 31
0.0
  0
ARC
  5
2A5D
330
18
100
AcDbEntity
  8
DISEGNO
100
AcDbCircle
 10
-321.7930205650918
 20
524.9694055835872
 30
0.0
 40
2.0
100
AcDbArc
 50
321.7680000000137
 51
128.2319999999771
  0
LINE
  5
2A5E
330
18
100
AcDbEntity
  8
NORMALI
100
AcDbLine
 10
-345.9255079864778
 20
523.0294055835885
 30
0.0
 11
-358.8185079864779
 21
535.9254883125259
 31
0.0
  0
LINE
  5
2A5F
330
18
100
AcDbEntity
  8
NORMALI
100
AcDbLine
 10
-358.8185079864779
 20
547.2194055835871
 30
0.0
 11
-358.8185079864779
 21
534.2194055835872
 31
0.0
  0
LINE
  5
2A62
330
18
100
AcDbEntity
  8
NORMALI
100
AcDbLine
 10
-229.0430205650955
 20
543.1094055835838
 30
0.0
 11
-229.4838380168657
 21
540.6094055835839
 31
0.0
  0
LINE
  5
2A63
330
18
100
AcDbEntity
  8
ASSI
100
AcDbLine
 10
-239.5430205650918
 20
549.4821640440497
 30
0.0
 11
-239.5430205650918
 21
569.6731738648435
 31
0.0
  0
LINE
  5
2A64
330
18
100
AcDbEntity
  8
NORMALI
100
AcDbLine
 10
-229.0430205650955
 20
543.1094055835837
 30
0.0
 11
-229.0430205650955
 21
545.4094055835838
 31
0.0
  0
LINE
  5
2A65
330
18
100
AcDbEntity
  8
ASSI
100
AcDbLine
 10
-225.0430205650918
 20
569.1801146351337
 30
0.0
 11
-225.0430205650918
 21
549.6612925622433
 31
0.0
  0
LINE
  5
2A71
330
18
100
AcDbEntity
  8
DISEGNO
100
AcDbLine
 10
-216.5430205650955
 20
535.5194055835831
 30
0.0
 11
-216.5430205650918
 21
567.2194055835835
 31
0.0
  0
LINE
  5
2A72
330
18
100
AcDbEntity
  8
DISEGNO
100
AcDbLine
 10
-170.0430205650918
 20
532.2194055835872
 30
0.0
 11
-197.7930205650918
 21
532.2194055835872
 31
0.0
  0
ARC
  5
2A73
330
18
100
AcDbEntity
  8
DISEGNO
100
AcDbCircle
 10
-181.2930205650918
 20
519.9694055835871
 30
0.0
 40
7.0
100
AcDbArc
 50
66.86300000002393
 51
113.136999999976
  0
ARC
  5
2A74
330
18
100
AcDbEntity
  8
DISEGNO
100
AcDbCircle
 10
-181.2930205650918
 20
519.9694055835871
 30
0.0
 40
7.0
100
AcDbArc
 50
247.0237000000022
 51
293.136999999976
  0
LINE
  5
2A75
330
18
100
AcDbEntity
  8
DISEGNO
100
AcDbLine
 10
-185.5430205650918
 20
507.7194055835871
 30
0.0
 11
-175.0430205650918
 21
507.7194055835871
 31
0.0
  0
ARC
  5
2A76
330
18
100
AcDbEntity
  8
DISEGNO
100
AcDbCircle
 10
-181.2930205650918
 20
519.9694055835871
 30
0.0
 40
7.0
100
AcDbArc
 50
156.8629999999948
 51
202.9750000000086
  0
ARC
  5
2A77
330
18
100
AcDbEntity
  8
DISEGNO
100
AcDbCircle
 10
-188.6590205650918
 20
516.8474055835878
 30
0.0
 40
1.0
100
AcDbArc
 50
315.0000000000092
 51
22.97500000000868
  0
LINE
  5
2A78
330
18
100
AcDbEntity
  8
DISEGNO
100
AcDbLine
 10
-197.7930205650918
 20
532.2194055835872
 30
0.0
 11
-197.7930205650918
 21
526.2194055835871
 31
0.0
  0
ARC
  5
2A79
330
18
100
AcDbEntity
  8
DISEGNO
100
AcDbCircle
 10
-188.6500205650918
 20
523.1134055835873
 30
0.0
 40
1.0
100
AcDbArc
 50
336.8629999999948
 51
38.23199999998628
  0
LINE
  5
2A7A
330
18
100
AcDbEntity
  8
DISEGNO
100
AcDbLine
 10
-197.7930205650918
 20
526.2194055835871
 30
0.0
 11
-193.5430205650918
 21
526.2194055835871
 31
0.0
  0
ARC
  5
2A7B
330
18
100
AcDbEntity
  8
DISEGNO
100
AcDbCircle
 10
-184.437020565092
 20
527.3264055835872
 30
0.0
 40
1.0
100
AcDbArc
 50
231.7678000000202
 51
293.136999999976
  0
ARC
  5
2A7C
330
18
100
AcDbEntity
  8
DISEGNO
100
AcDbCircle
 10
-186.2930205650918
 20
524.9694055835872
 30
0.0
 40
2.0
100
AcDbArc
 50
51.76800000002287
 51
218.2319999999862
  0
ARC
  5
2A7D
330
18
100
AcDbEntity
  8
DISEGNO
100
AcDbCircle
 10
-194.5430205650918
 20
515.7194055835872
 30
0.0
 40
1.0
100
AcDbArc
 50
312.7319999999855
 51
0.0
  0
ARC
  5
2A7E
330
18
100
AcDbEntity
  8
DISEGNO
100
AcDbCircle
 10
-184.4160205650914
 20
512.6044055835891
 30
0.0
 40
1.0
100
AcDbArc
 50
67.02400000002931
 51
135.0000000000092
  0
LINE
  5
2A7F
330
18
100
AcDbEntity
  8
DISEGNO
100
AcDbLine
 10
-193.5430205650918
 20
515.7194055835872
 30
0.0
 11
-193.5430205650918
 21
526.2194055835871
 31
0.0
  0
LINE
  5
2A80
330
18
100
AcDbEntity
  8
DISEGNO
100
AcDbLine
 10
-187.9520205650915
 20
516.1404055835893
 30
0.0
 11
-194.3210205650939
 21
509.7714055835869
 31
0.0
  0
LINE
  5
2A81
330
18
100
AcDbEntity
  8
NORMALI
100
AcDbLine
 10
-158.9787532694972
 20
519.8494055835882
 30
0.0
 11
-162.1607532694943
 21
523.0294055835885
 31
0.0
  0
ARC
  5
2A82
330
18
100
AcDbEntity
  8
DISEGNO
100
AcDbCircle
 10
-181.2930205650918
 20
519.9694055835871
 30
0.0
 40
7.0
100
AcDbArc
 50
336.8629999999948
 51
23.13700000000515
  0
ARC
  5
2A83
330
18
100
AcDbEntity
  8
DISEGNO
100
AcDbCircle
 10
-173.9370205650921
 20
516.826405583587
 30
0.0
 40
1.0
100
AcDbArc
 50
156.8629999999948
 51
218.2319999999862
  0
ARC
  5
2A84
330
18
100
AcDbEntity
  8
DISEGNO
100
AcDbCircle
 10
-170.0430205650918
 20
531.2194055835872
 30
0.0
 40
1.0
100
AcDbArc
 50
0.0
 51
90.0
  0
ARC
  5
2A85
330
18
100
AcDbEntity
  8
DISEGNO
100
AcDbCircle
 10
-178.1500205650918
 20
527.3264055835872
 30
0.0
 40
1.0
100
AcDbArc
 50
246.8627999999895
 51
308.2319999999771
  0
ARC
  5
2A86
330
18
100
AcDbEntity
  8
DISEGNO
100
AcDbCircle
 10
-173.9370205650921
 20
523.1134055835873
 30
0.0
 40
1.0
100
AcDbArc
 50
141.7680000000137
 51
203.1370000000051
  0
ARC
  5
2A87
330
18
100
AcDbEntity
  8
DISEGNO
100
AcDbCircle
 10
-176.2930205650918
 20
524.9694055835872
 30
0.0
 40
2.0
100
AcDbArc
 50
321.7680000000137
 51
128.2319999999771
  0
ARC
  5
2A88
330
18
100
AcDbEntity
  8
DISEGNO
100
AcDbCircle
 10
-178.1500205650918
 20
512.6134055835875
 30
0.0
 40
1.0
100
AcDbArc
 50
51.76800000002287
 51
113.136999999976
  0
LINE
  5
2A89
330
18
100
AcDbEntity
  8
NORMALI
100
AcDbLine
 10
-163.0437532694959
 20
514.7194055835872
 30
0.0
 11
-169.0430205650918
 21
514.7194055835872
 31
0.0
  0
ARC
  5
2A8A
330
18
100
AcDbEntity
  8
DISEGNO
100
AcDbCircle
 10
-176.2930205650918
 20
514.9694055835872
 30
0.0
 40
2.0
100
AcDbArc
 50
231.7678000000202
 51
38.23199999998628
  0
LINE
  5
2A8B
330
18
100
AcDbEntity
  8
NORMALI
100
AcDbLine
 10
-163.5747532694949
 20
515.2494055835895
 30
0.0
 11
-163.5747532694949
 21
517.2194055835872
 31
0.0
  0
ARC
  5
2A8D
330
18
100
AcDbEntity
  8
DISEGNO
100
AcDbCircle
 10
-223.3430205650929
 20
523.4194055835878
 30
0.0
 40
4.0
100
AcDbArc
 50
0.0
 51
90.0
  0
LINE
  5
2A8E
330
18
100
AcDbEntity
  8
DISEGNO
100
AcDbLine
 10
-214.5430205650918
 20
526.2194055835871
 30
0.0
 11
-210.2930205650918
 21
526.2194055835871
 31
0.0
  0
LINE
  5
2A8F
330
18
100
AcDbEntity
  8
DISEGNO
100
AcDbLine
 10
-210.2930205650918
 20
532.2194055835872
 30
0.0
 11
-210.2930205650918
 21
526.2194055835871
 31
0.0
  0
ARC
  5
2A90
330
18
100
AcDbEntity
  8
DISEGNO
100
AcDbCircle
 10
-220.3430205650929
 20
511.8194055835894
 30
0.0
 40
1.0
100
AcDbArc
 50
269.9999892609199
 51
0.0
  0
ARC
  5
2A91
330
18
100
AcDbEntity
  8
DISEGNO
100
AcDbCircle
 10
-213.5430205650918
 20
515.7194055835872
 30
0.0
 40
1.0
100
AcDbArc
 50
180.0
 51
227.2678000000119
  0
LINE
  5
2A92
330
18
100
AcDbEntity
  8
DISEGNO
100
AcDbLine
 10
-219.3430205650947
 20
511.8194055835894
 30
0.0
 11
-219.3430205650947
 21
523.4194055835878
 31
0.0
  0
LINE
  5
2A93
330
18
100
AcDbEntity
  8
DISEGNO
100
AcDbLine
 10
-214.5430205650918
 20
515.7194055835872
 30
0.0
 11
-214.5430205650918
 21
526.2194055835871
 31
0.0
  0
ARC
  5
2A94
330
18
100
AcDbEntity
  8
DISEGNO
100
AcDbCircle
 10
-204.0430205650918
 20
526.0034055835867
 30
0.0
 40
15.0
100
AcDbArc
 50
227.2678000000119
 51
312.7319999999855
  0
LINE
  5
2AA0
330
18
100
AcDbEntity
  8
NORMALI
100
AcDbLine
 10
-95.25875326949607
 20
499.9694055835871
 30
0.0
 11
-115.5111010955843
 21
520.2194055835872
 31
0.0
  0
LINE
  5
2AA4
330
18
100
AcDbEntity
  8
NORMALI
100
AcDbLine
 10
-89.25575326949545
 20
547.2194055835871
 30
0.0
 11
-89.25575326949545
 21
487.2194055835871
 31
0.0
  0
ARC
  5
2AA8
330
18
100
AcDbEntity
  8
NORMALI
100
AcDbCircle
 10
-110.3447532694954
 20
490.3094055835873
 30
0.0
 40
14.722
100
AcDbArc
 50
295.5110000000048
 51
334.489100000034
  0
LINE
  5
2AA9
330
18
100
AcDbEntity
  8
NORMALI
100
AcDbLine
 10
-96.75275326949488
 20
482.3694055835885
 30
0.0
 11
-102.4097532694941
 21
476.719405583587
 31
0.0
  0
LINE
  5
2AAA
330
18
100
AcDbEntity
  8
NORMALI
100
AcDbLine
 10
-99.31175326949594
 20
486.2194055835871
 30
0.0
 11
-97.06175326949598
 21
483.9694055835871
 31
0.0
  0
LINE
  5
2AAB
330
18
100
AcDbEntity
  8
NORMALI
100
AcDbLine
 10
-94.72975326949743
 20
485.0994055835881
 30
0.0
 11
-105.1397532694973
 21
474.6894055835883
 31
0.0
  0
LINE
  5
2AAC
330
18
100
AcDbEntity
  8
NORMALI
100
AcDbLine
 10
-95.25875326949607
 20
494.4694055835872
 30
0.0
 11
-115.5107532694964
 21
474.2194055835871
 31
0.0
  0
LINE
  5
2AAD
330
18
100
AcDbEntity
  8
NORMALI
100
AcDbLine
 10
-95.25875326949607
 20
487.2194055835871
 30
0.0
 11
-104.8847532694962
 21
484.8494055835882
 31
0.0
  0
LINE
  5
2AAE
330
18
100
AcDbEntity
  8
NORMALI
100
AcDbLine
 10
-109.834753269497
 20
478.4794055835893
 30
0.0
 11
-110.5417532694955
 21
479.1894055835883
 31
0.0
  0
ARC
  5
2AAF
330
18
100
AcDbEntity
  8
NORMALI
100
AcDbCircle
 10
-106.5697532694957
 20
476.1194055835885
 30
0.0
 40
3.978
100
AcDbArc
 50
96.99500000003396
 51
172.9800000000119
  0
LINE
  5
2AB0
330
18
100
AcDbEntity
  8
NORMALI
100
AcDbLine
 10
-131.0477532694967
 20
469.2894055835869
 30
0.0
 11
-123.1224234697329
 21
477.2194055835871
 31
0.0
  0
LINE
  5
2AB1
330
18
100
AcDbEntity
  8
NORMALI
100
AcDbLine
 10
-110.5127532694968
 20
476.5994055835881
 30
0.0
 11
-107.4717532694958
 21
473.5594055835873
 31
0.0
  0
LINE
  5
2AB2
330
18
100
AcDbEntity
  8
NORMALI
100
AcDbLine
 10
-115.5107532694964
 20
474.2194055835871
 30
0.0
 11
-119.0077532694958
 21
474.2194055835871
 31
0.0
  0
LINE
  5
2AB3
330
18
100
AcDbEntity
  8
NORMALI
100
AcDbLine
 10
-122.0078944459674
 20
477.2194055835871
 30
0.0
 11
-119.0077532694958
 21
474.2194055835871
 31
0.0
  0
LINE
  5
2AB4
330
18
100
AcDbEntity
  8
NORMALI
100
AcDbLine
 10
-123.9767532694968
 20
462.2194055835871
 30
0.0
 11
-138.9788749102299
 21
477.2194055835871
 31
0.0
  0
LINE
  5
2AB5
330
18
100
AcDbEntity
  8
NORMALI
100
AcDbLine
 10
-102.4097532694941
 20
476.719405583587
 30
0.0
 11
-103.1177532694964
 21
476.719405583587
 31
0.0
  0
LINE
  5
2AB6
330
18
100
AcDbEntity
  8
NORMALI
100
AcDbLine
 10
-107.0507532694973
 20
480.0694055835894
 30
0.0
 11
-104.0097532694962
 21
477.0294055835885
 31
0.0
  0
LINE
  5
2AB7
330
18
100
AcDbEntity
  8
NORMALI
100
AcDbLine
 10
-103.0077532694958
 20
485.3094055835874
 30
0.0
 11
-109.3827532694958
 21
478.9394055835884
 31
0.0
  0
ARC
  5
2AB8
330
18
100
AcDbEntity
  8
NORMALI
100
AcDbCircle
 10
-107.9527532694955
 20
477.509405583588
 30
0.0
 40
3.978
100
AcDbArc
 50
277.0202999999916
 51
353.0046599999969
  0
ARC
  5
2AB9
330
18
100
AcDbEntity
  8
NORMALI
100
AcDbCircle
 10
-93.76775326949429
 20
473.7294055835891
 30
0.0
 40
14.722
100
AcDbArc
 50
127.7920000000253
 51
154.4890000000388
  0
LINE
  5
2ABA
330
18
100
AcDbEntity
  8
NORMALI
100
AcDbLine
 10
-95.25875326949607
 20
487.2194055835871
 30
0.0
 11
-89.25575326949545
 21
487.2194055835871
 31
0.0
  0
ARC
  5
2ABB
330
18
100
AcDbEntity
  8
NORMALI
100
AcDbCircle
 10
-94.75875326949426
 20
487.7194055835871
 30
0.0
 40
0.5
100
AcDbArc
 50
180.0
 51
270.0
  0
ARC
  5
2ABC
330
18
100
AcDbEntity
  8
NORMALI
100
AcDbCircle
 10
-97.54275326949574
 20
487.9194055835879
 30
0.0
 40
3.978
100
AcDbArc
 50
276.9955000000395
 51
349.8650156614013
  0
LINE
  5
2ABD
330
18
100
AcDbEntity
  8
NORM_TR
100
AcDbLine
 10
-95.25875326949607
 20
494.4694055835872
 30
0.0
 11
-95.25875326949607
 21
487.7194055835871
 31
0.0
  0
LINE
  5
2ABE
330
18
100
AcDbEntity
  8
NORMALI
100
AcDbLine
 10
-95.25875326949607
 20
499.9694055835871
 30
0.0
 11
-95.25875326949607
 21
494.4694055835872
 31
0.0
  0
LINE
  5
2ABF
330
18
100
AcDbEntity
  8
NORMALI
100
AcDbLine
 10
-96.75275326949488
 20
483.0794055835878
 30
0.0
 11
-96.75275326949488
 21
482.3694055835885
 31
0.0
  0
LINE
  5
2AC0
330
18
100
AcDbEntity
  8
NORMALI
100
AcDbLine
 10
-123.9767532694968
 20
462.2194055835871
 30
0.0
 11
-135.2907532694953
 21
450.9094055835895
 31
0.0
  0
ARC
  5
2AC1
330
18
100
AcDbEntity
  8
NORMALI
100
AcDbCircle
 10
-155.4427532694953
 20
497.2194055835871
 30
0.0
 40
7.0
100
AcDbArc
 50
315.0001000000204
 51
44.99999999999078
  0
LINE
  5
2AC2
330
18
100
AcDbEntity
  8
NORMALI
100
AcDbLine
 10
-153.0437532694959
 20
489.7194055835871
 30
0.0
 11
-153.0437532694959
 21
504.7194055835872
 31
0.0
  0
LINE
  5
2AC5
330
18
100
AcDbEntity
  8
NORMALI
100
AcDbLine
 10
-143.0687532694973
 20
452.3194055835894
 30
0.0
 11
-139.8867532694965
 21
455.4994055835897
 31
0.0
  0
LINE
  5
2AC6
330
18
100
AcDbEntity
  8
DISEGNO
100
AcDbLine
 10
-54.04302056509187
 20
547.2194055835838
 30
0.0
 11
-54.04302056509187
 21
567.2194055835835
 31
0.0
  0
LINE
  5
2AF0
330
18
100
AcDbEntity
  8
NORMALI
100
AcDbLine
 10
-119.0077532694958
 20
520.2194055835872
 30
0.0
 11
-122.0078944459674
 21
517.2194055835872
 31
0.0
  0
LINE
  5
2AF4
330
18
100
AcDbEntity
  8
NORMALI
100
AcDbLine
 10
-119.0077532694958
 20
520.2194055835872
 30
0.0
 11
-115.5111010955843
 21
520.2194055835872
 31
0.0
  0
LINE
  5
2AF7
330
18
100
AcDbEntity
  8
NORMALI
100
AcDbLine
 10
-149.2677532694942
 20
534.2194055835872
 30
0.0
 11
-144.9229873120493
 21
517.2194055835872
 31
0.0
  0
LINE
  5
2AFD
330
18
100
AcDbEntity
  8
NORMALI
100
AcDbLine
 10
-149.2677532694942
 20
547.2194055835871
 30
0.0
 11
-149.2677532694942
 21
534.2194055835872
 31
0.0
  0
ARC
  5
2BD7
330
18
100
AcDbEntity
  8
DISEGNO
100
AcDbCircle
 10
1067.332291781657
 20
497.2194055835816
 30
0.0
 40
12.09
100
AcDbArc
 50
211.1116901162641
 51
328.8883098837356
  0
ARC
  5
2BD8
330
18
100
AcDbEntity
  8
DISEGNO
100
AcDbCircle
 10
1067.332291781657
 20
447.2194055835816
 30
0.0
 40
12.09
100
AcDbArc
 50
211.1116901162643
 51
328.888309883735
  0
LINE
  5
2BE7
330
18
100
AcDbEntity
  8
ASSI
100
AcDbLine
 10
536.2804168051199
 20
129.7875000000001
 30
0.0
 11
554.6248747433683
 21
129.7875000000001
 31
0.0
1001
ACAD
1000
ASC_BOUNDS
1002
{
1070
    19
1002
}
  0
LINE
  5
2BE8
330
18
100
AcDbEntity
  8
ASSI
100
AcDbLine
 10
876.2804168051198
 20
129.7875000000001
 30
0.0
 11
894.6248747433681
 21
129.7875000000001
 31
0.0
1001
ACAD
1000
ASC_BOUNDS
1002
{
1070
    19
1002
}
  0
LINE
  5
2BE9
330
18
100
AcDbEntity
  8
ASSI
100
AcDbLine
 10
756.2804168051201
 20
129.7875000000001
 30
0.0
 11
774.6248747433684
 21
129.7875000000001
 31
0.0
1001
ACAD
1000
ASC_BOUNDS
1002
{
1070
    19
1002
}
  0
LINE
  5
2BEA
330
18
100
AcDbEntity
  8
ASSI
100
AcDbLine
 10
536.2804168051199
 20
-129.7874999999994
 30
0.0
 11
554.6248747433683
 21
-129.7874999999994
 31
0.0
1001
ACAD
1000
ASC_BOUNDS
1002
{
1070
    19
1002
}
  0
LINE
  5
2BEB
330
18
100
AcDbEntity
  8
ASSI
100
AcDbLine
 10
416.28041680512
 20
-129.7874999999994
 30
0.0
 11
434.6248747433683
 21
-129.7874999999994
 31
0.0
1001
ACAD
1000
ASC_BOUNDS
1002
{
1070
    19
1002
}
  0
LINE
  5
2BEC
330
18
100
AcDbEntity
  8
ASSI
100
AcDbLine
 10
756.2804168051201
 20
-129.7874999999994
 30
0.0
 11
774.6248747433684
 21
-129.7874999999994
 31
0.0
1001
ACAD
1000
ASC_BOUNDS
1002
{
1070
    19
1002
}
  0
LINE
  5
2BED
330
18
100
AcDbEntity
  8
ASSI
100
AcDbLine
 10
876.2804168051198
 20
-129.7874999999994
 30
0.0
 11
894.6248747433681
 21
-129.7874999999994
 31
0.0
1001
ACAD
1000
ASC_BOUNDS
1002
{
1070
    19
1002
}
  0
LINE
  5
2DEF
330
18
100
AcDbEntity
  8
ASSI
100
AcDbLine
 10
471.1214340434791
 20
-28.99999999999954
 30
0.0
 11
413.6607059029647
 21
-28.99999999999954
 31
0.0
  0
LINE
  5
2DF0
330
18
100
AcDbEntity
  8
ASSI
100
AcDbLine
 10
470.1264770139816
 20
29.00000000000045
 30
0.0
 11
413.6607059029647
 21
29.00000000000045
 31
0.0
  0
LINE
  5
2DFB
330
18
100
AcDbEntity
  8
ASSI
100
AcDbLine
 10
840.7788145345065
 20
-0.0000000000011369
 30
0.0
 11
35.38975949004179
 21
-0.0000000000011369
 31
0.0
  0
LINE
  5
2DFC
330
18
100
AcDbEntity
  8
DISEGNO
100
AcDbLine
 10
420.4526457742439
 20
199.9999999999995
 30
0.0
 11
890.452645774244
 21
199.9999999999995
 31
0.0
  0
LINE
  5
2E26
330
18
100
AcDbEntity
  8
ASSI
100
AcDbLine
 10
840.7788145345065
 20
29.00000000000045
 30
0.0
 11
897.2445856455232
 21
29.00000000000045
 31
0.0
  0
LINE
  5
2E27
330
18
100
AcDbEntity
  8
ASSI
100
AcDbLine
 10
840.7788145345065
 20
-0.0000000000011369
 30
0.0
 11
1273.460495576672
 21
-0.0000000000011369
 31
0.0
  0
LINE
  5
2E28
330
18
100
AcDbEntity
  8
ASSI
100
AcDbLine
 10
839.7838575050089
 20
-28.99999999999954
 30
0.0
 11
897.2445856455232
 21
-28.99999999999954
 31
0.0
  0
LINE
  5
2E29
330
18
100
AcDbEntity
  8
ASSI
100
AcDbLine
 10
449.3626389680676
 20
14.49999999999977
 30
0.0
 11
413.5607059029653
 21
14.49999999999954
 31
0.0
  0
LINE
  5
2E2C
330
18
100
AcDbEntity
  8
ASSI
100
AcDbLine
 10
449.5264770139816
 20
-14.5
 30
0.0
 11
413.0607059029648
 21
-14.5
 31
0.0
  0
LINE
  5
2E2D
330
18
100
AcDbEntity
  8
ASSI
100
AcDbLine
 10
861.5426525804204
 20
14.49999999999977
 30
0.0
 11
897.3445856455226
 21
14.49999999999954
 31
0.0
  0
LINE
  5
2E2E
330
18
100
AcDbEntity
  8
ASSI
100
AcDbLine
 10
861.3788145345065
 20
-14.5
 30
0.0
 11
897.844585645523
 21
-14.5
 31
0.0
  0
LINE
  5
3237
330
18
100
AcDbEntity
  8
9180143-COMPLESSIVO_DI_MON
  6
Continuous
 62
     7
100
AcDbLine
 10
84.33232587028633
 20
551.2194055836005
 30
0.0
 11
84.33232587028633
 21
443.2194055836005
 31
0.0
  0
CIRCLE
  5
3238
330
18
100
AcDbEntity
  8
DISEGNO
100
AcDbCircle
 10
171.3323258702863
 20
497.2194055835993
 30
0.0
 40
35.0
  0
LINE
  5
3239
330
18
100
AcDbEntity
  8
DISEGNO
100
AcDbLine
 10
277.3323258702864
 20
532.2194055835767
 30
0.0
 11
277.3323258702864
 21
412.2194055835795
 31
0.0
  0
LINE
  5
323A
330
18
100
AcDbEntity
  8
DISEGNO
100
AcDbLine
 10
262.3323258702864
 20
577.2194055835914
 30
0.0
 11
262.3323258702864
 21
412.2194055835914
 31
0.0
  0
LINE
  5
323B
330
18
100
AcDbEntity
  8
DISEGNO
100
AcDbLine
 10
277.33232587028
 20
579.7224055835892
 30
0.0
 11
277.3323258702864
 21
412.2194055835795
 31
0.0
  0
LINE
  5
323C
330
18
100
AcDbEntity
  8
ASSI
100
AcDbLine
 10
171.3323258702863
 20
591.445041638023
 30
0.0
 11
171.3323258702859
 21
398.3116222960568
 31
0.0
  0
LINE
  5
323D
330
18
100
AcDbEntity
  8
TRATTEGGI
100
AcDbLine
 10
158.8323258702863
 20
0.000000000003979
 30
0.0
 11
158.8323258702863
 21
-60.00000000000091
 31
0.0
  0
LINE
  5
323E
330
18
100
AcDbEntity
  8
TRATTEGGI
100
AcDbLine
 10
183.8323258702881
 20
0.000000000003979
 30
0.0
 11
183.8323258702881
 21
-60.00000000000091
 31
0.0
  0
LINE
  5
323F
330
18
100
AcDbEntity
  8
9180143-COMPLESSIVO_DI_MON
  6
Continuous
 62
     7
100
AcDbLine
 10
262.3323258702864
 20
-55.00000000000091
 30
0.0
 11
262.3323258702864
 21
-32.50000000000091
 31
0.0
  0
LINE
  5
3240
330
18
100
AcDbEntity
  8
9180143-COMPLESSIVO_DI_MON
  6
Continuous
 62
     7
100
AcDbLine
 10
84.33232587028633
 20
-0.0000000000009095
 30
0.0
 11
84.33232587028633
 21
-42.00000000000089
 31
0.0
  0
LINE
  5
3241
330
18
100
AcDbEntity
  8
NORMALI
100
AcDbLine
 10
296.3323258702871
 20
-33.50000000000397
 30
0.0
 11
296.3323258702871
 21
-40.90267854538104
 31
0.0
  0
LINE
  5
3242
330
18
100
AcDbEntity
  8
NORMALI
100
AcDbLine
 10
297.3323258702872
 20
-57.50000000000307
 30
0.0
 11
297.3323258702864
 21
-34.50000000000398
 31
0.0
  0
LINE
  5
3243
330
18
100
AcDbEntity
  8
DISEGNO
100
AcDbLine
 10
277.3323258702864
 20
-85.0000000000085
 30
0.0
 11
277.3323258702865
 21
-25.00000000000364
 31
0.0
  0
LINE
  5
3244
330
18
100
AcDbEntity
  8
DISEGNO
100
AcDbLine
 10
262.3323258702864
 20
-85.00000000000216
 30
0.0
 11
262.3323258702864
 21
85.0
 31
0.0
  0
LINE
  5
3245
330
18
100
AcDbEntity
  8
ASSI
100
AcDbLine
 10
171.3323258702871
 20
91.34372299360485
 30
0.0
 11
171.3323258702871
 21
-85.7762957357785
 31
0.0
  0
LINE
  5
3246
330
18
100
AcDbEntity
  8
9180143-COMPLESSIVO_DI_MON
  6
Continuous
 62
     7
100
AcDbLine
 10
94.33232587028635
 20
-42.00000000000089
 30
0.0
 11
262.3323258702864
 21
-42.00000000000089
 31
0.0
  0
LINE
  5
3247
330
18
100
AcDbEntity
  8
9180143-COMPLESSIVO_DI_MON
  6
Continuous
 62
     7
100
AcDbLine
 10
94.3323258702863
 20
-60.00000000000091
 30
0.0
 11
262.3323258702864
 21
-60.00000000000091
 31
0.0
  0
LINE
  5
3248
330
18
100
AcDbEntity
  8
9180143-COMPLESSIVO_DI_MON
  6
Continuous
 62
     7
100
AcDbLine
 10
94.33232587028635
 20
-42.00000000000089
 30
0.0
 11
262.3323258702864
 21
-42.00000000000089
 31
0.0
  0
LINE
  5
3249
330
18
100
AcDbEntity
  8
9180143-COMPLESSIVO_DI_MON
  6
Continuous
 62
     7
100
AcDbLine
 10
94.33232587028635
 20
-42.00000000000089
 30
0.0
 11
84.33232587028633
 21
-42.00000000000089
 31
0.0
  0
LINE
  5
324A
330
18
100
AcDbEntity
  8
9180143-COMPLESSIVO_DI_MON
  6
Continuous
 62
     7
100
AcDbLine
 10
84.33232587028633
 20
-42.00000000000089
 30
0.0
 11
94.33232587028635
 21
-42.00000000000089
 31
0.0
  0
LINE
  5
324B
330
18
100
AcDbEntity
  8
9180143-COMPLESSIVO_DI_MON
  6
Continuous
 62
     7
100
AcDbLine
 10
94.3323258702863
 20
-60.00000000000091
 30
0.0
 11
87.33232587028629
 21
-60.00000000000091
 31
0.0
  0
ARC
  5
324C
330
18
100
AcDbEntity
  8
9180143-COMPLESSIVO_DI_MON
  6
Continuous
 62
     7
100
AcDbCircle
 10
87.33232587028636
 20
-57.00000000000091
 30
0.0
 40
3.0
100
AcDbArc
 50
180.0
 51
270.0
  0
LINE
  5
324D
330
18
100
AcDbEntity
  8
9180143-COMPLESSIVO_DI_MON
  6
Continuous
 62
     7
100
AcDbLine
 10
84.33232587028633
 20
-42.00000000000089
 30
0.0
 11
84.3323258702863
 21
-57.00000000000091
 31
0.0
  0
LINE
  5
324E
330
18
100
AcDbEntity
  8
NORMALI
100
AcDbLine
 10
296.3323258702871
 20
-58.50000000000306
 30
0.0
 11
277.3323258702871
 21
-58.50000000000306
 31
0.0
  0
LINE
  5
3250
330
18
100
AcDbEntity
  8
DISEGNO
100
AcDbLine
 10
289.6576742476214
 20
-85.00000000000305
 30
0.0
 11
262.3323258702864
 21
-85.00000000000216
 31
0.0
  0
LINE
  5
3251
330
18
100
AcDbEntity
  8
9180143-COMPLESSIVO_DI_MON
  6
Continuous
 62
     7
100
AcDbLine
 10
262.3323258702864
 20
-60.00000000000091
 30
0.0
 11
262.3323258702864
 21
-55.00000000000091
 31
0.0
  0
LINE
  5
3252
330
18
100
AcDbEntity
  8
NORMALI
100
AcDbLine
 10
296.3323258702871
 20
-58.50000000000306
 30
0.0
 11
297.3323258702872
 21
-57.50000000000307
 31
0.0
  0
LINE
  5
3253
330
18
100
AcDbEntity
  8
NORMALI
100
AcDbLine
 10
296.3323258702871
 20
-58.50000000000306
 30
0.0
 11
296.3323258702871
 21
-51.0973214546251
 31
0.0
  0
LINE
  5
3254
330
18
100
AcDbEntity
  8
9180143-COMPLESSIVO_DI_MON
  6
Continuous
 62
     7
100
AcDbLine
 10
262.3323258702864
 20
41.99999999999909
 30
0.0
 11
94.33232587028635
 21
41.99999999999909
 31
0.0
  0
LINE
  5
3255
330
18
100
AcDbEntity
  8
9180143-COMPLESSIVO_DI_MON
  6
Continuous
 62
     7
100
AcDbLine
 10
94.33232587028635
 20
-0.0000000000009095
 30
0.0
 11
262.3323258702864
 21
-0.0000000000009095
 31
0.0
  0
LINE
  5
3256
330
18
100
AcDbEntity
  8
9180143-COMPLESSIVO_DI_MON
  6
Continuous
 62
     7
100
AcDbLine
 10
94.33232587028635
 20
-0.0000000000009095
 30
0.0
 11
262.3323258702864
 21
-0.0000000000009095
 31
0.0
  0
LINE
  5
3257
330
18
100
AcDbEntity
  8
9180143-COMPLESSIVO_DI_MON
  6
Continuous
 62
     7
100
AcDbLine
 10
262.3323258702864
 20
59.99999999999909
 30
0.0
 11
94.33232587028635
 21
59.99999999999909
 31
0.0
  0
LINE
  5
3258
330
18
100
AcDbEntity
  8
9180143-COMPLESSIVO_DI_MON
  6
Continuous
 62
     7
100
AcDbLine
 10
94.33232587028635
 20
41.99999999999909
 30
0.0
 11
262.3323258702864
 21
41.99999999999909
 31
0.0
  0
LINE
  5
3259
330
18
100
AcDbEntity
  8
9180143-COMPLESSIVO_DI_MON
  6
Continuous
 62
     7
100
AcDbLine
 10
94.33232587028635
 20
433.2194055836004
 30
0.0
 11
262.3323258702864
 21
433.2194055836004
 31
0.0
  0
ARC
  5
325A
330
18
100
AcDbEntity
  8
9180143-COMPLESSIVO_DI_MON
  6
Continuous
 62
     7
100
AcDbCircle
 10
87.33232587028636
 20
56.99999999999909
 30
0.0
 40
3.000000000000006
100
AcDbArc
 50
90.0
 51
180.0
  0
LINE
  5
325B
330
18
100
AcDbEntity
  8
9180143-COMPLESSIVO_DI_MON
  6
Continuous
 62
     7
100
AcDbLine
 10
84.33232587028633
 20
41.99999999999909
 30
0.0
 11
84.33232587028633
 21
-0.0000000000009095
 31
0.0
  0
LINE
  5
325C
330
18
100
AcDbEntity
  8
9180143-COMPLESSIVO_DI_MON
  6
Continuous
 62
     7
100
AcDbLine
 10
94.33232587028635
 20
-0.0000000000009095
 30
0.0
 11
84.33232587028633
 21
-0.0000000000009095
 31
0.0
  0
LINE
  5
325D
330
18
100
AcDbEntity
  8
9180143-COMPLESSIVO_DI_MON
  6
Continuous
 62
     7
100
AcDbLine
 10
84.33232587028633
 20
-0.0000000000009095
 30
0.0
 11
94.33232587028635
 21
-0.0000000000009095
 31
0.0
  0
LINE
  5
325E
330
18
100
AcDbEntity
  8
9180143-COMPLESSIVO_DI_MON
  6
Continuous
 62
     7
100
AcDbLine
 10
84.33232587028633
 20
41.99999999999909
 30
0.0
 11
94.33232587028635
 21
41.99999999999909
 31
0.0
  0
LINE
  5
325F
330
18
100
AcDbEntity
  8
9180143-COMPLESSIVO_DI_MON
  6
Continuous
 62
     7
100
AcDbLine
 10
94.33232587028635
 20
41.99999999999909
 30
0.0
 11
84.33232587028633
 21
41.99999999999909
 31
0.0
  0
LINE
  5
3260
330
18
100
AcDbEntity
  8
9180143-COMPLESSIVO_DI_MON
  6
Continuous
 62
     7
100
AcDbLine
 10
84.33232587028633
 20
56.99999999999909
 30
0.0
 11
84.33232587028633
 21
41.99999999999909
 31
0.0
  0
LINE
  5
3261
330
18
100
AcDbEntity
  8
9180143-COMPLESSIVO_DI_MON
  6
Continuous
 62
     7
100
AcDbLine
 10
87.33232587028636
 20
59.99999999999909
 30
0.0
 11
94.33232587028635
 21
59.99999999999909
 31
0.0
  0
LINE
  5
3262
330
18
100
AcDbEntity
  8
TRATTEGGI
100
AcDbLine
 10
155.332325870287
 20
59.99999999999909
 30
0.0
 11
155.332325870287
 21
0.0000000000045475
 31
0.0
  0
LINE
  5
3263
330
18
100
AcDbEntity
  8
TRATTEGGI
100
AcDbLine
 10
187.3323258702869
 20
59.99999999999909
 30
0.0
 11
187.3323258702871
 21
0.0000000000038654
 31
0.0
  0
ARC
  5
3264
330
18
100
AcDbEntity
  8
9180143-COMPLESSIVO_DI_MON
  6
Continuous
 62
     7
100
AcDbCircle
 10
94.3323258702863
 20
443.2194055836005
 30
0.0
 40
9.999999999999996
100
AcDbArc
 50
180.0
 51
270.0
  0
LINE
  5
3265
330
18
100
AcDbEntity
  8
ASSI
100
AcDbLine
 10
96.33232587028636
 20
433.0098544829936
 30
0.0
 11
96.33232587028636
 21
456.0500640930159
 31
0.0
  0
LINE
  5
3266
330
18
100
AcDbEntity
  8
ASSI
100
AcDbLine
 10
106.7857787270739
 20
445.2194055835994
 30
0.0
 11
85.63752027570433
 21
445.2194055835994
 31
0.0
  0
LINE
  5
3267
330
18
100
AcDbEntity
  8
NORMALI
100
AcDbLine
 10
273.526924555606
 20
-25.00000000000352
 30
0.0
 11
299.6576742476214
 21
-25.00000000000307
 31
0.0
  0
LINE
  5
3268
330
18
100
AcDbEntity
  8
NORMALI
100
AcDbLine
 10
296.3323258702864
 20
58.49999999999693
 30
0.0
 11
277.3323258702864
 21
58.49999999999693
 31
0.0
  0
LINE
  5
326A
330
18
100
AcDbEntity
  8
NORMALI
100
AcDbLine
 10
296.3323258702864
 20
33.49999999999784
 30
0.0
 11
277.3323258702871
 21
33.49999999999693
 31
0.0
  0
LINE
  5
326B
330
18
100
AcDbEntity
  8
NORMALI
100
AcDbLine
 10
296.3323258702871
 20
-33.50000000000306
 30
0.0
 11
277.3323258702871
 21
-33.50000000000306
 31
0.0
  0
LINE
  5
326C
330
18
100
AcDbEntity
  8
9180143-COMPLESSIVO_DI_MON
  6
Continuous
 62
     7
100
AcDbLine
 10
262.3323258702872
 20
55.0
 30
0.0
 11
262.3323258702872
 21
60.0
 31
0.0
  0
LINE
  5
326D
330
18
100
AcDbEntity
  8
DISEGNO
100
AcDbLine
 10
277.3323258702864
 20
24.99999999999682
 30
0.0
 11
277.3323258702864
 21
85.00000000000136
 31
0.0
  0
ARC
  5
326E
330
18
100
AcDbEntity
  8
9180143-COMPLESSIVO_DI_MON
  6
Continuous
 62
     7
100
AcDbCircle
 10
262.8323258702863
 20
13.10000000000127
 30
0.0
 40
1.899999999999976
100
AcDbArc
 50
270.0
 51
0.0
  0
LINE
  5
326F
330
18
100
AcDbEntity
  8
9180143-COMPLESSIVO_DI_MON
  6
Continuous
 62
     7
100
AcDbLine
 10
274.4666171763925
 20
24.0000000000009
 30
0.0
 11
274.4666171763925
 21
-23.99999999999909
 31
0.0
  0
LINE
  5
3270
330
18
100
AcDbEntity
  8
9180143-COMPLESSIVO_DI_MON
  6
Continuous
 62
     7
100
AcDbLine
 10
262.532325870287
 20
24.0000000000009
 30
0.0
 11
262.532325870287
 21
-23.99999999999909
 31
0.0
  0
LINE
  5
3271
330
18
100
AcDbEntity
  8
9180143-COMPLESSIVO_DI_MON
  6
Continuous
 62
     7
100
AcDbLine
 10
262.3323258702864
 20
-0.0000000000009095
 30
0.0
 11
262.3323258702864
 21
27.49999999999909
 31
0.0
  0
ELLIPSE
  5
3272
330
18
100
AcDbEntity
  8
9180143-COMPLESSIVO_DI_MON
  6
Continuous
 62
     7
100
AcDbEllipse
 10
273.526924555606
 20
-23.99999999999909
 30
0.0
 11
-0.0000000000000011
 21
-0.9999999999999952
 31
0.0
210
0.0
220
0.0
230
1.0
 40
0.9396926207859078
 41
0.0
 42
1.570796326794897
  0
LINE
  5
3273
330
18
100
AcDbEntity
  8
DISEGNO
100
AcDbLine
 10
262.3323258702864
 20
-33.50000000000306
 30
0.0
 11
277.3323258702864
 21
-33.50000000000306
 31
0.0
  0
LINE
  5
3274
330
18
100
AcDbEntity
  8
9180143-COMPLESSIVO_DI_MON
  6
Continuous
 62
     7
100
AcDbLine
 10
262.8323258702863
 20
11.20000000000163
 30
0.0
 11
262.532325870287
 21
11.20000000000163
 31
0.0
  0
ARC
  5
3275
330
18
100
AcDbEntity
  8
9180143-COMPLESSIVO_DI_MON
  6
Continuous
 62
     7
100
AcDbCircle
 10
262.8323258702863
 20
-16.89999999999872
 30
0.0
 40
1.899999999999976
100
AcDbArc
 50
270.0
 51
0.0
  0
LINE
  5
3276
330
18
100
AcDbEntity
  8
9180143-COMPLESSIVO_DI_MON
  6
Continuous
 62
     7
100
AcDbLine
 10
262.8323258702863
 20
-11.1999999999989
 30
0.0
 11
262.532325870287
 21
-11.1999999999989
 31
0.0
  0
ARC
  5
3277
330
18
100
AcDbEntity
  8
9180143-COMPLESSIVO_DI_MON
  6
Continuous
 62
     7
100
AcDbCircle
 10
262.8323258702863
 20
-13.09999999999945
 30
0.0
 40
1.899999999999941
100
AcDbArc
 50
0.0
 51
90.0
  0
LINE
  5
3278
330
18
100
AcDbEntity
  8
9180143-COMPLESSIVO_DI_MON
  6
Continuous
 62
     7
100
AcDbLine
 10
264.7323258702868
 20
-13.09999999999945
 30
0.0
 11
264.7323258702868
 21
-16.89999999999872
 31
0.0
  0
LINE
  5
3279
330
18
100
AcDbEntity
  8
9180143-COMPLESSIVO_DI_MON
  6
Continuous
 62
     7
100
AcDbLine
 10
262.532325870287
 20
-23.99999999999909
 30
0.0
 11
262.532325870287
 21
-24.99999999999909
 31
0.0
  0
LINE
  5
327A
330
18
100
AcDbEntity
  8
9180143-COMPLESSIVO_DI_MON
  6
Continuous
 62
     7
100
AcDbLine
 10
263.1903057269616
 20
-24.99999999999909
 30
0.0
 11
273.526924555606
 21
-24.99999999999909
 31
0.0
  0
LINE
  5
327B
330
18
100
AcDbEntity
  8
9180143-COMPLESSIVO_DI_MON
  6
Continuous
 62
     7
100
AcDbLine
 10
262.532325870287
 20
-24.99999999999909
 30
0.0
 11
263.1903057269616
 21
-24.99999999999909
 31
0.0
  0
LINE
  5
327C
330
18
100
AcDbEntity
  8
9180143-COMPLESSIVO_DI_MON
  6
Continuous
 62
     7
100
AcDbLine
 10
262.8323258702863
 20
-18.79999999999836
 30
0.0
 11
262.532325870287
 21
-18.79999999999836
 31
0.0
  0
LINE
  5
327D
330
18
100
AcDbEntity
  8
9180143-COMPLESSIVO_DI_MON
  6
Continuous
 62
     7
100
AcDbLine
 10
262.3323258702864
 20
-32.50000000000091
 30
0.0
 11
262.3323258702864
 21
-27.50000000000091
 31
0.0
  0
LINE
  5
327E
330
18
100
AcDbEntity
  8
9180143-COMPLESSIVO_DI_MON
  6
Continuous
 62
     7
100
AcDbLine
 10
262.3323258702864
 20
-0.0000000000009095
 30
0.0
 11
262.3323258702864
 21
-27.50000000000091
 31
0.0
  0
LINE
  5
327F
330
18
100
AcDbEntity
  8
9180143-COMPLESSIVO_DI_MON
  6
Continuous
 62
     7
100
AcDbLine
 10
262.3323258702872
 20
-24.99999999999909
 30
0.0
 11
262.532325870287
 21
-24.99999999999909
 31
0.0
  0
LINE
  5
3280
330
18
100
AcDbEntity
  8
NORMALI
100
AcDbLine
 10
273.526924555606
 20
25.00000000000091
 30
0.0
 11
289.6576742476214
 21
24.99999999999693
 31
0.0
  0
ELLIPSE
  5
3281
330
18
100
AcDbEntity
  8
9180143-COMPLESSIVO_DI_MON
  6
Continuous
 62
     7
100
AcDbEllipse
 10
273.526924555606
 20
24.0000000000009
 30
0.0
 11
0.0000000000000006
 21
0.9999999999999978
 31
0.0
210
0.0
220
0.0
230
1.0
 40
0.9396926207859085
 41
4.712388980384688
 42
6.283185307179584
  0
LINE
  5
3282
330
18
100
AcDbEntity
  8
DISEGNO
100
AcDbLine
 10
262.3323258702864
 20
33.49999999999602
 30
0.0
 11
277.3323258702864
 21
33.49999999999602
 31
0.0
  0
LINE
  5
3283
330
18
100
AcDbEntity
  8
9180143-COMPLESSIVO_DI_MON
  6
Continuous
 62
     7
100
AcDbLine
 10
262.532325870287
 20
25.00000000000091
 30
0.0
 11
262.532325870287
 21
24.0000000000009
 31
0.0
  0
LINE
  5
3284
330
18
100
AcDbEntity
  8
9180143-COMPLESSIVO_DI_MON
  6
Continuous
 62
     7
100
AcDbLine
 10
263.1903057269616
 20
25.00000000000091
 30
0.0
 11
273.526924555606
 21
25.00000000000091
 31
0.0
  0
LINE
  5
3285
330
18
100
AcDbEntity
  8
9180143-COMPLESSIVO_DI_MON
  6
Continuous
 62
     7
100
AcDbLine
 10
262.532325870287
 20
25.00000000000091
 30
0.0
 11
263.1903057269616
 21
25.00000000000091
 31
0.0
  0
LINE
  5
3286
330
18
100
AcDbEntity
  8
9180143-COMPLESSIVO_DI_MON
  6
Continuous
 62
     7
100
AcDbLine
 10
262.8323258702863
 20
18.800000000002
 30
0.0
 11
262.532325870287
 21
18.800000000002
 31
0.0
  0
ARC
  5
3287
330
18
100
AcDbEntity
  8
9180143-COMPLESSIVO_DI_MON
  6
Continuous
 62
     7
100
AcDbCircle
 10
262.8323258702863
 20
16.90000000000145
 30
0.0
 40
1.899999999999985
100
AcDbArc
 50
0.0
 51
90.0
  0
LINE
  5
3288
330
18
100
AcDbEntity
  8
9180143-COMPLESSIVO_DI_MON
  6
Continuous
 62
     7
100
AcDbLine
 10
264.7323258702868
 20
16.90000000000145
 30
0.0
 11
264.7323258702868
 21
13.10000000000127
 31
0.0
  0
LINE
  5
3289
330
18
100
AcDbEntity
  8
9180143-COMPLESSIVO_DI_MON
  6
Continuous
 62
     7
100
AcDbLine
 10
262.3323258702872
 20
27.5
 30
0.0
 11
262.3323258702872
 21
32.5
 31
0.0
  0
LINE
  5
328A
330
18
100
AcDbEntity
  8
9180143-COMPLESSIVO_DI_MON
  6
Continuous
 62
     7
100
AcDbLine
 10
262.3323258702872
 20
32.5
 30
0.0
 11
262.3323258702872
 21
55.0
 31
0.0
  0
LINE
  5
328B
330
18
100
AcDbEntity
  8
9180143-COMPLESSIVO_DI_MON
  6
Continuous
 62
     7
100
AcDbLine
 10
262.532325870287
 20
25.00000000000091
 30
0.0
 11
262.3323258702872
 21
25.00000000000091
 31
0.0
  0
LINE
  5
328C
330
18
100
AcDbEntity
  8
DISEGNO
100
AcDbLine
 10
289.6576742476214
 20
85.00000000000589
 30
0.0
 11
262.3323258702864
 21
85.00000000000046
 31
0.0
  0
LINE
  5
328D
330
18
100
AcDbEntity
  8
NORMALI
100
AcDbLine
 10
296.3323258702864
 20
58.49999999999693
 30
0.0
 11
296.3323258702864
 21
51.09732145461896
 31
0.0
  0
LINE
  5
328E
330
18
100
AcDbEntity
  8
NORMALI
100
AcDbLine
 10
296.3323258702864
 20
58.49999999999693
 30
0.0
 11
297.3323258702864
 21
57.49999999999693
 31
0.0
  0
LINE
  5
328F
330
18
100
AcDbEntity
  8
NORMALI
100
AcDbLine
 10
297.3323258702864
 20
-34.50000000000398
 30
0.0
 11
296.3323258702864
 21
-33.50000000000397
 31
0.0
  0
LINE
  5
3291
330
18
100
AcDbEntity
  8
NORMALI
100
AcDbLine
 10
297.3323258702864
 20
34.49999999999784
 30
0.0
 11
296.3323258702864
 21
33.49999999999784
 31
0.0
  0
LINE
  5
3292
330
18
100
AcDbEntity
  8
NORMALI
100
AcDbLine
 10
296.3323258702864
 20
33.49999999999784
 30
0.0
 11
296.3323258702864
 21
40.90267854537489
 31
0.0
  0
LINE
  5
3293
330
18
100
AcDbEntity
  8
NORMALI
100
AcDbLine
 10
297.3323258702864
 20
57.49999999999693
 30
0.0
 11
297.3323258702864
 21
34.49999999999784
 31
0.0
  0
LINE
  5
3294
330
18
100
AcDbEntity
  8
ASSI
100
AcDbLine
 10
256.7857787270739
 20
467.2194055835993
 30
0.0
 11
235.6375202757043
 21
467.2194055835993
 31
0.0
  0
LINE
  5
3295
330
18
100
AcDbEntity
  8
ASSI
100
AcDbLine
 10
246.3323258702863
 20
455.0098544829936
 30
0.0
 11
246.3323258702863
 21
478.0500640930161
 31
0.0
  0
LINE
  5
3296
330
18
100
AcDbEntity
  8
9180143-COMPLESSIVO_DI_MON
  6
Continuous
 62
     7
100
AcDbLine
 10
262.3323258702864
 20
561.2194055836005
 30
0.0
 11
94.33232587028635
 21
561.2194055836005
 31
0.0
  0
LINE
  5
3297
330
18
100
AcDbEntity
  8
ASSI
100
AcDbLine
 10
106.7857787270739
 20
549.2194055835994
 30
0.0
 11
85.63752027570433
 21
549.2194055835994
 31
0.0
  0
ARC
  5
3298
330
18
100
AcDbEntity
  8
9180143-COMPLESSIVO_DI_MON
  6
Continuous
 62
     7
100
AcDbCircle
 10
94.33232587028635
 20
551.2194055836005
 30
0.0
 40
10.0
100
AcDbArc
 50
90.0
 51
180.0
  0
LINE
  5
3299
330
18
100
AcDbEntity
  8
ASSI
100
AcDbLine
 10
96.33232587028636
 20
537.0098544829936
 30
0.0
 11
96.33232587028636
 21
560.0500640930159
 31
0.0
  0
CIRCLE
  5
329A
330
18
100
AcDbEntity
  8
NORMALI
100
AcDbCircle
 10
171.3323258702863
 20
497.2194055835993
 30
0.0
 40
12.5
  0
LINE
  5
329B
330
18
100
AcDbEntity
  8
NORMALI
100
AcDbLine
 10
296.33232587028
 20
579.7224055835892
 30
0.0
 11
277.33232587028
 21
579.7224055835892
 31
0.0
  0
LINE
  5
329C
330
18
100
AcDbEntity
  8
NORMALI
100
AcDbLine
 10
296.33232587028
 20
554.7224055835902
 30
0.0
 11
277.3323258702808
 21
554.7224055835893
 31
0.0
  0
ARC
  5
329D
330
18
100
AcDbEntity
  8
DISEGNO
100
AcDbCircle
 10
265.3323258702863
 20
577.2194055835914
 30
0.0
 40
3.0
100
AcDbArc
 50
90.0
 51
180.0
  0
LINE
  5
329E
330
18
100
AcDbEntity
  8
ASSI
100
AcDbLine
 10
256.7857787270739
 20
527.2194055835994
 30
0.0
 11
235.6375202757043
 21
527.2194055835994
 31
0.0
  0
LINE
  5
329F
330
18
100
AcDbEntity
  8
ASSI
100
AcDbLine
 10
246.3323258702863
 20
515.0098544829936
 30
0.0
 11
246.3323258702863
 21
538.0500640930161
 31
0.0
  0
LINE
  5
32A0
330
18
100
AcDbEntity
  8
9180143-COMPLESSIVO_DI_MON
  6
Continuous
 62
     7
100
AcDbLine
 10
262.3323258702864
 20
530.2194055835903
 30
0.0
 11
262.3323258702864
 21
532.2194055835914
 31
0.0
  0
LINE
  5
32A1
330
18
100
AcDbEntity
  8
9180143-COMPLESSIVO_DI_MON
  6
Continuous
 62
     7
100
AcDbLine
 10
262.3323258702864
 20
537.2194055835977
 30
0.0
 11
262.3323258702864
 21
532.2194055835969
 31
0.0
  0
LINE
  5
32A2
330
18
100
AcDbEntity
  8
9180143-COMPLESSIVO_DI_MON
  6
Continuous
 62
     7
100
AcDbLine
 10
262.3323258702864
 20
537.2194055835977
 30
0.0
 11
262.3323258702864
 21
558.2194055835996
 31
0.0
  0
LINE
  5
32A3
330
18
100
AcDbEntity
  8
9180143-COMPLESSIVO_DI_MON
  6
Continuous
 62
     7
100
AcDbLine
 10
262.3323258702864
 20
537.2194055835977
 30
0.0
 11
262.3323258702864
 21
565.2194055835976
 31
0.0
  0
LINE
  5
32A4
330
18
100
AcDbEntity
  8
DISEGNO
100
AcDbLine
 10
265.3323258702863
 20
580.2194055835914
 30
0.0
 11
277.3323258702864
 21
580.2194055835914
 31
0.0
  0
LINE
  5
32A5
330
18
100
AcDbEntity
  8
NORMALI
100
AcDbLine
 10
296.33232587028
 20
579.7224055835892
 30
0.0
 11
296.33232587028
 21
572.3197270382112
 31
0.0
  0
LINE
  5
32A6
330
18
100
AcDbEntity
  8
NORMALI
100
AcDbLine
 10
297.3323258702799
 20
578.7224055835891
 30
0.0
 11
297.3323258702799
 21
555.72240558359
 31
0.0
  0
LINE
  5
32A7
330
18
100
AcDbEntity
  8
NORMALI
100
AcDbLine
 10
296.33232587028
 20
554.7224055835902
 30
0.0
 11
296.33232587028
 21
562.1250841289671
 31
0.0
  0
LINE
  5
32A8
330
18
100
AcDbEntity
  8
NORMALI
100
AcDbLine
 10
297.3323258702799
 20
555.72240558359
 30
0.0
 11
296.33232587028
 21
554.7224055835902
 31
0.0
  0
LINE
  5
32BC
330
18
100
AcDbEntity
  8
DISEGNO
100
AcDbLine
 10
1535.642076015929
 20
433.2194055836004
 30
0.0
 11
1655.64207601593
 21
433.2194055836004
 31
0.0
  0
LINE
  5
32DA
330
18
100
AcDbEntity
  8
DISEGNO
100
AcDbLine
 10
1553.642076015929
 20
433.2194055836004
 30
0.0
 11
1553.642076015929
 21
561.2194055835939
 31
0.0
  0
LINE
  5
32E0
330
18
100
AcDbEntity
  8
DISEGNO
100
AcDbLine
 10
1637.64207601593
 20
433.2194055836004
 30
0.0
 11
1637.64207601593
 21
561.2194055835939
 31
0.0
  0
ENDSEC
  0
SECTION
  2
OBJECTS
  0
DICTIONARY
  5
C
330
0
100
AcDbDictionary
281
     1
  3
ACAD_COLOR
350
33B6
  3
ACAD_GROUP
350
D
  3
ACAD_LAYOUT
350
C2E
  3
ACAD_MATERIAL
350
338C
  3
ACAD_MLEADERSTYLE
350
33DB
  3
ACAD_MLINESTYLE
350
1B
  3
ACAD_PLOTSETTINGS
350
C2F
  3
ACAD_PLOTSTYLENAME
350
C2C
  3
ACAD_SCALELIST
350
33B9
  3
ACAD_TABLESTYLE
350
33B7
  3
ACAD_VISUALSTYLE
350
33A5
  3
ACDB_RECOMPOSE_DATA
350
33F8
  3
ACDBVARIABLEDICTIONARY
350
D64
  3
ACGREF_MASTER
350
C49
  3
ACGREFACAD_MASTER
350
C4D
  3
ACMDICTIONARY
350
C4F
  3
ACME_BOM_MANAGER_NAME
350
30BC
  3
ACME_COMMAND_HISTORY
350
30B7
  3
ACME_SCOPE_NAME
350
30B6
  3
ACMESTATEMGR
350
30C1
  3
ACMESYSVARMANAGER
350
30B8
  3
ACMSYSTEMVARIABLEMANAGER
350
30C8
  3
AMG
350
C35
  3
AMGSNAPSETTINGS
350
C82
  3
AMI_MASTER
350
C4E
  3
ASE_INDEX_DICTIONARY
350
32BE
  0
DICTIONARY
  5
2BEE
330
2
100
AcDbDictionary
280
     1
281
     1
  3
ACAD_LAYERFILTERS
360
2BEF
  0
DICTIONARY
  5
33E5
330
E
100
AcDbDictionary
280
     1
281
     1
  3
ADSK_XREC_LAYER_RECONCILED
360
33E6
  0
DICTIONARY
  5
33E7
330
143
100
AcDbDictionary
280
     1
281
     1
  3
ADSK_XREC_LAYER_RECONCILED
360
33E8
  0
DICTIONARY
  5
33E9
330
145
100
AcDbDictionary
280
     1
281
     1
  3
ADSK_XREC_LAYER_RECONCILED
360
33EA
  0
DICTIONARY
  5
33EB
330
146
100
AcDbDictionary
280
     1
281
     1
  3
ADSK_XREC_LAYER_RECONCILED
360
33EC
  0
DICTIONARY
  5
33ED
330
147
100
AcDbDictionary
280
     1
281
     1
  3
ADSK_XREC_LAYER_RECONCILED
360
33EE
  0
DICTIONARY
  5
33EF
330
31BC
100
AcDbDictionary
280
     1
281
     1
  3
ADSK_XREC_LAYER_RECONCILED
360
33F0
  0
DICTIONARY
  5
33F1
330
31BD
100
AcDbDictionary
280
     1
281
     1
  3
ADSK_XREC_LAYER_RECONCILED
360
33F2
  0
DICTIONARY
  5
D57
330
18
100
AcDbDictionary
280
     1
281
     1
  3
ACAD_INDEX
360
317E
  3
ACAD_LAYOUTSELFREF
360
3389
  0
DICTIONARY
  5
DA9
330
15
100
AcDbDictionary
280
     1
281
     1
  3
ACAD_LAYOUTSELFREF
360
3388
  0
DICTIONARY
  5
33B6
102
{ACAD_REACTORS
330
C
102
}
330
C
100
AcDbDictionary
281
     1
  0
DICTIONARY
  5
D
102
{ACAD_REACTORS
330
C
102
}
330
C
100
AcDbDictionary
281
     1
  0
DICTIONARY
  5
C2E
102
{ACAD_REACTORS
330
C
102
}
330
C
100
AcDbDictionary
281
     1
  3
Layout1
350
33DF
  3
Model
350
33DE
  0
DICTIONARY
  5
338C
102
{ACAD_REACTORS
330
C
102
}
330
C
100
AcDbDictionary
281
     1
  3
ByBlock
350
3395
  3
ByLayer
350
338D
  3
Global
350
339D
  0
DICTIONARY
  5
33DB
102
{ACAD_REACTORS
330
C
102
}
330
C
100
AcDbDictionary
281
     1
  3
Standard
350
33DC
  0
DICTIONARY
  5
1B
102
{ACAD_REACTORS
330
C
102
}
330
C
100
AcDbDictionary
281
     1
  3
STANDARD
350
1C
  0
DICTIONARY
  5
C2F
102
{ACAD_REACTORS
330
C
102
}
330
C
100
AcDbDictionary
281
     1
  0
ACDBDICTIONARYWDFLT
  5
C2C
102
{ACAD_REACTORS
330
C
102
}
330
C
100
AcDbDictionary
281
     1
  3
Normal
350
C2D
100
AcDbDictionaryWithDefault
340
C2D
  0
DICTIONARY
  5
33B9
102
{ACAD_REACTORS
330
C
102
}
330
C
100
AcDbDictionary
281
     1
  3
A0
350
33BA
  3
A1
350
33BB
  3
A2
350
33BC
  3
A3
350
33BD
  3
A4
350
33BE
  3
A5
350
33BF
  3
A6
350
33C0
  3
A7
350
33C1
  3
A8
350
33C2
  3
A9
350
33C3
  3
B0
350
33C4
  3
B1
350
33C5
  3
B2
350
33C6
  3
B3
350
33C7
  3
B4
350
33C8
  3
B5
350
33C9
  3
B6
350
33CA
  3
B7
350
33CB
  3
B8
350
33CC
  3
B9
350
33CD
  3
C0
350
33CE
  3
C1
350
33CF
  3
C2
350
33D0
  3
C3
350
33D1
  3
C4
350
33D2
  3
C5
350
33D3
  3
C6
350
33D4
  3
C7
350
33D5
  3
C8
350
33D6
  3
C9
350
33D7
  3
D0
350
33D8
  3
D1
350
33D9
  3
D2
350
33DA
  0
DICTIONARY
  5
33B7
102
{ACAD_REACTORS
330
C
102
}
330
C
100
AcDbDictionary
281
     1
  3
Standard
350
33B8
  0
DICTIONARY
  5
33A5
102
{ACAD_REACTORS
330
C
102
}
330
C
100
AcDbDictionary
281
     1
  3
2dWireframe
350
33AB
  3
3D Hidden
350
33AD
  3
3dWireframe
350
33AC
  3
Basic
350
33AA
  3
Brighten
350
33B1
  3
ColorChange
350
33B5
  3
Conceptual
350
33AE
  3
Dim
350
33B0
  3
Facepattern
350
33B4
  3
Flat
350
33A6
  3
FlatWithEdges
350
33A7
  3
Gouraud
350
33A8
  3
GouraudWithEdges
350
33A9
  3
Linepattern
350
33B3
  3
Realistic
350
33AF
  3
Thicken
350
33B2
  0
XRECORD
  5
33F8
102
{ACAD_REACTORS
330
C
102
}
330
C
100
AcDbXrecord
280
     1
 90
        1
330
33B8
  0
DICTIONARY
  5
D64
102
{ACAD_REACTORS
330
C
102
}
330
C
100
AcDbDictionary
281
     1
  3
CANNOSCALE
350
33F5
  3
CMLEADERSTYLE
350
33F4
  3
CTABLESTYLE
350
33F3
  3
DIMASSOC
350
D66
  3
INDEXCTL
350
D65
  0
ACAD_PROXY_OBJECT
  5
C49
102
{ACAD_REACTORS
330
C
102
}
330
C
100
AcDbProxyObject
 90
      499
 91
      517
 95
   393239
 70
     0
 93
       34
310
040000428C
 94
        0
  0
ACAD_PROXY_OBJECT
  5
C4D
102
{ACAD_REACTORS
330
C
102
}
330
C
100
AcDbProxyObject
 90
      499
 91
      520
 95
   393239
 70
     0
 93
      114
310
04000041C00000000000000000000C
 94
        0
  0
DICTIONARY
  5
C4F
102
{ACAD_REACTORS
330
C
102
}
330
C
100
AcDbDictionary
281
     1
  3
ACMBOMDATA
350
30C5
  3
ACMSTDDICTIONARY
350
C55
  0
ACAD_PROXY_OBJECT
  5
30BC
102
{ACAD_REACTORS
330
C
102
}
330
C
100
AcDbProxyObject
 90
      499
 91
      511
 95
   393239
 70
     0
 93
       50
310
0001004040000C
330
0
330
0
330
30BD
 94
        0
  0
ACAD_PROXY_OBJECT
  5
30B7
102
{ACAD_REACTORS
330
C
102
}
330
C
100
AcDbProxyObject
 90
      499
 91
      507
 95
   393239
 70
     0
 93
     3182
310
47805044C494E4540405184D5347202D20436F6D6D616E642043414E43454C4C45442E01411514925350101461354D1C80B4810DBDB5B585B990810D05390D1531311510B805094D4154434850524F50805045A4F4F4D80505505552474580505515341564580504554E444F80504554E444F80504554E444F80504554E444
310
F80504554E444F8050944494D4C494E45415240405184D5347202D20436F6D6D616E642043414E43454C4C45442E014115539113E014115539113E014115539113E014193D19194D15510101461354D1C80B4810DBDB5B585B990810D05390D1531311510B805064F464653455440405184D5347202D20436F6D6D616E6420
310
43414E43454C4C45442E014115539113E01411693D3D360142511253531253915054A014151549054D160142511253531253915054A0141D4D514915510D2201405560141D4D514915510D210101461354D1C80B4810DBDB5B585B990810D05390D1531311510B805075354524554434880507535452455443488050545524
310
15345805045A4F4F4D8050551534156458
 94
        0
  0
ACAD_PROXY_OBJECT
  5
30B6
102
{ACAD_REACTORS
330
C
102
}
330
C
100
AcDbProxyObject
 90
      499
 91
      506
 95
   393239
 70
     0
 93
      218
310
060000444000000000000000000010641E000000000000AAA406AA8C
360
30B9
360
30BA
360
30BB
360
30BD
360
30C9
360
30E5
 94
        0
  0
ACAD_PROXY_OBJECT
  5
30C1
102
{ACAD_REACTORS
330
C
102
}
330
C
100
AcDbProxyObject
 90
      499
 91
      516
 95
   393239
 70
     0
 93
       50
310
0600004164128C
 94
        0
  0
ACAD_PROXY_OBJECT
  5
30B8
102
{ACAD_REACTORS
330
C
102
}
330
C
100
AcDbProxyObject
 90
      499
 91
      508
 95
   393239
 70
     0
 93
       48
310
903412000000EC
330
30B9
330
30BA
330
30BB
 94
        0
  0
ACAD_PROXY_OBJECT
  5
30C8
102
{ACAD_REACTORS
330
C
102
}
330
C
100
AcDbProxyObject
 90
      499
 91
      508
 95
   393239
 70
     0
 93
       32
310
90140A0000
330
30C9
 94
        0
  0
DICTIONARY
  5
C35
102
{ACAD_REACTORS
330
C
102
}
330
C
100
AcDbDictionary
281
     1
  3
ACMGSETTINGS
350
C36
  3
AMGLAYCFG
350
30CB
  0
DICTIONARY
  5
C82
102
{ACAD_REACTORS
330
C
102
}
330
C
100
AcDbDictionary
281
     1
  0
ACAD_PROXY_OBJECT
  5
C4E
102
{ACAD_REACTORS
330
C
102
}
330
C
100
AcDbProxyObject
 90
      499
 91
      521
 95
   393239
 70
     0
 93
       34
310
050000428C
 94
        0
  0
DICTIONARY
  5
32BE
102
{ACAD_REACTORS
330
C
102
}
330
C
100
AcDbDictionary
281
     1
  3
ASEBLOCKHIERARCHYINDEXRECORD
350
32C0
1001
DCO15
1040
1478519782.625999
  0
DICTIONARY
  5
2BEF
102
{ACAD_REACTORS
330
2BEE
102
}
330
2BEE
100
AcDbDictionary
280
     1
281
     1
  3
PIPPO
360
2BF0
  0
XRECORD
  5
33E6
102
{ACAD_REACTORS
330
33E5
102
}
330
33E5
100
AcDbXrecord
280
     1
290
     1
  0
XRECORD
  5
33E8
102
{ACAD_REACTORS
330
33E7
102
}
330
33E7
100
AcDbXrecord
280
     1
290
     1
  0
XRECORD
  5
33EA
102
{ACAD_REACTORS
330
33E9
102
}
330
33E9
100
AcDbXrecord
280
     1
290
     1
  0
XRECORD
  5
33EC
102
{ACAD_REACTORS
330
33EB
102
}
330
33EB
100
AcDbXrecord
280
     1
290
     1
  0
XRECORD
  5
33EE
102
{ACAD_REACTORS
330
33ED
102
}
330
33ED
100
AcDbXrecord
280
     1
290
     1
  0
XRECORD
  5
33F0
102
{ACAD_REACTORS
330
33EF
102
}
330
33EF
100
AcDbXrecord
280
     1
290
     1
  0
XRECORD
  5
33F2
102
{ACAD_REACTORS
330
33F1
102
}
330
33F1
100
AcDbXrecord
280
     1
290
     1
  0
DICTIONARY
  5
317E
102
{ACAD_REACTORS
330
D57
102
}
330
D57
100
AcDbDictionary
281
     1
  3
*A1
350
317F
  0
XRECORD
  5
3389
102
{ACAD_REACTORS
330
D57
102
}
330
D57
100
AcDbXrecord
280
     1
340
18
  0
XRECORD
  5
3388
102
{ACAD_REACTORS
330
DA9
102
}
330
DA9
100
AcDbXrecord
280
     1
340
15
  0
LAYOUT
  5
33DF
102
{ACAD_REACTORS
330
C2E
102
}
330
C2E
100
AcDbPlotSettings
  1

  2
Brother HL-5140
  4

  6

 40
0.0
 41
0.0
 42
0.0
 43
0.0
 44
0.0
 45
0.0
 46
0.0
 47
0.0
 48
0.0
 49
0.0
140
0.0
141
0.0
142
1.0
143
1.0
 70
   688
 72
     0
 73
     0
 74
     5
  7

 75
    16
147
1.0
 76
     0
 77
     2
 78
   300
148
0.0
149
0.0
100
AcDbLayout
  1
Layout1
 70
     1
 71
     1
 10
0.0
 20
0.0
 11
420.0
 21
297.0
 12
0.0
 22
0.0
 32
0.0
 14
1.000000000000000E+20
 24
1.000000000000000E+20
 34
1.000000000000000E+20
 15
-1.000000000000000E+20
 25
-1.000000000000000E+20
 35
-1.000000000000000E+20
146
0.0
 13
0.0
 23
0.0
 33
0.0
 16
1.0
 26
0.0
 36
0.0
 17
0.0
 27
1.0
 37
0.0
 76
     0
330
15
  0
LAYOUT
  5
33DE
102
{ACAD_REACTORS
330
C2E
102
}
330
C2E
100
AcDbPlotSettings
  1

  2
Brother HL-5140
  4

  6

 40
0.0
 41
0.0
 42
0.0
 43
0.0
 44
0.0
 45
0.0
 46
0.0
 47
0.0
 48
0.0
 49
0.0
140
0.0
141
0.0
142
1.0
143
1.0
 70
  1712
 72
     0
 73
     0
 74
     0
  7

 75
     0
147
1.0
 76
     0
 77
     2
 78
   300
148
0.0
149
0.0
100
AcDbLayout
  1
Model
 70
     1
 71
     0
 10
0.0
 20
0.0
 11
12.0
 21
9.0
 12
0.0
 22
0.0
 32
0.0
 14
0.0
 24
0.0
 34
0.0
 15
0.0
 25
0.0
 35
0.0
146
0.0
 13
0.0
 23
0.0
 33
0.0
 16
1.0
 26
0.0
 36
0.0
 17
0.0
 27
1.0
 37
0.0
 76
     0
330
18
331
3366
  0
MATERIAL
  5
3395
102
{ACAD_XDICTIONARY
360
3396
102
}
102
{ACAD_REACTORS
330
338C
102
}
330
338C
100
AcDbMaterial
  1
ByBlock
 72
     0
 43
0.0208333333333333
 43
0.0
 43
0.0
 43
0.0
 43
0.0
 43
0.0208333333333333
 43
0.0
 43
0.0
 43
0.0
 43
0.0
 43
1.0
 43
0.0
 43
0.0
 43
0.0
 43
0.0
 43
1.0
 77
     0
 47
0.0208333333333333
 47
0.0
 47
0.0
 47
0.0
 47
0.0
 47
0.0208333333333333
 47
0.0
 47
0.0
 47
0.0
 47
0.0
 47
1.0
 47
0.0
 47
0.0
 47
0.0
 47
0.0
 47
1.0
171
     0
 49
0.0208333333333333
 49
0.0
 49
0.0
 49
0.0
 49
0.0
 49
0.0208333333333333
 49
0.0
 49
0.0
 49
0.0
 49
0.0
 49
1.0
 49
0.0
 49
0.0
 49
0.0
 49
0.0
 49
1.0
175
     0
142
0.0208333333333333
142
0.0
142
0.0
142
0.0
142
0.0
142
0.0208333333333333
142
0.0
142
0.0
142
0.0
142
0.0
142
1.0
142
0.0
142
0.0
142
0.0
142
0.0
142
1.0
179
     0
144
0.0208333333333333
144
0.0
144
0.0
144
0.0
144
0.0
144
0.0208333333333333
144
0.0
144
0.0
144
0.0
144
0.0
144
1.0
144
0.0
144
0.0
144
0.0
144
0.0
144
1.0
147
0.0208333333333333
147
0.0
147
0.0
147
0.0
147
0.0
147
0.0208333333333333
147
0.0
147
0.0
147
0.0
147
0.0
147
1.0
147
0.0
147
0.0
147
0.0
147
0.0
147
1.0
  0
MATERIAL
  5
338D
102
{ACAD_XDICTIONARY
360
338E
102
}
102
{ACAD_REACTORS
330
338C
102
}
330
338C
100
AcDbMaterial
  1
ByLayer
 72
     0
 43
0.0208333333333333
 43
0.0
 43
0.0
 43
0.0
 43
0.0
 43
0.0208333333333333
 43
0.0
 43
0.0
 43
0.0
 43
0.0
 43
1.0
 43
0.0
 43
0.0
 43
0.0
 43
0.0
 43
1.0
 77
     0
 47
0.0208333333333333
 47
0.0
 47
0.0
 47
0.0
 47
0.0
 47
0.0208333333333333
 47
0.0
 47
0.0
 47
0.0
 47
0.0
 47
1.0
 47
0.0
 47
0.0
 47
0.0
 47
0.0
 47
1.0
171
     0
 49
0.0208333333333333
 49
0.0
 49
0.0
 49
0.0
 49
0.0
 49
0.0208333333333333
 49
0.0
 49
0.0
 49
0.0
 49
0.0
 49
1.0
 49
0.0
 49
0.0
 49
0.0
 49
0.0
 49
1.0
175
     0
142
0.0208333333333333
142
0.0
142
0.0
142
0.0
142
0.0
142
0.0208333333333333
142
0.0
142
0.0
142
0.0
142
0.0
142
1.0
142
0.0
142
0.0
142
0.0
142
0.0
142
1.0
179
     0
144
0.0208333333333333
144
0.0
144
0.0
144
0.0
144
0.0
144
0.0208333333333333
144
0.0
144
0.0
144
0.0
144
0.0
144
1.0
144
0.0
144
0.0
144
0.0
144
0.0
144
1.0
147
0.0208333333333333
147
0.0
147
0.0
147
0.0
147
0.0
147
0.0208333333333333
147
0.0
147
0.0
147
0.0
147
0.0
147
1.0
147
0.0
147
0.0
147
0.0
147
0.0
147
1.0
  0
MATERIAL
  5
339D
102
{ACAD_XDICTIONARY
360
339E
102
}
102
{ACAD_REACTORS
330
338C
102
}
330
338C
100
AcDbMaterial
  1
Global
 72
     0
 43
0.0208333333333333
 43
0.0
 43
0.0
 43
0.0
 43
0.0
 43
0.0208333333333333
 43
0.0
 43
0.0
 43
0.0
 43
0.0
 43
1.0
 43
0.0
 43
0.0
 43
0.0
 43
0.0
 43
1.0
 77
     0
 47
0.0208333333333333
 47
0.0
 47
0.0
 47
0.0
 47
0.0
 47
0.0208333333333333
 47
0.0
 47
0.0
 47
0.0
 47
0.0
 47
1.0
 47
0.0
 47
0.0
 47
0.0
 47
0.0
 47
1.0
171
     0
 49
0.0208333333333333
 49
0.0
 49
0.0
 49
0.0
 49
0.0
 49
0.0208333333333333
 49
0.0
 49
0.0
 49
0.0
 49
0.0
 49
1.0
 49
0.0
 49
0.0
 49
0.0
 49
0.0
 49
1.0
175
     0
142
0.0208333333333333
142
0.0
142
0.0
142
0.0
142
0.0
142
0.0208333333333333
142
0.0
142
0.0
142
0.0
142
0.0
142
1.0
142
0.0
142
0.0
142
0.0
142
0.0
142
1.0
179
     0
144
0.0208333333333333
144
0.0
144
0.0
144
0.0
144
0.0
144
0.0208333333333333
144
0.0
144
0.0
144
0.0
144
0.0
144
1.0
144
0.0
144
0.0
144
0.0
144
0.0
144
1.0
147
0.0208333333333333
147
0.0
147
0.0
147
0.0
147
0.0
147
0.0208333333333333
147
0.0
147
0.0
147
0.0
147
0.0
147
1.0
147
0.0
147
0.0
147
0.0
147
0.0
147
1.0
  0
MLEADERSTYLE
  5
33DC
102
{ACAD_REACTORS
330
33DB
102
}
330
33DB
100
AcDbMLeaderStyle
170
     2
171
     1
172
     0
 90
        2
 40
0.0
 41
0.0
173
     1
 91
-1056964608
340
12
 92
       -2
290
     1
 42
2.0
291
     1
 43
0.36
  3
Standard
 44
4.0
300

342
F
174
     1
178
     6
175
     1
176
     0
 93
-1056964608
 45
4.0
292
     0
297
     0
 46
4.0
 94
-1056964608
 47
1.0
 49
1.0
140
1.0
293
     1
141
0.0
294
     1
177
     0
142
1.0
295
     0
296
     0
143
0.125
1001
ACAD_MLEADERVER
1070
     2
  0
MLINESTYLE
  5
1C
102
{ACAD_REACTORS
330
1B
102
}
330
1B
100
AcDbMlineStyle
  2
STANDARD
 70
     0
  3

 62
   256
 51
90.0
 52
90.0
 71
     2
 49
0.5
 62
   256
  6
BYLAYER
 49
-0.5
 62
   256
  6
BYLAYER
  0
ACDBPLACEHOLDER
  5
C2D
102
{ACAD_REACTORS
330
C2C
102
}
330
C2C
  0
SCALE
  5
33BA
102
{ACAD_REACTORS
330
33B9
102
}
330
33B9
100
AcDbScale
 70
     0
300
1:1
140
1.0
141
1.0
290
     1
  0
SCALE
  5
33BB
102
{ACAD_REACTORS
330
33B9
102
}
330
33B9
100
AcDbScale
 70
     0
300
1:2
140
1.0
141
2.0
290
     0
  0
SCALE
  5
33BC
102
{ACAD_REACTORS
330
33B9
102
}
330
33B9
100
AcDbScale
 70
     0
300
1:4
140
1.0
141
4.0
290
     0
  0
SCALE
  5
33BD
102
{ACAD_REACTORS
330
33B9
102
}
330
33B9
100
AcDbScale
 70
     0
300
1:5
140
1.0
141
5.0
290
     0
  0
SCALE
  5
33BE
102
{ACAD_REACTORS
330
33B9
102
}
330
33B9
100
AcDbScale
 70
     0
300
1:8
140
1.0
141
8.0
290
     0
  0
SCALE
  5
33BF
102
{ACAD_REACTORS
330
33B9
102
}
330
33B9
100
AcDbScale
 70
     0
300
1:10
140
1.0
141
10.0
290
     0
  0
SCALE
  5
33C0
102
{ACAD_REACTORS
330
33B9
102
}
330
33B9
100
AcDbScale
 70
     0
300
1:16
140
1.0
141
16.0
290
     0
  0
SCALE
  5
33C1
102
{ACAD_REACTORS
330
33B9
102
}
330
33B9
100
AcDbScale
 70
     0
300
1:20
140
1.0
141
20.0
290
     0
  0
SCALE
  5
33C2
102
{ACAD_REACTORS
330
33B9
102
}
330
33B9
100
AcDbScale
 70
     0
300
1:30
140
1.0
141
30.0
290
     0
  0
SCALE
  5
33C3
102
{ACAD_REACTORS
330
33B9
102
}
330
33B9
100
AcDbScale
 70
     0
300
1:40
140
1.0
141
40.0
290
     0
  0
SCALE
  5
33C4
102
{ACAD_REACTORS
330
33B9
102
}
330
33B9
100
AcDbScale
 70
     0
300
1:50
140
1.0
141
50.0
290
     0
  0
SCALE
  5
33C5
102
{ACAD_REACTORS
330
33B9
102
}
330
33B9
100
AcDbScale
 70
     0
300
1:100
140
1.0
141
100.0
290
     0
  0
SCALE
  5
33C6
102
{ACAD_REACTORS
330
33B9
102
}
330
33B9
100
AcDbScale
 70
     0
300
2:1
140
2.0
141
1.0
290
     0
  0
SCALE
  5
33C7
102
{ACAD_REACTORS
330
33B9
102
}
330
33B9
100
AcDbScale
 70
     0
300
4:1
140
4.0
141
1.0
290
     0
  0
SCALE
  5
33C8
102
{ACAD_REACTORS
330
33B9
102
}
330
33B9
100
AcDbScale
 70
     0
300
8:1
140
8.0
141
1.0
290
     0
  0
SCALE
  5
33C9
102
{ACAD_REACTORS
330
33B9
102
}
330
33B9
100
AcDbScale
 70
     0
300
10:1
140
10.0
141
1.0
290
     0
  0
SCALE
  5
33CA
102
{ACAD_REACTORS
330
33B9
102
}
330
33B9
100
AcDbScale
 70
     0
300
100:1
140
100.0
141
1.0
290
     0
  0
SCALE
  5
33CB
102
{ACAD_REACTORS
330
33B9
102
}
330
33B9
100
AcDbScale
 70
     0
300
1/128" = 1'-0"
140
0.0078125
141
12.0
290
     0
  0
SCALE
  5
33CC
102
{ACAD_REACTORS
330
33B9
102
}
330
33B9
100
AcDbScale
 70
     0
300
1/64" = 1'-0"
140
0.015625
141
12.0
290
     0
  0
SCALE
  5
33CD
102
{ACAD_REACTORS
330
33B9
102
}
330
33B9
100
AcDbScale
 70
     0
300
1/32" = 1'-0"
140
0.03125
141
12.0
290
     0
  0
SCALE
  5
33CE
102
{ACAD_REACTORS
330
33B9
102
}
330
33B9
100
AcDbScale
 70
     0
300
1/16" = 1'-0"
140
0.0625
141
12.0
290
     0
  0
SCALE
  5
33CF
102
{ACAD_REACTORS
330
33B9
102
}
330
33B9
100
AcDbScale
 70
     0
300
3/32" = 1'-0"
140
0.09375
141
12.0
290
     0
  0
SCALE
  5
33D0
102
{ACAD_REACTORS
330
33B9
102
}
330
33B9
100
AcDbScale
 70
     0
300
1/8" = 1'-0"
140
0.125
141
12.0
290
     0
  0
SCALE
  5
33D1
102
{ACAD_REACTORS
330
33B9
102
}
330
33B9
100
AcDbScale
 70
     0
300
3/16" = 1'-0"
140
0.1875
141
12.0
290
     0
  0
SCALE
  5
33D2
102
{ACAD_REACTORS
330
33B9
102
}
330
33B9
100
AcDbScale
 70
     0
300
1/4" = 1'-0"
140
0.25
141
12.0
290
     0
  0
SCALE
  5
33D3
102
{ACAD_REACTORS
330
33B9
102
}
330
33B9
100
AcDbScale
 70
     0
300
3/8" = 1'-0"
140
0.375
141
12.0
290
     0
  0
SCALE
  5
33D4
102
{ACAD_REACTORS
330
33B9
102
}
330
33B9
100
AcDbScale
 70
     0
300
1/2" = 1'-0"
140
0.5
141
12.0
290
     0
  0
SCALE
  5
33D5
102
{ACAD_REACTORS
330
33B9
102
}
330
33B9
100
AcDbScale
 70
     0
300
3/4" = 1'-0"
140
0.75
141
12.0
290
     0
  0
SCALE
  5
33D6
102
{ACAD_REACTORS
330
33B9
102
}
330
33B9
100
AcDbScale
 70
     0
300
1" = 1'-0"
140
1.0
141
12.0
290
     0
  0
SCALE
  5
33D7
102
{ACAD_REACTORS
330
33B9
102
}
330
33B9
100
AcDbScale
 70
     0
300
1-1/2" = 1'-0"
140
1.5
141
12.0
290
     0
  0
SCALE
  5
33D8
102
{ACAD_REACTORS
330
33B9
102
}
330
33B9
100
AcDbScale
 70
     0
300
3" = 1'-0"
140
3.0
141
12.0
290
     0
  0
SCALE
  5
33D9
102
{ACAD_REACTORS
330
33B9
102
}
330
33B9
100
AcDbScale
 70
     0
300
6" = 1'-0"
140
6.0
141
12.0
290
     0
  0
SCALE
  5
33DA
102
{ACAD_REACTORS
330
33B9
102
}
330
33B9
100
AcDbScale
 70
     0
300
1'-0" = 1'-0"
140
12.0
141
12.0
290
     0
  0
TABLESTYLE
  5
33B8
102
{ACAD_XDICTIONARY
360
33F6
102
}
102
{ACAD_REACTORS
330
33B7
102
}
330
33B7
100
AcDbTableStyle
  3
Standard
 70
     0
 71
     0
 40
1.5
 41
1.5
280
     0
281
     0
  7
STANDARD
140
4.5
170
     2
 62
     0
 63
     7
283
     0
274
    -2
284
     1
 64
     0
275
    -2
285
     1
 65
     0
276
    -2
286
     1
 66
     0
277
    -2
287
     1
 67
     0
278
    -2
288
     1
 68
     0
279
    -2
289
     1
 69
     0
  7
STANDARD
140
6.0
170
     5
 62
     0
 63
     7
283
     0
274
    -2
284
     1
 64
     0
275
    -2
285
     1
 65
     0
276
    -2
286
     1
 66
     0
277
    -2
287
     1
 67
     0
278
    -2
288
     1
 68
     0
279
    -2
289
     1
 69
     0
  7
STANDARD
140
4.5
170
     5
 62
     0
 63
     7
283
     0
274
    -2
284
     1
 64
     0
275
    -2
285
     1
 65
     0
276
    -2
286
     1
 66
     0
277
    -2
287
     1
 67
     0
278
    -2
288
     1
 68
     0
279
    -2
289
     1
 69
     0
  0
VISUALSTYLE
  5
33AB
102
{ACAD_REACTORS
330
33A5
102
}
330
33A5
100
AcDbVisualStyle
  2
2dWireframe
 70
     4
 71
     0
 72
     2
 73
     0
 90
        0
 40
-0.6
 41
-30.0
 62
     5
 63
     7
421
 16777215
 74
     1
 91
        4
 64
     7
 65
   257
 75
     1
175
     1
 42
1.0
 92
        0
 66
   257
 43
1.0
 76
     1
 77
     6
 78
     2
 67
     7
 79
     5
170
     0
171
     0
290
     0
174
     0
 93
        1
 44
0.0
173
     0
291
     0
 45
0.0
1001
ACAD
1000
AcDbSavedByObjectVersion
1070
     0
  0
VISUALSTYLE
  5
33AD
102
{ACAD_REACTORS
330
33A5
102
}
330
33A5
100
AcDbVisualStyle
  2
3D Hidden
 70
     6
 71
     1
 72
     2
 73
     2
 90
        0
 40
-0.6
 41
-30.0
 62
     5
 63
     7
421
 16777215
 74
     2
 91
        2
 64
     7
 65
   257
 75
     2
175
     1
 42
40.0
 92
        0
 66
   257
 43
1.0
 76
     1
 77
     6
 78
     2
 67
     7
 79
     3
170
     0
171
     0
290
     0
174
     0
 93
        1
 44
0.0
173
     0
291
     0
 45
0.0
1001
ACAD
1000
AcDbSavedByObjectVersion
1070
     0
  0
VISUALSTYLE
  5
33AC
102
{ACAD_REACTORS
330
33A5
102
}
330
33A5
100
AcDbVisualStyle
  2
3dWireframe
 70
     5
 71
     0
 72
     2
 73
     0
 90
        0
 40
-0.6
 41
-30.0
 62
     5
 63
     7
421
 16777215
 74
     1
 91
        4
 64
     7
 65
   257
 75
     1
175
     1
 42
1.0
 92
        0
 66
   257
 43
1.0
 76
     1
 77
     6
 78
     2
 67
     7
 79
     5
170
     0
171
     0
290
     0
174
     0
 93
        1
 44
0.0
173
     0
291
     0
 45
0.0
1001
ACAD
1000
AcDbSavedByObjectVersion
1070
     0
  0
VISUALSTYLE
  5
33AA
102
{ACAD_REACTORS
330
33A5
102
}
330
33A5
100
AcDbVisualStyle
  2
Basic
 70
     7
 71
     1
 72
     0
 73
     1
 90
        0
 40
-0.6
 41
-30.0
 62
     5
 63
     7
421
 16777215
 74
     0
 91
        4
 64
     7
 65
   257
 75
     1
175
     1
 42
1.0
 92
        8
 66
     7
 43
1.0
 76
     1
 77
     6
 78
     2
 67
     7
 79
     5
170
     0
171
     0
290
     0
174
     0
 93
        1
 44
0.0
173
     0
291
     1
 45
0.0
1001
ACAD
1000
AcDbSavedByObjectVersion
1070
     0
  0
VISUALSTYLE
  5
33B1
102
{ACAD_REACTORS
330
33A5
102
}
330
33A5
100
AcDbVisualStyle
  2
Brighten
 70
    12
 71
     2
 72
     2
 73
     0
 90
        0
 40
-0.6
 41
-30.0
 62
     5
 63
     7
421
 16777215
 74
     1
 91
        4
 64
     7
 65
   257
 75
     1
175
     1
 42
1.0
 92
        8
 66
     7
 43
1.0
 76
     1
 77
     6
 78
     2
 67
     7
 79
     5
170
     0
171
     0
290
     0
174
     0
 93
        1
 44
50.0
173
     0
291
     1
 45
0.0
1001
ACAD
1000
AcDbSavedByObjectVersion
1070
     0
  0
VISUALSTYLE
  5
33B5
102
{ACAD_REACTORS
330
33A5
102
}
330
33A5
100
AcDbVisualStyle
  2
ColorChange
 70
    16
 71
     2
 72
     2
 73
     3
 90
        0
 40
-0.6
 41
-30.0
 62
     5
 63
     8
421
  8421504
 74
     1
 91
        4
 64
     7
 65
   257
 75
     1
175
     1
 42
1.0
 92
        8
 66
     8
424
  8421504
 43
1.0
 76
     1
 77
     6
 78
     2
 67
     7
 79
     5
170
     0
171
     0
290
     0
174
     0
 93
        1
 44
0.0
173
     0
291
     1
 45
0.0
1001
ACAD
1000
AcDbSavedByObjectVersion
1070
     0
  0
VISUALSTYLE
  5
33AE
102
{ACAD_REACTORS
330
33A5
102
}
330
33A5
100
AcDbVisualStyle
  2
Conceptual
 70
     9
 71
     3
 72
     2
 73
     0
 90
        0
 40
-0.6
 41
-30.0
 62
     5
 63
     7
421
 16777215
 74
     2
 91
        2
 64
     7
 65
   257
 75
     1
175
     1
 42
40.0
 92
        8
 66
     7
 43
1.0
 76
     1
 77
     6
 78
     2
 67
     7
 79
     3
170
     0
171
     0
290
     0
174
     0
 93
        1
 44
0.0
173
     0
291
     0
 45
0.0
1001
ACAD
1000
AcDbSavedByObjectVersion
1070
     0
  0
VISUALSTYLE
  5
33B0
102
{ACAD_REACTORS
330
33A5
102
}
330
33A5
100
AcDbVisualStyle
  2
Dim
 70
    11
 71
     2
 72
     2
 73
     0
 90
        0
 40
-0.6
 41
-30.0
 62
     5
 63
     7
421
 16777215
 74
     1
 91
        4
 64
     7
 65
   257
 75
     1
175
     1
 42
1.0
 92
        8
 66
     7
 43
1.0
 76
     1
 77
     6
 78
     2
 67
     7
 79
     5
170
     0
171
     0
290
     0
174
     0
 93
        1
 44
-50.0
173
     0
291
     1
 45
0.0
1001
ACAD
1000
AcDbSavedByObjectVersion
1070
     0
  0
VISUALSTYLE
  5
33B4
102
{ACAD_REACTORS
330
33A5
102
}
330
33A5
100
AcDbVisualStyle
  2
Facepattern
 70
    15
 71
     2
 72
     2
 73
     0
 90
        0
 40
-0.6
 41
-30.0
 62
     5
 63
     7
421
 16777215
 74
     1
 91
        4
 64
     7
 65
   257
 75
     1
175
     1
 42
1.0
 92
        8
 66
     7
 43
1.0
 76
     1
 77
     6
 78
     2
 67
     7
 79
     5
170
     0
171
     0
290
     0
174
     0
 93
        1
 44
0.0
173
     0
291
     1
 45
0.0
1001
ACAD
1000
AcDbSavedByObjectVersion
1070
     0
  0
VISUALSTYLE
  5
33A6
102
{ACAD_REACTORS
330
33A5
102
}
330
33A5
100
AcDbVisualStyle
  2
Flat
 70
     0
 71
     2
 72
     1
 73
     1
 90
        2
 40
-0.6
 41
30.0
 62
     5
 63
     7
421
 16777215
 74
     0
 91
        4
 64
     7
 65
   257
 75
     1
175
     1
 42
1.0
 92
        8
 66
     7
 43
1.0
 76
     1
 77
     6
 78
     2
 67
     7
 79
     5
170
     0
171
     0
290
     0
174
     0
 93
       13
 44
0.0
173
     0
291
     1
 45
0.0
1001
ACAD
1000
AcDbSavedByObjectVersion
1070
     0
  0
VISUALSTYLE
  5
33A7
102
{ACAD_REACTORS
330
33A5
102
}
330
33A5
100
AcDbVisualStyle
  2
FlatWithEdges
 70
     1
 71
     2
 72
     1
 73
     1
 90
        2
 40
-0.6
 41
30.0
 62
     5
 63
     7
421
 16777215
 74
     1
 91
        4
 64
     7
 65
   257
 75
     1
175
     1
 42
1.0
 92
        0
 66
   257
 43
1.0
 76
     1
 77
     6
 78
     2
 67
     7
 79
     5
170
     0
171
     0
290
     0
174
     0
 93
       13
 44
0.0
173
     0
291
     1
 45
0.0
1001
ACAD
1000
AcDbSavedByObjectVersion
1070
     0
  0
VISUALSTYLE
  5
33A8
102
{ACAD_REACTORS
330
33A5
102
}
330
33A5
100
AcDbVisualStyle
  2
Gouraud
 70
     2
 71
     2
 72
     2
 73
     1
 90
        2
 40
-0.6
 41
30.0
 62
     5
 63
     7
421
 16777215
 74
     0
 91
        4
 64
     7
 65
   257
 75
     1
175
     1
 42
1.0
 92
        0
 66
     7
 43
1.0
 76
     1
 77
     6
 78
     2
 67
     7
 79
     5
170
     0
171
     0
290
     0
174
     0
 93
       13
 44
0.0
173
     0
291
     1
 45
0.0
1001
ACAD
1000
AcDbSavedByObjectVersion
1070
     0
  0
VISUALSTYLE
  5
33A9
102
{ACAD_REACTORS
330
33A5
102
}
330
33A5
100
AcDbVisualStyle
  2
GouraudWithEdges
 70
     3
 71
     2
 72
     2
 73
     1
 90
        2
 40
-0.6
 41
30.0
 62
     5
 63
     7
421
 16777215
 74
     1
 91
        4
 64
     7
 65
   257
 75
     1
175
     1
 42
1.0
 92
        0
 66
   257
 43
1.0
 76
     1
 77
     6
 78
     2
 67
     7
 79
     5
170
     0
171
     0
290
     0
174
     0
 93
       13
 44
0.0
173
     0
291
     1
 45
0.0
1001
ACAD
1000
AcDbSavedByObjectVersion
1070
     0
  0
VISUALSTYLE
  5
33B3
102
{ACAD_REACTORS
330
33A5
102
}
330
33A5
100
AcDbVisualStyle
  2
Linepattern
 70
    14
 71
     2
 72
     2
 73
     0
 90
        0
 40
-0.6
 41
-30.0
 62
     5
 63
     7
421
 16777215
 74
     1
 91
        4
 64
     7
 65
   257
 75
     7
175
     7
 42
1.0
 92
        8
 66
     7
 43
1.0
 76
     1
 77
     6
 78
     2
 67
     7
 79
     5
170
     0
171
     0
290
     0
174
     0
 93
        1
 44
0.0
173
     0
291
     1
 45
0.0
1001
ACAD
1000
AcDbSavedByObjectVersion
1070
     0
  0
VISUALSTYLE
  5
33AF
102
{ACAD_REACTORS
330
33A5
102
}
330
33A5
100
AcDbVisualStyle
  2
Realistic
 70
     8
 71
     2
 72
     2
 73
     0
 90
        0
 40
-0.6
 41
-30.0
 62
     5
 63
     7
421
 16777215
 74
     1
 91
        0
 64
     7
 65
   257
 75
     1
175
     1
 42
1.0
 92
        8
 66
     8
424
  7895160
 43
1.0
 76
     1
 77
     6
 78
     2
 67
     7
 79
     5
170
     0
171
     0
290
     0
174
     0
 93
       13
 44
0.0
173
     0
291
     0
 45
0.0
1001
ACAD
1000
AcDbSavedByObjectVersion
1070
     0
  0
VISUALSTYLE
  5
33B2
102
{ACAD_REACTORS
330
33A5
102
}
330
33A5
100
AcDbVisualStyle
  2
Thicken
 70
    13
 71
     2
 72
     2
 73
     0
 90
        0
 40
-0.6
 41
-30.0
 62
     5
 63
     7
421
 16777215
 74
     1
 91
        4
 64
     7
 65
   257
 75
     1
175
     1
 42
1.0
 92
       12
 66
     7
 43
1.0
 76
     1
 77
     6
 78
     2
 67
     7
 79
     5
170
     0
171
     0
290
     0
174
     0
 93
        1
 44
0.0
173
     0
291
     1
 45
0.0
1001
ACAD
1000
AcDbSavedByObjectVersion
1070
     0
  0
DICTIONARYVAR
  5
33F5
102
{ACAD_REACTORS
330
D64
102
}
330
D64
100
DictionaryVariables
280
     0
  1
1:1
  0
DICTIONARYVAR
  5
33F4
102
{ACAD_REACTORS
330
D64
102
}
330
D64
100
DictionaryVariables
280
     0
  1
STANDARD
  0
DICTIONARYVAR
  5
33F3
102
{ACAD_REACTORS
330
D64
102
}
330
D64
100
DictionaryVariables
280
     0
  1
STANDARD
  0
DICTIONARYVAR
  5
D66
102
{ACAD_REACTORS
330
D64
102
}
330
D64
100
DictionaryVariables
280
     0
  1
1
  0
DICTIONARYVAR
  5
D65
102
{ACAD_REACTORS
330
D64
102
}
330
D64
100
DictionaryVariables
280
     0
  1
1
  0
ACAD_PROXY_OBJECT
  5
30C5
102
{ACAD_REACTORS
330
C4F
102
}
330
C4F
100
AcDbProxyObject
 90
      499
 91
      522
 95
   393239
 70
     0
 93
      118
310
405010040CA904C415CD5B07571058
350
30C6
 94
        0
  0
DICTIONARY
  5
C55
102
{ACAD_REACTORS
330
C4F
102
}
330
C4F
100
AcDbDictionary
281
     1
  3
ISO
350
30CA
  0
ACAD_PROXY_OBJECT
  5
30B9
330
0
100
AcDbProxyObject
 90
      499
 91
      509
 95
   393239
 70
     0
 93
      156
310
00010143D050D351505391D5531054925390D49C
330
30B6
 94
        0
  0
ACAD_PROXY_OBJECT
  5
30BA
330
0
100
AcDbProxyObject
 90
      499
 91
      509
 95
   393239
 70
     0
 93
      148
310
000101439050D351531253915054925390D49C
330
30B6
 94
        0
  0
ACAD_PROXY_OBJECT
  5
30BB
330
0
100
AcDbProxyObject
 90
      499
 91
      510
 95
   393239
 70
     0
 93
      156
310
000101439050D35154D6535093D314D25691508C
330
30B6
 94
        0
  0
ACAD_PROXY_OBJECT
  5
30BD
330
0
100
AcDbProxyObject
 90
      499
 91
      512
 95
   393239
 70
     0
 93
      216
310
00010145111A5CDD1A5B9D184818DBDB5C1BDB995B9D1A4C402B0009
330
30B6
330
0
330
0
 94
        0
  0
ACAD_PROXY_OBJECT
  5
30C9
330
0
100
AcDbProxyObject
 90
      499
 91
      524
 95
   393239
 70
     0
 93
      140
310
00010142105350D55494D5110050349534FC
330
30B6
 94
        0
  0
ACAD_PROXY_OBJECT
  5
30E5
330
0
100
AcDbProxyObject
 90
      499
 91
      554
 95
   393239
 70
     0
 93
       28
310
0001406C
330
30B6
 94
        0
  0
DICTIONARY
  5
C36
102
{ACAD_REACTORS
330
C35
102
}
330
C35
100
AcDbDictionary
281
     1
  3
DWGSETTINGS
350
30B3
  3
TRANSSETTINGS
350
30B4
  0
ACAD_PROXY_OBJECT
  5
30CB
102
{ACAD_REACTORS
330
C35
102
}
330
C35
100
AcDbProxyObject
 90
      499
 91
      526
 95
   393239
 70
     0
 93
    12938
310
41102491013041105357CC1074CA404C504414D5F31439329013241105357CC9054CA404CD04414D5F33419199013441105357CD103466404D504414D5F3540D199013641105357CD90248E404DD04414D5F37411199013841105357CE101466404E504414D5F397F641102324141505357CC4C1074CA408D10505414D5F31
310
3140D19902495041505357CC4C9074C902408C13905414D5F304E41D32902314E41505357CC5390E4CA408C93905414D5F324E41532902334E41505357CCD3906466408D13905414D5F344E40D19902354E41505357CD53903466408D93905414D5F364E40923902374E41505357CDD3904466408E13905414D5F384E40519
310
902394E41505357CE539FD90440CC9053906414D5F31304E41D3290334414E41905357CC4C5390346640D25413906414D5F31324E41D32409044B4C494E41505357D0D3101465094112539193D08414D5F50415245464111942D055241484D3541905357D093D49074C9094115925155D08414D5F56494557534051942D064
310
24548494E4441905357D253959FD90D415514905253105414D5F545240D194250348494441905357D212511074650940D59254D06414D5F56495341D324250650415244494D42505357D410549112535034650941949151911253509414D5F52454644494D4111942553411092139590139CFFFFFFFF415092139594D06424
310
548494E44CFFFFFFFF411093D48C9055241484D3540519411093D48CD055241484D3540923411093D48D5055241484D35CFFFFFFFF4110D0530C90134CFFFFFFFF4110D0530CD0134409234110D0530D5013441D324110D0530DD0134479464110D1539390137CFFFFFFFF4110D15395D0137CFFFFFFFF4110D312539044B4
310
C494ECFFFFFFFF4110D3D38C50130CFFFFFFFF4110D3D38C90131CFFFFFFFF4110D3D38CD0132CFFFFFFFF4110D3D38D10132CFFFFFFFF411111551050134CFFFFFFFF4111125051D0135CFFFFFFFF411112531250135CFFFFFFFF411112535410650415244494DCFFFFFFFF411112535490652454644494DCFFFFFFFF4111
310
91535390138CFFFFFFFF4151915354139013840CFFFFFFFF4151915354D41023441CFFFFFFFF4151915354D5102344140D1941519153559390132CFFFFFFFF4151915355951013240D194112105510D0138CFFFFFFFF411212511390133CFFFFFFFF4112125115D0133CFFFFFFFF411213125390134CFFFFFFFF411213D0D3
310
90137CFFFFFFFF411213D0D5D0137CFFFFFFFF4112539193D04494E464FCFFFFFFFF411311505110135CFFFFFFFF419397D0921395902394ECFFFFFFFF419397D0D3D38C502304ECFFFFFFFF419397D0D3D38C902314ECFFFFFFFF419397D0D3D38CD02324ECFFFFFFFF419397D0D3D38D102324ECFFFFFFFF419397D0D153
310
93902374ECFFFFFFFF419397D0D15395D02374ECFFFFFFFF419397D1125312502354ECFFFFFFFF419397D2105510D02384ECFFFFFFFF419397D2125113902334ECFFFFFFFF419397D2125115D02334ECFFFFFFFF419397D3115051102354ECFFFFFFFF419397D391D25410349504ECFFFFFFFF419397D412105390334414EC
310
FFFFFFFF419397D510D3D3902304ECFFFFFFFF419397D5121312502344ECFFFFFFFF419397D5131153902304ECFFFFFFFF419397D594131250332414ECFFFFFFFF411391D2541024950CFFFFFFFF411410530C9055241484D3540519411410530CD055241484D3540923411410530D5055241484D35CFFFFFFFF4114121053
310
9023441CFFFFFFFF411413D4D390135CFFFFFFFF411490D1D390137CFFFFFFFF411490D1D5D0137CFFFFFFFF4114D09492D0134CFFFFFFFF4114D150D510134CFFFFFFFF4114D6508CD013540923411354D6535013540923411510D3D390130CFFFFFFFF411512131250134CFFFFFFFF411512550C9055241484D354051941
310
1512550CD055241484D3540923411512550D5055241484D35CFFFFFFFF411513115390130CFFFFFFFF415514905253105545241494CCFFFFFFFF411514931250134CFFFFFFFF411516150C5013640D19411516150C9013640D19411516150CD0136CFFFFFFFF411516150D5013641D32411516150DD0136479464115925155
310
D0456494557CFFFFFFFF4115915112103484944CFFFFFFFF4115915115903564953CFFFFFFFF41159413125023241CFFFFFFFF411692569050134CFFFFFFFFAA9FD404FE429014650248D0346504465054C906465074C90E4C91E519FD8C
340
14
340
14
340
14
340
C58
340
14
340
14
340
14
340
C59
340
14
340
14
340
C59
340
C5A
340
14
340
14
340
14
340
14
340
C58
340
14
340
14
340
14
340
C59
340
14
340
14
340
C59
340
C5A
340
14
340
C5B
340
14
340
14
340
14
340
14
340
14
340
C58
340
14
340
14
340
14
340
13
340
13
340
13
340
13
340
13
340
13
340
13
340
13
340
13
340
C5C
340
13
340
13
340
13
340
13
340
13
340
13
340
13
340
13
340
13
340
13
340
13
340
13
340
13
340
14
340
13
340
13
340
13
340
13
340
C5D
340
13
340
13
340
C5C
340
13
340
13
340
13
340
13
340
13
340
13
340
13
340
13
340
C5C
340
13
340
13
340
13
340
C5D
340
13
340
13
340
13
340
13
340
13
340
13
340
13
340
13
340
13
340
13
340
13
340
13
340
13
340
13
340
C5C
340
13
340
13
340
13
340
13
340
13
340
13
340
13
340
13
340
13
340
13
340
13
340
13
340
13
340
13
340
13
340
13
340
13
340
13
340
13
340
13
340
13
340
13
340
C60
 94
        0
  0
XRECORD
  5
32C0
102
{ACAD_REACTORS
330
32BE
102
}
330
32BE
100
AcDbXrecord
280
     1
  0
XRECORD
  5
2BF0
102
{ACAD_REACTORS
330
2BEF
102
}
330
2BEF
100
AcDbXrecord
280
     1
  1
PIPPO
  1
*
  1
7
  1
*
 70
     0
  1
*
  1
*
  0
LAYER_INDEX
  5
317F
102
{ACAD_REACTORS
330
317E
102
}
330
317E
100
AcDbIndex
 40
2455404.461536678
100
AcDbLayerIndex
  8
0
360
3180
 90
        1
  8
DISEGNO
360
3181
 90
      647
  8
ASSI
360
3182
 90
       78
  8
NORMALI
360
3183
 90
      407
  8
NORM_TR
360
3184
 90
        4
  8
DEFPOINTS
360
3185
 90
        2
  8
TRATTEGGI
360
3186
 90
        4
  8
9180143-COMPLESSIVO_DI_MON
360
3187
 90
       61
  0
DICTIONARY
  5
3396
330
3395
100
AcDbDictionary
280
     1
281
     1
  3
ACAD_XREC_ROUNDTRIP
360
33FA
  3
BUMPTILE
360
3398
  3
DIFFUSETILE
360
3397
  3
OPACITYTILE
360
339B
  3
REFLECTIONTILE
360
339A
  3
REFRACTIONTILE
360
339C
  3
SPECULARTILE
360
3399
  0
DICTIONARY
  5
338E
330
338D
100
AcDbDictionary
280
     1
281
     1
  3
ACAD_XREC_ROUNDTRIP
360
33F9
  3
BUMPTILE
360
3390
  3
DIFFUSETILE
360
338F
  3
OPACITYTILE
360
3393
  3
REFLECTIONTILE
360
3392
  3
REFRACTIONTILE
360
3394
  3
SPECULARTILE
360
3391
  0
DICTIONARY
  5
339E
330
339D
100
AcDbDictionary
280
     1
281
     1
  3
ACAD_XREC_ROUNDTRIP
360
33FB
  3
BUMPTILE
360
33A0
  3
DIFFUSETILE
360
339F
  3
OPACITYTILE
360
33A3
  3
REFLECTIONTILE
360
33A2
  3
REFRACTIONTILE
360
33A4
  3
SPECULARTILE
360
33A1
  0
DICTIONARY
  5
33F6
330
33B8
100
AcDbDictionary
280
     1
281
     1
  3
ACAD_ROUNDTRIP_2008_TABLESTYLE_CELLSTYLEMAP
360
33F7
  3
ACAD_XREC_ROUNDTRIP
360
33FC
  0
ACAD_PROXY_OBJECT
  5
30C6
102
{ACAD_REACTORS
330
30C5
102
}
330
30C5
100
AcDbProxyObject
 90
      499
 91
      523
 95
   393239
 70
     0
 93
      139
310
057356C1D5C406406AA8FFFFFFFF0AE2404C
330
18
330
0
330
0
 94
        0
  0
ACAD_PROXY_OBJECT
  5
30CA
102
{ACAD_REACTORS
330
C55
102
}
330
C55
100
AcDbProxyObject
 90
      499
 91
      525
 95
   393239
 70
     0
 93
     2211
310
5700000000000000C40D0349534F405901409020000000000000310322287A1682DAC8E88AC8CECAA6E8C8812028720B1B6A9BAB9332A32BC3A29BA3220480A1282C6DA8C868CA6E8C88120286A0B1B6ABB2B63234B733A9BA3220480A1082C6DA92C8A6E8C88120285A0B1B6A230BA3AB6A9BA3220480A1282C6DA849E9AA
310
6E8C8812028820B6B23A2232BA30B4B629BCB6A9BA3220480A2282DAC8E8A6CAC6E8D2DEDCA6F2DAA6E8C88120288A0B6B23A21B2B73A32B92634B732A9BA3220480A1682DAC8E89CDEE8CAA6E8C88120285A0B1A0B6B3A630BCA9BA3220480A1682C682DACE88D2DAA6E8C88120288A0B1A0B6B3A437B632A1B430B93A29B
310
A3220480A1A82C682DACEA8D2E8D8CAA6E8C881203204C
340
C61
360
30CC
360
30CD
360
30CE
360
30CF
360
30D0
360
30D1
360
30D2
360
30D3
360
30D4
360
30D5
360
30D6
360
30D7
360
30D8
360
30D9
360
30DA
 94
        0
  0
ACAD_PROXY_OBJECT
  5
30B3
102
{ACAD_REACTORS
330
C36
102
}
330
C36
100
AcDbProxyObject
 90
      499
 91
      505
 95
   393239
 70
     0
 93
     2348
310
4050B44574753455454494E4753A1286829C8E82A4A482B282A106660F8686AF86C608321A2A720A723A0A849A1ABE1C983E18999AA0C868A9C889282940000000000000488083A1A2A72224A0A9A0A8418983E19183E199820E868A9C8892A6A894000000000000010808321A2A72622A7250000000000000122020C868A9
310
C9E8C8C940000000000000488084A1A624A720A92920ACA0A81189C2108698929C8AA8B2A082A0AB098929C8A84A22BA3AAA9A1A0A622A50A0E9882A6A89E849482A02608426A0A5A2AB24A2ABA7E8120CA0A68682988A0C00800010652455649534941501304154D0D0531150540CC4E8C50954494D455354414D504A0CF6
310
EB8A2611A734141D5915494D253D3905414C4D4B8C0C1107B44574753455454494E4753454E447DC
 94
        0
  0
ACAD_PROXY_OBJECT
  5
30B4
102
{ACAD_REACTORS
330
C36
102
}
330
C36
100
AcDbProxyObject
 90
      499
 91
      505
 95
   393239
 70
     0
 93
      852
310
4050D5452414E5353455454494E4753A2488A482AE929C8EA8A4829CA69882A8929E9C0C00800050D4F524947494E414C4C595F4F4E0600400008529A7AAA921A2A620A723A0A81A4AA20A12AAA0A48AA68AA4AC8A0C0080001107B44574753455454494E4753454E447DC
 94
        0
  0
IDBUFFER
  5
3180
330
0
100
AcDbIdBuffer
330
BC4
  0
IDBUFFER
  5
3181
330
0
100
AcDbIdBuffer
330
51B
330
51C
330
51D
330
51E
330
528
330
52E
330
534
330
535
330
537
330
539
330
53F
330
557
330
558
330
55B
330
55D
330
561
330
562
330
56C
330
5A2
330
5A4
330
5DE
330
5E2
330
5EA
330
5EB
330
5EC
330
612
330
619
330
61C
330
61D
330
622
330
627
330
628
330
62C
330
62F
330
632
330
634
330
635
330
636
330
641
330
647
330
648
330
64B
330
64C
330
64D
330
64E
330
655
330
656
330
68A
330
68C
330
692
330
694
330
6A2
330
6A7
330
6AA
330
6AB
330
6B0
330
6B7
330
6BA
330
6BC
330
6EE
330
6EF
330
6FB
330
6FC
330
700
330
706
330
707
330
709
330
70B
330
70E
330
715
330
716
330
723
330
724
330
729
330
745
330
746
330
748
330
749
330
74A
330
75A
330
75C
330
769
330
76C
330
76D
330
76E
330
777
330
792
330
793
330
794
330
795
330
797
330
7EB
330
7EC
330
7FD
330
805
330
816
330
817
330
81B
330
829
330
82D
330
834
330
835
330
836
330
838
330
857
330
859
330
85E
330
85F
330
860
330
861
330
862
330
863
330
864
330
86D
330
86F
330
870
330
886
330
888
330
889
330
88A
330
88F
330
890
330
891
330
892
330
893
330
895
330
896
330
89E
330
89F
330
8A2
330
8A8
330
8AB
330
8AC
330
8B1
330
8B2
330
8C0
330
8C1
330
8C3
330
8C4
330
8C5
330
8C6
330
8C7
330
BB6
330
BEA
330
BF2
330
BFA
330
C02
330
27A6
330
27A7
330
27A8
330
27AE
330
27AF
330
27B0
330
27C2
330
27C3
330
27C4
330
27C5
330
27C6
330
27C7
330
27C8
330
27C9
330
27CA
330
27CB
330
27CC
330
27CD
330
27CE
330
27CF
330
27D0
330
27D1
330
27D2
330
27D3
330
27D4
330
27D5
330
27D6
330
27D7
330
27D8
330
27D9
330
27DA
330
27DB
330
27DC
330
27DD
330
27DE
330
27DF
330
27E0
330
27E1
330
27E2
330
27E3
330
27E4
330
27E5
330
27E6
330
27E7
330
27E8
330
27E9
330
27EA
330
27EB
330
27EC
330
27ED
330
27EE
330
27EF
330
27F0
330
27F1
330
27F2
330
27F3
330
27F4
330
27F5
330
27F6
330
27F7
330
27F8
330
27F9
330
27FA
330
27FB
330
27FC
330
27FD
330
27FE
330
27FF
330
2809
330
2811
330
2878
330
288C
330
288D
330
288E
330
288F
330
2890
330
2891
330
2892
330
2893
330
2895
330
2896
330
2897
330
2898
330
289A
330
289C
330
289D
330
289E
330
28A0
330
28A1
330
28A2
330
28A3
330
28A4
330
28A5
330
28A6
330
28A7
330
28A8
330
28A9
330
28AA
330
28AB
330
28AC
330
28AD
330
28AE
330
28AF
330
28B0
330
28B1
330
28B2
330
28B3
330
28B4
330
28B5
330
28B6
330
28B7
330
28B8
330
28B9
330
28BA
330
28BB
330
28BC
330
28BD
330
28BE
330
28BF
330
28C0
330
28C1
330
28C2
330
28C3
330
28C4
330
28C5
330
28C6
330
28C7
330
28C8
330
28C9
330
28CA
330
28CB
330
28CC
330
28CD
330
28CE
330
28CF
330
28D0
330
28D1
330
28D2
330
28D3
330
28D4
330
28D5
330
28D6
330
28D7
330
28D8
330
28D9
330
28DA
330
28DB
330
28DC
330
28DD
330
28DE
330
28DF
330
28E0
330
28E1
330
28F6
330
28F7
330
28F8
330
28F9
330
28FB
330
28FD
330
2904
330
2905
330
2906
330
2912
330
2913
330
2914
330
2915
330
2916
330
2917
330
2918
330
2919
330
291A
330
291B
330
291C
330
291D
330
291E
330
291F
330
2920
330
2921
330
2922
330
2923
330
2924
330
2925
330
2926
330
2927
330
2928
330
2929
330
292A
330
292B
330
292C
330
292D
330
292E
330
292F
330
2930
330
2931
330
2932
330
2933
330
2934
330
2935
330
2936
330
2937
330
2938
330
2939
330
293A
330
293B
330
293C
330
293D
330
293E
330
293F
330
2940
330
2941
330
2942
330
2943
330
2944
330
2945
330
2946
330
2947
330
2948
330
2949
330
294A
330
294B
330
294C
330
294D
330
294E
330
294F
330
2950
330
2951
330
2952
330
2953
330
2954
330
2955
330
2956
330
2957
330
2958
330
2959
330
295A
330
295B
330
295C
330
295D
330
295E
330
295F
330
2960
330
2961
330
2962
330
2963
330
2964
330
2965
330
2966
330
2967
330
2969
330
296B
330
296C
330
296E
330
296F
330
2970
330
2972
330
2973
330
2974
330
2975
330
2976
330
2977
330
2978
330
2979
330
297A
330
297B
330
297C
330
297D
330
297E
330
297F
330
2980
330
2981
330
2982
330
2983
330
2984
330
2985
330
2986
330
2987
330
2988
330
2989
330
298A
330
298B
330
298D
330
298E
330
298F
330
2990
330
2991
330
2992
330
2996
330
2997
330
299C
330
299F
330
29A2
330
29A4
330
29A5
330
29A6
330
29A7
330
29A8
330
29A9
330
29AA
330
29AB
330
29AC
330
29AD
330
29AE
330
29AF
330
29B0
330
29B1
330
29B2
330
29B3
330
29B4
330
29B5
330
29B6
330
29B7
330
29B8
330
29B9
330
29BA
330
29BB
330
29BC
330
29BD
330
29BE
330
29BF
330
29C0
330
29C1
330
29C2
330
29C3
330
29C4
330
29C5
330
29C6
330
29C7
330
29C8
330
29C9
330
29CA
330
29CB
330
29CC
330
29CD
330
29CE
330
29CF
330
29D0
330
29D1
330
29D2
330
29D3
330
29D4
330
29D5
330
29D6
330
29D7
330
29D8
330
29D9
330
29DA
330
29DB
330
29DC
330
29DD
330
29DE
330
29DF
330
29E0
330
29E1
330
29E2
330
29E3
330
29E4
330
29E5
330
29E6
330
29E7
330
29E8
330
29E9
330
29EA
330
29EB
330
29EC
330
29ED
330
29EE
330
29EF
330
29F0
330
29F1
330
29F2
330
29F3
330
29F4
330
29F5
330
29F6
330
29F7
330
29F8
330
29F9
330
29FA
330
29FB
330
29FC
330
29FD
330
29FE
330
29FF
330
2A00
330
2A01
330
2A02
330
2A03
330
2A04
330
2A05
330
2A06
330
2A07
330
2A08
330
2A09
330
2A0A
330
2A0B
330
2A0C
330
2A0D
330
2A0E
330
2A0F
330
2A10
330
2A11
330
2A12
330
2A13
330
2A14
330
2A15
330
2A16
330
2A17
330
2A18
330
2A19
330
2A1A
330
2A1D
330
2A1E
330
2A1F
330
2A20
330
2A22
330
2A23
330
2A30
330
2A3A
330
2A3B
330
2A3C
330
2A3D
330
2A3E
330
2A3F
330
2A40
330
2A41
330
2A42
330
2A43
330
2A44
330
2A45
330
2A46
330
2A47
330
2A48
330
2A49
330
2A4F
330
2A50
330
2A51
330
2A52
330
2A53
330
2A54
330
2A55
330
2A56
330
2A57
330
2A58
330
2A59
330
2A5A
330
2A5B
330
2A5C
330
2A5D
330
2A71
330
2A72
330
2A73
330
2A74
330
2A75
330
2A76
330
2A77
330
2A78
330
2A79
330
2A7A
330
2A7B
330
2A7C
330
2A7D
330
2A7E
330
2A7F
330
2A80
330
2A82
330
2A83
330
2A84
330
2A85
330
2A86
330
2A87
330
2A88
330
2A8A
330
2A8D
330
2A8E
330
2A8F
330
2A90
330
2A91
330
2A92
330
2A93
330
2A94
330
2AC6
330
2BD7
330
2BD8
330
2DFC
330
3238
330
3239
330
323A
330
323B
330
3243
330
3244
330
3250
330
326D
330
3273
330
3282
330
328C
330
329D
330
32A4
330
32BC
330
32DA
330
32E0
  0
IDBUFFER
  5
3182
330
0
100
AcDbIdBuffer
330
51F
330
5F3
330
61E
330
61F
330
629
330
78D
330
78E
330
837
330
86E
330
885
330
1BF4
330
1BF6
330
1BF7
330
1C03
330
1C06
330
1C12
330
1C14
330
1C17
330
1C18
330
1C24
330
1C26
330
1C28
330
1C2A
330
1C38
330
1C39
330
1C3A
330
1C3D
330
1C42
330
1C43
330
1C4A
330
1C4D
330
1C54
330
1C5A
330
1C5D
330
1C64
330
1C6B
330
1C6C
330
1C6F
330
1C76
330
1C78
330
1C7F
330
27A9
330
27AC
330
27B1
330
2808
330
2899
330
2A21
330
2A32
330
2A34
330
2A63
330
2A65
330
2BE7
330
2BE8
330
2BE9
330
2BEA
330
2BEB
330
2BEC
330
2BED
330
2DEF
330
2DF0
330
2DFB
330
2E26
330
2E27
330
2E28
330
2E29
330
2E2C
330
2E2D
330
2E2E
330
323C
330
3245
330
3265
330
3266
330
3294
330
3295
330
3297
330
3299
330
329E
330
329F
  0
IDBUFFER
  5
3183
330
0
100
AcDbIdBuffer
330
51A
330
524
330
525
330
526
330
55E
330
55F
330
560
330
564
330
565
330
566
330
567
330
568
330
569
330
56A
330
56B
330
5A3
330
5A6
330
5A7
330
5A8
330
5A9
330
5AA
330
5AB
330
5AC
330
5E3
330
5E4
330
5E5
330
5E7
330
5E8
330
5E9
330
5EF
330
5F0
330
5F5
330
5F8
330
5F9
330
5FA
330
5FB
330
5FC
330
5FD
330
5FE
330
5FF
330
600
330
601
330
602
330
603
330
604
330
605
330
606
330
607
330
608
330
609
330
60A
330
60B
330
60C
330
60D
330
60E
330
60F
330
610
330
611
330
615
330
617
330
61A
330
621
330
624
330
637
330
638
330
639
330
63E
330
63F
330
642
330
643
330
644
330
645
330
646
330
649
330
64A
330
64F
330
650
330
651
330
652
330
696
330
697
330
699
330
69A
330
69B
330
69C
330
69D
330
69E
330
69F
330
6A3
330
6A4
330
6A5
330
6AD
330
6AE
330
6AF
330
6B8
330
6B9
330
6BB
330
6F2
330
6F3
330
6F4
330
6FD
330
6FE
330
701
330
702
330
703
330
704
330
705
330
710
330
711
330
712
330
717
330
718
330
71A
330
71B
330
71C
330
71D
330
71E
330
720
330
721
330
722
330
72D
330
72F
330
733
330
734
330
739
330
73A
330
73B
330
73C
330
73D
330
73F
330
740
330
741
330
770
330
772
330
775
330
778
330
779
330
77A
330
77B
330
77C
330
77E
330
77F
330
789
330
78A
330
791
330
798
330
7EF
330
7F0
330
7F1
330
7F2
330
7F4
330
7F5
330
7F6
330
7F8
330
7F9
330
7FC
330
7FE
330
7FF
330
800
330
801
330
802
330
803
330
804
330
806
330
807
330
808
330
811
330
812
330
813
330
814
330
81C
330
81E
330
821
330
822
330
823
330
824
330
825
330
826
330
827
330
828
330
82A
330
82B
330
839
330
83C
330
83D
330
83E
330
83F
330
840
330
841
330
842
330
843
330
844
330
845
330
846
330
847
330
848
330
849
330
84A
330
84B
330
84C
330
84D
330
84E
330
84F
330
850
330
851
330
852
330
853
330
854
330
855
330
85B
330
866
330
869
330
86C
330
871
330
872
330
873
330
874
330
875
330
876
330
877
330
878
330
879
330
87A
330
87B
330
87C
330
87D
330
87E
330
87F
330
880
330
881
330
8A0
330
8A1
330
8A3
330
8A4
330
8A5
330
8A7
330
8AA
330
8AD
330
8AE
330
8AF
330
8B9
330
8BB
330
8BC
330
8BE
330
8BF
330
E87
330
2800
330
2801
330
2802
330
2803
330
2804
330
2805
330
2806
330
2807
330
2813
330
2815
330
2816
330
2817
330
2818
330
281E
330
2821
330
2829
330
282A
330
282B
330
282C
330
282D
330
282E
330
282F
330
2830
330
2831
330
2833
330
2835
330
2836
330
2837
330
2838
330
2839
330
283A
330
283B
330
283C
330
283D
330
283E
330
283F
330
2840
330
2841
330
2842
330
2843
330
2844
330
2845
330
2846
330
2847
330
2848
330
2849
330
284A
330
284B
330
284D
330
284E
330
284F
330
2880
330
2882
330
2894
330
289F
330
28E4
330
28E5
330
28E7
330
28E8
330
28E9
330
28EA
330
2900
330
2903
330
2907
330
2908
330
2909
330
290A
330
290B
330
290C
330
290D
330
290E
330
2910
330
2911
330
2968
330
296A
330
296D
330
2971
330
298C
330
2993
330
2995
330
2998
330
2999
330
299A
330
299B
330
299D
330
299E
330
29A0
330
29A1
330
29A3
330
2A24
330
2A25
330
2A26
330
2A31
330
2A33
330
2A4A
330
2A4B
330
2A4C
330
2A4D
330
2A5E
330
2A5F
330
2A62
330
2A64
330
2A81
330
2A89
330
2A8B
330
2AA0
330
2AA4
330
2AA8
330
2AA9
330
2AAA
330
2AAB
330
2AAC
330
2AAD
330
2AAE
330
2AAF
330
2AB0
330
2AB1
330
2AB2
330
2AB3
330
2AB4
330
2AB5
330
2AB6
330
2AB7
330
2AB8
330
2AB9
330
2ABA
330
2ABB
330
2ABC
330
2ABE
330
2ABF
330
2AC0
330
2AC1
330
2AC2
330
2AC5
330
2AF0
330
2AF4
330
2AF7
330
2AFD
330
3241
330
3242
330
324E
330
3252
330
3253
330
3267
330
3268
330
326A
330
326B
330
3280
330
328D
330
328E
330
328F
330
3291
330
3292
330
3293
330
329A
330
329B
330
329C
330
32A5
330
32A6
330
32A7
330
32A8
  0
IDBUFFER
  5
3184
330
0
100
AcDbIdBuffer
330
5F4
330
83A
330
8B7
330
2ABD
  0
IDBUFFER
  5
3185
330
0
100
AcDbIdBuffer
330
695
330
70F
  0
IDBUFFER
  5
3186
330
0
100
AcDbIdBuffer
330
323D
330
323E
330
3262
330
3263
  0
IDBUFFER
  5
3187
330
0
100
AcDbIdBuffer
330
3237
330
323F
330
3240
330
3246
330
3247
330
3248
330
3249
330
324A
330
324B
330
324C
330
324D
330
3251
330
3254
330
3255
330
3256
330
3257
330
3258
330
3259
330
325A
330
325B
330
325C
330
325D
330
325E
330
325F
330
3260
330
3261
330
3264
330
326C
330
326E
330
326F
330
3270
330
3271
330
3272
330
3274
330
3275
330
3276
330
3277
330
3278
330
3279
330
327A
330
327B
330
327C
330
327D
330
327E
330
327F
330
3281
330
3283
330
3284
330
3285
330
3286
330
3287
330
3288
330
3289
330
328A
330
328B
330
3296
330
3298
330
32A0
330
32A1
330
32A2
330
32A3
  0
XRECORD
  5
33FA
102
{ACAD_REACTORS
330
3396
102
}
330
3396
100
AcDbXrecord
280
     1
102
MATERIAL
148
0.0
149
0.0
149
0.0
 93
        0
 94
      127
282
     0
 72
     0
 77
     0
171
     0
175
     0
179
     0
273
     0
  0
XRECORD
  5
3398
102
{ACAD_REACTORS
330
3396
102
}
330
3396
100
AcDbXrecord
280
     1
270
     1
271
     1
  0
XRECORD
  5
3397
102
{ACAD_REACTORS
330
3396
102
}
330
3396
100
AcDbXrecord
280
     1
270
     1
271
     1
  0
XRECORD
  5
339B
102
{ACAD_REACTORS
330
3396
102
}
330
3396
100
AcDbXrecord
280
     1
270
     1
271
     1
  0
XRECORD
  5
339A
102
{ACAD_REACTORS
330
3396
102
}
330
3396
100
AcDbXrecord
280
     1
270
     1
271
     1
  0
XRECORD
  5
339C
102
{ACAD_REACTORS
330
3396
102
}
330
3396
100
AcDbXrecord
280
     1
270
     1
271
     1
  0
XRECORD
  5
3399
102
{ACAD_REACTORS
330
3396
102
}
330
3396
100
AcDbXrecord
280
     1
270
     1
271
     1
  0
XRECORD
  5
33F9
102
{ACAD_REACTORS
330
338E
102
}
330
338E
100
AcDbXrecord
280
     1
102
MATERIAL
148
0.0
149
0.0
149
0.0
 93
        0
 94
      127
282
     0
 72
     0
 77
     0
171
     0
175
     0
179
     0
273
     0
  0
XRECORD
  5
3390
102
{ACAD_REACTORS
330
338E
102
}
330
338E
100
AcDbXrecord
280
     1
270
     1
271
     1
  0
XRECORD
  5
338F
102
{ACAD_REACTORS
330
338E
102
}
330
338E
100
AcDbXrecord
280
     1
270
     1
271
     1
  0
XRECORD
  5
3393
102
{ACAD_REACTORS
330
338E
102
}
330
338E
100
AcDbXrecord
280
     1
270
     1
271
     1
  0
XRECORD
  5
3392
102
{ACAD_REACTORS
330
338E
102
}
330
338E
100
AcDbXrecord
280
     1
270
     1
271
     1
  0
XRECORD
  5
3394
102
{ACAD_REACTORS
330
338E
102
}
330
338E
100
AcDbXrecord
280
     1
270
     1
271
     1
  0
XRECORD
  5
3391
102
{ACAD_REACTORS
330
338E
102
}
330
338E
100
AcDbXrecord
280
     1
270
     1
271
     1
  0
XRECORD
  5
33FB
102
{ACAD_REACTORS
330
339E
102
}
330
339E
100
AcDbXrecord
280
     1
102
MATERIAL
148
0.0
149
0.0
149
0.0
 93
        0
 94
      127
282
     0
 72
     0
 77
     0
171
     0
175
     0
179
     0
273
     0
  0
XRECORD
  5
33A0
102
{ACAD_REACTORS
330
339E
102
}
330
339E
100
AcDbXrecord
280
     1
270
     1
271
     1
  0
XRECORD
  5
339F
102
{ACAD_REACTORS
330
339E
102
}
330
339E
100
AcDbXrecord
280
     1
270
     1
271
     1
  0
XRECORD
  5
33A3
102
{ACAD_REACTORS
330
339E
102
}
330
339E
100
AcDbXrecord
280
     1
270
     1
271
     1
  0
XRECORD
  5
33A2
102
{ACAD_REACTORS
330
339E
102
}
330
339E
100
AcDbXrecord
280
     1
270
     1
271
     1
  0
XRECORD
  5
33A4
102
{ACAD_REACTORS
330
339E
102
}
330
339E
100
AcDbXrecord
280
     1
270
     1
271
     1
  0
XRECORD
  5
33A1
102
{ACAD_REACTORS
330
339E
102
}
330
339E
100
AcDbXrecord
280
     1
270
     1
271
     1
  0
CELLSTYLEMAP
  5
33F7
102
{ACAD_REACTORS
330
33F6
102
}
330
33F6
100
AcDbCellStyleMap
 90
        3
300
CELLSTYLE
  1
TABLEFORMAT_BEGIN
 90
        5
170
     1
 91
        0
 92
    32768
 62
   257
 93
        1
300
CONTENTFORMAT
  1
CONTENTFORMAT_BEGIN
 90
        0
 91
        0
 92
      512
 93
        0
300

 40
0.0
140
1.0
 94
        5
 62
     0
340
F
144
6.0
309
CONTENTFORMAT_END
171
     1
301
MARGIN
  1
CELLMARGIN_BEGIN
 40
1.5
 40
1.5
 40
1.5
 40
1.5
 40
4.5
 40
4.5
309
CELLMARGIN_END
 94
        6
 95
        1
302
GRIDFORMAT
  1
GRIDFORMAT_BEGIN
 90
        0
 91
        1
 62
     0
 92
       -2
340
0
 93
        0
 40
1.125
309
GRIDFORMAT_END
 95
        2
302
GRIDFORMAT
  1
GRIDFORMAT_BEGIN
 90
        0
 91
        1
 62
     0
 92
       -2
340
0
 93
        0
 40
1.125
309
GRIDFORMAT_END
 95
        4
302
GRIDFORMAT
  1
GRIDFORMAT_BEGIN
 90
        0
 91
        1
 62
     0
 92
       -2
340
0
 93
        0
 40
1.125
309
GRIDFORMAT_END
 95
        8
302
GRIDFORMAT
  1
GRIDFORMAT_BEGIN
 90
        0
 91
        1
 62
     0
 92
       -2
340
0
 93
        0
 40
1.125
309
GRIDFORMAT_END
 95
       16
302
GRIDFORMAT
  1
GRIDFORMAT_BEGIN
 90
        0
 91
        1
 62
     0
 92
       -2
340
0
 93
        0
 40
1.125
309
GRIDFORMAT_END
 95
       32
302
GRIDFORMAT
  1
GRIDFORMAT_BEGIN
 90
        0
 91
        1
 62
     0
 92
       -2
340
0
 93
        0
 40
1.125
309
GRIDFORMAT_END
309
TABLEFORMAT_END
  1
CELLSTYLE_BEGIN
 90
        1
 91
        1
300
_TITLE
309
CELLSTYLE_END
300
CELLSTYLE
  1
TABLEFORMAT_BEGIN
 90
        5
170
     1
 91
        0
 92
        0
 62
   257
 93
        1
300
CONTENTFORMAT
  1
CONTENTFORMAT_BEGIN
 90
        0
 91
        0
 92
      512
 93
        0
300

 40
0.0
140
1.0
 94
        5
 62
     0
340
F
144
4.5
309
CONTENTFORMAT_END
171
     1
301
MARGIN
  1
CELLMARGIN_BEGIN
 40
1.5
 40
1.5
 40
1.5
 40
1.5
 40
4.5
 40
4.5
309
CELLMARGIN_END
 94
        6
 95
        1
302
GRIDFORMAT
  1
GRIDFORMAT_BEGIN
 90
        0
 91
        1
 62
     0
 92
       -2
340
0
 93
        0
 40
1.125
309
GRIDFORMAT_END
 95
        2
302
GRIDFORMAT
  1
GRIDFORMAT_BEGIN
 90
        0
 91
        1
 62
     0
 92
       -2
340
0
 93
        0
 40
1.125
309
GRIDFORMAT_END
 95
        4
302
GRIDFORMAT
  1
GRIDFORMAT_BEGIN
 90
        0
 91
        1
 62
     0
 92
       -2
340
0
 93
        0
 40
1.125
309
GRIDFORMAT_END
 95
        8
302
GRIDFORMAT
  1
GRIDFORMAT_BEGIN
 90
        0
 91
        1
 62
     0
 92
       -2
340
0
 93
        0
 40
1.125
309
GRIDFORMAT_END
 95
       16
302
GRIDFORMAT
  1
GRIDFORMAT_BEGIN
 90
        0
 91
        1
 62
     0
 92
       -2
340
0
 93
        0
 40
1.125
309
GRIDFORMAT_END
 95
       32
302
GRIDFORMAT
  1
GRIDFORMAT_BEGIN
 90
        0
 91
        1
 62
     0
 92
       -2
340
0
 93
        0
 40
1.125
309
GRIDFORMAT_END
309
TABLEFORMAT_END
  1
CELLSTYLE_BEGIN
 90
        2
 91
        1
300
_HEADER
309
CELLSTYLE_END
300
CELLSTYLE
  1
TABLEFORMAT_BEGIN
 90
        5
170
     1
 91
        0
 92
        0
 62
   257
 93
        1
300
CONTENTFORMAT
  1
CONTENTFORMAT_BEGIN
 90
        0
 91
        0
 92
      512
 93
        0
300

 40
0.0
140
1.0
 94
        2
 62
     0
340
F
144
4.5
309
CONTENTFORMAT_END
171
     1
301
MARGIN
  1
CELLMARGIN_BEGIN
 40
1.5
 40
1.5
 40
1.5
 40
1.5
 40
4.5
 40
4.5
309
CELLMARGIN_END
 94
        6
 95
        1
302
GRIDFORMAT
  1
GRIDFORMAT_BEGIN
 90
        0
 91
        1
 62
     0
 92
       -2
340
0
 93
        0
 40
1.125
309
GRIDFORMAT_END
 95
        2
302
GRIDFORMAT
  1
GRIDFORMAT_BEGIN
 90
        0
 91
        1
 62
     0
 92
       -2
340
0
 93
        0
 40
1.125
309
GRIDFORMAT_END
 95
        4
302
GRIDFORMAT
  1
GRIDFORMAT_BEGIN
 90
        0
 91
        1
 62
     0
 92
       -2
340
0
 93
        0
 40
1.125
309
GRIDFORMAT_END
 95
        8
302
GRIDFORMAT
  1
GRIDFORMAT_BEGIN
 90
        0
 91
        1
 62
     0
 92
       -2
340
0
 93
        0
 40
1.125
309
GRIDFORMAT_END
 95
       16
302
GRIDFORMAT
  1
GRIDFORMAT_BEGIN
 90
        0
 91
        1
 62
     0
 92
       -2
340
0
 93
        0
 40
1.125
309
GRIDFORMAT_END
 95
       32
302
GRIDFORMAT
  1
GRIDFORMAT_BEGIN
 90
        0
 91
        1
 62
     0
 92
       -2
340
0
 93
        0
 40
1.125
309
GRIDFORMAT_END
309
TABLEFORMAT_END
  1
CELLSTYLE_BEGIN
 90
        3
 91
        2
300
_DATA
309
CELLSTYLE_END
  0
XRECORD
  5
33FC
102
{ACAD_REACTORS
330
33F6
102
}
330
33F6
100
AcDbXrecord
280
     1
102
ACAD_ROUNDTRIP_PRE2007_TABLESTYLE
 90
      512
 91
        0
  1

 92
      512
 93
        0
  2

 94
      512
 95
        0
  3

  0
ACAD_PROXY_OBJECT
  5
30CC
330
30CA
100
AcDbProxyObject
 90
      499
 91
      527
 95
   393239
 70
     0
 93
       12
310
571C
 94
        0
  0
ACAD_PROXY_OBJECT
  5
30CD
330
30CA
100
AcDbProxyObject
 90
      499
 91
      528
 95
   393239
 70
     0
 93
       96
310
572A0E80A0280A0280A0280F00
 94
        0
  0
ACAD_PROXY_OBJECT
  5
30CE
330
30CA
100
AcDbProxyObject
 90
      499
 91
      529
 95
   393239
 70
     0
 93
      272
310
5710E4050140501405014050140501405014050140D01405012C00000000000000406C
340
C6D
 94
        0
  0
ACAD_PROXY_OBJECT
  5
30CF
330
30CA
100
AcDbProxyObject
 90
      499
 91
      530
 95
   393239
 70
     0
 93
      496
310
5728666666666667A67E199999999999E99FD2240501405014050140501405014050140501405014050140501405014050140501405014050140501405011C
340
C6E
 94
        0
  0
ACAD_PROXY_OBJECT
  5
30D0
330
30CA
100
AcDbProxyObject
 90
      499
 91
      531
 95
   393239
 70
     0
 93
       10
310
570C
 94
        0
  0
ACAD_PROXY_OBJECT
  5
30D1
330
30CA
100
AcDbProxyObject
 90
      499
 91
      532
 95
   393239
 70
     0
 93
      223
310
572290EA22A7D90F49F8000000000000108140000000000000420204
340
C6F
340
C70
 94
        0
  0
ACAD_PROXY_OBJECT
  5
30D2
330
30CA
100
AcDbProxyObject
 90
      499
 91
      533
 95
   393239
 70
     0
 93
    12879
310
5710E411255115350141141BDCCB90140501406901000000000000091013347454E545241434F2C4954412C302C506F732E2C47454E54524154582C25732C2847454E4D53472067656E647767203232322940690120281A8AA2CA0281A8BA702028120280A0320200000000000012202648E8A9CA8A482869E5892A8825860
310
58A2E9C0588E8A9CA8A482A8B0584AE658508E8A9C9AA68E40CECADCC8EECE406464665280D202405044E414D45405044E6F6D654051C40640A80000000000004E404CD1D15395149050D3CB1255104B0C0B139BDB594B11D15395149055160B095CCB0A11D1539354D1C819D95B991DD9C80C8C8D8A50190B3D424C4F434B
310
3A4E414D4540480A0A888AA686A480A1688CAE6C6E4D2F4D2DEDCCA80A3A80C81D0000000000100A2809D23A2A72A2920A1A79624AA209618162232B9B1B934BD34B7B7329623A2A72A2920AA2C1612B9961423A2A726A9A39033B2B7323BB39019189B94A034809014214D51053911054911014214DD185B99185C9910147
310
501904A000000000000125013747454E545241434F2C4954412C302C5374616E646172642C47454E54524154582C25732C2847454E4D53472067656E64776720323138294069012028426A0AA22A924A0A620284A6B0BA32B934B0B632A028EA0320B40000000000001CA02708E8A9CA8A482869E5892A8825860589AC2E8C
310
AE4D2C2D8CA588E8A9CA8A482A8B0584AE658508E8A9C9AA68E40CECADCC8EECE406464625280D202405044E4F5445405044E6F74614051D40641A80000000000003E404CD1D15395149050D3CB1255104B0C0B139BDD184B11D15395149055160B095CCB0A11D1539354D1C819D95B991DD9C80C8C8D4A501240480A0CAC8
310
A9C889EA480A128CDEE4DCD2E8DEE4CA80A3A80C83D00000000000007C809C23A2A72A2920A1A79624AA209618162337B93734BA37B9329623A2A72A2920AA2C1612B9961423A2A726A9A39033B2B7323BB39019191A14A0248090141911154D0D48C9014351195CD8DC9A5E9A5BDB99480C90147501908A00000000002014
310
5013B47454E545241434F2C4954412C302C4465736372697A696F6E6520322C47454E54524154582C25732C2847454E4D53472067656E6477672033362940490120284A9AA20A72220A922192028529BA30B73230B93210192028EA03213400000000000024A02728E8A9CA8A482869E5892A882586058A6E8C2DCC8C2E4C8
310
4064588E8A9CA8A482A8B0584AE658508E8A9C9AA68E40CECADCC8EECE4064646052809202405094D4154455249414C324050B4D6174657269616C6520324051D40642A8713D0AD7A37045404E51D15395149050D3CB1255104B0C0B13585D195C9A585B19480C8B11D15395149055160B095CCB0A11D1539354D1C819D95B
310
991DD9C80D0C0A501240480A089A82A6A680A0A9AC2E6E6C280A3A80A0485A068100000000000007C8099A3A2A72A2920A1A79624AA2096181626B0B9B9B09623A2A72A2920AA2C1612B9961423A2A726A9A39033B2B7323BB3901A1914A024809014154149250D150141941C995E9E9BD01475014090C4090200000000000
310
00F9013447454E545241434F2C4954412C302C5072657A7A6F2C47454E54524154582C25732C2847454E4D53472067656E6477672034332940490120281A224A6A028326B4B9BAB930A028EA028121A81A040000000000001F202688E8A9CA8A482869E5892A8825860589AD2E6EAE4C2588E8A9CA8A482A8B0584AE658508
310
E8A9C9AA68E40CECADCC8EECE406868528092024050E445020000000000000510107004060000000000000F9000000000000003E4041CF4F125511534F9014060000000000000F9000000000000003E4041CF4F125511534F9014060000000000000D100000000000000344041CF4F125511534F9014060000000000000D10
310
0000000000000344041CF4F125511534F90140A4040000000000003E400000000000000F901073D3C4954454D3E405063D3C5154593E4050180000000000003E400000000000000F901073D3C4954454D3E406404000000000000003E400000000000000F902888000000000000208081A0881A068120480A0322085211220
310
80D21480D211480A1485214852050000000000003C2FC000000000000F0BF4050241CCDCCCCCCCCCCEC3F3373333333333B0FC0000000000000C40480D0590140D04416406800000000000018808120480A026280A02
340
0
340
0
 94
        0
  0
ACAD_PROXY_OBJECT
  5
30D3
330
30CA
100
AcDbProxyObject
 90
      499
 91
      534
 95
   393239
 70
     0
 93
      864
310
5704000000000000144048CF4F11115510525317D3105091530F880A0F11115510525317D05094D4D0D053114F8A51141C9A9999999999B93F26A666666666724FC000000000000E03F4000000000000004000000000000005100000000000000244041C000000000000144000
340
14
340
C61
 94
        0
  0
ACAD_PROXY_OBJECT
  5
30D4
330
30CA
100
AcDbProxyObject
 90
      499
 91
      535
 95
   393239
 70
     0
 93
      745
310
5700B00000000000002880959E9E29A2A1AA24A7A72FA620A122A62FA324A929AA1F169E29A2A1AA24A7A72FA620A122A62FA620A9AA1F00000000000004880FF41C88A0E0000000000001220000000000000028800000000000000A204C
340
141
340
C61
 94
        0
  0
ACAD_PROXY_OBJECT
  5
30D5
330
30CA
100
AcDbProxyObject
 90
      499
 91
      536
 95
   393239
 70
     0
 93
      151
310
57280000000000000840A3D0A5723F0BD1F200
 94
        0
  0
ACAD_PROXY_OBJECT
  5
30D6
330
30CA
100
AcDbProxyObject
 90
      499
 91
      537
 95
   393239
 70
     0
 93
     5762
310
571084050B90142A40502405094D6F64656C6C6F2031405DC3D2525633C486F6C653A63746469613E2078203C486F6C653A637464657074683E20555C503C696628657175616C28486F6C653A7461707065642C223022292C222525632220486F6C653A6469612C20486F6C653A6E6F6D696E616C20222078202220486F6C6
310
53A70697463686465736320696628657175616C28486F6C653A7461707065642C223122292C222078202220486F6C653A74617064657074682C222229293E203C696628657175616C28486F6C653A7465726D696E6174696F6E2C223022292C22202F202220486F6C653A64657074682C222022293E40640503405094D6F64
310
656C6C6F2031405DD3D2525633C486F6C653A63746469613E2078203C486F6C653A6374616E676C653E2525645C503C696628657175616C28486F6C653A7461707065642C223022292C222525632220486F6C653A6469612C20486F6C653A6E6F6D696E616C20222078202220486F6C653A706974636864657363206966286
310
57175616C28486F6C653A7461707065642C223122292C222078202220486F6C653A74617064657074682C222229293E203C696628657175616C28486F6C653A7465726D696E6174696F6E2C223022292C22202F202220486F6C653A64657074682C222022293E40640501405094D6F64656C6C6F2031405B83D3C696628657
310
175616C28486F6C653A7461707065642C223022292C222525632220486F6C653A6469612C20486F6C653A6E6F6D696E616C20222078202220486F6C653A70697463686465736320696628657175616C28486F6C653A7461707065642C223122292C222078202220486F6C653A74617064657074682C222229293E203C69662
310
8657175616C28486F6C653A7465726D696E6174696F6E2C223022292C22202F202220486F6C653A64657074682C222022293E4064051E405094D6F64656C6C6F20314050C3D3C535444503A444553433E40640515A8C
 94
        0
  0
ACAD_PROXY_OBJECT
  5
30D7
330
30CA
100
AcDbProxyObject
 90
      499
 91
      538
 95
   393239
 70
     0
 93
       20
310
57101C
340
30CB
 94
        0
  0
ACAD_PROXY_OBJECT
  5
30D8
330
30CA
100
AcDbProxyObject
 90
      499
 91
      539
 95
   393239
 70
     0
 93
      250
310
571020000000000000A1000000000000002440408F0F9023C3E409A0DCFFFF8C
340
C74
340
0
340
0
340
C75
340
C76
340
C77
340
C78
340
C79
340
C7E
340
0
 94
        0
  0
ACAD_PROXY_OBJECT
  5
30D9
330
30CA
100
AcDbProxyObject
 90
      499
 91
      540
 95
   393239
 70
     0
 93
    13755
310
5711A003FFFFFFFD0303000300000000000003100090303000300000000000003100080511456C656E636F20636F6F7264696E617465015011D15395149050D3CB1255104B0C0B115B195B98DBC818DBDBDC991A5B985D194B11D15395149055160B095CCB0A11D1539354D1C819D95B991A5B5E880CCC0A78000C00000000
310
000000000000000000000001000000000000031010240000000000000C4040A0143151858995B1B1848199BDC9A4053B47454E545241434F2C4954412C302C546162656C6C6120666F72692C47454E54524154582C25732C2847454E4D53472067656E64696D7A20333129E000300000000000000000000000000000000400
310
00000000000C40409000000000000031010290D44111409034110541D0C4350F4050E44D03449074510F000141D3DC9A59DA5B994053547454E545241434F2C4954412C302C4F726967696E652C47454E54524154582C25732C2847454E4D53472067656E64696D7A203129000101050022140002822337B93780A648E8A9C
310
A8A482869E5892A8825860588CDEE4DE588E8A9CA8A482A8B0584AE658508E8A9C9AA68E40CECADCC8D2DAF4406452029F9E9E27B934B3B4B71F1E24A31427A91424A9A12620A7259427B934B3B4B7149624A9A12620A7259424B73232BC149496111116111711149F1E24B73232BC1F00808200111A000140560052F47454
310
E545241434F2C4954412C302C582C47454E54524154582C25732C2847454E4D53472067656E64696D7A20332900010100002054000280AC80A5E8E8A9CA8A482869E5892A882586058B2588E8A9CA8A482A8B0584AE658508E8A9C9AA68E40CECADCC8D2DAF4406852000202000040E800050172014BD1D15395149050D3CB
310
1255104B0C0B1C8B11D15395149055160B095CCB0A11D1539354D1C819D95B991A5B5E880D8A400040400008250000A0CAA5660686868029A23A2A72A2920A1A79624AA209618162A95981A1A1A1623A2A72A2920AA2C1612B9961423A2A726A9A39033B2B73234B6BD101B948000808180105A000140C94958C053147454E
310
545241434F2C4954412C302C2525632C47454E54524154582C25732C2847454E4D53472067656E64696D7A203829000101010020F4000285A232B9B1B934BD34B7B73280A748E8A9CA8A482869E5892A88258605888CAE6C6E4D2F4D2DEDCCA588E8A9CA8A482A8B0584AE658508E8A9C9AA68E40CECADCC8D2DAF44064605
310
2000200080043280005085374616E64617264014DD1D15395149050D3CB1255104B0C0B14DD185B99185C990B11D15395149055160B095CCB0A11D1539354D1C819D95B991A5B5E880C8C4A4000400100086D0000A0E9EE4D2CED2DCCA029AA3A2A72A2920A1A79624AA2096181627B934B3B4B7329623A2A72A2920AA2C16
310
12B9961423A2A726A9A39033B2B73234B6BD10189480A026202020A0043E8000504506F732E014CD1D15395149050D3CB1255104B0C0B141BDCCB8B11D15395149055160B095CCB0A11D1539354D1C819D95B991A5B5E880C4D0A4000404140080D0000A0C92DCC8D2C6CA029AA3A2A72A2920A1A79624AA2096181624B732
310
34B1B29623A2A72A2920AA2C1612B9961423A2A726A9A39033B2B73234B6BD10189A94800080828010EA000142D25B991A58D948199BDC9BC053A47454E545241434F2C4954412C302C496E6469636520666F726F2C47454E54524154582C25732C2847454E4D53472067656E64696D7A20313729000101050022740002822
310
337B93780A668E8A9CA8A482869E5892A8825860588CDEE4DE588E8A9CA8A482A8B0584AE658508E8A9C9AA68E40CECADCC8D2DAF440626C52000202080044A80005035174E0014C91D15395149050D3CB1255104B0C0B145D380B11D15395149055160B095CCB0A11D1539354D1C819D95B991A5B5E880C4E4A4000404180
310
08A521E000000000000001CA040C00000000000034408080000000000006881010000000000000D102040000000000001A204080000000000003440818000000000000728103000000000000125020600000000004028A040000000000000034408000000000000004881000000000000000D102000000000000001A204000
310
000000000003440818000000000000508143C0000000000000039408180000000000006881030000000000000D102060000000000001A2040C00000000000034408180000000000006881030000000000000E5020600000000000024A040C00000000008051408000000000000006881000000000000000910200000000000
310
0001A2040000000000000034408180000000000006881030000000000000A10283A2000000087800000204000000818000002080000008280000020E00000080A24000000C
340
0
340
0
340
0
340
0
 94
        0
  0
ACAD_PROXY_OBJECT
  5
30DA
330
30CA
100
AcDbProxyObject
 90
      499
 91
      541
 95
   393239
 70
     0
 93
     7258
310
5719740D254D3D0649534F5F4133429254D3D7D5125513115051349534F5F42525F5265766973696F6E6C69737446111413478342028323937783834316D6D2920421254D3D7D04D1E0D11141327835202835393478323130326D6D29421254D3D7D04C9E0D51141337837202834323078323038306D6D29421254D3D7D04C
310
DE0DD1141347839202832393778313839326D6D29421254D3D7D04D1E0E50E41312028353934783834316D6D29419254D3D7D04C51141327834202835393478313638326D6D29421254D3D7D04C9E0D11141347838202832393778313638326D6D29421254D3D7D04D1E0E10E41332028323937783432306D6D29419254D3D
310
7D04CD104130202838343078313138396D6D2920419254D3D7D04C11141347835202832393778313035316D6D29421254D3D7D04D1E0D51141347836202832393778313236316D6D29421254D3D7D04D1E0D91141347837202832393778313437316D6D29421254D3D7D04D1E0DD1141327833202835393478313236316D6D
310
29421254D3D7D04C9E0CD1141337834202834323078313138396D6D29421254D3D7D04CDE0D110413478332028323937783633306D6D29421254D3D7D04D1E0CD1141337835202834323078313438366D6D29421254D3D7D04CDE0D51141337836202834323078313738336D6D29421254D3D7D04CDE0D9104133783320283
310
43230783839316D6D29421254D3D7D04CDE0CD0E41322028343230783539346D6D29419254D3D7D04C9124130783220283131383978313638326D6D29421254D3D7D04C1E0C90E41342028323937783231306D6D29419254D3D7D04D1124130783320283131383978323532336D6D29421254D3D7D04C1E0CD114131783420
310
2838343178323337386D6D29421254D3D7D04C5E0D11141317833202838343178313738336D6D29421254D3D7D04C5E0CD0243D254D3C810D85C9D1A59DB1A5BC81050A49534F5F5449544C454143D254D3C810D85C9D1A59DB1A5BC81090A49534F5F5449544C454241114456C656E636F207265766973696F6E695F54525
310
F44D254D3D7D51497D4995D9A5CDA5BDB9B1A5CDD114456C656E636F207265766973696F6E695F424C5F44D254D3D7D09317D4995D9A5CDA5BDB9B1A5CDD114456C656E636F207265766973696F6E695F544C5F44D254D3D7D51317D4995D9A5CDA5BDB9B1A5CDD114456C656E636F207265766973696F6E695F42525F44D2
310
54D3D7D09497D4995D9A5CDA5BDB9B1A5CDD0C
 94
        0
  0
ENDSEC
  0
EOF
