  0
SECTION
  2
HEADER
  9
$ACADVER
  1
AC1018
  9
$ACADMAINTVER
 70
   104
  9
$DWGCODEPAGE
  3
ANSI_1252
  9
$LASTSAVEDBY
  1
Achim
  9
$CUSTOMPROPERTYTAG
  1
AmdtFileType
  9
$CUSTOMPROPERTY
  1
84
  9
$INSBASE
 10
0.0
 20
0.0
 30
0.0
  9
$EXTMIN
 10
-968.495640646104
 20
-291.3143225968654
 30
0.0
  9
$EXTMAX
 10
44.84165547608836
 20
144.9999999999981
 30
0.0
  9
$LIMMIN
 10
0.0
 20
0.0
  9
$LIMMAX
 10
420.0
 20
297.0
  9
$ORTHOMODE
 70
     1
  9
$REGENMODE
 70
     1
  9
$FILLMODE
 70
     1
  9
$QTEXTMODE
 70
     0
  9
$MIRRTEXT
 70
     1
  9
$LTSCALE
 40
10.0
  9
$ATTMODE
 70
     1
  9
$TEXTSIZE
 40
2.5
  9
$TRACEWID
 40
1.0
  9
$TEXTSTYLE
  7
STANDARD
  9
$CLAYER
  8
ASSI
  9
$CELTYPE
  6
BYLAYER
  9
$CECOLOR
 62
   256
  9
$CELTSCALE
 40
1.0
  9
$DISPSILH
 70
     0
  9
$DIMSCALE
 40
1.0
  9
$DIMASZ
 40
2.5
  9
$DIMEXO
 40
0.625
  9
$DIMDLI
 40
3.75
  9
$DIMRND
 40
0.0
  9
$DIMDLE
 40
0.0
  9
$DIMEXE
 40
1.25
  9
$DIMTP
 40
0.0
  9
$DIMTM
 40
0.0
  9
$DIMTXT
 40
2.5
  9
$DIMCEN
 40
2.5
  9
$DIMTSZ
 40
0.0
  9
$DIMTOL
 70
     0
  9
$DIMLIM
 70
     0
  9
$DIMTIH
 70
     0
  9
$DIMTOH
 70
     0
  9
$DIMSE1
 70
     0
  9
$DIMSE2
 70
     0
  9
$DIMTAD
 70
     1
  9
$DIMZIN
 70
     8
  9
$DIMBLK
  1

  9
$DIMASO
 70
     1
  9
$DIMSHO
 70
     1
  9
$DIMPOST
  1

  9
$DIMAPOST
  1

  9
$DIMALT
 70
     0
  9
$DIMALTD
 70
     4
  9
$DIMALTF
 40
0.0394
  9
$DIMLFAC
 40
1.0
  9
$DIMTOFL
 70
     1
  9
$DIMTVP
 40
0.0
  9
$DIMTIX
 70
     0
  9
$DIMSOXD
 70
     0
  9
$DIMSAH
 70
     0
  9
$DIMBLK1
  1

  9
$DIMBLK2
  1

  9
$DIMSTYLE
  2
STANDARD
  9
$DIMCLRD
 70
     0
  9
$DIMCLRE
 70
     0
  9
$DIMCLRT
 70
     0
  9
$DIMTFAC
 40
1.0
  9
$DIMGAP
 40
0.625
  9
$DIMJUST
 70
     0
  9
$DIMSD1
 70
     0
  9
$DIMSD2
 70
     0
  9
$DIMTOLJ
 70
     1
  9
$DIMTZIN
 70
     0
  9
$DIMALTZ
 70
     0
  9
$DIMALTTZ
 70
     0
  9
$DIMUPT
 70
     0
  9
$DIMDEC
 70
     4
  9
$DIMTDEC
 70
     4
  9
$DIMALTU
 70
     8
  9
$DIMALTTD
 70
     4
  9
$DIMTXSTY
  7
STANDARD
  9
$DIMAUNIT
 70
     0
  9
$DIMADEC
 70
     0
  9
$DIMALTRND
 40
0.0
  9
$DIMAZIN
 70
     0
  9
$DIMDSEP
 70
    46
  9
$DIMATFIT
 70
     3
  9
$DIMFRAC
 70
     0
  9
$DIMLDRBLK
  1

  9
$DIMLUNIT
 70
     6
  9
$DIMLWD
 70
    -2
  9
$DIMLWE
 70
    -2
  9
$DIMTMOVE
 70
     0
  9
$LUNITS
 70
     2
  9
$LUPREC
 70
     4
  9
$SKETCHINC
 40
1.0
  9
$FILLETRAD
 40
10.0
  9
$AUNITS
 70
     0
  9
$AUPREC
 70
     0
  9
$MENU
  1
.
  9
$ELEVATION
 40
0.0
  9
$PELEVATION
 40
0.0
  9
$THICKNESS
 40
0.0
  9
$LIMCHECK
 70
     0
  9
$CHAMFERA
 40
10.0
  9
$CHAMFERB
 40
10.0
  9
$CHAMFERC
 40
20.0
  9
$CHAMFERD
 40
0.0
  9
$SKPOLY
 70
     0
  9
$TDCREATE
 40
2452088.669032361
  9
$TDUCREATE
 40
2452088.585699028
  9
$TDUPDATE
 40
2455402.389819618
  9
$TDUUPDATE
 40
2455402.306486285
  9
$TDINDWG
 40
0.1052932176
  9
$TDUSRTIMER
 40
0.1052932176
  9
$USRTIMER
 70
     1
  9
$ANGBASE
 50
0.0
  9
$ANGDIR
 70
     0
  9
$PDMODE
 70
     0
  9
$PDSIZE
 40
0.0
  9
$PLINEWID
 40
0.0
  9
$SPLFRAME
 70
     0
  9
$SPLINETYPE
 70
     6
  9
$SPLINESEGS
 70
     8
  9
$HANDSEED
  5
1467
  9
$SURFTAB1
 70
     6
  9
$SURFTAB2
 70
     6
  9
$SURFTYPE
 70
     6
  9
$SURFU
 70
     6
  9
$SURFV
 70
     6
  9
$UCSBASE
  2

  9
$UCSNAME
  2

  9
$UCSORG
 10
0.0
 20
0.0
 30
0.0
  9
$UCSXDIR
 10
1.0
 20
0.0
 30
0.0
  9
$UCSYDIR
 10
0.0
 20
1.0
 30
0.0
  9
$UCSORTHOREF
  2

  9
$UCSORTHOVIEW
 70
     0
  9
$UCSORGTOP
 10
0.0
 20
0.0
 30
0.0
  9
$UCSORGBOTTOM
 10
0.0
 20
0.0
 30
0.0
  9
$UCSORGLEFT
 10
0.0
 20
0.0
 30
0.0
  9
$UCSORGRIGHT
 10
0.0
 20
0.0
 30
0.0
  9
$UCSORGFRONT
 10
0.0
 20
0.0
 30
0.0
  9
$UCSORGBACK
 10
0.0
 20
0.0
 30
0.0
  9
$PUCSBASE
  2

  9
$PUCSNAME
  2

  9
$PUCSORG
 10
0.0
 20
0.0
 30
0.0
  9
$PUCSXDIR
 10
1.0
 20
0.0
 30
0.0
  9
$PUCSYDIR
 10
0.0
 20
1.0
 30
0.0
  9
$PUCSORTHOREF
  2

  9
$PUCSORTHOVIEW
 70
     0
  9
$PUCSORGTOP
 10
0.0
 20
0.0
 30
0.0
  9
$PUCSORGBOTTOM
 10
0.0
 20
0.0
 30
0.0
  9
$PUCSORGLEFT
 10
0.0
 20
0.0
 30
0.0
  9
$PUCSORGRIGHT
 10
0.0
 20
0.0
 30
0.0
  9
$PUCSORGFRONT
 10
0.0
 20
0.0
 30
0.0
  9
$PUCSORGBACK
 10
0.0
 20
0.0
 30
0.0
  9
$USERI1
 70
     0
  9
$USERI2
 70
     0
  9
$USERI3
 70
     0
  9
$USERI4
 70
     0
  9
$USERI5
 70
     0
  9
$USERR1
 40
0.0
  9
$USERR2
 40
0.0
  9
$USERR3
 40
0.0
  9
$USERR4
 40
0.0
  9
$USERR5
 40
0.0
  9
$WORLDVIEW
 70
     1
  9
$SHADEDGE
 70
     3
  9
$SHADEDIF
 70
    70
  9
$TILEMODE
 70
     1
  9
$MAXACTVP
 70
    48
  9
$PINSBASE
 10
0.0
 20
0.0
 30
0.0
  9
$PLIMCHECK
 70
     0
  9
$PEXTMIN
 10
1.000000000000000E+20
 20
1.000000000000000E+20
 30
1.000000000000000E+20
  9
$PEXTMAX
 10
-1.000000000000000E+20
 20
-1.000000000000000E+20
 30
-1.000000000000000E+20
  9
$PLIMMIN
 10
0.0
 20
0.0
  9
$PLIMMAX
 10
420.0
 20
297.0
  9
$UNITMODE
 70
     0
  9
$VISRETAIN
 70
     1
  9
$PLINEGEN
 70
     0
  9
$PSLTSCALE
 70
     1
  9
$TREEDEPTH
 70
  3020
  9
$CMLSTYLE
  2
STANDARD
  9
$CMLJUST
 70
     0
  9
$CMLSCALE
 40
20.0
  9
$PROXYGRAPHICS
 70
     1
  9
$MEASUREMENT
 70
     1
  9
$CELWEIGHT
370
    -1
  9
$ENDCAPS
280
     0
  9
$JOINSTYLE
280
     0
  9
$LWDISPLAY
290
     0
  9
$INSUNITS
 70
     0
  9
$HYPERLINKBASE
  1

  9
$STYLESHEET
  1

  9
$XEDIT
290
     1
  9
$CEPSNTYPE
380
     0
  9
$PSTYLEMODE
290
     1
  9
$FINGERPRINTGUID
  2
{8029BF34-8288-11D6-9A28-000102212E7C}
  9
$VERSIONGUID
  2
{FCCD34CD-FCC0-4E23-BEA1-BF494FD6119C}
  9
$EXTNAMES
290
     1
  9
$PSVPSCALE
 40
0.0
  9
$OLESTARTUP
290
     0
  9
$SORTENTS
280
   127
  9
$INDEXCTL
280
     1
  9
$HIDETEXT
280
     0
  9
$XCLIPFRAME
290
     0
  9
$HALOGAP
280
     0
  9
$OBSCOLOR
 70
   257
  9
$OBSLTYPE
280
     0
  9
$INTERSECTIONDISPLAY
280
     0
  9
$INTERSECTIONCOLOR
 70
   257
  9
$DIMASSOC
280
     1
  9
$PROJECTNAME
  1

  0
ENDSEC
  0
SECTION
  2
CLASSES
  0
CLASS
  1
ACDBDICTIONARYWDFLT
  2
AcDbDictionaryWithDefault
  3
ObjectDBX Classes
 90
        0
 91
        1
280
     0
281
     0
  0
CLASS
  1
ACDBPLACEHOLDER
  2
AcDbPlaceHolder
  3
ObjectDBX Classes
 90
        0
 91
        1
280
     0
281
     0
  0
CLASS
  1
LAYOUT
  2
AcDbLayout
  3
ObjectDBX Classes
 90
        0
 91
        2
280
     0
281
     0
  0
CLASS
  1
ACME_DOCUMENT
  2
AcMeDbDoc
  3
AcMeServices
 90
        0
 91
        0
280
     0
281
     0
  0
CLASS
  1
AMGSETTINGSOBJ
  2
AmgSettingsObj
  3
"AcadM|Product Description: AutoCAD Mechanical 2000|Company: Autodesk"
 90
        0
 91
        2
280
     0
281
     0
  0
CLASS
  1
ACMESCOPE
  2
AcMeScope
  3
AcMeServices
 90
        0
 91
        1
280
     0
281
     0
  0
CLASS
  1
ACMECOMMANDHISTORY
  2
AcMeCommandHistory
  3
AcMeServices
 90
        0
 91
        1
280
     0
281
     0
  0
CLASS
  1
ACIMSYSVARMAN
  2
AcImSysVarManager
  3
AcMeServices
 90
        0
 91
        2
280
     0
281
     0
  0
CLASS
  1
ACIMREALSYSVAR
  2
AcImRealSysVar
  3
AcMeServices
 90
        0
 91
        2
280
     0
281
     0
  0
CLASS
  1
ACIMINTSYSVAR
  2
AcImIntSysVar
  3
AcMeServices
 90
        0
 91
        1
280
     0
281
     0
  0
CLASS
  1
ACMEDRAWINGMAN
  2
AcMeDrawingMan
  3
AcMeServices
 90
        0
 91
        1
280
     0
281
     0
  0
CLASS
  1
ACMEVIEW
  2
AcMeView
  3
AcMeServices
 90
        0
 91
        1
280
     0
281
     0
  0
CLASS
  1
ACDBENTITYCACHE
  2
AcMeEntityCache
  3
AcMeServices
 90
        0
 91
        0
280
     0
281
     0
  0
CLASS
  1
GSMANAGER
  2
AcMeGSManager
  3
AcMeServices
 90
        0
 91
        0
280
     0
281
     0
  0
CLASS
  1
AMDTINTERNALREACTOR
  2
AmdtInternalReactor
  3
AcMeServices
 90
        0
 91
        0
280
     0
281
     0
  0
CLASS
  1
ACMESTATEMGR
  2
AcMeStateMgr
  3
AcMeServices
 90
        0
 91
        1
280
     0
281
     0
  0
CLASS
  1
ACGREFMASTER
  2
AcGrefMaster
  3
AcAttribServices
 90
        0
 91
        1
280
     0
281
     0
  0
CLASS
  1
ACME_DATABASE
  2
AcMeDbDatabase
  3
AcMeServices
 90
        0
 91
        0
280
     0
281
     0
  0
CLASS
  1
ACRFINSADJUSTERMGR
  2
AcRfInsAdjusterMgr
  3
AcMeServices
 90
        0
 91
        0
280
     0
281
     0
  0
CLASS
  1
ACGREFACADMASTER
  2
AcGrefacadMaster
  3
AcGrefServices
 90
        0
 91
        1
280
     0
281
     0
  0
CLASS
  1
AMIMASTER
  2
AmiMaster
  3
AmiServices
 90
        0
 91
        1
280
     0
281
     0
  0
CLASS
  1
ACMDATADICTIONARY
  2
AcmDataDictionary
  3
"AcmSymBB|Product Description: AutoCAD Mechanical 2000|Company: Autodesk"
 90
        0
 91
        1
280
     0
281
     0
  0
CLASS
  1
ACMDATAENTRYBLOCK
  2
AcmDataEntryBlock
  3
"AcmSymBB|Product Description: AutoCAD Mechanical 2000|Company: Autodesk"
 90
        0
 91
        1
280
     0
281
     0
  0
CLASS
  1
ACIMSTRSYSVAR
  2
AcImStrSysVar
  3
AcMeServices
 90
        0
 91
        1
280
     0
281
     0
  0
CLASS
  1
ACMSTANDARDISO
  2
AcmStandardISO
  3
"Amdt_StdImp|Product Description: AutoCAD Mechanical 2000|Company: Autodesk"
 90
        0
 91
        1
280
     0
281
     0
  0
CLASS
  1
AMGOBJPROPCFG
  2
AmgObjPropCfg
  3
"AmgLay|Product Description: AutoCAD Mechanical 2000|Company: Autodesk"
 90
        1
 91
        1
280
     0
281
     0
  0
CLASS
  1
AMDTEDGESTANDARDISO
  2
AmdtEdgeStdISO
  3
"Amdt_StdImp|Product Description: AutoCAD Mechanical 2000|Company: Autodesk"
 90
        0
 91
        1
280
     0
281
     0
  0
CLASS
  1
ACMSURFSTANDARDISO
  2
AcmSurfTextStdISO
  3
"Amdt_StdImp|Product Description: AutoCAD Mechanical 2000|Company: Autodesk"
 90
        0
 91
        1
280
     0
281
     0
  0
CLASS
  1
ACMFCFSTANDARDISO
  2
AcmFCFStdISO
  3
"Amdt_StdImp|Product Description: AutoCAD Mechanical 2000|Company: Autodesk"
 90
        0
 91
        1
280
     0
281
     0
  0
CLASS
  1
ACMWELDSTANDARDISO
  2
AcmWeldingStdISO
  3
"Amdt_StdImp|Product Description: AutoCAD Mechanical 2000|Company: Autodesk"
 90
        0
 91
        1
280
     0
281
     0
  0
CLASS
  1
ACMIDSTANDARDISO
  2
AcmIdStdISO
  3
"Amdt_StdImp|Product Description: AutoCAD Mechanical 2000|Company: Autodesk"
 90
        0
 91
        1
280
     0
281
     0
  0
CLASS
  1
ACMDATUMSTANDARDISO
  2
AcmDatumStdISO
  3
"Amdt_StdImp|Product Description: AutoCAD Mechanical 2000|Company: Autodesk"
 90
        0
 91
        1
280
     0
281
     0
  0
CLASS
  1
ACMBOMSTANDARDISO
  2
AcmBOMStdISO
  3
"Amdt_StdImp|Product Description: AutoCAD Mechanical 2000|Company: Autodesk"
 90
        0
 91
        1
280
     0
281
     0
  0
CLASS
  1
ACMDETAILSTANDARDISO
  2
AmdtDetailSymStdISO
  3
"Amdt_StdImp|Product Description: AutoCAD Mechanical 2000|Company: Autodesk"
 90
        0
 91
        1
280
     0
281
     0
  0
CLASS
  1
ACMSECTIONSTANDARDISO
  2
AmdtSectionSymStdISO
  3
"Amdt_StdImp|Product Description: AutoCAD Mechanical 2000|Company: Autodesk"
 90
        0
 91
        1
280
     0
281
     0
  0
CLASS
  1
ACMCENTERLINESTANDARDISO
  2
AmdtCenterLineStdISO
  3
"Amdt_StdImp|Product Description: AutoCAD Mechanical 2000|Company: Autodesk"
 90
        0
 91
        1
280
     0
281
     0
  0
CLASS
  1
ACMNOTESTANDARDISO
  2
AmdtNoteStdISO
  3
"Amdt_StdImp|Product Description: AutoCAD Mechanical 2000|Company: Autodesk"
 90
        0
 91
        1
280
     0
281
     0
  0
CLASS
  1
ACAMGLAYSTD
  2
AcAmgLayStd
  3
"AcAmgLayStd|Product Description: AutoCAD Mechanical 2000|Company: Autodesk"
 90
        0
 91
        2
280
     0
281
     0
  0
CLASS
  1
ACAMGDIMSTD
  2
AcAmgDimStd
  3
"AcAmgDimStd|Product Description: AutoCAD Mechanical 2000|Company: Autodesk"
 90
        0
 91
        2
280
     0
281
     0
  0
CLASS
  1
ACAMGHOLECHARTSTDISO
  2
AcAmgHoleChartStdISO
  3
ACMSYMBB_MODULE_NAME
 90
        0
 91
        1
280
     0
281
     0
  0
CLASS
  1
ACAMGTITLESTD
  2
AcAmgTitleStd
  3
"TITLEAPP"
 90
        0
 91
        2
280
     0
281
     0
  0
CLASS
  1
ACAMGFILTERDAT
  2
AcAmgFilterDat
  3
"AcadM|Product Description: AutoCAD Mechanical 2000|Company: Autodesk"
 90
        0
 91
        6
280
     0
281
     0
  0
CLASS
  1
LAYER_INDEX
  2
AcDbLayerIndex
  3
ObjectDBX Classes
 90
        0
 91
        1
280
     0
281
     0
  0
CLASS
  1
IDBUFFER
  2
AcDbIdBuffer
  3
ObjectDBX Classes
 90
        0
 91
        6
280
     0
281
     0
  0
CLASS
  1
DICTIONARYVAR
  2
AcDbDictionaryVar
  3
ObjectDBX Classes
 90
        0
 91
        5
280
     0
281
     0
  0
CLASS
  1
ACMSTANDARDANSI
  2
AcmStandardANSI
  3
"Amdt_StdImp|Product Description: AutoCAD Mechanical 2000|Company: Autodesk"
 90
        0
 91
        1
280
     0
281
     0
  0
CLASS
  1
ACMSURFSTANDARDANSI
  2
AcmSurfTextStdANSI
  3
"Amdt_StdImp|Product Description: AutoCAD Mechanical 2000|Company: Autodesk"
 90
        0
 91
        1
280
     0
281
     0
  0
CLASS
  1
ACMFCFSTANDARDANSI
  2
AcmFCFStdANSI
  3
"Amdt_StdImp|Product Description: AutoCAD Mechanical 2000|Company: Autodesk"
 90
        0
 91
        1
280
     0
281
     0
  0
CLASS
  1
ACMWELDSTANDARDANSI
  2
AcmWeldingStdANSI
  3
"Amdt_StdImp|Product Description: AutoCAD Mechanical 2000|Company: Autodesk"
 90
        0
 91
        1
280
     0
281
     0
  0
CLASS
  1
ACMIDSTANDARDANSI
  2
AcmIdStdANSI
  3
"Amdt_StdImp|Product Description: AutoCAD Mechanical 2000|Company: Autodesk"
 90
        0
 91
        1
280
     0
281
     0
  0
CLASS
  1
ACMDATUMSTANDARDANSI
  2
AcmDatumStdANSI
  3
"Amdt_StdImp|Product Description: AutoCAD Mechanical 2000|Company: Autodesk"
 90
        0
 91
        1
280
     0
281
     0
  0
CLASS
  1
ACMBOMSTANDARDANSI
  2
AcmBOMStdANSI
  3
"Amdt_StdImp|Product Description: AutoCAD Mechanical 2000|Company: Autodesk"
 90
        0
 91
        1
280
     0
281
     0
  0
CLASS
  1
ACMDETAILSTANDARDANSI
  2
AmdtDetailSymStdANSI
  3
"Amdt_StdImp|Product Description: AutoCAD Mechanical 2000|Company: Autodesk"
 90
        0
 91
        1
280
     0
281
     0
  0
CLASS
  1
ACMSECTIONSTANDARDANSI
  2
AmdtSectionSymStdANSI
  3
"Amdt_StdImp|Product Description: AutoCAD Mechanical 2000|Company: Autodesk"
 90
        0
 91
        1
280
     0
281
     0
  0
CLASS
  1
ACMCENTERLINESTANDARDANSI
  2
AmdtCenterLineStdANSI
  3
"Amdt_StdImp|Product Description: AutoCAD Mechanical 2000|Company: Autodesk"
 90
        0
 91
        1
280
     0
281
     0
  0
CLASS
  1
ACMNOTESTANDARDANSI
  2
AmdtNoteStdANSI
  3
"Amdt_StdImp|Product Description: AutoCAD Mechanical 2000|Company: Autodesk"
 90
        0
 91
        1
280
     0
281
     0
  0
CLASS
  1
ACAMGHOLECHARTSTDANSI
  2
AcAmgHoleChartStdANSI
  3
ACMSYMBB_MODULE_NAME
 90
        0
 91
        1
280
     0
281
     0
  0
CLASS
  1
AMDTFORMULAUPDATEDISPATCHER
  2
AmdtFormulaUpdateDispatcher
  3
AcMeServices
 90
        0
 91
        1
280
     0
281
     0
  0
CLASS
  1
MATERIAL
  2
AcDbMaterial
  3
ObjectDBX Classes
 90
     1153
 91
        3
280
     0
281
     0
  0
CLASS
  1
VISUALSTYLE
  2
AcDbVisualStyle
  3
ObjectDBX Classes
 90
     4095
 91
       16
280
     0
281
     0
  0
CLASS
  1
TABLESTYLE
  2
AcDbTableStyle
  3
ObjectDBX Classes
 90
     4095
 91
        1
280
     0
281
     0
  0
CLASS
  1
SCALE
  2
AcDbScale
  3
ObjectDBX Classes
 90
     1153
 91
       33
280
     0
281
     0
  0
CLASS
  1
MLEADERSTYLE
  2
AcDbMLeaderStyle
  3
ACDB_MLEADERSTYLE_CLASS
 90
     4095
 91
        1
280
     0
281
     0
  0
CLASS
  1
CELLSTYLEMAP
  2
AcDbCellStyleMap
  3
ObjectDBX Classes
 90
     1152
 91
        1
280
     0
281
     0
  0
ENDSEC
  0
SECTION
  2
TABLES
  0
TABLE
  2
VPORT
  5
8
330
0
100
AcDbSymbolTable
 70
     1
  0
VPORT
  5
13F8
330
8
100
AcDbSymbolTableRecord
100
AcDbViewportTableRecord
  2
*Active
 70
     0
 10
0.0
 20
0.0
 11
1.0
 21
1.0
 12
-427.6715184524034
 22
-73.14730838575224
 13
0.0
 23
0.0
 14
10.0
 24
10.0
 15
10.0
 25
10.0
 16
0.0
 26
0.0
 36
1.0
 17
0.0
 27
0.0
 37
0.0
 40
624.9663799811826
 41
1.739910313901345
 42
50.0
 43
0.0
 44
0.0
 50
0.0
 51
0.0
 71
     0
 72
   100
 73
     1
 74
     1
 75
     0
 76
     0
 77
     0
 78
     0
281
     0
 65
     1
110
0.0
120
0.0
130
0.0
111
1.0
121
0.0
131
0.0
112
0.0
122
1.0
132
0.0
 79
     0
146
0.0
  0
ENDTAB
  0
TABLE
  2
LTYPE
  5
5
330
0
100
AcDbSymbolTable
 70
    15
  0
LTYPE
  5
12
330
5
100
AcDbSymbolTableRecord
100
AcDbLinetypeTableRecord
  2
BYBLOCK
 70
     0
  3

 72
    65
 73
     0
 40
0.0
  0
LTYPE
  5
13
330
5
100
AcDbSymbolTableRecord
100
AcDbLinetypeTableRecord
  2
BYLAYER
 70
     0
  3

 72
    65
 73
     0
 40
0.0
  0
LTYPE
  5
14
330
5
100
AcDbSymbolTableRecord
100
AcDbLinetypeTableRecord
  2
CONTINUOUS
 70
     0
  3
Solid line
 72
    65
 73
     0
 40
0.0
  0
LTYPE
  5
1AE
330
5
100
AcDbSymbolTableRecord
100
AcDbLinetypeTableRecord
  2
CENTER
 70
     0
  3
____ _ ____ _ ____ _ ____ _ ____ _ ____ _ ____ 
 72
    65
 73
     4
 40
2.0
 49
1.25
 74
     0
 49
-0.25
 74
     0
 49
0.25
 74
     0
 49
-0.25
 74
     0
  0
LTYPE
  5
7FB
330
5
100
AcDbSymbolTableRecord
100
AcDbLinetypeTableRecord
  2
AM_ISO02W050
 70
     0
  3
__ __ __ __ __ __ __ __ __ __ __ __ __ __ __
 72
    65
 73
     2
 40
7.5
 49
6.0
 74
     0
 49
-1.5
 74
     0
  0
LTYPE
  5
7FC
330
5
100
AcDbSymbolTableRecord
100
AcDbLinetypeTableRecord
  2
AM_ISO08W050
 70
     0
  3
____ . ____ . ____ . ____ . ____ . ____ . ____
 72
    65
 73
     4
 40
18.0
 49
12.0
 74
     0
 49
-1.5
 74
     0
 49
3.0
 74
     0
 49
-1.5
 74
     0
  0
LTYPE
  5
7FD
330
5
100
AcDbSymbolTableRecord
100
AcDbLinetypeTableRecord
  2
AM_ISO09W050
 70
     0
  3
_____ . . _____ . . _____ . . ____ .. ____
 72
    65
 73
     6
 40
22.5
 49
12.0
 74
     0
 49
-1.5
 74
     0
 49
3.0
 74
     0
 49
-1.5
 74
     0
 49
3.0
 74
     0
 49
-1.5
 74
     0
  0
LTYPE
  5
7FE
330
5
100
AcDbSymbolTableRecord
100
AcDbLinetypeTableRecord
  2
Amconstr
 70
     0
  3
_______________________
 72
    65
 73
     2
 40
9999.0
 49
9999.0
 74
     0
 49
0.0
 74
     0
  0
LTYPE
  5
7FF
330
5
100
AcDbSymbolTableRecord
100
AcDbLinetypeTableRecord
  2
AM_ISO08W050x2
 70
     0
  3
__ . __ . __ . __ . __ . __
 72
    65
 73
     4
 40
9.0
 49
6.0
 74
     0
 49
-0.75
 74
     0
 49
1.5
 74
     0
 49
-0.75
 74
     0
  0
LTYPE
  5
800
330
5
100
AcDbSymbolTableRecord
100
AcDbLinetypeTableRecord
  2
AM_ISO02W050x2
 70
     0
  3
 _ _ _ _ _ _ _ _ _ _ _ _
 72
    65
 73
     2
 40
3.75
 49
3.0
 74
     0
 49
-0.75
 74
     0
  0
LTYPE
  5
803
330
5
100
AcDbSymbolTableRecord
100
AcDbLinetypeTableRecord
  2
Amzigzag
 70
     0
  3
/\/-/\/-/\/-/\/-/\/-/\/
 72
    65
 73
     2
 40
11.0001
 49
0.0001
 74
     4
 75
   135
340
802
 46
0.04
 50
0.0
 44
0.0
 45
0.0
 49
-11.0
 74
     0
  0
LTYPE
  5
811
330
5
100
AcDbSymbolTableRecord
100
AcDbLinetypeTableRecord
  2
ACISOWELD
 70
     0
  3
_ _ _ _ _
 72
    65
 73
     2
 40
2.0
 49
2.0
 74
     0
 49
-1.0
 74
     0
  0
LTYPE
  5
812
330
5
100
AcDbSymbolTableRecord
100
AcDbLinetypeTableRecord
  2
ACISOTGB
 70
     0
  3
__ . . __ . .
 72
    65
 73
     6
 40
9.0
 49
4.0
 74
     0
 49
-1.0
 74
     0
 49
1.0
 74
     0
 49
-1.0
 74
     0
 49
1.0
 74
     0
 49
-1.0
 74
     0
  0
LTYPE
  5
813
330
5
100
AcDbSymbolTableRecord
100
AcDbLinetypeTableRecord
  2
ACISOTGL
 70
     0
  3
_ _ _ _ _
 72
    65
 73
     2
 40
3.0
 49
2.0
 74
     0
 49
-1.0
 74
     0
  0
LTYPE
  5
86C
330
5
100
AcDbSymbolTableRecord
100
AcDbLinetypeTableRecord
  2
PHANTOM2
 70
     0
  3
Phantom (.5x) ___ _ _ ___ _ _ ___ _ _ ___ _ _
 72
    65
 73
     6
 40
1.25
 49
0.625
 74
     0
 49
-0.125
 74
     0
 49
0.125
 74
     0
 49
-0.125
 74
     0
 49
0.125
 74
     0
 49
-0.125
 74
     0
  0
LTYPE
  5
870
330
5
100
AcDbSymbolTableRecord
100
AcDbLinetypeTableRecord
  2
ACANSTGB
 70
     0
  3
__ . . __ . .
 72
    65
 73
     6
 40
0.35433070866
 49
0.15748031496
 74
     0
 49
-0.03937007874
 74
     0
 49
0.03937007874
 74
     0
 49
-0.03937007874
 74
     0
 49
0.03937007874
 74
     0
 49
-0.03937007874
 74
     0
  0
LTYPE
  5
871
330
5
100
AcDbSymbolTableRecord
100
AcDbLinetypeTableRecord
  2
ACANSTGL
 70
     0
  3
_ _ _ _ _
 72
    65
 73
     2
 40
0.11811023622
 49
0.07874015748
 74
     0
 49
-0.03937007874
 74
     0
  0
ENDTAB
  0
TABLE
  2
LAYER
  5
2
330
0
100
AcDbSymbolTable
 70
     6
  0
LAYER
  5
E
102
{ACAD_XDICTIONARY
360
1453
102
}
330
2
100
AcDbSymbolTableRecord
100
AcDbLayerTableRecord
  2
0
 70
     0
 62
     7
  6
CONTINUOUS
370
    -3
390
7D0
  0
LAYER
  5
1AF
102
{ACAD_XDICTIONARY
360
1455
102
}
330
2
100
AcDbSymbolTableRecord
100
AcDbLayerTableRecord
  2
DISEGNO
 70
     0
 62
     7
  6
CONTINUOUS
370
    -3
390
7D0
  0
LAYER
  5
1B0
102
{ACAD_XDICTIONARY
360
1457
102
}
330
2
100
AcDbSymbolTableRecord
100
AcDbLayerTableRecord
  2
TRATTEGGI
 70
     0
 62
     8
  6
CONTINUOUS
370
    -3
390
7D0
  0
LAYER
  5
1B1
102
{ACAD_XDICTIONARY
360
1459
102
}
330
2
100
AcDbSymbolTableRecord
100
AcDbLayerTableRecord
  2
ASSI
 70
     0
 62
     2
  6
CENTER
370
    -3
390
7D0
  0
LAYER
  5
1B2
102
{ACAD_XDICTIONARY
360
145B
102
}
330
2
100
AcDbSymbolTableRecord
100
AcDbLayerTableRecord
  2
NORMALI
 70
     0
 62
     6
  6
CONTINUOUS
370
    -3
390
7D0
  0
LAYER
  5
875
330
2
100
AcDbSymbolTableRecord
100
AcDbLayerTableRecord
  2
DEFPOINTS
 70
     0
 62
     7
  6
CONTINUOUS
290
     0
370
    -3
390
7D0
  0
ENDTAB
  0
TABLE
  2
STYLE
  5
3
330
0
100
AcDbSymbolTable
 70
     6
  0
STYLE
  5
F
330
3
100
AcDbSymbolTableRecord
100
AcDbTextStyleTableRecord
  2
STANDARD
 70
     0
 40
0.0
 41
1.0
 50
0.0
 71
     0
 42
2.5
  3
txt
  4

  0
STYLE
  5
802
330
3
100
AcDbSymbolTableRecord
100
AcDbTextStyleTableRecord
  2

 70
     1
 40
0.0
 41
1.0
 50
0.0
 71
     0
 42
2.5
  3
ltypeshp.shx
  4

  0
STYLE
  5
804
330
3
100
AcDbSymbolTableRecord
100
AcDbTextStyleTableRecord
  2
ACISOTS
 70
     0
 40
1.0
 41
1.0
 50
0.0
 71
     0
 42
2.5
  3
isocp.shx
  4

  0
STYLE
  5
810
330
3
100
AcDbSymbolTableRecord
100
AcDbTextStyleTableRecord
  2
ACISOGDT
 70
     0
 40
0.0
 41
1.0
 50
0.0
 71
     0
 42
2.5
  3
amgdt.shx
  4

  0
STYLE
  5
878
330
3
100
AcDbSymbolTableRecord
100
AcDbTextStyleTableRecord
  2
ACANSTS
 70
     0
 40
1.0
 41
1.0
 50
0.0
 71
     0
 42
3.0
  3
romans.shx
  4

  0
STYLE
  5
879
330
3
100
AcDbSymbolTableRecord
100
AcDbTextStyleTableRecord
  2
ACANSGDT
 70
     0
 40
0.0
 41
1.0
 50
0.0
 71
     0
 42
3.0
  3
amgdtans.shx
  4

  0
ENDTAB
  0
TABLE
  2
VIEW
  5
6
330
0
100
AcDbSymbolTable
 70
     0
  0
ENDTAB
  0
TABLE
  2
UCS
  5
7
330
0
100
AcDbSymbolTable
 70
     0
  0
ENDTAB
  0
TABLE
  2
APPID
  5
9
330
0
100
AcDbSymbolTable
 70
     7
  0
APPID
  5
10
330
9
100
AcDbSymbolTableRecord
100
AcDbRegAppTableRecord
  2
ACAD
 70
     0
  0
APPID
  5
20
330
9
100
AcDbSymbolTableRecord
100
AcDbRegAppTableRecord
  2
ZIMM
 70
     0
  0
APPID
  5
7DD
330
9
100
AcDbSymbolTableRecord
100
AcDbRegAppTableRecord
  2
MCAD_NO_VIS
 70
     0
  0
APPID
  5
7DE
330
9
100
AcDbSymbolTableRecord
100
AcDbRegAppTableRecord
  2
ACAD_TEMP_GRAPHIC
 70
     0
  0
APPID
  5
7EF
330
9
100
AcDbSymbolTableRecord
100
AcDbRegAppTableRecord
  2
ACATTRIBSERVICES
 70
     0
  0
APPID
  5
CD6
330
9
100
AcDbSymbolTableRecord
100
AcDbRegAppTableRecord
  2
COMAU_ACADLIB
 70
     0
  0
APPID
  5
144B
330
9
100
AcDbSymbolTableRecord
100
AcDbRegAppTableRecord
  2
ACAD_MLEADERVER
 70
     0
  0
ENDTAB
  0
TABLE
  2
DIMSTYLE
  5
A
330
0
100
AcDbSymbolTable
 70
    14
100
AcDbDimStyleTable
 71
     1
340
1D
  0
DIMSTYLE
105
1D
330
A
100
AcDbSymbolTableRecord
100
AcDbDimStyleTableRecord
  2
STANDARD
 70
     0
340
F
  0
DIMSTYLE
105
817
330
A
100
AcDbSymbolTableRecord
100
AcDbDimStyleTableRecord
  2
AM_ISO
 70
     0
  4
"
 41
2.5
 42
1.0
 43
10.0
 44
1.0
 47
0.1
 48
0.1
 73
     0
 74
     0
 77
     1
 78
     8
 79
     2
140
3.5
141
0.0
143
0.0393701
146
0.71
147
1.5
172
     1
176
   256
177
   256
178
     2
271
     2
272
     3
274
     4
283
     0
284
     8
340
F
371
    -1
372
    -1
  0
DIMSTYLE
105
818
330
A
100
AcDbSymbolTableRecord
100
AcDbDimStyleTableRecord
  2
AM_ISO$3
 70
     0
  4
"
 41
2.5
 42
1.0
 43
10.0
 44
1.0
 47
0.1
 48
0.1
 73
     0
 77
     1
 78
     8
 79
     2
140
3.5
141
0.0
143
0.0393701
146
0.71
147
1.5
176
   256
177
   256
178
     2
271
     2
272
     3
274
     4
283
     0
284
     8
288
     1
289
     0
340
F
371
    -1
372
    -1
  0
DIMSTYLE
105
819
330
A
100
AcDbSymbolTableRecord
100
AcDbDimStyleTableRecord
  2
AM_ISO$4
 70
     0
  4
"
 41
2.5
 42
1.0
 43
10.0
 44
1.0
 47
0.1
 48
0.1
 73
     0
 77
     1
 78
     8
 79
     2
140
3.5
141
0.0
143
0.0393701
146
0.71
147
1.5
176
   256
177
   256
178
     2
271
     2
272
     3
274
     4
283
     0
284
     8
288
     1
289
     0
340
F
371
    -1
372
    -1
  0
DIMSTYLE
105
81A
330
A
100
AcDbSymbolTableRecord
100
AcDbDimStyleTableRecord
  2
AM_ISO$6
 70
     0
  4
"
 41
2.5
 42
1.0
 43
10.0
 44
1.0
 47
0.1
 48
0.1
 73
     0
 74
     0
 78
     8
 79
     2
140
3.5
141
0.0
143
0.0393701
146
0.71
147
1.5
172
     1
176
   256
177
   256
178
     2
271
     2
272
     3
274
     4
283
     0
284
     8
340
F
371
    -1
372
    -1
  0
DIMSTYLE
105
81B
330
A
100
AcDbSymbolTableRecord
100
AcDbDimStyleTableRecord
  2
AM_ISO$7
 70
     0
  4
"
 41
2.5
 42
1.0
 43
10.0
 44
1.0
 47
0.1
 48
0.1
 73
     0
 74
     0
 77
     1
 78
     8
 79
     2
140
5.0
141
0.0
143
0.0393701
146
0.71
147
1.5
172
     1
176
   256
177
   256
178
     2
271
     2
272
     3
274
     4
283
     0
284
     8
340
F
371
    -1
372
    -1
  0
DIMSTYLE
105
81C
330
A
100
AcDbSymbolTableRecord
100
AcDbDimStyleTableRecord
  2
AM_ISO$SF
 70
     0
  4
"
 41
2.5
 42
1.0
 43
10.0
 44
1.0
 47
0.1
 48
0.1
 73
     0
 74
     0
 75
     1
 76
     1
 77
     1
 78
     8
 79
     2
140
3.5
141
0.0
143
0.0393701
146
0.71
147
1.5
172
     1
176
   256
177
   256
178
     2
271
     2
272
     3
274
     4
283
     0
284
     8
340
F
371
    -1
372
    -1
  0
DIMSTYLE
105
821
330
A
100
AcDbSymbolTableRecord
100
AcDbDimStyleTableRecord
  2
AM_ISO$SH
 70
     0
  4
"
 41
2.5
 42
1.0
 43
10.0
 44
1.0
 47
0.1
 48
0.1
 73
     0
 74
     0
 75
     1
 76
     1
 77
     1
 78
     8
 79
     2
140
3.5
141
0.0
143
0.0393701
144
2.0
146
0.71
147
1.5
172
     1
173
     1
176
   256
177
   256
178
     2
271
     2
272
     3
274
     4
283
     0
284
     8
340
F
343
81D
371
    -1
372
    -1
  0
DIMSTYLE
105
87B
330
A
100
AcDbSymbolTableRecord
100
AcDbDimStyleTableRecord
  2
AM_ANSI
 70
     0
  4
mm
 41
0.1
 42
0.05
 43
0.5
 44
0.1
 47
0.1
 48
0.1
 78
     7
 79
     2
140
0.12
141
0.0
146
0.71
147
0.06
176
   256
177
   256
178
     2
274
     4
284
     7
340
F
371
    -1
372
    -1
  0
DIMSTYLE
105
87C
330
A
100
AcDbSymbolTableRecord
100
AcDbDimStyleTableRecord
  2
AM_ANSI$3
 70
     0
  4
mm
 41
0.1
 42
0.05
 43
0.5
 44
0.1
 47
0.1
 48
0.1
 78
     7
 79
     2
140
0.12
141
0.0
146
0.71
147
0.06
176
   256
177
   256
178
     2
274
     4
284
     7
288
     1
289
     0
340
F
371
    -1
372
    -1
  0
DIMSTYLE
105
87D
330
A
100
AcDbSymbolTableRecord
100
AcDbDimStyleTableRecord
  2
AM_ANSI$4
 70
     0
  4
mm
 41
0.1
 42
0.05
 43
0.5
 44
0.1
 47
0.1
 48
0.1
 78
     7
 79
     2
140
0.12
141
0.0
146
0.71
147
0.06
176
   256
177
   256
178
     2
274
     4
284
     7
288
     1
289
     0
340
F
371
    -1
372
    -1
  0
DIMSTYLE
105
87E
330
A
100
AcDbSymbolTableRecord
100
AcDbDimStyleTableRecord
  2
AM_ANSI$7
 70
     0
  4
mm
 41
0.1
 42
0.05
 43
0.5
 44
0.1
 47
0.1
 48
0.1
 78
     7
 79
     2
140
0.24
141
0.0
146
0.71
147
0.06
176
   256
177
   256
178
     2
274
     4
284
     7
340
F
371
    -1
372
    -1
  0
DIMSTYLE
105
87F
330
A
100
AcDbSymbolTableRecord
100
AcDbDimStyleTableRecord
  2
AM_ANSI$SF
 70
     0
  4
mm
 41
0.1
 42
0.05
 43
0.5
 44
0.1
 47
0.1
 48
0.1
 75
     1
 76
     1
 78
     7
 79
     2
140
0.12
141
0.0
146
0.71
147
0.06
176
   256
177
   256
178
     2
274
     4
284
     7
340
F
371
    -1
372
    -1
  0
DIMSTYLE
105
880
330
A
100
AcDbSymbolTableRecord
100
AcDbDimStyleTableRecord
  2
AM_ANSI$SH
 70
     0
  4
mm
 41
0.1
 42
0.05
 43
0.5
 44
0.1
 47
0.1
 48
0.1
 75
     1
 76
     1
 78
     7
 79
     2
140
0.12
141
0.0
146
0.71
147
0.06
173
     1
176
   256
177
   256
178
     2
274
     4
284
     7
340
F
343
81D
371
    -1
372
    -1
  0
ENDTAB
  0
TABLE
  2
BLOCK_RECORD
  5
1
330
0
100
AcDbSymbolTable
 70
     1
  0
BLOCK_RECORD
  5
18
102
{ACAD_XDICTIONARY
360
82C
102
}
330
1
100
AcDbSymbolTableRecord
100
AcDbBlockTableRecord
  2
*MODEL_SPACE
340
7D3
  0
BLOCK_RECORD
  5
15
330
1
100
AcDbSymbolTableRecord
100
AcDbBlockTableRecord
  2
*PAPER_SPACE
340
7D4
  0
BLOCK_RECORD
  5
81D
330
1
100
AcDbSymbolTableRecord
100
AcDbBlockTableRecord
  2
GENAXEH
340
0
  0
ENDTAB
  0
ENDSEC
  0
SECTION
  2
BLOCKS
  0
BLOCK
  5
19
330
18
100
AcDbEntity
  8
0
100
AcDbBlockBegin
  2
*MODEL_SPACE
 70
     0
 10
0.0
 20
0.0
 30
0.0
  3
*MODEL_SPACE
  1

  0
ENDBLK
  5
1A
330
18
100
AcDbEntity
  8
0
100
AcDbBlockEnd
  0
BLOCK
  5
16
330
15
100
AcDbEntity
 67
     1
  8
0
100
AcDbBlockBegin
  2
*PAPER_SPACE
 70
     0
 10
0.0
 20
0.0
 30
0.0
  3
*PAPER_SPACE
  1

  0
ENDBLK
  5
17
330
15
100
AcDbEntity
 67
     1
  8
0
100
AcDbBlockEnd
  0
BLOCK
  5
81F
330
81D
100
AcDbEntity
  8
0
100
AcDbBlockBegin
  2
GENAXEH
 70
     0
 10
0.0
 20
0.0
 30
0.0
  3
GENAXEH
  1

  0
LINE
  5
81E
330
81D
100
AcDbEntity
  8
0
100
AcDbLine
 10
-1.0
 20
0.0
 30
0.0
 11
1.0
 21
0.0
 31
0.0
  0
ENDBLK
  5
820
330
81D
100
AcDbEntity
  8
0
100
AcDbBlockEnd
  0
ENDSEC
  0
SECTION
  2
ENTITIES
  0
LINE
  5
335
330
18
100
AcDbEntity
  8
ASSI
100
AcDbLine
 10
-805.6881198665164
 20
-236.3143225968634
 30
0.0
 11
-805.6881198665164
 21
-241.3143225968633
 31
0.0
  0
LINE
  5
336
330
18
100
AcDbEntity
  8
ASSI
100
AcDbLine
 10
-775.6881198664865
 20
-241.3143225968636
 30
0.0
 11
-775.6881198664865
 21
-236.3143225968636
 31
0.0
  0
ARC
  5
33E
330
18
100
AcDbEntity
  8
DISEGNO
100
AcDbCircle
 10
-805.6881198665164
 20
-238.8143225968633
 30
0.0
 40
2.5
100
AcDbArc
 50
179.9999999999929
 51
269.9999999999999
  0
LINE
  5
33F
330
18
100
AcDbEntity
  8
DISEGNO
100
AcDbLine
 10
-809.6881198664883
 20
-230.8143225968633
 30
0.0
 11
-809.6881198664901
 21
-246.8143225968634
 31
0.0
  0
LINE
  5
340
330
18
100
AcDbEntity
  8
DISEGNO
100
AcDbLine
 10
-810.6881198664883
 20
-231.8143225968634
 30
0.0
 11
-810.6881198664902
 21
-245.8143225968633
 31
0.0
  0
ARC
  5
341
330
18
100
AcDbEntity
  8
DISEGNO
100
AcDbCircle
 10
-775.6881198664865
 20
-238.8143225968636
 30
0.0
 40
2.5
100
AcDbArc
 50
269.9999999999999
 51
0.000000000000007
  0
LINE
  5
342
330
18
100
AcDbEntity
  8
DISEGNO
100
AcDbLine
 10
-749.6881198664866
 20
-186.3143225968631
 30
0.0
 11
-749.6881198664901
 21
-291.3143225968631
 31
0.0
  0
LINE
  5
343
330
18
100
AcDbEntity
  8
DISEGNO
100
AcDbLine
 10
-566.9222739267758
 20
-280.8143225968759
 30
0.0
 11
-566.9222739267487
 21
-196.8143225968756
 31
0.0
  0
LINE
  5
344
330
18
100
AcDbEntity
  8
DISEGNO
100
AcDbLine
 10
-734.6881198664738
 20
-201.3143225968631
 30
0.0
 11
-734.6881198665029
 21
-276.3143225968631
 31
0.0
  0
LINE
  5
345
330
18
100
AcDbEntity
  8
DISEGNO
100
AcDbLine
 10
-766.6881198664829
 20
-199.8143225968645
 30
0.0
 11
-766.6881198665083
 21
-277.814322596827
 31
0.0
  0
LINE
  5
346
330
18
100
AcDbEntity
  8
NORMALI
100
AcDbLine
 10
-769.5881198664898
 20
-251.8143225968659
 30
0.0
 11
-769.5881198664898
 21
-225.8143225968602
 31
0.0
  0
LINE
  5
347
330
18
100
AcDbEntity
  8
DISEGNO
100
AcDbLine
 10
-769.6881198664828
 20
-228.8143225968652
 30
0.0
 11
-769.6881198664956
 21
-248.8143225968654
 31
0.0
  0
LINE
  5
348
330
18
100
AcDbEntity
  8
DISEGNO
100
AcDbLine
 10
-770.6881198664865
 20
-229.8143225968663
 30
0.0
 11
-770.6881198664829
 21
-247.8143225968647
 31
0.0
  0
LINE
  5
349
330
18
100
AcDbEntity
  8
DISEGNO
100
AcDbLine
 10
-266.922273926749
 20
-280.8143225968759
 30
0.0
 11
-266.922273926776
 21
-196.8143225968756
 31
0.0
  0
LINE
  5
34A
330
18
100
AcDbEntity
  8
DISEGNO
100
AcDbLine
 10
-147.6880739267614
 20
-186.3143225968654
 30
0.0
 11
-147.6880739267596
 21
-291.3143225968654
 31
0.0
  0
LINE
  5
34B
330
18
100
AcDbEntity
  8
DISEGNO
100
AcDbLine
 10
-162.6880739267724
 20
-201.3143225968656
 30
0.0
 11
-162.6880739267432
 21
-276.3143225968654
 31
0.0
  0
LINE
  5
34D
330
18
100
AcDbEntity
  8
ASSI
100
AcDbLine
 10
-475.3712393786043
 20
-273.8143225968756
 30
0.0
 11
-458.0777138870634
 21
-273.8143225968756
 31
0.0
  0
LINE
  5
34E
330
18
100
AcDbEntity
  8
DISEGNO
100
AcDbLine
 10
-564.922273926776
 20
-282.8143225968756
 30
0.0
 11
-268.9222739267488
 21
-282.8143225968756
 31
0.0
  0
LINE
  5
34F
330
18
100
AcDbEntity
  8
DISEGNO
100
AcDbLine
 10
-749.6881198664901
 20
-291.3143225968631
 30
0.0
 11
-147.728533825393
 21
-291.3143225968654
 31
0.0
  0
LINE
  5
350
330
18
100
AcDbEntity
  8
DISEGNO
100
AcDbLine
 10
-766.688119866472
 20
-277.8143225968645
 30
0.0
 11
-765.688119866472
 21
-278.8143225968645
 31
0.0
  0
LINE
  5
351
330
18
100
AcDbEntity
  8
DISEGNO
100
AcDbLine
 10
-809.6881198664883
 20
-246.8143225968627
 30
0.0
 11
-771.6881198664865
 21
-246.8143225968615
 31
0.0
  0
LINE
  5
352
330
18
100
AcDbEntity
  8
DISEGNO
100
AcDbLine
 10
-805.6881198665164
 20
-241.3143225968633
 30
0.0
 11
-775.6881198664865
 21
-241.3143225968636
 31
0.0
  0
LINE
  5
353
330
18
100
AcDbEntity
  8
DISEGNO
100
AcDbLine
 10
-809.6881198664883
 20
-246.8143225968627
 30
0.0
 11
-810.6881198664883
 21
-245.8143225968627
 31
0.0
  0
LINE
  5
354
330
18
100
AcDbEntity
  8
DISEGNO
100
AcDbLine
 10
-770.6881198664829
 20
-247.8143225968622
 30
0.0
 11
-769.6881198664811
 21
-248.8143225968622
 31
0.0
  0
ARC
  5
355
330
18
100
AcDbEntity
  8
DISEGNO
100
AcDbCircle
 10
-771.6881198664865
 20
-247.8143225968615
 30
0.0
 40
1.0
100
AcDbArc
 50
0.0000000000347387
 51
90.00000000000122
  0
LINE
  5
356
330
18
100
AcDbEntity
  8
NORMALI
100
AcDbLine
 10
-766.8428204048683
 20
-252.8143225968658
 30
0.0
 11
-768.5881198664898
 21
-252.8143225968656
 31
0.0
  0
ARC
  5
357
330
18
100
AcDbEntity
  8
NORMALI
100
AcDbCircle
 10
-768.5881198664898
 20
-251.8143225968656
 30
0.0
 40
1.0
100
AcDbArc
 50
180.0000000000083
 51
270.0
1001
ACAD
1000
ASC_BOUNDS
1002
{
1070
    19
1002
}
  0
LINE
  5
358
330
18
100
AcDbEntity
  8
DISEGNO
100
AcDbLine
 10
-734.6881198664974
 20
-263.8143225968631
 30
0.0
 11
-566.9222739267706
 21
-263.8143225968765
 31
0.0
  0
LINE
  5
359
330
18
100
AcDbEntity
  8
DISEGNO
100
AcDbLine
 10
-719.6881198664901
 20
-263.8143225968631
 30
0.0
 11
-719.6881198664956
 21
-291.3143225968631
 31
0.0
  0
LINE
  5
35C
330
18
100
AcDbEntity
  8
DISEGNO
100
AcDbLine
 10
-765.6881198664828
 20
-278.8143225968584
 30
0.0
 11
-765.6881198664828
 21
-248.6366737341202
 31
0.0
  0
LINE
  5
35D
330
18
100
AcDbEntity
  8
DISEGNO
100
AcDbLine
 10
-749.6881198664883
 20
-276.3143225968631
 30
0.0
 11
-734.6881198665029
 21
-276.3143225968631
 31
0.0
  0
LINE
  5
35E
330
18
100
AcDbEntity
  8
DISEGNO
100
AcDbLine
 10
-749.688119866492
 20
-278.8143225968647
 30
0.0
 11
-765.688119866472
 21
-278.8143225968645
 31
0.0
  0
LINE
  5
361
330
18
100
AcDbEntity
  8
ASSI
100
AcDbLine
 10
-554.0868168871055
 20
-273.8143225968756
 30
0.0
 11
-519.0007579244438
 21
-273.8143225968756
 31
0.0
  0
LINE
  5
362
330
18
100
AcDbEntity
  8
ASSI
100
AcDbLine
 10
-546.9222739267815
 20
-280.9788655572024
 30
0.0
 11
-546.9222739267764
 21
-267.1716235357349
 31
0.0
  0
ARC
  5
363
330
18
100
AcDbEntity
  8
DISEGNO
100
AcDbCircle
 10
-546.9222739267778
 20
-273.8143225968756
 30
0.0
 40
4.0
100
AcDbArc
 50
0.000000000000007
 51
269.9999999999739
  0
CIRCLE
  5
364
330
18
100
AcDbEntity
  8
DISEGNO
100
AcDbCircle
 10
-546.9222739267778
 20
-273.8143225968756
 30
0.0
 40
4.5
  0
LINE
  5
365
330
18
100
AcDbEntity
  8
DISEGNO
100
AcDbLine
 10
-566.922273926776
 20
-280.8143225968756
 30
0.0
 11
-564.922273926776
 21
-282.8143225968756
 31
0.0
  0
CIRCLE
  5
366
330
18
100
AcDbEntity
  8
DISEGNO
100
AcDbCircle
 10
-546.9222739267778
 20
-273.8143225968756
 30
0.0
 40
3.2
  0
LINE
  5
36D
330
18
100
AcDbEntity
  8
ASSI
100
AcDbLine
 10
-7.658344523911637
 20
144.9999999999981
 30
0.0
 11
-7.658344523911182
 21
-12.64328317197078
 31
0.0
  0
LINE
  5
36E
330
18
100
AcDbEntity
  8
DISEGNO
100
AcDbLine
 10
36.34165547608473
 20
106.0
 30
0.0
 11
36.34165547608473
 21
130.0
 31
0.0
  0
LINE
  5
36F
330
18
100
AcDbEntity
  8
DISEGNO
100
AcDbLine
 10
-51.65834452391539
 20
106.0
 30
0.0
 11
-51.65834452391539
 21
130.0
 31
0.0
  0
LINE
  5
371
330
18
100
AcDbEntity
  8
DISEGNO
100
AcDbLine
 10
43.84165547608836
 20
0.0
 30
0.0
 11
44.84165547608836
 21
1.0
 31
0.0
  0
ARC
  5
373
330
18
100
AcDbEntity
  8
TRATTEGGI
100
AcDbCircle
 10
42.84165547608745
 20
103.0000000000001
 30
0.0
 40
2.0
100
AcDbArc
 50
0.0
 51
90.00000000000003
  0
LINE
  5
374
330
18
100
AcDbEntity
  8
DISEGNO
100
AcDbLine
 10
44.84165547608836
 20
104.0
 30
0.0
 11
43.84165547608836
 21
105.0
 31
0.0
  0
CIRCLE
  5
377
330
18
100
AcDbEntity
  8
DISEGNO
100
AcDbCircle
 10
-7.658344523912546
 20
61.00000000000012
 30
0.0
 40
40.0
  0
LINE
  5
379
330
18
100
AcDbEntity
  8
DISEGNO
100
AcDbLine
 10
-60.15834452390993
 20
104.0
 30
0.0
 11
-60.15834452390993
 21
0.0
 31
0.0
  0
ARC
  5
37A
330
18
100
AcDbEntity
  8
NORMALI
100
AcDbCircle
 10
-7.658344523912546
 20
61.00000000000012
 30
0.0
 40
16.00000000000182
100
AcDbArc
 50
277.1807557814574
 51
352.8192442185402
  0
ARC
  5
37B
330
18
100
AcDbEntity
  8
NORMALI
100
AcDbCircle
 10
-7.658344523912546
 20
61.00000000000012
 30
0.0
 40
14.00000000000187
100
AcDbArc
 50
278.2132107017445
 51
351.7867892982542
  0
CIRCLE
  5
37C
330
18
100
AcDbEntity
  8
DISEGNO
100
AcDbCircle
 10
-7.658344523912546
 20
61.00000000000012
 30
0.0
 40
19.99999999999949
  0
ARC
  5
37D
330
18
100
AcDbEntity
  8
NORMALI
100
AcDbCircle
 10
-7.658344523912546
 20
61.00000000000012
 30
0.0
 40
14.00000000000187
100
AcDbArc
 50
188.2132107017458
 51
261.7867892982479
  0
ARC
  5
37E
330
18
100
AcDbEntity
  8
NORMALI
100
AcDbCircle
 10
-7.658344523912546
 20
61.00000000000012
 30
0.0
 40
16.00000000000182
100
AcDbArc
 50
187.1807557814597
 51
262.8192442185361
  0
LINE
  5
37F
330
18
100
AcDbEntity
  8
DISEGNO
100
AcDbLine
 10
43.84165547608836
 20
0.0
 30
0.0
 11
-60.15834452390993
 21
0.0
 31
0.0
  0
LINE
  5
380
330
18
100
AcDbEntity
  8
ASSI
100
AcDbLine
 10
-48.04269403187766
 20
27.41242789363787
 30
0.0
 11
-34.48645731268607
 21
27.41242789363787
 31
0.0
  0
LINE
  5
381
330
18
100
AcDbEntity
  8
ASSI
100
AcDbLine
 10
-41.2459166302724
 20
34.20920529524119
 30
0.0
 11
-41.24591663027058
 21
20.61565049203273
 31
0.0
  0
ARC
  5
382
330
18
100
AcDbEntity
  8
DISEGNO
100
AcDbCircle
 10
-41.24591663027149
 20
27.41242789363798
 30
0.0
 40
3.0
100
AcDbArc
 50
270.0
 51
180.0
  0
CIRCLE
  5
383
330
18
100
AcDbEntity
  8
DISEGNO
100
AcDbCircle
 10
-41.24591663027149
 20
27.41242789363798
 30
0.0
 40
2.386565338986022
  0
LINE
  5
387
330
18
100
AcDbEntity
  8
NORMALI
100
AcDbLine
 10
-9.658344523909818
 20
47.5
 30
0.0
 11
-5.658344523911637
 21
47.5
 31
0.0
  0
LINE
  5
388
330
18
100
AcDbEntity
  8
NORMALI
100
AcDbLine
 10
-5.658344523911637
 20
45.12549213360943
 30
0.0
 11
-5.658344523909818
 21
47.5
 31
0.0
  0
LINE
  5
389
330
18
100
AcDbEntity
  8
NORMALI
100
AcDbLine
 10
-9.658344523911637
 20
45.12549213360943
 30
0.0
 11
-9.658344523913456
 21
47.5
 31
0.0
  0
LINE
  5
38A
330
18
100
AcDbEntity
  8
ASSI
100
AcDbLine
 10
32.72600498405473
 20
27.41242789363787
 30
0.0
 11
19.16976826486325
 21
27.41242789363787
 31
0.0
  0
ARC
  5
38B
330
18
100
AcDbEntity
  8
DISEGNO
100
AcDbCircle
 10
25.92922758244867
 20
27.41242789363798
 30
0.0
 40
3.0
100
AcDbArc
 50
0.0
 51
270.0
  0
CIRCLE
  5
38C
330
18
100
AcDbEntity
  8
DISEGNO
100
AcDbCircle
 10
25.92922758244867
 20
27.41242789363798
 30
0.0
 40
2.386565338986022
  0
LINE
  5
38D
330
18
100
AcDbEntity
  8
ASSI
100
AcDbLine
 10
25.92922758244958
 20
34.20920529524119
 30
0.0
 11
25.92922758244777
 21
20.61565049203273
 31
0.0
  0
LINE
  5
38E
330
18
100
AcDbEntity
  8
DISEGNO
100
AcDbLine
 10
-59.15834452390993
 20
105.0
 30
0.0
 11
43.84165547608836
 21
105.0
 31
0.0
  0
LINE
  5
390
330
18
100
AcDbEntity
  8
ASSI
100
AcDbLine
 10
-43.6501587661819
 20
61.0
 30
0.0
 11
28.33346971836227
 21
61.0
 31
0.0
  0
ARC
  5
391
330
18
100
AcDbEntity
  8
NORMALI
100
AcDbCircle
 10
-7.658344523912546
 20
61.00000000000012
 30
0.0
 40
16.00000000000182
100
AcDbArc
 50
97.18075578146402
 51
172.8192442185443
  0
ARC
  5
392
330
18
100
AcDbEntity
  8
NORMALI
100
AcDbCircle
 10
-7.658344523912546
 20
61.00000000000012
 30
0.0
 40
14.00000000000187
100
AcDbArc
 50
98.21321070175208
 51
171.7867892982588
  0
LINE
  5
393
330
18
100
AcDbEntity
  8
DISEGNO
100
AcDbLine
 10
29.84165547608836
 20
110.0
 30
0.0
 11
-45.15834452390982
 21
110.0
 31
0.0
  0
LINE
  5
394
330
18
100
AcDbEntity
  8
ASSI
100
AcDbLine
 10
-46.56806662763801
 20
95.04165812827887
 30
0.0
 11
-46.56806662763983
 21
81.4481033250704
 31
0.0
  0
LINE
  5
395
330
18
100
AcDbEntity
  8
NORMALI
100
AcDbLine
 10
-23.53285239030038
 20
58.99999999999818
 30
0.0
 11
-21.15834452391164
 21
58.99999999999636
 31
0.0
  0
LINE
  5
396
330
18
100
AcDbEntity
  8
NORMALI
100
AcDbLine
 10
-23.53285239030038
 20
62.99999999999818
 30
0.0
 11
-21.15834452391164
 21
63.0
 31
0.0
  0
LINE
  5
397
330
18
100
AcDbEntity
  8
NORMALI
100
AcDbLine
 10
-21.15834452391164
 20
62.99999999999636
 30
0.0
 11
-21.15834452391164
 21
58.99999999999818
 31
0.0
  0
LINE
  5
398
330
18
100
AcDbEntity
  8
ASSI
100
AcDbLine
 10
-39.77128922603288
 20
88.24488072667554
 30
0.0
 11
-53.32752594522446
 21
88.24488072667554
 31
0.0
  0
ARC
  5
39D
330
18
100
AcDbEntity
  8
TRATTEGGI
100
AcDbCircle
 10
-58.15834452391266
 20
103.0000000000001
 30
0.0
 40
2.0
100
AcDbArc
 50
90.00000000000003
 51
179.9999999951584
  0
LINE
  5
39E
330
18
100
AcDbEntity
  8
DISEGNO
100
AcDbLine
 10
-59.15834452390993
 20
105.0
 30
0.0
 11
-60.15834452390993
 21
104.0
 31
0.0
  0
ARC
  5
39F
330
18
100
AcDbEntity
  8
DISEGNO
100
AcDbCircle
 10
-46.56806662763893
 20
88.24488072667566
 30
0.0
 40
3.0
100
AcDbArc
 50
275.0
 51
185.0
  0
CIRCLE
  5
3A0
330
18
100
AcDbEntity
  8
DISEGNO
100
AcDbCircle
 10
-46.56806662763893
 20
88.24488072667566
 30
0.0
 40
2.386565338986022
  0
LINE
  5
3A1
330
18
100
AcDbEntity
  8
DISEGNO
100
AcDbLine
 10
-51.65834452391539
 20
106.0
 30
0.0
 11
-45.15834452391345
 21
106.0
 31
0.0
  0
LINE
  5
3A2
330
18
100
AcDbEntity
  8
DISEGNO
100
AcDbLine
 10
-45.15834452391163
 20
110.0
 30
0.0
 11
-45.15834452391163
 21
105.0
 31
0.0
  0
LINE
  5
3A4
330
18
100
AcDbEntity
  8
ASSI
100
AcDbLine
 10
31.25137757981566
 20
95.04165812827887
 30
0.0
 11
31.25137757981383
 21
81.4481033250704
 31
0.0
  0
ARC
  5
3A5
330
18
100
AcDbEntity
  8
NORMALI
100
AcDbCircle
 10
-7.658344523912546
 20
61.00000000000012
 30
0.0
 40
16.00000000000182
100
AcDbArc
 50
7.180755781455773
 51
82.81924421854254
  0
ARC
  5
3A6
330
18
100
AcDbEntity
  8
NORMALI
100
AcDbCircle
 10
-7.658344523912546
 20
61.00000000000012
 30
0.0
 40
14.00000000000187
100
AcDbArc
 50
8.213210701741182
 51
81.78678929825546
  0
CIRCLE
  5
3A7
330
18
100
AcDbEntity
  8
DISEGNO
100
AcDbCircle
 10
-7.658344523912546
 20
61.00000000000012
 30
0.0
 40
10.0
  0
CIRCLE
  5
3A8
330
18
100
AcDbEntity
  8
DISEGNO
100
AcDbCircle
 10
-7.658344523912546
 20
61.00000000000012
 30
0.0
 40
8.000000000000454
  0
LINE
  5
3A9
330
18
100
AcDbEntity
  8
NORMALI
100
AcDbLine
 10
5.841655476088362
 20
62.99999999999636
 30
0.0
 11
5.841655476088362
 21
58.99999999999818
 31
0.0
  0
LINE
  5
3AA
330
18
100
AcDbEntity
  8
NORMALI
100
AcDbLine
 10
8.216163342477102
 20
58.99999999999818
 30
0.0
 11
5.841655476088362
 21
58.99999999999636
 31
0.0
  0
LINE
  5
3AB
330
18
100
AcDbEntity
  8
NORMALI
100
AcDbLine
 10
8.216163342477102
 20
62.99999999999818
 30
0.0
 11
5.841655476088362
 21
63.0
 31
0.0
  0
LINE
  5
3AC
330
18
100
AcDbEntity
  8
NORMALI
100
AcDbLine
 10
-9.658344523909818
 20
74.5
 30
0.0
 11
-5.658344523911637
 21
74.5
 31
0.0
  0
LINE
  5
3AD
330
18
100
AcDbEntity
  8
NORMALI
100
AcDbLine
 10
-5.658344523911637
 20
76.87450786638874
 30
0.0
 11
-5.658344523909818
 21
74.5
 31
0.0
  0
LINE
  5
3AE
330
18
100
AcDbEntity
  8
NORMALI
100
AcDbLine
 10
-9.658344523911637
 20
76.87450786638874
 30
0.0
 11
-9.658344523913456
 21
74.5
 31
0.0
  0
ARC
  5
3B2
330
18
100
AcDbEntity
  8
DISEGNO
100
AcDbCircle
 10
31.25137757981474
 20
88.24488072667566
 30
0.0
 40
3.0
100
AcDbArc
 50
275.0
 51
185.0
  0
LINE
  5
3B3
330
18
100
AcDbEntity
  8
ASSI
100
AcDbLine
 10
38.0481549814208
 20
88.24488072667554
 30
0.0
 11
24.49191826222932
 21
88.24488072667554
 31
0.0
  0
CIRCLE
  5
3B4
330
18
100
AcDbEntity
  8
DISEGNO
100
AcDbCircle
 10
31.25137757981474
 20
88.24488072667566
 30
0.0
 40
2.386565338986022
  0
LINE
  5
3B5
330
18
100
AcDbEntity
  8
DISEGNO
100
AcDbLine
 10
29.84165547608836
 20
106.0
 30
0.0
 11
36.34165547608473
 21
106.0
 31
0.0
  0
LINE
  5
3B6
330
18
100
AcDbEntity
  8
DISEGNO
100
AcDbLine
 10
29.84165547608836
 20
110.0
 30
0.0
 11
29.84165547608836
 21
105.0
 31
0.0
  0
LINE
  5
3B7
330
18
100
AcDbEntity
  8
DISEGNO
100
AcDbLine
 10
44.84165547608836
 20
104.0
 30
0.0
 11
44.84165547608836
 21
1.0
 31
0.0
  0
LINE
  5
3B9
330
18
100
AcDbEntity
  8
DISEGNO
100
AcDbLine
 10
36.34165547608473
 20
120.0
 30
0.0
 11
-51.65834452391539
 21
120.0
 31
0.0
  0
LINE
  5
3BA
330
18
100
AcDbEntity
  8
DISEGNO
100
AcDbLine
 10
36.34165547608473
 20
130.0
 30
0.0
 11
-51.65834452391539
 21
130.0
 31
0.0
  0
LINE
  5
3BD
330
18
100
AcDbEntity
  8
ASSI
100
AcDbLine
 10
-466.9222739267796
 20
-280.9788655572024
 30
0.0
 11
-466.9222739267755
 21
-267.1716235357349
 31
0.0
  0
ARC
  5
3BE
330
18
100
AcDbEntity
  8
DISEGNO
100
AcDbCircle
 10
-466.9222739267778
 20
-273.8143225968756
 30
0.0
 40
4.0
100
AcDbArc
 50
0.000000000000007
 51
269.9999999999739
  0
CIRCLE
  5
3BF
330
18
100
AcDbEntity
  8
DISEGNO
100
AcDbCircle
 10
-466.9222739267778
 20
-273.8143225968756
 30
0.0
 40
4.5
  0
LINE
  5
3C0
330
18
100
AcDbEntity
  8
NORMALI
100
AcDbLine
 10
-460.4222739267615
 20
-284.8143225968538
 30
0.0
 11
-451.4222739267669
 21
-284.8143225968538
 31
0.0
  0
LINE
  5
3C1
330
18
100
AcDbEntity
  8
ASSI
100
AcDbLine
 10
-455.9222739267705
 20
-286.5738685543686
 30
0.0
 11
-455.9222739267696
 21
-279.0844176096396
 31
0.0
  0
CIRCLE
  5
3C2
330
18
100
AcDbEntity
  8
DISEGNO
100
AcDbCircle
 10
-466.9222739267778
 20
-273.8143225968756
 30
0.0
 40
3.2
  0
LINE
  5
3C3
330
18
100
AcDbEntity
  8
NORMALI
100
AcDbLine
 10
-460.4222739267632
 20
-282.8143225968538
 30
0.0
 11
-460.4222739267615
 21
-284.8143225968538
 31
0.0
  0
LINE
  5
3C4
330
18
100
AcDbEntity
  8
NORMALI
100
AcDbLine
 10
-451.4222739267633
 20
-282.8143225968538
 30
0.0
 11
-451.422273926765
 21
-284.8143225968538
 31
0.0
  0
ARC
  5
3C5
330
18
100
AcDbEntity
  8
DISEGNO
100
AcDbCircle
 10
-366.9222739267451
 20
-273.8143225968756
 30
0.0
 40
4.0
100
AcDbArc
 50
0.000000000000007
 51
269.9999999999739
  0
CIRCLE
  5
3C6
330
18
100
AcDbEntity
  8
DISEGNO
100
AcDbCircle
 10
-366.9222739267451
 20
-273.8143225968756
 30
0.0
 40
4.5
  0
LINE
  5
3C7
330
18
100
AcDbEntity
  8
ASSI
100
AcDbLine
 10
-366.9222739267415
 20
-280.9788655572024
 30
0.0
 11
-366.9222739267469
 21
-267.1716235357349
 31
0.0
  0
LINE
  5
3C8
330
18
100
AcDbEntity
  8
ASSI
100
AcDbLine
 10
-375.2599684040641
 20
-273.8143225968756
 30
0.0
 11
-358.3055305203274
 21
-273.8143225968756
 31
0.0
  0
CIRCLE
  5
3C9
330
18
100
AcDbEntity
  8
DISEGNO
100
AcDbCircle
 10
-366.9222739267451
 20
-273.8143225968756
 30
0.0
 40
3.2
  0
LINE
  5
3CB
330
18
100
AcDbEntity
  8
ASSI
100
AcDbLine
 10
-286.9222739267415
 20
-280.9788655572024
 30
0.0
 11
-286.9222739267469
 21
-267.1716235357349
 31
0.0
  0
ARC
  5
3CC
330
18
100
AcDbEntity
  8
DISEGNO
100
AcDbCircle
 10
-286.9222739267451
 20
-273.8143225968756
 30
0.0
 40
4.0
100
AcDbArc
 50
0.000000000000007
 51
269.9999999999739
  0
CIRCLE
  5
3CD
330
18
100
AcDbEntity
  8
DISEGNO
100
AcDbCircle
 10
-286.9222739267451
 20
-273.8143225968756
 30
0.0
 40
4.5
  0
LINE
  5
3CE
330
18
100
AcDbEntity
  8
ASSI
100
AcDbLine
 10
-322.6922738078624
 20
-273.8143225968756
 30
0.0
 11
-279.7577309664656
 21
-273.8143225968756
 31
0.0
  0
CIRCLE
  5
3CF
330
18
100
AcDbEntity
  8
DISEGNO
100
AcDbCircle
 10
-286.9222739267451
 20
-273.8143225968756
 30
0.0
 40
3.2
  0
LINE
  5
3D0
330
18
100
AcDbEntity
  8
DISEGNO
100
AcDbLine
 10
-169.6880739267669
 20
-291.3143225968654
 30
0.0
 11
-169.6880739267633
 21
-263.8143225968654
 31
0.0
1001
ACAD
1000
ASC_BOUNDS
1002
{
1070
    19
1002
}
  0
LINE
  5
3D3
330
18
100
AcDbEntity
  8
DISEGNO
100
AcDbLine
 10
-147.6880739267578
 20
-276.3143225968654
 30
0.0
 11
-162.6880739267432
 21
-276.3143225968654
 31
0.0
  0
LINE
  5
3D4
330
18
100
AcDbEntity
  8
DISEGNO
100
AcDbLine
 10
-268.9222739267488
 20
-282.8143225968756
 30
0.0
 11
-266.9222739267488
 21
-280.8143225968756
 31
0.0
  0
LINE
  5
3D5
330
18
100
AcDbEntity
  8
DISEGNO
100
AcDbLine
 10
-147.728533825393
 20
-291.3143225968654
 30
0.0
 11
-147.6880739267596
 21
-291.3143225968654
 31
0.0
  0
LINE
  5
3D8
330
18
100
AcDbEntity
  8
DISEGNO
100
AcDbLine
 10
-266.922273926756
 20
-263.8143225968749
 30
0.0
 11
-162.438073926758
 21
-263.8143225968732
 31
0.0
  0
LINE
  5
3DD
330
18
100
AcDbEntity
  8
ASSI
100
AcDbLine
 10
-131.9678191201971
 20
-238.8143225968655
 30
0.0
 11
-812.9445983715383
 21
-238.8143225968662
 31
0.0
  0
LINE
  5
3DE
330
18
100
AcDbEntity
  8
DISEGNO
100
AcDbLine
 10
-276.9222739267456
 20
106.0000000000066
 30
0.0
 11
-556.9222739267528
 21
106.0000000000066
 31
0.0
  0
LINE
  5
3DF
330
18
100
AcDbEntity
  8
DISEGNO
100
AcDbLine
 10
-695.2240182513357
 20
24.0000000000191
 30
0.0
 11
-194.1521755418975
 21
23.99999999999852
 31
0.0
  0
LINE
  5
3E0
330
18
100
AcDbEntity
  8
DISEGNO
100
AcDbLine
 10
-266.9222739267474
 20
119.9999999999906
 30
0.0
 11
-566.9222739267492
 21
119.9999999999906
 31
0.0
  0
LINE
  5
3E1
330
18
100
AcDbEntity
  8
DISEGNO
100
AcDbLine
 10
-566.9222739267455
 20
129.9999999999904
 30
0.0
 11
-266.9222739267547
 21
129.9999999999904
 31
0.0
  0
LINE
  5
3E2
330
18
100
AcDbEntity
  8
DISEGNO
100
AcDbLine
 10
-695.2240182513602
 20
32.0000000000191
 30
0.0
 11
-194.1521755418973
 21
31.99999999999818
 31
0.0
  0
LINE
  5
3E3
330
18
100
AcDbEntity
  8
ASSI
100
AcDbLine
 10
-161.2635211214308
 20
27.99999999999909
 30
0.0
 11
-723.2764232984014
 21
27.99999999999841
 31
0.0
  0
LINE
  5
3E4
330
18
100
AcDbEntity
  8
DISEGNO
100
AcDbLine
 10
-749.6881198664866
 20
0.0000000000022737
 30
0.0
 11
-173.7732933957806
 21
0.0
 31
0.0
  0
LINE
  5
3E5
330
18
100
AcDbEntity
  8
ASSI
100
AcDbLine
 10
-475.3712393786043
 20
-203.8143225968756
 30
0.0
 11
-458.0777138870638
 21
-203.8143225968756
 31
0.0
  0
LINE
  5
3E6
330
18
100
AcDbEntity
  8
DISEGNO
100
AcDbLine
 10
-564.9222739267487
 20
-194.8143225968756
 30
0.0
 11
-268.922273926776
 21
-194.8143225968756
 31
0.0
  0
LINE
  5
3E7
330
18
100
AcDbEntity
  8
DISEGNO
100
AcDbLine
 10
-749.6881198664866
 20
105.0000000000029
 30
0.0
 11
-153.8468568592086
 21
104.9999999999729
 31
0.0
  0
LINE
  5
3E8
330
18
100
AcDbEntity
  8
DISEGNO
100
AcDbLine
 10
-749.6881198664866
 20
-186.3143225968631
 30
0.0
 11
-147.6880739267614
 21
-186.3143225968654
 31
0.0
  0
LINE
  5
3EB
330
18
100
AcDbEntity
  8
DISEGNO
100
AcDbLine
 10
-749.6881198664866
 20
0.0000000000022737
 30
0.0
 11
-749.688119866492
 21
110.0000000000029
 31
0.0
  0
LINE
  5
3EC
330
18
100
AcDbEntity
  8
DISEGNO
100
AcDbLine
 10
-719.6881198664802
 20
105.0000000000013
 30
0.0
 11
-719.6881198664883
 21
0.0000000000022737
 31
0.0
  0
LINE
  5
3EE
330
18
100
AcDbEntity
  8
DISEGNO
100
AcDbLine
 10
-766.6881198664829
 20
-199.8143225968645
 30
0.0
 11
-765.6881198664828
 21
-198.8143225968645
 31
0.0
  0
LINE
  5
3EF
330
18
100
AcDbEntity
  8
DISEGNO
100
AcDbLine
 10
-809.6881198664883
 20
-230.8143225968633
 30
0.0
 11
-771.6881198664865
 21
-230.8143225968645
 31
0.0
  0
LINE
  5
3F0
330
18
100
AcDbEntity
  8
DISEGNO
100
AcDbLine
 10
-805.6881198665164
 20
-236.3143225968634
 30
0.0
 11
-775.6881198664865
 21
-236.3143225968636
 31
0.0
  0
LINE
  5
3F1
330
18
100
AcDbEntity
  8
DISEGNO
100
AcDbLine
 10
-809.6881198664883
 20
-230.8143225968633
 30
0.0
 11
-810.6881198664883
 21
-231.8143225968634
 31
0.0
  0
ARC
  5
3F2
330
18
100
AcDbEntity
  8
DISEGNO
100
AcDbCircle
 10
-805.6881198665164
 20
-238.8143225968633
 30
0.0
 40
2.5
100
AcDbArc
 50
89.9999999999998
 51
179.9999999999929
  0
LINE
  5
3F3
330
18
100
AcDbEntity
  8
DISEGNO
100
AcDbLine
 10
-808.1881198665165
 20
-238.8143225968631
 30
0.0
 11
-808.1881198665165
 21
-238.8143225968631
 31
0.0
  0
ARC
  5
3F4
330
18
100
AcDbEntity
  8
DISEGNO
100
AcDbCircle
 10
-771.6881198664865
 20
-229.8143225968645
 30
0.0
 40
1.0
100
AcDbArc
 50
269.9999999999988
 51
359.9999999999653
  0
ARC
  5
3F5
330
18
100
AcDbEntity
  8
NORMALI
100
AcDbCircle
 10
-768.5881198664898
 20
-225.8143225968602
 30
0.0
 40
1.0
100
AcDbArc
 50
90.0
 51
179.9999999999916
1001
ACAD
1000
ASC_BOUNDS
1002
{
1070
    19
1002
}
  0
LINE
  5
3F6
330
18
100
AcDbEntity
  8
DISEGNO
100
AcDbLine
 10
-770.6881198664829
 20
-229.8143225968636
 30
0.0
 11
-769.6881198664811
 21
-228.8143225968636
 31
0.0
  0
LINE
  5
3F7
330
18
100
AcDbEntity
  8
NORMALI
100
AcDbLine
 10
-766.8428204048683
 20
-224.8143225968602
 30
0.0
 11
-768.5881198664898
 21
-224.8143225968602
 31
0.0
  0
LINE
  5
3F8
330
18
100
AcDbEntity
  8
DISEGNO
100
AcDbLine
 10
-773.1881198664865
 20
-238.8143225968636
 30
0.0
 11
-773.1881198664865
 21
-238.8143225968636
 31
0.0
  0
ARC
  5
3F9
330
18
100
AcDbEntity
  8
DISEGNO
100
AcDbCircle
 10
-775.6881198664865
 20
-238.8143225968636
 30
0.0
 40
2.5
100
AcDbArc
 50
0.000000000000007
 51
89.99999999999976
  0
LINE
  5
3FB
330
18
100
AcDbEntity
  8
DISEGNO
100
AcDbLine
 10
-734.6881198664792
 20
-213.8143225968631
 30
0.0
 11
-566.9222739267524
 21
-213.8143225968765
 31
0.0
  0
LINE
  5
3FD
330
18
100
AcDbEntity
  8
DISEGNO
100
AcDbLine
 10
-765.6881198664828
 20
-198.8143225968645
 30
0.0
 11
-765.6881198664828
 21
-228.9919714596026
 31
0.0
  0
LINE
  5
400
330
18
100
AcDbEntity
  8
DISEGNO
100
AcDbLine
 10
-719.6881198664756
 20
-186.3143225968631
 30
0.0
 11
-719.6881198664811
 21
-213.8143225968631
 31
0.0
  0
LINE
  5
402
330
18
100
AcDbEntity
  8
DISEGNO
100
AcDbLine
 10
-749.6881198664847
 20
-201.3143225968631
 30
0.0
 11
-734.6881198664738
 21
-201.3143225968631
 31
0.0
  0
LINE
  5
403
330
18
100
AcDbEntity
  8
DISEGNO
100
AcDbLine
 10
-749.6881198664883
 20
-198.8143225968645
 30
0.0
 11
-765.6881198664828
 21
-198.8143225968645
 31
0.0
  0
LINE
  5
405
330
18
100
AcDbEntity
  8
ASSI
100
AcDbLine
 10
-554.086816887081
 20
-203.8143225968756
 30
0.0
 11
-505.7704941989546
 21
-203.8143225968756
 31
0.0
  0
LINE
  5
406
330
18
100
AcDbEntity
  8
ASSI
100
AcDbLine
 10
-546.9222739267569
 20
-210.9200587168511
 30
0.0
 11
-546.9222739267523
 21
-196.6497796365488
 31
0.0
  0
CIRCLE
  5
407
330
18
100
AcDbEntity
  8
DISEGNO
100
AcDbCircle
 10
-546.9222739267542
 20
-203.8143225968756
 30
0.0
 40
4.5
  0
LINE
  5
40A
330
18
100
AcDbEntity
  8
DISEGNO
100
AcDbLine
 10
-566.9222739267487
 20
-196.8143225968756
 30
0.0
 11
-564.9222739267487
 21
-194.8143225968756
 31
0.0
  0
ARC
  5
40B
330
18
100
AcDbEntity
  8
DISEGNO
100
AcDbCircle
 10
-546.9222739267542
 20
-203.8143225968756
 30
0.0
 40
4.0
100
AcDbArc
 50
0.000000000000007
 51
269.9999999999739
  0
CIRCLE
  5
40C
330
18
100
AcDbEntity
  8
DISEGNO
100
AcDbCircle
 10
-546.9222739267542
 20
-203.8143225968756
 30
0.0
 40
3.2
  0
LINE
  5
40E
330
18
100
AcDbEntity
  8
DISEGNO
100
AcDbLine
 10
-749.6881198664847
 20
101.0000000000022
 30
0.0
 11
-765.6881198664811
 21
101.0000000000022
 31
0.0
  0
LINE
  5
40F
330
18
100
AcDbEntity
  8
DISEGNO
100
AcDbLine
 10
-749.6881198664847
 20
21.00000000000682
 30
0.0
 11
-765.6881198664811
 21
21.00000000000682
 31
0.0
  0
LINE
  5
413
330
18
100
AcDbEntity
  8
DISEGNO
100
AcDbLine
 10
-765.6881198664811
 20
101.0000000000022
 30
0.0
 11
-765.6881198664811
 21
70.82235113726415
 31
0.0
  0
LINE
  5
414
330
18
100
AcDbEntity
  8
NORMALI
100
AcDbLine
 10
-769.5881198664862
 20
48.00000000000181
 30
0.0
 11
-769.5881198664862
 21
74.00000000000727
 31
0.0
  0
LINE
  5
415
330
18
100
AcDbEntity
  8
DISEGNO
100
AcDbLine
 10
-766.688119866481
 20
22.00000000000682
 30
0.0
 11
-766.6881198665047
 21
99.99999999997863
 31
0.0
  0
LINE
  5
416
330
18
100
AcDbEntity
  8
DISEGNO
100
AcDbLine
 10
-765.6881198664811
 20
21.00000000000841
 30
0.0
 11
-765.6881198664811
 21
51.17764886274653
 31
0.0
  0
LINE
  5
417
330
18
100
AcDbEntity
  8
DISEGNO
100
AcDbLine
 10
-766.688119866481
 20
22.00000000000682
 30
0.0
 11
-765.6881198664811
 21
21.00000000000682
 31
0.0
  0
LINE
  5
419
330
18
100
AcDbEntity
  8
DISEGNO
100
AcDbLine
 10
-808.1881198664847
 20
71.00000000000409
 30
0.0
 11
-773.1881198664847
 21
71.00000000000318
 31
0.0
  0
LINE
  5
41A
330
18
100
AcDbEntity
  8
DISEGNO
100
AcDbLine
 10
-809.6881198664847
 20
69.00000000000432
 30
0.0
 11
-771.6881198664829
 21
69.00000000000296
 31
0.0
  0
LINE
  5
41B
330
18
100
AcDbEntity
  8
DISEGNO
100
AcDbLine
 10
-809.6881198664847
 20
53.00000000000477
 30
0.0
 11
-771.6881198664829
 21
53.00000000000591
 31
0.0
  0
LINE
  5
41C
330
18
100
AcDbEntity
  8
DISEGNO
100
AcDbLine
 10
-810.6881198664847
 20
68.00000000000432
 30
0.0
 11
-810.6881198664865
 21
54.00000000000432
 31
0.0
  0
LINE
  5
41D
330
18
100
AcDbEntity
  8
DISEGNO
100
AcDbLine
 10
-809.6881198664847
 20
69.00000000000432
 30
0.0
 11
-809.6881198664865
 21
53.00000000000432
 31
0.0
  0
LINE
  5
41E
330
18
100
AcDbEntity
  8
DISEGNO
100
AcDbLine
 10
-809.6881198664847
 20
53.00000000000477
 30
0.0
 11
-810.6881198664847
 21
54.00000000000478
 31
0.0
  0
LINE
  5
420
330
18
100
AcDbEntity
  8
DISEGNO
100
AcDbLine
 10
-808.1881198664847
 20
71.00000000000409
 30
0.0
 11
-808.1881198664845
 21
69.00000000000421
 31
0.0
  0
LINE
  5
421
330
18
100
AcDbEntity
  8
DISEGNO
100
AcDbLine
 10
-809.6881198664847
 20
69.00000000000432
 30
0.0
 11
-810.6881198664847
 21
68.00000000000432
 31
0.0
  0
LINE
  5
422
330
18
100
AcDbEntity
  8
DISEGNO
100
AcDbLine
 10
-770.6881198664829
 20
70.00000000000113
 30
0.0
 11
-770.6881198664793
 21
52.00000000000272
 31
0.0
  0
LINE
  5
423
330
18
100
AcDbEntity
  8
DISEGNO
100
AcDbLine
 10
-769.6881198664792
 20
71.00000000000227
 30
0.0
 11
-769.688119866492
 21
51.00000000000227
 31
0.0
  0
ARC
  5
424
330
18
100
AcDbEntity
  8
DISEGNO
100
AcDbCircle
 10
-771.6881198664829
 20
52.00000000000591
 30
0.0
 40
1.0
100
AcDbArc
 50
0.0000000000347387
 51
90.00000000000122
  0
LINE
  5
425
330
18
100
AcDbEntity
  8
DISEGNO
100
AcDbLine
 10
-770.6881198664793
 20
52.00000000000523
 30
0.0
 11
-769.6881198664774
 21
51.00000000000523
 31
0.0
  0
LINE
  5
426
330
18
100
AcDbEntity
  8
DISEGNO
100
AcDbLine
 10
-770.688119866481
 20
52.00000000000682
 30
0.0
 11
-769.5881198664862
 21
52.00000000000682
 31
0.0
  0
LINE
  5
427
330
18
100
AcDbEntity
  8
DISEGNO
100
AcDbLine
 10
-769.6881198664901
 20
51.00000000000568
 30
0.0
 11
-769.5881198664862
 21
51.00000000000568
 31
0.0
  0
LINE
  5
428
330
18
100
AcDbEntity
  8
NORMALI
100
AcDbLine
 10
-766.8428204048646
 20
47.00000000000159
 30
0.0
 11
-768.5881198664861
 21
47.00000000000182
 31
0.0
  0
ARC
  5
429
330
18
100
AcDbEntity
  8
NORMALI
100
AcDbCircle
 10
-768.5881198664861
 20
48.00000000000181
 30
0.0
 40
1.0
100
AcDbArc
 50
180.0000000000083
 51
270.0
1001
ACAD
1000
ASC_BOUNDS
1002
{
1070
    19
1002
}
  0
LINE
  5
42B
330
18
100
AcDbEntity
  8
DISEGNO
100
AcDbLine
 10
-773.1881198664847
 20
71.00000000000318
 30
0.0
 11
-773.1881198664845
 21
69.00000000000318
 31
0.0
  0
ARC
  5
42C
330
18
100
AcDbEntity
  8
DISEGNO
100
AcDbCircle
 10
-771.6881198664829
 20
70.00000000000295
 30
0.0
 40
1.0
100
AcDbArc
 50
269.9999999999988
 51
359.9999999999653
  0
LINE
  5
42D
330
18
100
AcDbEntity
  8
DISEGNO
100
AcDbLine
 10
-770.6881198664793
 20
70.00000000000387
 30
0.0
 11
-769.6881198664774
 21
71.00000000000386
 31
0.0
  0
LINE
  5
42E
330
18
100
AcDbEntity
  8
DISEGNO
100
AcDbLine
 10
-770.688119866481
 20
70.00000000000205
 30
0.0
 11
-769.5881198664862
 21
70.00000000000205
 31
0.0
  0
LINE
  5
42F
330
18
100
AcDbEntity
  8
DISEGNO
100
AcDbLine
 10
-769.6881198664774
 20
71.00000000000341
 30
0.0
 11
-769.5881198664862
 21
71.00000000000341
 31
0.0
  0
LINE
  5
430
330
18
100
AcDbEntity
  8
NORMALI
100
AcDbLine
 10
-766.8428204048646
 20
75.00000000000728
 30
0.0
 11
-768.5881198664861
 21
75.00000000000728
 31
0.0
  0
ARC
  5
431
330
18
100
AcDbEntity
  8
NORMALI
100
AcDbCircle
 10
-768.5881198664861
 20
74.00000000000727
 30
0.0
 40
1.0
100
AcDbArc
 50
90.0
 51
179.9999999999916
1001
ACAD
1000
ASC_BOUNDS
1002
{
1070
    19
1002
}
  0
LINE
  5
432
330
18
100
AcDbEntity
  8
DISEGNO
100
AcDbLine
 10
-766.688119866481
 20
100.0000000000022
 30
0.0
 11
-765.6881198664811
 21
101.0000000000022
 31
0.0
  0
LINE
  5
434
330
18
100
AcDbEntity
  8
NORMALI
100
AcDbLine
 10
-553.1904333352294
 20
105.6499999999898
 30
0.0
 11
-734.6881198664865
 21
105.6500000000017
 31
0.0
  0
LINE
  5
435
330
18
100
AcDbEntity
  8
NORMALI
100
AcDbLine
 10
-553.1904312742907
 20
105.4999999999898
 30
0.0
 11
-734.6881198664865
 21
105.5000000000018
 31
0.0
  0
ARC
  5
436
330
18
100
AcDbEntity
  8
DISEGNO
100
AcDbCircle
 10
-698.6881198664856
 20
29.9999999999975
 30
0.0
 40
4.0
100
AcDbArc
 50
30.00000000000005
 51
90.0
  0
ARC
  5
437
330
18
100
AcDbEntity
  8
DISEGNO
100
AcDbCircle
 10
-698.6881198664856
 20
25.9999999999975
 30
0.0
 40
4.0
100
AcDbArc
 50
269.9999999999999
 51
330.0000000000061
  0
LINE
  5
438
330
18
100
AcDbEntity
  8
DISEGNO
100
AcDbLine
 10
-719.6881198664856
 20
21.9999999999975
 30
0.0
 11
-698.6881198664856
 21
21.9999999999975
 31
0.0
  0
LINE
  5
439
330
18
100
AcDbEntity
  8
DISEGNO
100
AcDbLine
 10
-719.6881198664856
 20
33.9999999999975
 30
0.0
 11
-698.6881198664856
 21
33.9999999999975
 31
0.0
  0
LINE
  5
43C
330
18
100
AcDbEntity
  8
DISEGNO
100
AcDbLine
 10
-749.6881198664866
 20
110.0000000000029
 30
0.0
 11
-734.6881198664865
 21
110.0000000000018
 31
0.0
  0
LINE
  5
43F
330
18
100
AcDbEntity
  8
DISEGNO
100
AcDbLine
 10
-734.6881198664847
 20
110.0000000000018
 30
0.0
 11
-734.6881198664865
 21
105.0000000000018
 31
0.0
  0
LINE
  5
440
330
18
100
AcDbEntity
  8
DISEGNO
100
AcDbLine
 10
-566.9222739267528
 20
107.0000000000068
 30
0.0
 11
-566.9222739267455
 21
129.9999999999904
 31
0.0
  0
LINE
  5
441
330
18
100
AcDbEntity
  8
TRATTEGGI
100
AcDbLine
 10
-550.1222739267485
 20
119.1999999999907
 30
0.0
 11
-550.9222739267496
 21
119.9999999999906
 31
0.0
  0
LINE
  5
442
330
18
100
AcDbEntity
  8
DISEGNO
100
AcDbLine
 10
-555.9222739267546
 20
119.9999999999906
 30
0.0
 11
-556.9222739267546
 21
118.9999999999907
 31
0.0
  0
LINE
  5
443
330
18
100
AcDbEntity
  8
TRATTEGGI
100
AcDbLine
 10
-543.7222739267489
 20
119.1999999999907
 30
0.0
 11
-542.9222739267496
 21
119.9999999999906
 31
0.0
  0
LINE
  5
444
330
18
100
AcDbEntity
  8
ASSI
100
AcDbLine
 10
-546.9222739267569
 20
103.9149082446281
 30
0.0
 11
-546.9222739267478
 21
133.3856060362693
 31
0.0
  0
LINE
  5
445
330
18
100
AcDbEntity
  8
TRATTEGGI
100
AcDbLine
 10
-550.9222739267587
 20
106.0000000000066
 30
0.0
 11
-550.9222739267496
 21
119.9999999999906
 31
0.0
  0
LINE
  5
446
330
18
100
AcDbEntity
  8
TRATTEGGI
100
AcDbLine
 10
-542.9222739267587
 20
106.0000000000064
 30
0.0
 11
-542.9222739267496
 21
119.9999999999906
 31
0.0
  0
LINE
  5
447
330
18
100
AcDbEntity
  8
DISEGNO
100
AcDbLine
 10
-556.9222739267528
 20
106.0000000000066
 30
0.0
 11
-556.9222739267473
 21
119.9999999999906
 31
0.0
  0
ARC
  5
448
330
18
100
AcDbEntity
  8
DISEGNO
100
AcDbCircle
 10
-565.9222739267528
 20
107.0000000000066
 30
0.0
 40
1.0
100
AcDbArc
 50
179.9999999999819
 51
270.0
  0
ARC
  5
449
330
18
100
AcDbEntity
  8
DISEGNO
100
AcDbCircle
 10
-557.9222739267528
 20
107.0000000000066
 30
0.0
 40
1.0
100
AcDbArc
 50
270.0
 51
359.9999999999773
  0
ARC
  5
44A
330
18
100
AcDbEntity
  8
NORMALI
100
AcDbCircle
 10
-558.190440205018
 20
106.1499999999905
 30
0.0
 40
0.5
100
AcDbArc
 50
270.0000000000009
 51
286.3830668696607
  0
ARC
  5
44B
330
18
100
AcDbEntity
  8
NORMALI
100
AcDbCircle
 10
-558.190440205018
 20
106.1499999999905
 30
0.0
 40
0.65
100
AcDbArc
 50
270.0
 51
286.3830668696607
  0
LINE
  5
44C
330
18
100
AcDbEntity
  8
DISEGNO
100
AcDbLine
 10
-557.9222739267528
 20
106.0000000000066
 30
0.0
 11
-565.9222739267528
 21
106.0000000000066
 31
0.0
  0
LINE
  5
44D
330
18
100
AcDbEntity
  8
TRATTEGGI
100
AcDbLine
 10
-550.1222739267485
 20
119.1999999999907
 30
0.0
 11
-543.7222739267489
 21
119.1999999999907
 31
0.0
  0
LINE
  5
44E
330
18
100
AcDbEntity
  8
TRATTEGGI
100
AcDbLine
 10
-550.1222739267594
 20
106.0000000000061
 30
0.0
 11
-550.1222739267485
 21
119.1999999999907
 31
0.0
  0
LINE
  5
44F
330
18
100
AcDbEntity
  8
TRATTEGGI
100
AcDbLine
 10
-543.722273926758
 20
106.0000000000068
 30
0.0
 11
-543.7222739267489
 21
119.1999999999907
 31
0.0
  0
LINE
  5
450
330
18
100
AcDbEntity
  8
TRATTEGGI
100
AcDbLine
 10
-551.4222739267459
 20
119.9999999999906
 30
0.0
 11
-551.4222739267496
 21
129.9999999999907
 31
0.0
  0
LINE
  5
451
330
18
100
AcDbEntity
  8
TRATTEGGI
100
AcDbLine
 10
-542.4222739267496
 20
119.9999999999906
 30
0.0
 11
-542.4222739267496
 21
129.9999999999907
 31
0.0
  0
LINE
  5
452
330
18
100
AcDbEntity
  8
DISEGNO
100
AcDbLine
 10
-147.6880739267614
 20
0.0
 30
0.0
 11
-147.6880739267614
 21
83.47601638119362
 31
0.0
  0
LINE
  5
453
330
18
100
AcDbEntity
  8
DISEGNO
100
AcDbLine
 10
-169.6880739267614
 20
0.0
 30
0.0
 11
-169.6880739267532
 21
104.9999999999684
 31
0.0
1001
ACAD
1000
ASC_BOUNDS
1002
{
1070
    19
1002
}
  0
LINE
  5
455
330
18
100
AcDbEntity
  8
ASSI
100
AcDbLine
 10
-466.9222739267578
 20
-210.9200587168511
 30
0.0
 11
-466.9222739267541
 21
-196.649779636549
 31
0.0
  0
CIRCLE
  5
456
330
18
100
AcDbEntity
  8
DISEGNO
100
AcDbCircle
 10
-466.9222739267541
 20
-203.8143225968756
 30
0.0
 40
4.5
  0
LINE
  5
457
330
18
100
AcDbEntity
  8
NORMALI
100
AcDbLine
 10
-460.4222739267615
 20
-192.8143225968754
 30
0.0
 11
-451.4222739267669
 21
-192.8143225968754
 31
0.0
  0
LINE
  5
458
330
18
100
AcDbEntity
  8
ASSI
100
AcDbLine
 10
-455.9222739267632
 20
-198.5442275840899
 30
0.0
 11
-455.9222739267632
 21
-191.0547766393606
 31
0.0
  0
ARC
  5
459
330
18
100
AcDbEntity
  8
DISEGNO
100
AcDbCircle
 10
-466.9222739267541
 20
-203.8143225968756
 30
0.0
 40
4.0
100
AcDbArc
 50
0.000000000000007
 51
269.9999999999739
  0
CIRCLE
  5
45A
330
18
100
AcDbEntity
  8
DISEGNO
100
AcDbCircle
 10
-466.9222739267541
 20
-203.8143225968756
 30
0.0
 40
3.2
  0
LINE
  5
45B
330
18
100
AcDbEntity
  8
NORMALI
100
AcDbLine
 10
-460.4222739267632
 20
-194.8143225968754
 30
0.0
 11
-460.4222739267615
 21
-192.8143225968754
 31
0.0
  0
LINE
  5
45C
330
18
100
AcDbEntity
  8
NORMALI
100
AcDbLine
 10
-451.4222739267633
 20
-194.8143225968754
 30
0.0
 11
-451.422273926765
 21
-192.8143225968754
 31
0.0
  0
LINE
  5
45E
330
18
100
AcDbEntity
  8
ASSI
100
AcDbLine
 10
-366.9222739267674
 20
-210.9200587168511
 30
0.0
 11
-366.9222739267724
 21
-196.649779636549
 31
0.0
  0
LINE
  5
45F
330
18
100
AcDbEntity
  8
ASSI
100
AcDbLine
 10
-375.2599684040646
 20
-203.8143225968756
 30
0.0
 11
-358.3055305203274
 21
-203.8143225968754
 31
0.0
  0
CIRCLE
  5
464
330
18
100
AcDbEntity
  8
DISEGNO
100
AcDbCircle
 10
-286.9222739267688
 20
-203.8143225968756
 30
0.0
 40
4.5
  0
LINE
  5
465
330
18
100
AcDbEntity
  8
ASSI
100
AcDbLine
 10
-286.9222739267656
 20
-210.9200587168511
 30
0.0
 11
-286.9222739267706
 21
-196.6497796365488
 31
0.0
  0
LINE
  5
466
330
18
100
AcDbEntity
  8
ASSI
100
AcDbLine
 10
-294.4705161619653
 20
-203.8143225968756
 30
0.0
 11
-279.7577309664419
 21
-203.8143225968756
 31
0.0
  0
ARC
  5
467
330
18
100
AcDbEntity
  8
DISEGNO
100
AcDbCircle
 10
-286.9222739267688
 20
-203.8143225968756
 30
0.0
 40
4.0
100
AcDbArc
 50
0.000000000000007
 51
269.9999999999739
  0
CIRCLE
  5
468
330
18
100
AcDbEntity
  8
DISEGNO
100
AcDbCircle
 10
-286.9222739267688
 20
-203.8143225968756
 30
0.0
 40
3.2
  0
LINE
  5
46B
330
18
100
AcDbEntity
  8
DISEGNO
100
AcDbLine
 10
-169.6880739267578
 20
-213.8143225968656
 30
0.0
 11
-169.688073926756
 21
-186.3143225968654
 31
0.0
1001
ACAD
1000
ASC_BOUNDS
1002
{
1070
    19
1002
}
  0
LINE
  5
46E
330
18
100
AcDbEntity
  8
DISEGNO
100
AcDbLine
 10
-266.9222739267706
 20
-213.8143225968749
 30
0.0
 11
-162.4380739267659
 21
-213.8143225968736
 31
0.0
  0
LINE
  5
471
330
18
100
AcDbEntity
  8
DISEGNO
100
AcDbLine
 10
-147.6880739267614
 20
-201.3143225968656
 30
0.0
 11
-162.6880739267724
 21
-201.3143225968656
 31
0.0
  0
LINE
  5
472
330
18
100
AcDbEntity
  8
DISEGNO
100
AcDbLine
 10
-266.922273926776
 20
-196.8143225968756
 30
0.0
 11
-268.922273926776
 21
-194.8143225968756
 31
0.0
  0
LINE
  5
473
330
18
100
AcDbEntity
  8
DISEGNO
100
AcDbLine
 10
-173.7732933957806
 20
0.0
 30
0.0
 11
-147.6880739267614
 21
0.0
 31
0.0
  0
LINE
  5
474
330
18
100
AcDbEntity
  8
TRATTEGGI
100
AcDbLine
 10
-470.1222739267513
 20
119.1999999999907
 30
0.0
 11
-470.9222739267524
 21
119.9999999999906
 31
0.0
  0
LINE
  5
475
330
18
100
AcDbEntity
  8
TRATTEGGI
100
AcDbLine
 10
-463.7222739267516
 20
119.1999999999907
 30
0.0
 11
-462.9222739267524
 21
119.9999999999906
 31
0.0
  0
LINE
  5
476
330
18
100
AcDbEntity
  8
ASSI
100
AcDbLine
 10
-466.9222739267578
 20
103.9149082446024
 30
0.0
 11
-466.9222739267532
 21
133.3856060362693
 31
0.0
  0
LINE
  5
477
330
18
100
AcDbEntity
  8
TRATTEGGI
100
AcDbLine
 10
-462.9222739267596
 20
105.9999999999806
 30
0.0
 11
-462.9222739267524
 21
119.9999999999906
 31
0.0
  0
LINE
  5
478
330
18
100
AcDbEntity
  8
TRATTEGGI
100
AcDbLine
 10
-470.9222739267596
 20
105.9999999999809
 30
0.0
 11
-470.9222739267524
 21
119.9999999999906
 31
0.0
  0
LINE
  5
479
330
18
100
AcDbEntity
  8
TRATTEGGI
100
AcDbLine
 10
-470.1222739267513
 20
119.1999999999907
 30
0.0
 11
-463.7222739267516
 21
119.1999999999907
 31
0.0
  0
LINE
  5
47A
330
18
100
AcDbEntity
  8
TRATTEGGI
100
AcDbLine
 10
-463.7222739267589
 20
105.9999999999811
 30
0.0
 11
-463.7222739267516
 21
119.1999999999907
 31
0.0
  0
LINE
  5
47B
330
18
100
AcDbEntity
  8
TRATTEGGI
100
AcDbLine
 10
-470.1222739267604
 20
105.9999999999804
 30
0.0
 11
-470.1222739267513
 21
119.1999999999907
 31
0.0
  0
LINE
  5
47D
330
18
100
AcDbEntity
  8
ASSI
100
AcDbLine
 10
-455.922273926751
 20
106.9950600785453
 30
0.0
 11
-455.9222739267446
 21
119.004939921436
 31
0.0
  0
LINE
  5
480
330
18
100
AcDbEntity
  8
ASSI
100
AcDbLine
 10
-449.9173340053024
 20
112.9999999999907
 30
0.0
 11
-461.9272138481932
 21
112.9999999999907
 31
0.0
  0
LINE
  5
481
330
18
100
AcDbEntity
  8
TRATTEGGI
100
AcDbLine
 10
-471.4222739267487
 20
119.9999999999906
 30
0.0
 11
-471.4222739267505
 21
129.999999999965
 31
0.0
  0
LINE
  5
482
330
18
100
AcDbEntity
  8
TRATTEGGI
100
AcDbLine
 10
-462.4222739267524
 20
119.9999999999906
 30
0.0
 11
-462.4222739267505
 21
129.999999999965
 31
0.0
  0
LINE
  5
483
330
18
100
AcDbEntity
  8
TRATTEGGI
100
AcDbLine
 10
-370.1222739267608
 20
119.1999999999907
 30
0.0
 11
-363.7222739267612
 21
119.1999999999907
 31
0.0
  0
LINE
  5
484
330
18
100
AcDbEntity
  8
TRATTEGGI
100
AcDbLine
 10
-370.1222739267608
 20
119.1999999999907
 30
0.0
 11
-370.922273926762
 21
119.9999999999906
 31
0.0
  0
LINE
  5
485
330
18
100
AcDbEntity
  8
TRATTEGGI
100
AcDbLine
 10
-370.9222739267692
 20
106.2500000000689
 30
0.0
 11
-370.922273926762
 21
119.9999999999906
 31
0.0
  0
LINE
  5
486
330
18
100
AcDbEntity
  8
TRATTEGGI
100
AcDbLine
 10
-370.1222739267699
 20
106.2500000000687
 30
0.0
 11
-370.1222739267608
 21
119.1999999999907
 31
0.0
  0
LINE
  5
487
330
18
100
AcDbEntity
  8
TRATTEGGI
100
AcDbLine
 10
-371.4222739267583
 20
119.9999999999906
 30
0.0
 11
-371.4222739267601
 21
130.000000000053
 31
0.0
  0
LINE
  5
488
330
18
100
AcDbEntity
  8
ASSI
100
AcDbLine
 10
-366.9222739267674
 20
104.1649082446904
 30
0.0
 11
-366.9222739267583
 21
133.3856060363316
 31
0.0
  0
LINE
  5
489
330
18
100
AcDbEntity
  8
TRATTEGGI
100
AcDbLine
 10
-363.7222739267612
 20
119.1999999999907
 30
0.0
 11
-362.9222739267619
 21
119.9999999999906
 31
0.0
  0
LINE
  5
48A
330
18
100
AcDbEntity
  8
TRATTEGGI
100
AcDbLine
 10
-362.9222739267692
 20
106.2500000000689
 30
0.0
 11
-362.9222739267619
 21
119.9999999999906
 31
0.0
  0
LINE
  5
48B
330
18
100
AcDbEntity
  8
TRATTEGGI
100
AcDbLine
 10
-363.7222739267685
 20
106.2500000000691
 30
0.0
 11
-363.7222739267612
 21
119.1999999999907
 31
0.0
  0
LINE
  5
48C
330
18
100
AcDbEntity
  8
TRATTEGGI
100
AcDbLine
 10
-362.4222739267619
 20
119.9999999999906
 30
0.0
 11
-362.4222739267601
 21
130.000000000053
 31
0.0
  0
LINE
  5
48D
330
18
100
AcDbEntity
  8
DISEGNO
100
AcDbLine
 10
-147.6880739267614
 20
110.0000000000006
 30
0.0
 11
-147.6880739267614
 21
42.52398361885366
 31
0.0
  0
LINE
  5
48E
330
18
100
AcDbEntity
  8
DISEGNO
100
AcDbLine
 10
-169.6880739267596
 20
21.99999999999818
 30
0.0
 11
-190.6880739267596
 21
21.99999999999818
 31
0.0
  0
LINE
  5
48F
330
18
100
AcDbEntity
  8
DISEGNO
100
AcDbLine
 10
-169.6880739267596
 20
33.99999999999818
 30
0.0
 11
-190.6880739267596
 21
33.99999999999818
 31
0.0
  0
ARC
  5
490
330
18
100
AcDbEntity
  8
DISEGNO
100
AcDbCircle
 10
-190.6880739267596
 20
25.99999999999818
 30
0.0
 40
4.0
100
AcDbArc
 50
209.9999999999939
 51
270.0000000000001
  0
ARC
  5
491
330
18
100
AcDbEntity
  8
DISEGNO
100
AcDbCircle
 10
-190.6880739267596
 20
29.99999999999818
 30
0.0
 40
4.0
100
AcDbArc
 50
90.0
 51
149.9999999999999
  0
ARC
  5
492
330
18
100
AcDbEntity
  8
DISEGNO
100
AcDbCircle
 10
-275.9222739267455
 20
107.0000000000066
 30
0.0
 40
1.0
100
AcDbArc
 50
180.0000000000227
 51
270.0
  0
LINE
  5
493
330
18
100
AcDbEntity
  8
ASSI
100
AcDbLine
 10
-286.9222739267656
 20
103.6649082447161
 30
0.0
 11
-286.9222739267565
 21
133.3856060363573
 31
0.0
  0
LINE
  5
494
330
18
100
AcDbEntity
  8
TRATTEGGI
100
AcDbLine
 10
-290.122273926759
 20
119.1999999999907
 30
0.0
 11
-290.9222739267601
 21
119.9999999999906
 31
0.0
  0
LINE
  5
495
330
18
100
AcDbEntity
  8
TRATTEGGI
100
AcDbLine
 10
-283.7222739267594
 20
119.1999999999907
 30
0.0
 11
-282.9222739267601
 21
119.9999999999906
 31
0.0
  0
LINE
  5
496
330
18
100
AcDbEntity
  8
DISEGNO
100
AcDbLine
 10
-277.9222739267437
 20
119.9999999999906
 30
0.0
 11
-276.9222739267438
 21
118.9999999999907
 31
0.0
  0
LINE
  5
497
330
18
100
AcDbEntity
  8
TRATTEGGI
100
AcDbLine
 10
-290.9222739267674
 20
106.0000000000066
 30
0.0
 11
-290.9222739267601
 21
119.9999999999906
 31
0.0
  0
LINE
  5
498
330
18
100
AcDbEntity
  8
TRATTEGGI
100
AcDbLine
 10
-282.9222739267692
 20
106.0000000000066
 30
0.0
 11
-282.9222739267601
 21
119.9999999999906
 31
0.0
  0
LINE
  5
499
330
18
100
AcDbEntity
  8
DISEGNO
100
AcDbLine
 10
-276.9222739267456
 20
106.0000000000066
 30
0.0
 11
-276.9222739267529
 21
119.9999999999906
 31
0.0
  0
LINE
  5
49A
330
18
100
AcDbEntity
  8
TRATTEGGI
100
AcDbLine
 10
-290.122273926759
 20
119.1999999999907
 30
0.0
 11
-283.7222739267594
 21
119.1999999999907
 31
0.0
  0
LINE
  5
49B
330
18
100
AcDbEntity
  8
TRATTEGGI
100
AcDbLine
 10
-290.1222739267681
 20
106.0000000000066
 30
0.0
 11
-290.122273926759
 21
119.1999999999907
 31
0.0
  0
LINE
  5
49C
330
18
100
AcDbEntity
  8
TRATTEGGI
100
AcDbLine
 10
-283.7222739267685
 20
106.0000000000066
 30
0.0
 11
-283.7222739267594
 21
119.1999999999907
 31
0.0
  0
LINE
  5
49D
330
18
100
AcDbEntity
  8
TRATTEGGI
100
AcDbLine
 10
-291.4222739267565
 20
119.9999999999906
 30
0.0
 11
-291.4222739267583
 21
130.0000000000786
 31
0.0
  0
LINE
  5
49E
330
18
100
AcDbEntity
  8
TRATTEGGI
100
AcDbLine
 10
-282.4222739267601
 20
119.9999999999906
 30
0.0
 11
-282.4222739267583
 21
130.0000000000786
 31
0.0
  0
LINE
  5
4A0
330
18
100
AcDbEntity
  8
DISEGNO
100
AcDbLine
 10
-147.6880739267614
 20
110.0000000000006
 30
0.0
 11
-162.6880739267632
 21
110.0000000000006
 31
0.0
  0
LINE
  5
4A1
330
18
100
AcDbEntity
  8
DISEGNO
100
AcDbLine
 10
-153.8468568592086
 20
104.9999999999729
 30
0.0
 11
-147.6880739267614
 21
104.9999999999672
 31
0.0
  0
LINE
  5
4A2
330
18
100
AcDbEntity
  8
DISEGNO
100
AcDbLine
 10
-266.9222739267456
 20
107.0000000000068
 30
0.0
 11
-266.9222739267528
 21
129.9999999999904
 31
0.0
  0
LINE
  5
4A3
330
18
100
AcDbEntity
  8
NORMALI
100
AcDbLine
 10
-270.6541145183081
 20
105.6499999999912
 30
0.0
 11
-162.6880739267635
 21
105.6499999999942
 31
0.0
  0
LINE
  5
4A4
330
18
100
AcDbEntity
  8
NORMALI
100
AcDbLine
 10
-270.6541165792504
 20
105.4999999999913
 30
0.0
 11
-162.6880739267634
 21
105.4999999999941
 31
0.0
  0
ARC
  5
4A5
330
18
100
AcDbEntity
  8
NORMALI
100
AcDbCircle
 10
-275.6541076484804
 20
106.1499999999905
 30
0.0
 40
0.65
100
AcDbArc
 50
253.6169331303392
 51
270.0
  0
ARC
  5
4A6
330
18
100
AcDbEntity
  8
NORMALI
100
AcDbCircle
 10
-275.6541076484804
 20
106.1499999999905
 30
0.0
 40
0.5
100
AcDbArc
 50
253.6169331303392
 51
269.9999999999991
  0
ARC
  5
4A7
330
18
100
AcDbEntity
  8
DISEGNO
100
AcDbCircle
 10
-267.9222739267455
 20
107.0000000000066
 30
0.0
 40
1.0
100
AcDbArc
 50
270.0
 51
0.0000000000181235
  0
LINE
  5
4A8
330
18
100
AcDbEntity
  8
DISEGNO
100
AcDbLine
 10
-275.9222739267455
 20
106.0000000000066
 30
0.0
 11
-267.9222739267455
 21
106.0000000000066
 31
0.0
  0
LINE
  5
4AA
330
18
100
AcDbEntity
  8
DISEGNO
100
AcDbLine
 10
-162.6880739267651
 20
110.0000000000009
 30
0.0
 11
-162.6880739267632
 21
105.0000000000007
 31
0.0
  0
LINE
  5
A38
330
18
100
AcDbEntity
  8
DISEGNO
100
AcDbLine
 10
-882.4956406461041
 20
22.42900000000625
 30
0.0
 11
-878.2956406461037
 21
42.31300000000444
 31
0.0
  0
ARC
  5
A39
330
18
100
AcDbEntity
  8
DISEGNO
100
AcDbCircle
 10
-878.4956406461033
 20
21.58100000000635
 30
0.0
 40
4.08101
100
AcDbArc
 50
167.999999999997
 51
0.0
  0
ARC
  5
A3A
330
18
100
AcDbEntity
  8
DISEGNO
100
AcDbCircle
 10
-876.3956406461007
 20
4.500000000006217
 30
0.0
 40
6.5
100
AcDbArc
 50
90.00000000000161
 51
180.0
  0
LINE
  5
A3B
330
18
100
AcDbEntity
  8
DISEGNO
100
AcDbLine
 10
-866.7956406461042
 20
54.15000000000762
 30
0.0
 11
-882.0956406461036
 21
54.1500000000058
 31
0.0
  0
LINE
  5
A3C
330
18
100
AcDbEntity
  8
DISEGNO
100
AcDbLine
 10
-866.7956406461042
 20
55.15000000000761
 30
0.0
 11
-882.0956406461036
 21
55.15000000000579
 31
0.0
  0
ARC
  5
A3D
330
18
100
AcDbEntity
  8
DISEGNO
100
AcDbCircle
 10
-870.495640646104
 20
40.65000000000761
 30
0.0
 40
8.0
100
AcDbArc
 50
90.00000000000161
 51
167.999999999997
  0
LINE
  5
A3E
330
18
100
AcDbEntity
  8
ASSI
100
AcDbLine
 10
-955.8463569604478
 20
73.65000000000579
 30
0.0
 11
-864.3787618190778
 21
73.65000000000943
 31
0.0
  0
LINE
  5
A42
330
18
100
AcDbEntity
  8
DISEGNO
100
AcDbLine
 10
-866.7956406461055
 20
94.15000000000761
 30
0.0
 11
-881.7956406461053
 21
94.1500000000058
 31
0.0
  0
LINE
  5
A43
330
18
100
AcDbEntity
  8
DISEGNO
100
AcDbLine
 10
-866.7956406461055
 20
93.15000000000761
 30
0.0
 11
-881.7956406461053
 21
93.15000000000578
 31
0.0
  0
LINE
  5
A44
330
18
100
AcDbEntity
  8
DISEGNO
100
AcDbLine
 10
-859.8956406461043
 20
105.0000000000079
 30
0.0
 11
-884.3956406461044
 21
105.0000000000061
 31
0.0
  0
LINE
  5
A45
330
18
100
AcDbEntity
  8
NORMALI
100
AcDbLine
 10
-879.745540646094
 20
92.14999999999852
 30
0.0
 11
-869.7455406460941
 21
92.15000000000578
 31
0.0
  0
LINE
  5
A47
330
18
100
AcDbEntity
  8
DISEGNO
100
AcDbLine
 10
-857.8956406461026
 20
50.50000000000798
 30
0.0
 11
-857.8956406461021
 21
32.50000000000798
 31
0.0
  0
ARC
  5
A48
330
18
100
AcDbEntity
  8
DISEGNO
100
AcDbCircle
 10
-862.3956406461013
 20
29.10400000000734
 30
0.0
 40
12.0
100
AcDbArc
 50
130.0000000000013
 51
180.0
  0
ARC
  5
A56
330
18
100
AcDbEntity
  8
DISEGNO
100
AcDbCircle
 10
-862.3956406461015
 20
35.00000000000798
 30
0.0
 40
0.5
100
AcDbArc
 50
0.0
 51
90.00000000000161
  0
LINE
  5
A57
330
18
100
AcDbEntity
  8
ASSI
100
AcDbLine
 10
-852.2956406461034
 20
28.00000000000798
 30
0.0
 11
-871.3201716342082
 21
28.00000000000798
 31
0.0
  0
LINE
  5
A58
330
18
100
AcDbEntity
  8
DISEGNO
100
AcDbLine
 10
-859.895640646101
 20
0.0000000000079794
 30
0.0
 11
-870.8956406461011
 21
0.0000000000079794
 31
0.0
  0
ARC
  5
A59
330
18
100
AcDbEntity
  8
DISEGNO
100
AcDbCircle
 10
-862.3956406461012
 20
21.00000000000804
 30
0.0
 40
0.5
100
AcDbArc
 50
270.0000000000017
 51
0.0
  0
ARC
  5
A5A
330
18
100
AcDbEntity
  8
DISEGNO
100
AcDbCircle
 10
-859.8956406461006
 20
2.000000000008036
 30
0.0
 40
2.0
100
AcDbArc
 50
270.0000000000017
 51
0.0000000048462834
  0
ARC
  5
A5B
330
18
100
AcDbEntity
  8
DISEGNO
100
AcDbCircle
 10
-858.3956406461016
 20
32.50000000000798
 30
0.0
 40
0.5
100
AcDbArc
 50
270.0000000000017
 51
0.0
  0
ARC
  5
A5C
330
18
100
AcDbEntity
  8
DISEGNO
100
AcDbCircle
 10
-861.3956406461015
 20
32.50000000000798
 30
0.0
 40
0.5
100
AcDbArc
 50
180.0
 51
270.0000000000017
  0
LINE
  5
A5D
330
18
100
AcDbEntity
  8
DISEGNO
100
AcDbLine
 10
-861.8956406461022
 20
32.50000000000798
 30
0.0
 11
-861.8956406461022
 21
35.00000000000798
 31
0.0
  0
LINE
  5
A5E
330
18
100
AcDbEntity
  8
DISEGNO
100
AcDbLine
 10
-861.3956406461021
 20
32.00000000000798
 30
0.0
 11
-858.3956406461021
 21
32.00000000000798
 31
0.0
  0
ARC
  5
A5F
330
18
100
AcDbEntity
  8
DISEGNO
100
AcDbCircle
 10
-858.3956406461012
 20
23.50000000000804
 30
0.0
 40
0.5
100
AcDbArc
 50
0.0
 51
90.00000000000161
  0
ARC
  5
A60
330
18
100
AcDbEntity
  8
DISEGNO
100
AcDbCircle
 10
-861.3956406461012
 20
23.50000000000804
 30
0.0
 40
0.5
100
AcDbArc
 50
90.00000000000161
 51
180.0
  0
LINE
  5
A61
330
18
100
AcDbEntity
  8
DISEGNO
100
AcDbLine
 10
-861.8956406461016
 20
21.00000000000798
 30
0.0
 11
-861.895640646102
 21
23.50000000000798
 31
0.0
  0
LINE
  5
A62
330
18
100
AcDbEntity
  8
DISEGNO
100
AcDbLine
 10
-861.3956406461019
 20
24.00000000000798
 30
0.0
 11
-858.395640646102
 21
24.00000000000798
 31
0.0
  0
LINE
  5
A63
330
18
100
AcDbEntity
  8
DISEGNO
100
AcDbLine
 10
-857.8956406461019
 20
23.50000000000798
 30
0.0
 11
-857.8956406461012
 21
2.000000000007979
 31
0.0
  0
LINE
  5
A64
330
18
100
AcDbEntity
  8
DISEGNO
100
AcDbLine
 10
-871.3956406461011
 20
3.500000000007979
 30
0.0
 11
-871.3956406461011
 21
0.5000000000079794
 31
0.0
  0
LINE
  5
A65
330
18
100
AcDbEntity
  8
ASSI
100
AcDbLine
 10
-875.3956406461011
 20
-2.624999999993839
 30
0.0
 11
-875.3956406461014
 21
13.64100000000578
 31
0.0
  0
ARC
  5
A66
330
18
100
AcDbEntity
  8
DISEGNO
100
AcDbCircle
 10
-870.8956406461005
 20
0.5000000000080363
 30
0.0
 40
0.5
100
AcDbArc
 50
180.0
 51
270.0000000000017
  0
LINE
  5
A67
330
18
100
AcDbEntity
  8
DISEGNO
100
AcDbLine
 10
-874.395640646102
 20
29.10400000000552
 30
0.0
 11
-874.3956406461016
 21
21.58100000000447
 31
0.0
  0
ARC
  5
A68
330
18
100
AcDbEntity
  8
DISEGNO
100
AcDbCircle
 10
-862.3956406461013
 20
27.00000000000798
 30
0.0
 40
6.5
100
AcDbArc
 50
180.0
 51
270.0000000000017
  0
LINE
  5
A69
330
18
100
AcDbEntity
  8
DISEGNO
100
AcDbLine
 10
-876.3956406461014
 20
11.00000000000616
 30
0.0
 11
-874.3956406461014
 21
11.00000000000616
 31
0.0
  0
LINE
  5
A6A
330
18
100
AcDbEntity
  8
DISEGNO
100
AcDbLine
 10
-868.8956406461018
 20
27.00000000000798
 30
0.0
 11
-868.8956406461018
 21
28.99900000000778
 31
0.0
  0
ARC
  5
A6B
330
18
100
AcDbEntity
  8
DISEGNO
100
AcDbCircle
 10
-868.3956406461007
 20
4.500000000008036
 30
0.0
 40
0.5
100
AcDbArc
 50
270.0000000000017
 51
0.0
  0
ARC
  5
A6C
330
18
100
AcDbEntity
  8
DISEGNO
100
AcDbCircle
 10
-870.8956406461007
 20
3.500000000008036
 30
0.0
 40
0.5
100
AcDbArc
 50
90.00000000000161
 51
180.0
  0
LINE
  5
A6D
330
18
100
AcDbEntity
  8
DISEGNO
100
AcDbLine
 10
-870.8956406461012
 20
4.000000000007979
 30
0.0
 11
-868.3956406461012
 21
4.000000000007979
 31
0.0
  0
ARC
  5
A6E
330
18
100
AcDbEntity
  8
DISEGNO
100
AcDbCircle
 10
-874.3956406461007
 20
4.500000000006217
 30
0.0
 40
6.5
100
AcDbArc
 50
0.0000107715968944
 51
90.00000000000161
  0
ARC
  5
A6F
330
18
100
AcDbEntity
  8
DISEGNO
100
AcDbCircle
 10
-862.3956406461013
 20
28.99900000000778
 30
0.0
 40
6.5
100
AcDbArc
 50
90.00000000000161
 51
180.0
  0
LINE
  5
A77
330
18
100
AcDbEntity
  8
DISEGNO
100
AcDbLine
 10
-857.8956406461037
 20
83.50000000000797
 30
0.0
 11
-857.8956406461028
 21
53.50000000000798
 31
0.0
  0
LINE
  5
A78
330
18
100
AcDbEntity
  8
DISEGNO
100
AcDbLine
 10
-858.1956406461021
 20
53.50000000000798
 30
0.0
 11
-857.8956406461028
 21
53.50000000000798
 31
0.0
  0
LINE
  5
A79
330
18
100
AcDbEntity
  8
DISEGNO
100
AcDbLine
 10
-858.1956406461019
 20
50.50000000000798
 30
0.0
 11
-857.8956406461026
 21
50.50000000000798
 31
0.0
  0
LINE
  5
A7A
330
18
100
AcDbEntity
  8
DISEGNO
100
AcDbLine
 10
-858.1956406461021
 20
53.50000000000798
 30
0.0
 11
-858.1956406461019
 21
50.50000000000798
 31
0.0
  0
ARC
  5
A7B
330
18
100
AcDbEntity
  8
DISEGNO
100
AcDbCircle
 10
-859.8956406461038
 20
103.0000000000079
 30
0.0
 40
2.0
100
AcDbArc
 50
0.0000000048462834
 51
90.00000000000161
  0
LINE
  5
A7C
330
18
100
AcDbEntity
  8
DISEGNO
100
AcDbLine
 10
-858.195640646103
 20
86.50000000000797
 30
0.0
 11
-858.195640646103
 21
83.50000000000797
 31
0.0
  0
LINE
  5
A7D
330
18
100
AcDbEntity
  8
DISEGNO
100
AcDbLine
 10
-858.195640646103
 20
83.50000000000797
 30
0.0
 11
-857.8956406461037
 21
83.50000000000797
 31
0.0
  0
LINE
  5
A7E
330
18
100
AcDbEntity
  8
DISEGNO
100
AcDbLine
 10
-858.195640646103
 20
86.50000000000797
 30
0.0
 11
-857.8956406461037
 21
86.50000000000797
 31
0.0
  0
LINE
  5
A7F
330
18
100
AcDbEntity
  8
DISEGNO
100
AcDbLine
 10
-857.8956406461044
 20
103.0000000000079
 30
0.0
 11
-857.8956406461037
 21
86.50000000000797
 31
0.0
  0
LINE
  5
A80
330
18
100
AcDbEntity
  8
NORMALI
100
AcDbLine
 10
-868.745540646093
 20
56.15000000000398
 30
0.0
 11
-868.7455406460941
 21
91.15000000000579
 31
0.0
  0
LINE
  5
A81
330
18
100
AcDbEntity
  8
DISEGNO
100
AcDbLine
 10
-865.8956406461037
 20
84.16300000000662
 30
0.0
 11
-865.895640646103
 21
64.23200000000794
 31
0.0
  0
LINE
  5
A82
330
18
100
AcDbEntity
  8
DISEGNO
100
AcDbLine
 10
-867.4455406460946
 20
81.65000000000397
 30
0.0
 11
-867.4455406460939
 21
65.65000000000397
 31
0.0
  0
LINE
  5
A83
330
18
100
AcDbEntity
  8
DISEGNO
100
AcDbLine
 10
-866.4956406461049
 20
54.8320000000065
 30
0.0
 11
-867.2956406461043
 21
55.62700000000656
 31
0.0
  0
ARC
  5
A84
330
18
100
AcDbEntity
  8
NORMALI
100
AcDbCircle
 10
-869.7455406460925
 20
56.15000000000398
 30
0.0
 40
1.0
100
AcDbArc
 50
270.0000000000114
 51
0.0
  0
ARC
  5
A86
330
18
100
AcDbEntity
  8
DISEGNO
100
AcDbCircle
 10
-866.7956406461037
 20
54.55000000000725
 30
0.0
 40
0.4
100
AcDbArc
 50
270.0000000000017
 51
45.00000000000807
  0
LINE
  5
A87
330
18
100
AcDbEntity
  8
DISEGNO
100
AcDbLine
 10
-867.945540646094
 20
65.15000000000397
 30
0.0
 11
-867.9455406460942
 21
70.78642338991882
 31
0.0
  0
LINE
  5
A88
330
18
100
AcDbEntity
  8
DISEGNO
100
AcDbLine
 10
-867.4455406460939
 20
65.65000000000397
 30
0.0
 11
-867.945540646094
 21
65.15000000000397
 31
0.0
  0
LINE
  5
A89
330
18
100
AcDbEntity
  8
DISEGNO
100
AcDbLine
 10
-867.945540646094
 20
65.15000000000397
 30
0.0
 11
-868.7455406460932
 21
65.15000000000579
 31
0.0
  0
LINE
  5
A8A
330
18
100
AcDbEntity
  8
DISEGNO
100
AcDbLine
 10
-867.3956406461028
 20
55.89400000000639
 30
0.0
 11
-865.9956406461052
 21
63.32000000000769
 31
0.0
  0
ARC
  5
A8B
330
18
100
AcDbEntity
  8
DISEGNO
100
AcDbCircle
 10
-867.095640646103
 20
55.84000000000813
 30
0.0
 40
0.3
100
AcDbArc
 50
169.4999999999992
 51
225.0000000000081
  0
ARC
  5
A8D
330
18
100
AcDbEntity
  8
DISEGNO
100
AcDbCircle
 10
-870.8956406461025
 20
64.23200000000794
 30
0.0
 40
5.0
100
AcDbArc
 50
349.4999999999992
 51
0.0000000048462834
  0
LINE
  5
A8E
330
18
100
AcDbEntity
  8
DISEGNO
100
AcDbLine
 10
-870.0956406461031
 20
38.29700000000664
 30
0.0
 11
-864.9956406461045
 21
42.61100000000694
 31
0.0
  0
LINE
  5
A8F
330
18
100
AcDbEntity
  8
DISEGNO
100
AcDbLine
 10
-864.8956406461026
 20
48.65000000000762
 30
0.0
 11
-870.4956406461048
 21
48.65000000000762
 31
0.0
  0
LINE
  5
A90
330
18
100
AcDbEntity
  8
DISEGNO
100
AcDbLine
 10
-863.8956406461026
 20
47.65000000000761
 30
0.0
 11
-863.8956406461026
 21
44.91000000000783
 31
0.0
  0
ARC
  5
A91
330
18
100
AcDbEntity
  8
DISEGNO
100
AcDbCircle
 10
-866.8956406461019
 20
44.91000000000783
 30
0.0
 40
3.0
100
AcDbArc
 50
310.0000000000014
 51
0.0000000048462834
  0
ARC
  5
A92
330
18
100
AcDbEntity
  8
DISEGNO
100
AcDbCircle
 10
-864.8956406461021
 20
47.65000000000761
 30
0.0
 40
1.0
100
AcDbArc
 50
0.0000000048462834
 51
90.00000000000161
  0
LINE
  5
A93
330
18
100
AcDbEntity
  8
DISEGNO
100
AcDbLine
 10
-867.3956406461039
 20
92.40500000000681
 30
0.0
 11
-865.9956406461059
 21
85.07100000000788
 31
0.0
  0
ARC
  5
A94
330
18
100
AcDbEntity
  8
DISEGNO
100
AcDbCircle
 10
-870.8956406461032
 20
84.16300000000843
 30
0.0
 40
5.0
100
AcDbArc
 50
0.0000000048462834
 51
10.50000000000084
  0
LINE
  5
A95
330
18
100
AcDbEntity
  8
DISEGNO
100
AcDbLine
 10
-867.4455406460946
 20
81.65000000000397
 30
0.0
 11
-867.9455406460945
 21
82.15000000000397
 31
0.0
  0
LINE
  5
A96
330
18
100
AcDbEntity
  8
DISEGNO
100
AcDbLine
 10
-867.9455406460945
 20
82.15000000000397
 30
0.0
 11
-868.7455406460939
 21
82.15000000000761
 31
0.0
  0
ARC
  5
A97
330
18
100
AcDbEntity
  8
DISEGNO
100
AcDbCircle
 10
-866.7956406461048
 20
93.75000000000797
 30
0.0
 40
0.4
100
AcDbArc
 50
315.000000000007
 51
90.00000000000161
  0
ARC
  5
A98
330
18
100
AcDbEntity
  8
DISEGNO
100
AcDbCircle
 10
-867.0956406461041
 20
92.4600000000071
 30
0.0
 40
0.3
100
AcDbArc
 50
135.0000000000069
 51
190.5000000000008
  0
LINE
  5
A99
330
18
100
AcDbEntity
  8
DISEGNO
100
AcDbLine
 10
-866.4956406461062
 20
93.46700000000671
 30
0.0
 11
-867.2956406461054
 21
92.67200000000663
 31
0.0
  0
ARC
  5
A9B
330
18
100
AcDbEntity
  8
NORMALI
100
AcDbCircle
 10
-869.7455406460935
 20
91.15000000000579
 30
0.0
 40
1.0
100
AcDbArc
 50
0.0
 51
90.00000000002279
  0
LINE
  5
A9C
330
18
100
AcDbEntity
  8
DISEGNO
100
AcDbLine
 10
-867.9455406460945
 20
82.15000000000033
 30
0.0
 11
-867.9455406460943
 21
76.51357661008548
 31
0.0
  0
LINE
  5
A9D
330
18
100
AcDbEntity
  8
DISEGNO
100
AcDbLine
 10
-962.8956406461027
 20
50.50000000000434
 30
0.0
 11
-962.8956406461021
 21
32.50000000000434
 31
0.0
  0
ARC
  5
A9E
330
18
100
AcDbEntity
  8
DISEGNO
100
AcDbCircle
 10
-958.3956406461012
 20
29.1040000000037
 30
0.0
 40
12.0
100
AcDbArc
 50
0.0000000048462834
 51
49.99999999999991
  0
LINE
  5
A9F
330
18
100
AcDbEntity
  8
DISEGNO
100
AcDbLine
 10
-934.8956406460933
 20
39.50000000000434
 30
0.0
 11
-930.8956406460914
 21
35.50000000000434
 31
0.0
  0
LINE
  5
AA1
330
18
100
AcDbEntity
  8
DISEGNO
100
AcDbLine
 10
-932.8956406461019
 20
23.37600000000454
 30
0.0
 11
-937.1956406461016
 21
43.49300000000291
 31
0.0
  0
LINE
  5
AA2
330
18
100
AcDbEntity
  8
DISEGNO
100
AcDbLine
 10
-889.8956406461078
 20
35.50000000000616
 30
0.0
 11
-885.8956406461041
 21
39.50000000000616
 31
0.0
  0
LINE
  5
AA4
330
18
100
AcDbEntity
  8
DISEGNO
100
AcDbLine
 10
-887.895640646102
 20
23.37600000000636
 30
0.0
 11
-883.6956406461016
 21
43.49300000000473
 31
0.0
  0
LINE
  5
AA5
330
18
100
AcDbEntity
  8
ASSI
100
AcDbLine
 10
-910.395640646101
 20
-4.31653142391881
 30
0.0
 11
-910.395640646103
 21
139.8377687568147
 31
0.0
  0
ARC
  5
AA8
330
18
100
AcDbEntity
  8
DISEGNO
100
AcDbCircle
 10
-952.2956406461029
 20
30.52600000000418
 30
0.0
 40
12.0
100
AcDbArc
 50
12.00000000000299
 51
49.99999999999991
  0
ARC
  5
AA9
330
18
100
AcDbEntity
  8
DISEGNO
100
AcDbCircle
 10
-942.3956406461011
 20
21.58100000000453
 30
0.0
 40
4.08101
100
AcDbArc
 50
180.0
 51
12.00000000000299
  0
LINE
  5
AAA
330
18
100
AcDbEntity
  8
DISEGNO
100
AcDbLine
 10
-946.3956406461015
 20
11.00000000000434
 30
0.0
 11
-944.3956406461014
 21
11.00000000000434
 31
0.0
  0
LINE
  5
AAB
330
18
100
AcDbEntity
  8
DISEGNO
100
AcDbLine
 10
-889.8956406461078
 20
35.50000000000616
 30
0.0
 11
-930.8956406460914
 21
35.50000000000434
 31
0.0
  0
LINE
  5
AAC
330
18
100
AcDbEntity
  8
DISEGNO
100
AcDbLine
 10
-889.8956406461012
 20
5.300000000005432
 30
0.0
 11
-930.8956406461012
 21
5.300000000003613
 31
0.0
  0
LINE
  5
AAD
330
18
100
AcDbEntity
  8
DISEGNO
100
AcDbLine
 10
-895.8956406461012
 20
0.0000000000061604
 30
0.0
 11
-924.8956406461012
 21
0.0000000000061604
 31
0.0
  0
LINE
  5
AAE
330
18
100
AcDbEntity
  8
DISEGNO
100
AcDbLine
 10
-904.8956406461016
 20
16.50000000000616
 30
0.0
 11
-915.8956406461017
 21
16.50000000000616
 31
0.0
  0
LINE
  5
AAF
330
18
100
AcDbEntity
  8
DISEGNO
100
AcDbLine
 10
-900.6956406461009
 20
19.50000000000616
 30
0.0
 11
-920.1956406461009
 21
19.50000000000616
 31
0.0
  0
LINE
  5
AB0
330
18
100
AcDbEntity
  8
DISEGNO
100
AcDbLine
 10
-890.8956406461017
 20
21.00000000000616
 30
0.0
 11
-899.6956406461009
 21
21.00000000000616
 31
0.0
  0
LINE
  5
AB1
330
18
100
AcDbEntity
  8
DISEGNO
100
AcDbLine
 10
-889.8956406461014
 20
11.50000000000616
 30
0.0
 11
-902.8956406461015
 21
11.50000000000616
 31
0.0
  0
LINE
  5
AB2
330
18
100
AcDbEntity
  8
DISEGNO
100
AcDbLine
 10
-895.8956406461012
 20
0.2500000000061604
 30
0.0
 11
-892.8956406461011
 21
0.2500000000061604
 31
0.0
  0
LINE
  5
AB3
330
18
100
AcDbEntity
  8
DISEGNO
100
AcDbLine
 10
-879.3956406461012
 20
3.50000000000616
 30
0.0
 11
-879.3956406461012
 21
0.5000000000061604
 31
0.0
  0
LINE
  5
AB4
330
18
100
AcDbEntity
  8
DISEGNO
100
AcDbLine
 10
-879.8956406461011
 20
0.0000000000061604
 30
0.0
 11
-892.895640646101
 21
0.0000000000061604
 31
0.0
  0
ARC
  5
AB5
330
18
100
AcDbEntity
  8
DISEGNO
100
AcDbCircle
 10
-879.8956406461005
 20
0.5000000000062173
 30
0.0
 40
0.5
100
AcDbArc
 50
270.0000000000017
 51
0.0
  0
LINE
  5
AB6
330
18
100
AcDbEntity
  8
DISEGNO
100
AcDbLine
 10
-892.8956406461011
 20
0.2500000000061604
 30
0.0
 11
-892.895640646101
 21
0.0000000000061604
 31
0.0
  0
ARC
  5
AB7
330
18
100
AcDbEntity
  8
DISEGNO
100
AcDbCircle
 10
-889.8956406461008
 20
10.50000000000621
 30
0.0
 40
1.0
100
AcDbArc
 50
0.0000053477840556
 51
90.00000000000161
  0
ARC
  5
AB8
330
18
100
AcDbEntity
  8
DISEGNO
100
AcDbCircle
 10
-890.8956406461012
 20
24.00000000000622
 30
0.0
 40
3.0
100
AcDbArc
 50
270.0000000000017
 51
347.9999999999971
  0
ARC
  5
AB9
330
18
100
AcDbEntity
  8
DISEGNO
100
AcDbCircle
 10
-889.8956406461007
 20
6.300000000005489
 30
0.0
 40
1.0
100
AcDbArc
 50
270.0000000000017
 51
0.0000000048462834
  0
LINE
  5
ABA
330
18
100
AcDbEntity
  8
DISEGNO
100
AcDbLine
 10
-882.3956406461013
 20
4.00000000000616
 30
0.0
 11
-879.8956406461012
 21
4.00000000000616
 31
0.0
  0
ARC
  5
ABB
330
18
100
AcDbEntity
  8
DISEGNO
100
AcDbCircle
 10
-879.8956406461007
 20
3.500000000006217
 30
0.0
 40
0.5
100
AcDbArc
 50
0.0
 51
90.00000000000161
  0
ARC
  5
ABC
330
18
100
AcDbEntity
  8
DISEGNO
100
AcDbCircle
 10
-882.3956406461006
 20
4.500000000006217
 30
0.0
 40
0.5
100
AcDbArc
 50
180.0
 51
270.0000000000017
  0
LINE
  5
ABD
330
18
100
AcDbEntity
  8
DISEGNO
100
AcDbLine
 10
-888.8956406461014
 20
10.50000000000616
 30
0.0
 11
-888.8956406461012
 21
6.300000000005432
 31
0.0
  0
LINE
  5
ABE
330
18
100
AcDbEntity
  8
DISEGNO
100
AcDbLine
 10
-895.8956406461012
 20
0.2500000000061604
 30
0.0
 11
-895.8956406461012
 21
0.0000000000061604
 31
0.0
  0
ARC
  5
ABF
330
18
100
AcDbEntity
  8
DISEGNO
100
AcDbCircle
 10
-904.8956406461011
 20
15.50000000000621
 30
0.0
 40
1.0
100
AcDbArc
 50
0.0000000048462834
 51
90.00000000000161
  0
ARC
  5
AC0
330
18
100
AcDbEntity
  8
DISEGNO
100
AcDbCircle
 10
-902.8956406461009
 20
12.50000000000621
 30
0.0
 40
1.0
100
AcDbArc
 50
180.0
 51
270.0000000000017
  0
LINE
  5
AC1
330
18
100
AcDbEntity
  8
DISEGNO
100
AcDbLine
 10
-903.8956406461016
 20
15.50000000000616
 30
0.0
 11
-903.8956406461014
 21
12.50000000000616
 31
0.0
  0
LINE
  5
AC2
330
18
100
AcDbEntity
  8
DISEGNO
100
AcDbLine
 10
-900.195640646101
 20
20.00000000000616
 30
0.0
 11
-900.195640646101
 21
20.50000000000616
 31
0.0
  0
ARC
  5
AC3
330
18
100
AcDbEntity
  8
DISEGNO
100
AcDbCircle
 10
-900.6956406461004
 20
20.00000000000622
 30
0.0
 40
0.5
100
AcDbArc
 50
270.0000000000017
 51
0.0
  0
ARC
  5
AC4
330
18
100
AcDbEntity
  8
DISEGNO
100
AcDbCircle
 10
-899.6956406461004
 20
20.50000000000622
 30
0.0
 40
0.5
100
AcDbArc
 50
90.00000000000161
 51
180.0
  0
LINE
  5
AC5
330
18
100
AcDbEntity
  8
DISEGNO
100
AcDbLine
 10
-929.9956406461038
 20
21.00000000000616
 30
0.0
 11
-921.1956406461009
 21
21.00000000000616
 31
0.0
  0
LINE
  5
AC6
330
18
100
AcDbEntity
  8
DISEGNO
100
AcDbLine
 10
-930.8956406461014
 20
11.50000000000434
 30
0.0
 11
-917.8956406461015
 21
11.50000000000616
 31
0.0
  0
LINE
  5
AC7
330
18
100
AcDbEntity
  8
DISEGNO
100
AcDbLine
 10
-927.8956406461009
 20
0.0000000000061604
 30
0.0
 11
-940.895640646101
 21
0.0000000000043414
 31
0.0
  0
LINE
  5
AC8
330
18
100
AcDbEntity
  8
DISEGNO
100
AcDbLine
 10
-924.8956406461012
 20
0.2500000000061604
 30
0.0
 11
-927.8956406461009
 21
0.2500000000061604
 31
0.0
  0
LINE
  5
AC9
330
18
100
AcDbEntity
  8
DISEGNO
100
AcDbLine
 10
-924.8956406461012
 20
0.2500000000061604
 30
0.0
 11
-924.8956406461012
 21
0.0000000000061604
 31
0.0
  0
LINE
  5
ACA
330
18
100
AcDbEntity
  8
DISEGNO
100
AcDbLine
 10
-927.8956406461009
 20
0.2500000000061604
 30
0.0
 11
-927.8956406461009
 21
0.0000000000061604
 31
0.0
  0
ARC
  5
ACB
330
18
100
AcDbEntity
  8
DISEGNO
100
AcDbCircle
 10
-915.895640646101
 20
15.50000000000621
 30
0.0
 40
1.0
100
AcDbArc
 50
90.00000000000161
 51
180.0
  0
ARC
  5
ACC
330
18
100
AcDbEntity
  8
DISEGNO
100
AcDbCircle
 10
-917.895640646101
 20
12.50000000000621
 30
0.0
 40
1.0
100
AcDbArc
 50
270.0000000000017
 51
0.0000000048462834
  0
LINE
  5
ACD
330
18
100
AcDbEntity
  8
DISEGNO
100
AcDbLine
 10
-916.8956406461017
 20
15.50000000000616
 30
0.0
 11
-916.8956406461015
 21
12.50000000000616
 31
0.0
  0
LINE
  5
ACE
330
18
100
AcDbEntity
  8
DISEGNO
100
AcDbLine
 10
-920.695640646101
 20
20.00000000000616
 30
0.0
 11
-920.695640646101
 21
20.50000000000616
 31
0.0
  0
ARC
  5
ACF
330
18
100
AcDbEntity
  8
DISEGNO
100
AcDbCircle
 10
-920.1956406461004
 20
20.00000000000622
 30
0.0
 40
0.5
100
AcDbArc
 50
180.0
 51
270.0000000000017
  0
ARC
  5
AD0
330
18
100
AcDbEntity
  8
DISEGNO
100
AcDbCircle
 10
-921.1956406461004
 20
20.50000000000622
 30
0.0
 40
0.5
100
AcDbArc
 50
0.0000107391061643
 51
90.00000000000161
  0
LINE
  5
AD1
330
18
100
AcDbEntity
  8
DISEGNO
100
AcDbLine
 10
-941.3956406461013
 20
3.500000000004341
 30
0.0
 11
-941.3956406461013
 21
0.5000000000043415
 31
0.0
  0
ARC
  5
AD2
330
18
100
AcDbEntity
  8
DISEGNO
100
AcDbCircle
 10
-940.8956406461005
 20
0.5000000000043983
 30
0.0
 40
0.5
100
AcDbArc
 50
180.0
 51
270.0000000000017
  0
ARC
  5
AD3
330
18
100
AcDbEntity
  8
DISEGNO
100
AcDbCircle
 10
-930.8956406461009
 20
10.5000000000044
 30
0.0
 40
1.0
100
AcDbArc
 50
90.00000000000161
 51
180.0
  0
ARC
  5
AD4
330
18
100
AcDbEntity
  8
DISEGNO
100
AcDbCircle
 10
-929.9956406461033
 20
24.00000000000622
 30
0.0
 40
3.0
100
AcDbArc
 50
192.0000000000029
 51
270.0000000000017
  0
ARC
  5
AD5
330
18
100
AcDbEntity
  8
DISEGNO
100
AcDbCircle
 10
-940.8956406461006
 20
3.500000000004398
 30
0.0
 40
0.5
100
AcDbArc
 50
90.00000000000161
 51
180.0
  0
LINE
  5
AD6
330
18
100
AcDbEntity
  8
DISEGNO
100
AcDbLine
 10
-940.8956406461012
 20
4.000000000004341
 30
0.0
 11
-938.3956406461011
 21
4.000000000004341
 31
0.0
  0
ARC
  5
AD7
330
18
100
AcDbEntity
  8
DISEGNO
100
AcDbCircle
 10
-938.3956406461006
 20
4.500000000004398
 30
0.0
 40
0.5
100
AcDbArc
 50
270.0000000000017
 51
0.0
  0
ARC
  5
AD8
330
18
100
AcDbEntity
  8
DISEGNO
100
AcDbCircle
 10
-930.8956406461007
 20
6.30000000000367
 30
0.0
 40
1.0
100
AcDbArc
 50
180.0
 51
270.0000000000017
  0
ARC
  5
AD9
330
18
100
AcDbEntity
  8
DISEGNO
100
AcDbCircle
 10
-944.3956406461007
 20
4.500000000004398
 30
0.0
 40
6.5
100
AcDbArc
 50
0.0000107715968944
 51
90.00000000000161
  0
LINE
  5
ADA
330
18
100
AcDbEntity
  8
DISEGNO
100
AcDbLine
 10
-931.8956406461014
 20
10.50000000000434
 30
0.0
 11
-931.8956406461012
 21
6.300000000003613
 31
0.0
  0
LINE
  5
ADB
330
18
100
AcDbEntity
  8
DISEGNO
100
AcDbLine
 10
-938.3956406461019
 20
22.42900000000443
 30
0.0
 11
-940.5956406461028
 21
33.02100000000316
 31
0.0
  0
LINE
  5
ADC
330
18
100
AcDbEntity
  8
DISEGNO
100
AcDbLine
 10
-959.3956406461021
 20
32.00000000000434
 30
0.0
 11
-962.3956406461021
 21
32.00000000000434
 31
0.0
  0
LINE
  5
ADD
330
18
100
AcDbEntity
  8
ASSI
100
AcDbLine
 10
-949.4711096579939
 20
28.00000000000434
 30
0.0
 11
-968.495640646104
 21
28.00000000000434
 31
0.0
  0
LINE
  5
ADE
330
18
100
AcDbEntity
  8
DISEGNO
100
AcDbLine
 10
-960.8956406461009
 20
0.0000000000043414
 30
0.0
 11
-949.895640646101
 21
0.0000000000043414
 31
0.0
  0
LINE
  5
ADF
330
18
100
AcDbEntity
  8
DISEGNO
100
AcDbLine
 10
-959.3956406461019
 20
24.00000000000434
 30
0.0
 11
-962.3956406461019
 21
24.00000000000434
 31
0.0
  0
LINE
  5
AE0
330
18
100
AcDbEntity
  8
DISEGNO
100
AcDbLine
 10
-949.3956406461013
 20
3.500000000004341
 30
0.0
 11
-949.3956406461013
 21
0.5000000000043415
 31
0.0
  0
LINE
  5
AE1
330
18
100
AcDbEntity
  8
ASSI
100
AcDbLine
 10
-945.395640646101
 20
-2.624999999995658
 30
0.0
 11
-945.3956406461015
 21
13.64100000000396
 31
0.0
  0
ARC
  5
AE2
330
18
100
AcDbEntity
  8
DISEGNO
100
AcDbCircle
 10
-949.8956406461005
 20
0.5000000000043983
 30
0.0
 40
0.5
100
AcDbArc
 50
270.0000000000017
 51
0.0
  0
ARC
  5
AE3
330
18
100
AcDbEntity
  8
DISEGNO
100
AcDbCircle
 10
-958.3956406461016
 20
35.00000000000434
 30
0.0
 40
0.5
100
AcDbArc
 50
90.00000000000161
 51
180.0
  0
LINE
  5
AE4
330
18
100
AcDbEntity
  8
DISEGNO
100
AcDbLine
 10
-958.895640646102
 20
35.00000000000434
 30
0.0
 11
-958.895640646102
 21
32.50000000000434
 31
0.0
  0
ARC
  5
AE5
330
18
100
AcDbEntity
  8
DISEGNO
100
AcDbCircle
 10
-959.3956406461016
 20
32.50000000000434
 30
0.0
 40
0.5
100
AcDbArc
 50
270.0000000000017
 51
0.0000000048462834
  0
LINE
  5
AE6
330
18
100
AcDbEntity
  8
DISEGNO
100
AcDbLine
 10
-946.3956406461019
 20
29.1040000000037
 30
0.0
 11
-946.3956406461017
 21
21.58100000000447
 31
0.0
  0
ARC
  5
AE7
330
18
100
AcDbEntity
  8
DISEGNO
100
AcDbCircle
 10
-959.3956406461012
 20
23.5000000000044
 30
0.0
 40
0.5
100
AcDbArc
 50
0.0000000048462834
 51
90.00000000000161
  0
ARC
  5
AE8
330
18
100
AcDbEntity
  8
DISEGNO
100
AcDbCircle
 10
-958.3956406461012
 20
27.00000000000434
 30
0.0
 40
6.5
100
AcDbArc
 50
270.0000000000017
 51
0.0000107764040091
  0
LINE
  5
AE9
330
18
100
AcDbEntity
  8
DISEGNO
100
AcDbLine
 10
-958.8956406461019
 20
23.50000000000434
 30
0.0
 11
-958.8956406461017
 21
21.00000000000434
 31
0.0
  0
ARC
  5
AEA
330
18
100
AcDbEntity
  8
DISEGNO
100
AcDbCircle
 10
-958.3956406461011
 20
21.0000000000044
 30
0.0
 40
0.5
100
AcDbArc
 50
180.0
 51
270.0000000000017
  0
LINE
  5
AEB
330
18
100
AcDbEntity
  8
DISEGNO
100
AcDbLine
 10
-951.8956406461018
 20
27.00000000000434
 30
0.0
 11
-951.8956406461018
 21
28.99900000000414
 31
0.0
  0
ARC
  5
AEC
330
18
100
AcDbEntity
  8
DISEGNO
100
AcDbCircle
 10
-949.8956406461006
 20
3.500000000004398
 30
0.0
 40
0.5
100
AcDbArc
 50
0.0
 51
90.00000000000161
  0
LINE
  5
AED
330
18
100
AcDbEntity
  8
DISEGNO
100
AcDbLine
 10
-952.3956406461012
 20
4.000000000004341
 30
0.0
 11
-949.8956406461012
 21
4.000000000004341
 31
0.0
  0
ARC
  5
AEE
330
18
100
AcDbEntity
  8
DISEGNO
100
AcDbCircle
 10
-952.3956406461007
 20
4.500000000004398
 30
0.0
 40
0.5
100
AcDbArc
 50
180.0
 51
270.0000000000017
  0
ARC
  5
AEF
330
18
100
AcDbEntity
  8
DISEGNO
100
AcDbCircle
 10
-946.3956406461006
 20
4.500000000004398
 30
0.0
 40
6.5
100
AcDbArc
 50
90.00000000000161
 51
180.0
  0
ARC
  5
AF0
330
18
100
AcDbEntity
  8
DISEGNO
100
AcDbCircle
 10
-958.3956406461012
 20
28.99900000000414
 30
0.0
 40
6.5
100
AcDbArc
 50
0.000002643837469
 51
90.00000000000161
  0
ARC
  5
AF1
330
18
100
AcDbEntity
  8
DISEGNO
100
AcDbCircle
 10
-960.8956406461006
 20
2.000000000004398
 30
0.0
 40
2.0
100
AcDbArc
 50
180.0
 51
270.0000000000017
  0
ARC
  5
AF2
330
18
100
AcDbEntity
  8
DISEGNO
100
AcDbCircle
 10
-962.3956406461015
 20
32.50000000000434
 30
0.0
 40
0.5
100
AcDbArc
 50
180.0
 51
270.0000000000017
  0
ARC
  5
AF3
330
18
100
AcDbEntity
  8
DISEGNO
100
AcDbCircle
 10
-962.3956406461012
 20
23.5000000000044
 30
0.0
 40
0.5
100
AcDbArc
 50
90.00000000000161
 51
180.0
  0
LINE
  5
AF4
330
18
100
AcDbEntity
  8
DISEGNO
100
AcDbLine
 10
-962.895640646102
 20
23.50000000000434
 30
0.0
 11
-962.8956406461012
 21
2.000000000004341
 31
0.0
  0
CIRCLE
  5
AF7
330
18
100
AcDbEntity
  8
DISEGNO
100
AcDbCircle
 10
-944.0956406461028
 20
53.00000000000434
 30
0.0
 40
5.0
  0
ARC
  5
AF9
330
18
100
AcDbEntity
  8
DISEGNO
100
AcDbCircle
 10
-944.0956406461028
 20
48.00000000000434
 30
0.0
 40
1.0
100
AcDbArc
 50
184.5930000000034
 51
355.4169999999996
  0
ARC
  5
AFB
330
18
100
AcDbEntity
  8
NORMALI
100
AcDbCircle
 10
-944.0951406461028
 20
53.0000000000007
 30
0.0
 40
5.0
100
AcDbArc
 50
39.05100000000787
 51
140.9490000000064
  0
LINE
  5
AFC
330
18
100
AcDbEntity
  8
DISEGNO
100
AcDbLine
 10
-936.3956406461044
 20
105.0000000000043
 30
0.0
 11
-960.8956406461045
 21
105.0000000000043
 31
0.0
  0
ARC
  5
AFE
330
18
100
AcDbEntity
  8
NORMALI
100
AcDbCircle
 10
-944.0913406461035
 20
94.30000000000179
 30
0.0
 40
5.0
100
AcDbArc
 50
219.0419999999956
 51
320.9498999999977
  0
CIRCLE
  5
AFF
330
18
100
AcDbEntity
  8
DISEGNO
100
AcDbCircle
 10
-944.095640646104
 20
95.30000000000361
 30
0.0
 40
5.0
  0
LINE
  5
B03
330
18
100
AcDbEntity
  8
DISEGNO
100
AcDbLine
 10
-886.895640646064
 20
91.50000000000614
 30
0.0
 11
-933.8956406461186
 21
91.50000000000433
 31
0.0
  0
LINE
  5
B09
330
18
100
AcDbEntity
  8
DISEGNO
100
AcDbLine
 10
-885.895640646099
 20
47.50000000000616
 30
0.0
 11
-934.895640646097
 21
47.50000000000434
 31
0.0
  0
LINE
  5
B11
330
18
100
AcDbEntity
  8
DISEGNO
100
AcDbLine
 10
-885.8956406461059
 20
39.50000000000434
 30
0.0
 11
-885.8956406460603
 21
90.50000000000615
 31
0.0
  0
LINE
  5
B12
330
18
100
AcDbEntity
  8
NORMALI
100
AcDbLine
 10
-880.7455406460929
 20
56.15000000000216
 30
0.0
 11
-880.7455406460942
 21
91.1499999999985
 31
0.0
1001
ACAD
1000
ASC_BOUNDS
1002
{
1070
    19
1002
}
  0
LINE
  5
B16
330
18
100
AcDbEntity
  8
DISEGNO
100
AcDbLine
 10
-882.3835086117458
 20
54.83186796565021
 30
0.0
 11
-881.5835086117466
 21
55.63786796564889
 31
0.0
  0
ARC
  5
B17
330
18
100
AcDbEntity
  8
DISEGNO
100
AcDbCircle
 10
-882.9956406461045
 20
54.65000000000579
 30
0.0
 40
1.5
100
AcDbArc
 50
90.00000000000161
 51
192.0000000000029
  0
ARC
  5
B18
330
18
100
AcDbEntity
  8
NORMALI
100
AcDbCircle
 10
-879.7455406460924
 20
56.15000000000216
 30
0.0
 40
1.0
100
AcDbArc
 50
180.0
 51
270.0000000000017
1001
ACAD
1000
ASC_BOUNDS
1002
{
1070
    19
1002
}
  0
ARC
  5
B19
330
18
100
AcDbEntity
  8
DISEGNO
100
AcDbCircle
 10
-882.095640646103
 20
54.55000000000543
 30
0.0
 40
0.4
100
AcDbArc
 50
135.0000000000069
 51
270.0000000000017
  0
LINE
  5
B1A
330
18
100
AcDbEntity
  8
DISEGNO
100
AcDbLine
 10
-880.7455406460931
 20
64.64999999999851
 30
0.0
 11
-885.895640646094
 21
64.65000000000033
 31
0.0
1001
ACAD
1000
ASC_BOUNDS
1002
{
1070
    19
1002
}
  0
LINE
  5
B1B
330
18
100
AcDbEntity
  8
DISEGNO
100
AcDbLine
 10
-882.995640646105
 20
56.1500000000058
 30
0.0
 11
-881.7956406461043
 21
56.1500000000058
 31
0.0
  0
ARC
  5
B1C
330
18
100
AcDbEntity
  8
DISEGNO
100
AcDbCircle
 10
-881.7956406461037
 20
55.85000000000652
 30
0.0
 40
0.3
100
AcDbArc
 50
315.000000000007
 51
90.00000000000161
  0
LINE
  5
B1F
330
18
100
AcDbEntity
  8
DISEGNO
100
AcDbLine
 10
-883.3956406461025
 20
49.02300000000539
 30
0.0
 11
-883.3956406461025
 21
45.57200000000627
 31
0.0
  0
ARC
  5
B20
330
18
100
AcDbEntity
  8
DISEGNO
100
AcDbCircle
 10
-893.3956406461019
 20
45.57200000000627
 30
0.0
 40
10.0
100
AcDbArc
 50
347.9999999999971
 51
0.0000000048462834
  0
ARC
  5
B21
330
18
100
AcDbEntity
  8
DISEGNO
100
AcDbCircle
 10
-886.3956406461021
 20
49.02300000000539
 30
0.0
 40
3.0
100
AcDbArc
 50
0.0000000048462834
 51
12.00000000000299
  0
LINE
  5
B22
330
18
100
AcDbEntity
  8
DISEGNO
100
AcDbLine
 10
-884.4956406461049
 20
54.3380000000059
 30
0.0
 11
-883.4956406461047
 21
49.64600000000498
 31
0.0
  0
LINE
  5
B23
330
18
100
AcDbEntity
  8
DISEGNO
100
AcDbLine
 10
-894.3956406461042
 20
101.5000000000061
 30
0.0
 11
-889.3956406461041
 21
101.5000000000061
 31
0.0
  0
LINE
  5
B24
330
18
100
AcDbEntity
  8
DISEGNO
100
AcDbLine
 10
-894.3956406461044
 20
103.5000000000061
 30
0.0
 11
-885.3956406461044
 21
103.5000000000061
 31
0.0
  0
ARC
  5
B25
330
18
100
AcDbEntity
  8
DISEGNO
100
AcDbCircle
 10
-884.3956406461037
 20
104.5000000000061
 30
0.0
 40
0.5
100
AcDbArc
 50
90.00000000000161
 51
180.0
  0
ARC
  5
B26
330
18
100
AcDbEntity
  8
DISEGNO
100
AcDbCircle
 10
-885.3956406461037
 20
104.0000000000061
 30
0.0
 40
0.5
100
AcDbArc
 50
270.0000000000017
 51
0.0000053477840556
  0
ARC
  5
B27
330
18
100
AcDbEntity
  8
DISEGNO
100
AcDbCircle
 10
-889.3956406461036
 20
101.0000000000061
 30
0.0
 40
0.5
100
AcDbArc
 50
0.0
 51
90.00000000000161
  0
LINE
  5
B28
330
18
100
AcDbEntity
  8
DISEGNO
100
AcDbLine
 10
-884.8956406461043
 20
104.5000000000061
 30
0.0
 11
-884.8956406461043
 21
104.0000000000061
 31
0.0
  0
LINE
  5
B2C
330
18
100
AcDbEntity
  8
DISEGNO
100
AcDbLine
 10
-894.8956406461041
 20
102.0000000000061
 30
0.0
 11
-894.8956406461045
 21
103.0000000000061
 31
0.0
  0
ARC
  5
B2D
330
18
100
AcDbEntity
  8
DISEGNO
100
AcDbCircle
 10
-894.3956406461037
 20
102.0000000000061
 30
0.0
 40
0.5
100
AcDbArc
 50
180.0
 51
270.0000000000017
  0
ARC
  5
B2E
330
18
100
AcDbEntity
  8
DISEGNO
100
AcDbCircle
 10
-894.3956406461037
 20
103.0000000000061
 30
0.0
 40
0.5
100
AcDbArc
 50
90.00000000000161
 51
180.0
  0
LINE
  5
B30
330
18
100
AcDbEntity
  8
DISEGNO
100
AcDbLine
 10
-885.3956406461039
 20
93.80000000000542
 30
0.0
 11
-894.3956406461039
 21
93.80000000000542
 31
0.0
  0
LINE
  5
B31
330
18
100
AcDbEntity
  8
DISEGNO
100
AcDbLine
 10
-894.3956406461042
 20
95.50000000000615
 30
0.0
 11
-889.3956406461041
 21
95.50000000000615
 31
0.0
  0
LINE
  5
B32
330
18
100
AcDbEntity
  8
DISEGNO
100
AcDbLine
 10
-880.7455406460938
 20
82.65000000000215
 30
0.0
 11
-885.8956406460945
 21
82.65000000000215
 31
0.0
1001
ACAD
1000
ASC_BOUNDS
1002
{
1070
    19
1002
}
  0
ARC
  5
B33
330
18
100
AcDbEntity
  8
DISEGNO
100
AcDbCircle
 10
-885.3956406461033
 20
92.80000000000542
 30
0.0
 40
1.0
100
AcDbArc
 50
45.00000000000807
 51
90.00000000000161
  0
ARC
  5
B34
330
18
100
AcDbEntity
  8
DISEGNO
100
AcDbCircle
 10
-889.3956406461034
 20
96.00000000000616
 30
0.0
 40
0.5
100
AcDbArc
 50
270.0000000000017
 51
0.0
  0
ARC
  5
B35
330
18
100
AcDbEntity
  8
DISEGNO
100
AcDbCircle
 10
-882.8956406461033
 20
93.15100000000599
 30
0.0
 40
1.0
100
AcDbArc
 50
225.0000000000081
 51
269.9180000000021
  0
LINE
  5
B36
330
18
100
AcDbEntity
  8
DISEGNO
100
AcDbLine
 10
-883.5956406461047
 20
92.44300000000546
 30
0.0
 11
-884.6956406461032
 21
93.50700000000577
 31
0.0
  0
ARC
  5
B37
330
18
100
AcDbEntity
  8
DISEGNO
100
AcDbCircle
 10
-881.7956406461048
 20
93.65000000000579
 30
0.0
 40
0.5
100
AcDbArc
 50
90.00080000000238
 51
225.0010000000041
  0
LINE
  5
B38
330
18
100
AcDbEntity
  8
DISEGNO
100
AcDbLine
 10
-882.895640646104
 20
92.151000000006
 30
0.0
 11
-881.7956406461053
 21
92.14900000000559
 31
0.0
  0
ARC
  5
B39
330
18
100
AcDbEntity
  8
DISEGNO
100
AcDbCircle
 10
-881.7956406461048
 20
92.45000000000688
 30
0.0
 40
0.3
100
AcDbArc
 50
269.9180000000021
 51
45.00000000000807
  0
LINE
  5
B3A
330
18
100
AcDbEntity
  8
DISEGNO
100
AcDbLine
 10
-882.1956406461032
 20
93.29600000000461
 30
0.0
 11
-881.4956406461062
 21
92.66200000000642
 31
0.0
  0
ARC
  5
B3B
330
18
100
AcDbEntity
  8
NORMALI
100
AcDbCircle
 10
-879.7455406460935
 20
91.1499999999985
 30
0.0
 40
1.0
100
AcDbArc
 50
90.00000000002279
 51
180.0
1001
ACAD
1000
ASC_BOUNDS
1002
{
1070
    19
1002
}
  0
LINE
  5
B3C
330
18
100
AcDbEntity
  8
DISEGNO
100
AcDbLine
 10
-886.8956406460622
 20
91.50000000000614
 30
0.0
 11
-885.895640646062
 21
90.50000000000615
 31
0.0
  0
LINE
  5
B3F
330
18
100
AcDbEntity
  8
DISEGNO
100
AcDbLine
 10
-894.8956406461039
 20
94.30000000000543
 30
0.0
 11
-894.8956406461041
 21
95.00000000000616
 31
0.0
  0
ARC
  5
B40
330
18
100
AcDbEntity
  8
DISEGNO
100
AcDbCircle
 10
-894.3956406461033
 20
94.30000000000543
 30
0.0
 40
0.5
100
AcDbArc
 50
180.0
 51
270.0000000000017
  0
ARC
  5
B41
330
18
100
AcDbEntity
  8
DISEGNO
100
AcDbCircle
 10
-894.3956406461035
 20
95.00000000000616
 30
0.0
 40
0.5
100
AcDbArc
 50
90.00000000000161
 51
180.0
  0
LINE
  5
B42
330
18
100
AcDbEntity
  8
DISEGNO
100
AcDbLine
 10
-888.8956406461042
 20
96.00000000000616
 30
0.0
 11
-888.8956406461042
 21
101.0000000000061
 31
0.0
  0
LINE
  5
B55
330
18
100
AcDbEntity
  8
DISEGNO
100
AcDbLine
 10
-926.3956406461042
 20
101.5000000000061
 30
0.0
 11
-931.3956406461041
 21
101.5000000000043
 31
0.0
  0
LINE
  5
B56
330
18
100
AcDbEntity
  8
DISEGNO
100
AcDbLine
 10
-926.3956406461039
 20
93.80000000000542
 30
0.0
 11
-933.4956406461062
 21
93.80000000000361
 31
0.0
  0
LINE
  5
B57
330
18
100
AcDbEntity
  8
DISEGNO
100
AcDbLine
 10
-926.3956406461042
 20
95.50000000000615
 30
0.0
 11
-931.3956406461041
 21
95.50000000000434
 31
0.0
  0
LINE
  5
B58
330
18
100
AcDbEntity
  8
DISEGNO
100
AcDbLine
 10
-926.3956406461044
 20
103.5000000000061
 30
0.0
 11
-935.3956406461044
 21
103.5000000000043
 31
0.0
  0
LINE
  5
B6C
330
18
100
AcDbEntity
  8
DISEGNO
100
AcDbLine
 10
-925.8956406461042
 20
102.0000000000061
 30
0.0
 11
-925.8956406461043
 21
103.0000000000061
 31
0.0
  0
ARC
  5
B6D
330
18
100
AcDbEntity
  8
DISEGNO
100
AcDbCircle
 10
-926.3956406461035
 20
102.0000000000061
 30
0.0
 40
0.5
100
AcDbArc
 50
270.0000000000017
 51
0.0
  0
ARC
  5
B6E
330
18
100
AcDbEntity
  8
DISEGNO
100
AcDbCircle
 10
-926.3956406461037
 20
103.0000000000061
 30
0.0
 40
0.5
100
AcDbArc
 50
0.0
 51
90.00000000000161
  0
LINE
  5
B73
330
18
100
AcDbEntity
  8
DISEGNO
100
AcDbLine
 10
-925.895640646104
 20
94.30000000000543
 30
0.0
 11
-925.8956406461042
 21
95.00000000000616
 31
0.0
  0
ARC
  5
B74
330
18
100
AcDbEntity
  8
DISEGNO
100
AcDbCircle
 10
-926.3956406461034
 20
94.30000000000543
 30
0.0
 40
0.5
100
AcDbArc
 50
270.0000000000017
 51
0.0
  0
ARC
  5
B75
330
18
100
AcDbEntity
  8
DISEGNO
100
AcDbCircle
 10
-926.3956406461034
 20
95.00000000000616
 30
0.0
 40
0.5
100
AcDbArc
 50
0.0
 51
90.00000000000161
  0
LINE
  5
B7A
330
18
100
AcDbEntity
  8
DISEGNO
100
AcDbLine
 10
-934.8956406460921
 20
39.50000000000321
 30
0.0
 11
-934.8956406461221
 21
90.49999999999888
 31
0.0
  0
LINE
  5
B7C
330
18
100
AcDbEntity
  8
NORMALI
100
AcDbLine
 10
-940.145640646101
 20
56.65000000000215
 30
0.0
 11
-940.145640646102
 21
90.65000000000397
 31
0.0
  0
LINE
  5
B7D
330
18
100
AcDbEntity
  8
NORMALI
100
AcDbLine
 10
-936.1456406461011
 20
56.65000000000215
 30
0.0
 11
-936.1456406461021
 21
90.65000000000397
 31
0.0
  0
LINE
  5
B7E
330
18
100
AcDbEntity
  8
DISEGNO
100
AcDbLine
 10
-939.3956406461027
 20
54.50000000000434
 30
0.0
 11
-937.9956406461049
 21
54.50000000000434
 31
0.0
  0
LINE
  5
B7F
330
18
100
AcDbEntity
  8
DISEGNO
100
AcDbLine
 10
-936.1456406461012
 20
64.65000000000215
 30
0.0
 11
-934.8956406461011
 21
64.65000000000215
 31
0.0
  0
LINE
  5
B80
330
18
100
AcDbEntity
  8
NORMALI
100
AcDbLine
 10
-936.1456406461011
 20
56.65000000000215
 30
0.0
 11
-936.645640646101
 21
56.15000000000216
 31
0.0
  0
LINE
  5
B81
330
18
100
AcDbEntity
  8
NORMALI
100
AcDbLine
 10
-940.212240646101
 20
56.15000000000216
 30
0.0
 11
-936.645640646101
 21
56.15000000000216
 31
0.0
  0
LINE
  5
B82
330
18
100
AcDbEntity
  8
DISEGNO
100
AcDbLine
 10
-937.3956406461026
 20
49.34700000000409
 30
0.0
 11
-937.3956406461026
 21
45.57200000000445
 31
0.0
  0
ARC
  5
B83
330
18
100
AcDbEntity
  8
DISEGNO
100
AcDbCircle
 10
-927.3956406461019
 20
45.57200000000627
 30
0.0
 40
10.0
100
AcDbArc
 50
180.0
 51
192.0000000000029
  0
ARC
  5
B84
330
18
100
AcDbEntity
  8
DISEGNO
100
AcDbCircle
 10
-932.395640646102
 20
49.08500000000347
 30
0.0
 40
5.0
100
AcDbArc
 50
174.0000000000048
 51
180.0
  0
ARC
  5
B85
330
18
100
AcDbEntity
  8
DISEGNO
100
AcDbCircle
 10
-942.895640646102
 20
47.90000000000397
 30
0.0
 40
0.25
100
AcDbArc
 50
103.7340000000026
 51
175.4169999999995
  0
LINE
  5
B86
330
18
100
AcDbEntity
  8
DISEGNO
100
AcDbLine
 10
-937.3956406461026
 20
49.34700000000409
 30
0.0
 11
-936.9956406461049
 21
53.39500000000295
 31
0.0
  0
ARC
  5
B88
330
18
100
AcDbEntity
  8
DISEGNO
100
AcDbCircle
 10
-937.9956406461044
 20
53.50000000000434
 30
0.0
 40
1.0
100
AcDbArc
 50
354.0000000000048
 51
90.00000000000161
  0
ARC
  5
B89
330
18
100
AcDbEntity
  8
DISEGNO
100
AcDbCircle
 10
-931.3956406461036
 20
101.0000000000043
 30
0.0
 40
0.5
100
AcDbArc
 50
90.00000000000161
 51
180.0
  0
ARC
  5
B8A
330
18
100
AcDbEntity
  8
DISEGNO
100
AcDbCircle
 10
-936.3956406461037
 20
104.5000000000043
 30
0.0
 40
0.5
100
AcDbArc
 50
0.0000000048462834
 51
90.00000000000161
  0
ARC
  5
B8B
330
18
100
AcDbEntity
  8
DISEGNO
100
AcDbCircle
 10
-935.3956406461037
 20
104.0000000000043
 30
0.0
 40
0.5
100
AcDbArc
 50
180.0
 51
270.0000000000017
  0
LINE
  5
B8C
330
18
100
AcDbEntity
  8
DISEGNO
100
AcDbLine
 10
-935.8956406461045
 20
104.5000000000043
 30
0.0
 11
-935.8956406461045
 21
104.0000000000043
 31
0.0
  0
LINE
  5
B8F
330
18
100
AcDbEntity
  8
DISEGNO
100
AcDbLine
 10
-936.1456406461019
 20
82.65000000000396
 30
0.0
 11
-934.8956406461018
 21
82.65000000000396
 31
0.0
  0
ARC
  5
B90
330
18
100
AcDbEntity
  8
DISEGNO
100
AcDbCircle
 10
-935.7956406461049
 20
95.8000000000036
 30
0.0
 40
1.5
100
AcDbArc
 50
12.99999999999747
 51
167.0000000000025
  0
ARC
  5
B91
330
18
100
AcDbEntity
  8
DISEGNO
100
AcDbCircle
 10
-933.4956406461056
 20
94.1000000000047
 30
0.0
 40
0.3
100
AcDbArc
 50
192.9999999999975
 51
270.0000000000017
  0
LINE
  5
B92
330
18
100
AcDbEntity
  8
DISEGNO
100
AcDbLine
 10
-937.9956406461062
 20
93.80000000000361
 30
0.0
 11
-939.3259446390203
 21
93.80000000000361
 31
0.0
  0
ARC
  5
B93
330
18
100
AcDbEntity
  8
DISEGNO
100
AcDbCircle
 10
-937.9956406461056
 20
94.1000000000047
 30
0.0
 40
0.3
100
AcDbArc
 50
270.0000000000017
 51
347.0000000000025
  0
LINE
  5
B94
330
18
100
AcDbEntity
  8
DISEGNO
100
AcDbLine
 10
-933.7956406461055
 20
94.03200000000358
 30
0.0
 11
-934.2956406461055
 21
96.13700000000314
 31
0.0
  0
LINE
  5
B95
330
18
100
AcDbEntity
  8
DISEGNO
100
AcDbLine
 10
-937.6956406461031
 20
94.03200000000358
 30
0.0
 11
-937.1956406461034
 21
96.13700000000314
 31
0.0
  0
ARC
  5
B96
330
18
100
AcDbEntity
  8
DISEGNO
100
AcDbCircle
 10
-931.3956406461034
 20
96.00000000000434
 30
0.0
 40
0.5
100
AcDbArc
 50
180.0
 51
270.0000000000017
  0
LINE
  5
B97
330
18
100
AcDbEntity
  8
NORMALI
100
AcDbLine
 10
-936.6456406461022
 20
91.15000000000215
 30
0.0
 11
-936.1456406461021
 21
90.65000000000216
 31
0.0
  0
LINE
  5
B98
330
18
100
AcDbEntity
  8
NORMALI
100
AcDbLine
 10
-940.2125406461019
 20
91.15000000000215
 30
0.0
 11
-936.6456406461022
 21
91.15000000000215
 31
0.0
  0
LINE
  5
B99
330
18
100
AcDbEntity
  8
DISEGNO
100
AcDbLine
 10
-934.8956406461185
 20
90.50000000000434
 30
0.0
 11
-933.8956406461186
 21
91.50000000000433
 31
0.0
  0
LINE
  5
B9A
330
18
100
AcDbEntity
  8
DISEGNO
100
AcDbLine
 10
-931.8956406461042
 20
96.00000000000434
 30
0.0
 11
-931.8956406461042
 21
101.0000000000043
 31
0.0
  0
LINE
  5
B9F
330
18
100
AcDbEntity
  8
NORMALI
100
AcDbLine
 10
-952.0457406461018
 20
56.65000000000034
 30
0.0
 11
-952.0457406461028
 21
90.65000000000216
 31
0.0
  0
LINE
  5
BA0
330
18
100
AcDbEntity
  8
NORMALI
100
AcDbLine
 10
-948.0457406461017
 20
56.65000000000034
 30
0.0
 11
-948.0457406461029
 21
90.65000000000216
 31
0.0
  0
LINE
  5
BA1
330
18
100
AcDbEntity
  8
DISEGNO
100
AcDbLine
 10
-954.8956406461037
 20
82.09400000000348
 30
0.0
 11
-954.8956406461032
 21
66.20600000000447
 31
0.0
  0
LINE
  5
BA2
330
18
100
AcDbEntity
  8
DISEGNO
100
AcDbLine
 10
-953.345740646103
 20
65.65000000000215
 30
0.0
 11
-953.3457406461037
 21
81.65000000000215
 31
0.0
  0
ARC
  5
BA3
330
18
100
AcDbEntity
  8
DISEGNO
100
AcDbCircle
 10
-950.8956406461022
 20
57.50000000000434
 30
0.0
 40
3.0
100
AcDbArc
 50
187.000000000006
 51
270.0000000000017
  0
LINE
  5
BA4
330
18
100
AcDbEntity
  8
DISEGNO
100
AcDbLine
 10
-950.8956406461027
 20
54.50000000000434
 30
0.0
 11
-948.8956406461028
 21
54.50000000000434
 31
0.0
  0
ARC
  5
BA5
330
18
100
AcDbEntity
  8
DISEGNO
100
AcDbCircle
 10
-949.8956406461026
 20
66.20600000000447
 30
0.0
 40
5.0
100
AcDbArc
 50
180.0
 51
187.0129999999998
  0
LINE
  5
BA6
330
18
100
AcDbEntity
  8
DISEGNO
100
AcDbLine
 10
-952.8457406461031
 20
65.15000000000579
 30
0.0
 11
-952.8457406461033
 21
70.78642338992064
 31
0.0
  0
LINE
  5
BA7
330
18
100
AcDbEntity
  8
DISEGNO
100
AcDbLine
 10
-952.8457406461031
 20
65.15000000000215
 30
0.0
 11
-952.0457406461019
 21
65.14999999999851
 31
0.0
  0
LINE
  5
BA8
330
18
100
AcDbEntity
  8
DISEGNO
100
AcDbLine
 10
-953.345740646103
 20
65.65000000000215
 30
0.0
 11
-952.8457406461031
 21
65.15000000000215
 31
0.0
  0
LINE
  5
BA9
330
18
100
AcDbEntity
  8
NORMALI
100
AcDbLine
 10
-951.5457406461017
 20
56.15000000000033
 30
0.0
 11
-952.0457406461018
 21
56.65000000000034
 31
0.0
  0
LINE
  5
BAA
330
18
100
AcDbEntity
  8
NORMALI
100
AcDbLine
 10
-951.5457406461017
 20
56.15000000000033
 30
0.0
 11
-947.9785406461022
 21
56.15000000000216
 31
0.0
  0
LINE
  5
BAB
330
18
100
AcDbEntity
  8
DISEGNO
100
AcDbLine
 10
-953.8956406461029
 20
57.13400000000436
 30
0.0
 11
-954.895640646103
 21
65.59500000000368
 31
0.0
  0
LINE
  5
BAC
330
18
100
AcDbEntity
  8
DISEGNO
100
AcDbLine
 10
-944.595640646103
 20
39.71900000000348
 30
0.0
 11
-955.295640646104
 21
48.65900000000399
 31
0.0
  0
LINE
  5
BAD
330
18
100
AcDbEntity
  8
DISEGNO
100
AcDbLine
 10
-956.8956406461026
 20
47.89300000000436
 30
0.0
 11
-956.8956406461026
 21
44.90900000000399
 31
0.0
  0
LINE
  5
BAE
330
18
100
AcDbEntity
  8
DISEGNO
100
AcDbLine
 10
-950.6956406461016
 20
38.297000000003
 30
0.0
 11
-955.8956406461023
 21
42.61100000000331
 31
0.0
  0
ARC
  5
BAF
330
18
100
AcDbEntity
  8
DISEGNO
100
AcDbCircle
 10
-953.895640646102
 20
44.90900000000399
 30
0.0
 40
3.0
100
AcDbArc
 50
180.0
 51
229.9999999999999
  0
ARC
  5
BB0
330
18
100
AcDbEntity
  8
DISEGNO
100
AcDbCircle
 10
-955.8956406461019
 20
47.89300000000436
 30
0.0
 40
1.0
100
AcDbArc
 50
49.99999999999991
 51
180.0
  0
ARC
  5
BB1
330
18
100
AcDbEntity
  8
DISEGNO
100
AcDbCircle
 10
-945.3956406461021
 20
47.90000000000397
 30
0.0
 40
0.25
100
AcDbArc
 50
4.592839999998945
 51
76.2756000000025
  0
LINE
  5
BB2
330
18
100
AcDbEntity
  8
DISEGNO
100
AcDbLine
 10
-953.8956406461039
 20
91.16600000000358
 30
0.0
 11
-954.8956406461037
 21
82.70500000000426
 31
0.0
  0
ARC
  5
BB3
330
18
100
AcDbEntity
  8
DISEGNO
100
AcDbCircle
 10
-949.8956406461031
 20
82.09400000000529
 30
0.0
 40
5.0
100
AcDbArc
 50
172.9870000000001
 51
180.0
  0
LINE
  5
BB4
330
18
100
AcDbEntity
  8
DISEGNO
100
AcDbLine
 10
-952.8457406461038
 20
82.15000000000214
 30
0.0
 11
-952.0457406461027
 21
82.15000000000033
 31
0.0
  0
LINE
  5
BB5
330
18
100
AcDbEntity
  8
DISEGNO
100
AcDbLine
 10
-953.3457406461037
 20
81.65000000000215
 30
0.0
 11
-952.8457406461038
 21
82.15000000000214
 31
0.0
  0
LINE
  5
BB7
330
18
100
AcDbEntity
  8
DISEGNO
100
AcDbLine
 10
-948.865336653189
 20
93.80000000000361
 30
0.0
 11
-950.895640646104
 21
93.80000000000361
 31
0.0
  0
ARC
  5
BB8
330
18
100
AcDbEntity
  8
DISEGNO
100
AcDbCircle
 10
-950.8956406461035
 20
90.8000000000036
 30
0.0
 40
3.0
100
AcDbArc
 50
90.00000000000161
 51
172.9870000000001
  0
LINE
  5
BB9
330
18
100
AcDbEntity
  8
NORMALI
100
AcDbLine
 10
-952.0457406461028
 20
90.65000000000216
 30
0.0
 11
-951.5457406461029
 21
91.15000000000215
 31
0.0
  0
LINE
  5
BBA
330
18
100
AcDbEntity
  8
NORMALI
100
AcDbLine
 10
-951.5457406461029
 20
91.15000000000215
 30
0.0
 11
-947.9785406461033
 21
91.15000000000215
 31
0.0
  0
LINE
  5
BBB
330
18
100
AcDbEntity
  8
DISEGNO
100
AcDbLine
 10
-952.8457406461038
 20
82.15000000000214
 30
0.0
 11
-952.8457406461035
 21
76.5135766100873
 31
0.0
  0
LINE
  5
BBC
330
18
100
AcDbEntity
  8
DISEGNO
100
AcDbLine
 10
-962.8956406461037
 20
83.50000000000433
 30
0.0
 11
-962.8956406461028
 21
53.50000000000434
 31
0.0
  0
LINE
  5
BBD
330
18
100
AcDbEntity
  8
DISEGNO
100
AcDbLine
 10
-962.6956406461021
 20
53.50000000000434
 30
0.0
 11
-962.8956406461028
 21
53.50000000000434
 31
0.0
  0
LINE
  5
BBE
330
18
100
AcDbEntity
  8
DISEGNO
100
AcDbLine
 10
-962.6956406461019
 20
50.50000000000434
 30
0.0
 11
-962.8956406461027
 21
50.50000000000434
 31
0.0
  0
LINE
  5
BBF
330
18
100
AcDbEntity
  8
DISEGNO
100
AcDbLine
 10
-962.6956406461021
 20
53.50000000000434
 30
0.0
 11
-962.6956406461019
 21
50.50000000000434
 31
0.0
  0
ARC
  5
BC0
330
18
100
AcDbEntity
  8
DISEGNO
100
AcDbCircle
 10
-960.8956406461038
 20
103.0000000000043
 30
0.0
 40
2.0
100
AcDbArc
 50
90.00000000000161
 51
180.0
  0
LINE
  5
BC1
330
18
100
AcDbEntity
  8
DISEGNO
100
AcDbLine
 10
-962.695640646103
 20
83.50000000000433
 30
0.0
 11
-962.8956406461037
 21
83.50000000000433
 31
0.0
  0
LINE
  5
BC2
330
18
100
AcDbEntity
  8
DISEGNO
100
AcDbLine
 10
-962.695640646103
 20
86.50000000000433
 30
0.0
 11
-962.8956406461037
 21
86.50000000000433
 31
0.0
  0
LINE
  5
BC3
330
18
100
AcDbEntity
  8
DISEGNO
100
AcDbLine
 10
-962.695640646103
 20
86.50000000000433
 30
0.0
 11
-962.695640646103
 21
83.50000000000433
 31
0.0
  0
LINE
  5
BC4
330
18
100
AcDbEntity
  8
DISEGNO
100
AcDbLine
 10
-962.8956406461044
 20
103.0000000000043
 30
0.0
 11
-962.8956406461037
 21
86.50000000000433
 31
0.0
  0
LINE
  5
ECE
330
18
100
AcDbEntity
  8
DISEGNO
100
AcDbLine
 10
-954.3956406460857
 20
106.0000000000053
 30
0.0
 11
-954.3956406460877
 21
130.0000000000053
 31
0.0
  0
LINE
  5
ECF
330
18
100
AcDbEntity
  8
DISEGNO
100
AcDbLine
 10
-936.3956406460895
 20
120.0000000000053
 30
0.0
 11
-936.3956406460895
 21
106.0000000000053
 31
0.0
  0
LINE
  5
ED5
330
18
100
AcDbEntity
  8
DISEGNO
100
AcDbLine
 10
-866.3956406460876
 20
106.0000000000053
 30
0.0
 11
-866.3956406460876
 21
130.0000000000053
 31
0.0
  0
LINE
  5
ED6
330
18
100
AcDbEntity
  8
DISEGNO
100
AcDbLine
 10
-884.3956406460893
 20
120.0000000000053
 30
0.0
 11
-884.3956406460913
 21
106.0000000000053
 31
0.0
  0
ARC
  5
1009
330
18
100
AcDbEntity
  8
DISEGNO
100
AcDbCircle
 10
-926.6220935082166
 20
103.7848196781137
 30
0.0
 40
2.226725119377336
100
AcDbArc
 50
359.1040196675898
 51
84.16305900552426
  0
LINE
  5
100D
330
18
100
AcDbEntity
  8
DISEGNO
100
AcDbLine
 10
-884.3956406460893
 20
110.5000000000224
 30
0.0
 11
-936.3956406460895
 21
110.5000000000209
 31
0.0
  0
LINE
  5
1034
330
18
100
AcDbEntity
  8
DISEGNO
100
AcDbLine
 10
-926.3956406460875
 20
106.0000000000053
 30
0.0
 11
-954.3956406460857
 21
106.0000000000053
 31
0.0
  0
LINE
  5
1037
330
18
100
AcDbEntity
  8
DISEGNO
100
AcDbLine
 10
-896.3956406460912
 20
91.50000000000536
 30
0.0
 11
-896.3956406460894
 21
103.7500000000053
 31
0.0
  0
LINE
  5
1039
330
18
100
AcDbEntity
  8
DISEGNO
100
AcDbLine
 10
-924.3956406460876
 20
103.7500000000056
 30
0.0
 11
-924.3956406460839
 21
91.50000000000524
 31
0.0
  0
LINE
  5
1061
330
18
100
AcDbEntity
  8
DISEGNO
100
AcDbLine
 10
-866.3956406460876
 20
106.0000000000053
 30
0.0
 11
-894.3956406460895
 21
106.0000000000053
 31
0.0
  0
ARC
  5
1063
330
18
100
AcDbEntity
  8
DISEGNO
100
AcDbCircle
 10
-894.1691877839621
 20
103.7848196781137
 30
0.0
 40
2.226725119376273
100
AcDbArc
 50
95.83694099442324
 51
180.8959803324167
  0
LINE
  5
108D
330
18
100
AcDbEntity
  8
DISEGNO
100
AcDbLine
 10
-954.3956406460877
 20
120.0000000000053
 30
0.0
 11
-866.3956406460876
 21
120.0000000000053
 31
0.0
  0
LINE
  5
108E
330
18
100
AcDbEntity
  8
DISEGNO
100
AcDbLine
 10
-954.3956406460877
 20
130.0000000000053
 30
0.0
 11
-866.3956406460876
 21
130.0000000000053
 31
0.0
  0
LINE
  5
108F
330
18
100
AcDbEntity
  8
DISEGNO
100
AcDbLine
 10
-936.3956406460895
 20
117.5000000000053
 30
0.0
 11
-884.3956406460893
 21
117.5000000000053
 31
0.0
  0
LINE
  5
1090
330
18
100
AcDbEntity
  8
NORMALI
100
AcDbLine
 10
-885.3956406460893
 20
117.650000000006
 30
0.0
 11
-935.3956406460893
 21
117.6500000000052
 31
0.0
  0
LINE
  5
109D
330
18
100
AcDbEntity
  8
NORMALI
100
AcDbLine
 10
-935.3956406460875
 20
117.5000000000053
 30
0.0
 11
-935.3956406460893
 21
117.6500000000052
 31
0.0
  0
LINE
  5
10A9
330
18
100
AcDbEntity
  8
NORMALI
100
AcDbLine
 10
-885.3956406460893
 20
117.5000000000053
 30
0.0
 11
-885.3956406460893
 21
117.650000000006
 31
0.0
  0
LINE
  5
1218
330
18
100
AcDbEntity
  8
ASSI
100
AcDbLine
 10
-824.7292154024695
 20
61.00000000000432
 30
0.0
 11
-127.6992970489245
 21
61.00000000000432
 31
0.0
  0
LINE
  5
13B6
330
18
100
AcDbEntity
  8
ASSI
100
AcDbLine
 10
-531.9222739267487
 20
-279.9788655572024
 30
0.0
 11
-531.9222739267814
 21
-197.6497796365488
 31
0.0
  0
LINE
  5
13BA
330
18
100
AcDbEntity
  8
ASSI
100
AcDbLine
 10
-521.9222739267796
 20
-208.7810964264277
 30
0.0
 11
-521.9222739267832
 21
-198.8475487673236
 31
0.0
  0
LINE
  5
13BE
330
18
100
AcDbEntity
  8
ASSI
100
AcDbLine
 10
-301.9222739267596
 20
-279.9788655572024
 30
0.0
 11
-301.9222739267269
 21
-197.6497796365488
 31
0.0
  0
LINE
  5
13C1
330
18
100
AcDbEntity
  8
ASSI
100
AcDbLine
 10
-311.922273926756
 20
-278.7810964264277
 30
0.0
 11
-311.9222739267597
 21
-268.8475487673236
 31
0.0
  0
LINE
  5
13C6
330
18
100
AcDbEntity
  8
ASSI
100
AcDbLine
 10
-416.9222739267359
 20
-279.9788655572024
 30
0.0
 11
-416.9222739267723
 21
-197.6497796365488
 31
0.0
  0
LINE
  5
13C9
330
18
100
AcDbEntity
  8
ASSI
100
AcDbLine
 10
-416.9222739267366
 20
-254.3499733454129
 30
0.0
 11
-416.9222739267494
 21
-223.2786718483513
 31
0.0
  0
LINE
  5
13CC
330
18
100
AcDbEntity
  8
ASSI
100
AcDbLine
 10
-427.819220821324
 20
-203.8143225968756
 30
0.0
 11
-405.649591829519
 21
-203.8143225968756
 31
0.0
  0
LINE
  5
13CD
330
18
100
AcDbEntity
  8
ASSI
100
AcDbLine
 10
-427.819220821324
 20
-273.8143225968756
 30
0.0
 11
-404.5768678077829
 21
-273.8143225968756
 31
0.0
  0
LINE
  5
13E2
330
18
100
AcDbEntity
  8
ASSI
100
AcDbLine
 10
-310.4953215274853
 20
-203.8143225968756
 30
0.0
 11
-293.5408836437481
 21
-203.8143225968754
 31
0.0
  0
CIRCLE
  5
13E3
330
18
100
AcDbEntity
  8
DISEGNO
100
AcDbCircle
 10
-366.9222739267708
 20
-203.5239972271071
 30
0.0
 40
3.2
  0
CIRCLE
  5
13E4
330
18
100
AcDbEntity
  8
DISEGNO
100
AcDbCircle
 10
-366.9222739267708
 20
-203.5239972271071
 30
0.0
 40
4.5
  0
ARC
  5
13E5
330
18
100
AcDbEntity
  8
DISEGNO
100
AcDbCircle
 10
-366.9222739267708
 20
-203.5239972271071
 30
0.0
 40
4.0
100
AcDbArc
 50
0.000000000000007
 51
269.9999999999739
  0
ENDSEC
  0
SECTION
  2
OBJECTS
  0
DICTIONARY
  5
C
330
0
100
AcDbDictionary
281
     1
  3
ACAD_COLOR
350
1424
  3
ACAD_GROUP
350
D
  3
ACAD_LAYOUT
350
7D1
  3
ACAD_MATERIAL
350
13FA
  3
ACAD_MLEADERSTYLE
350
1449
  3
ACAD_MLINESTYLE
350
1B
  3
ACAD_PLOTSETTINGS
350
7D2
  3
ACAD_PLOTSTYLENAME
350
7CF
  3
ACAD_SCALELIST
350
1427
  3
ACAD_TABLESTYLE
350
1425
  3
ACAD_VISUALSTYLE
350
1413
  3
ACDB_RECOMPOSE_DATA
350
1462
  3
AcDbVariableDictionary
350
835
  3
ACGREF_MASTER
350
7EC
  3
ACGREFACAD_MASTER
350
7F0
  3
AcmDictionary
350
7F2
  3
ACME_BOM_MANAGER_NAME
350
7E5
  3
ACME_COMMAND_HISTORY
350
7E0
  3
ACME_SCOPE_NAME
350
7DF
  3
ACMESTATEMGR
350
7EA
  3
AcmeSysVarManager
350
7E1
  3
AcmSystemVariableManager
350
7F6
  3
AMG
350
7D8
  3
AMGSNAPSETTINGS
350
825
  3
AMI_MASTER
350
7F1
  0
DICTIONARY
  5
1453
330
E
100
AcDbDictionary
280
     1
281
     1
  3
ADSK_XREC_LAYER_RECONCILED
360
1454
  0
DICTIONARY
  5
1455
330
1AF
100
AcDbDictionary
280
     1
281
     1
  3
ADSK_XREC_LAYER_RECONCILED
360
1456
  0
DICTIONARY
  5
1457
330
1B0
100
AcDbDictionary
280
     1
281
     1
  3
ADSK_XREC_LAYER_RECONCILED
360
1458
  0
DICTIONARY
  5
1459
330
1B1
100
AcDbDictionary
280
     1
281
     1
  3
ADSK_XREC_LAYER_RECONCILED
360
145A
  0
DICTIONARY
  5
145B
330
1B2
100
AcDbDictionary
280
     1
281
     1
  3
ADSK_XREC_LAYER_RECONCILED
360
145C
  0
DICTIONARY
  5
82C
330
18
100
AcDbDictionary
280
     1
281
     1
  3
ACAD_INDEX
360
82D
  0
DICTIONARY
  5
1424
102
{ACAD_REACTORS
330
C
102
}
330
C
100
AcDbDictionary
281
     1
  0
DICTIONARY
  5
D
102
{ACAD_REACTORS
330
C
102
}
330
C
100
AcDbDictionary
281
     1
  0
DICTIONARY
  5
7D1
102
{ACAD_REACTORS
330
C
102
}
330
C
100
AcDbDictionary
281
     1
  3
Layout1
350
7D4
  3
Model
350
7D3
  0
DICTIONARY
  5
13FA
102
{ACAD_REACTORS
330
C
102
}
330
C
100
AcDbDictionary
281
     1
  3
ByBlock
350
1403
  3
ByLayer
350
13FB
  3
Global
350
140B
  0
DICTIONARY
  5
1449
102
{ACAD_REACTORS
330
C
102
}
330
C
100
AcDbDictionary
281
     1
  3
Standard
350
144A
  0
DICTIONARY
  5
1B
102
{ACAD_REACTORS
330
C
102
}
330
C
100
AcDbDictionary
281
     1
  3
STANDARD
350
1C
  0
DICTIONARY
  5
7D2
102
{ACAD_REACTORS
330
C
102
}
330
C
100
AcDbDictionary
281
     1
  0
ACDBDICTIONARYWDFLT
  5
7CF
102
{ACAD_REACTORS
330
C
102
}
330
C
100
AcDbDictionary
281
     1
  3
Normal
350
7D0
100
AcDbDictionaryWithDefault
340
7D0
  0
DICTIONARY
  5
1427
102
{ACAD_REACTORS
330
C
102
}
330
C
100
AcDbDictionary
281
     1
  3
A0
350
1428
  3
A1
350
1429
  3
A2
350
142A
  3
A3
350
142B
  3
A4
350
142C
  3
A5
350
142D
  3
A6
350
142E
  3
A7
350
142F
  3
A8
350
1430
  3
A9
350
1431
  3
B0
350
1432
  3
B1
350
1433
  3
B2
350
1434
  3
B3
350
1435
  3
B4
350
1436
  3
B5
350
1437
  3
B6
350
1438
  3
B7
350
1439
  3
B8
350
143A
  3
B9
350
143B
  3
C0
350
143C
  3
C1
350
143D
  3
C2
350
143E
  3
C3
350
143F
  3
C4
350
1440
  3
C5
350
1441
  3
C6
350
1442
  3
C7
350
1443
  3
C8
350
1444
  3
C9
350
1445
  3
D0
350
1446
  3
D1
350
1447
  3
D2
350
1448
  0
DICTIONARY
  5
1425
102
{ACAD_REACTORS
330
C
102
}
330
C
100
AcDbDictionary
281
     1
  3
Standard
350
1426
  0
DICTIONARY
  5
1413
102
{ACAD_REACTORS
330
C
102
}
330
C
100
AcDbDictionary
281
     1
  3
2dWireframe
350
1419
  3
3D Hidden
350
141B
  3
3dWireframe
350
141A
  3
Basic
350
1418
  3
Brighten
350
141F
  3
ColorChange
350
1423
  3
Conceptual
350
141C
  3
Dim
350
141E
  3
Facepattern
350
1422
  3
Flat
350
1414
  3
FlatWithEdges
350
1415
  3
Gouraud
350
1416
  3
GouraudWithEdges
350
1417
  3
Linepattern
350
1421
  3
Realistic
350
141D
  3
Thicken
350
1420
  0
XRECORD
  5
1462
102
{ACAD_REACTORS
330
C
102
}
330
C
100
AcDbXrecord
280
     1
 90
        1
330
1426
  0
DICTIONARY
  5
835
102
{ACAD_REACTORS
330
C
102
}
330
C
100
AcDbDictionary
281
     1
  3
CANNOSCALE
350
145F
  3
CMLEADERSTYLE
350
145E
  3
CTABLESTYLE
350
145D
  3
DIMASSOC
350
837
  3
INDEXCTL
350
836
  0
ACAD_PROXY_OBJECT
  5
7EC
102
{ACAD_REACTORS
330
C
102
}
330
C
100
AcDbProxyObject
 90
      499
 91
      516
 95
   851991
 70
     0
 93
       34
310
040000428C
 94
        0
  0
ACAD_PROXY_OBJECT
  5
7F0
102
{ACAD_REACTORS
330
C
102
}
330
C
100
AcDbProxyObject
 90
      499
 91
      519
 95
   851991
 70
     0
 93
      114
310
04000041C00000000000000000000C
 94
        0
  0
DICTIONARY
  5
7F2
102
{ACAD_REACTORS
330
C
102
}
330
C
100
AcDbDictionary
281
     1
  3
AcmBOMDATA
350
7F3
  3
AcmStdDictionary
350
7F8
  0
ACAD_PROXY_OBJECT
  5
7E5
102
{ACAD_REACTORS
330
C
102
}
330
C
100
AcDbProxyObject
 90
      499
 91
      510
 95
   851991
 70
     0
 93
       50
310
0001004040000C
330
0
330
0
330
7E6
 94
        0
  0
ACAD_PROXY_OBJECT
  5
7E0
102
{ACAD_REACTORS
330
C
102
}
330
C
100
AcDbProxyObject
 90
      499
 91
      506
 95
   851991
 70
     0
 93
     2086
310
47805055055524745805045A4F4F4D8050545524153458050350414E805054552415345805045A4F4F4D805055055524745805045A4F4F4D80505505552474540405184D5347202D20436F6D6D616E642043414E43454C4C45442E01415454D055916014115539113E014115539113E014115539113E014115539113E01411
310
5539113E014151549054D1601411514925350101461354D1C80B4810DBDB5B585B990810D05390D1531311510B8050545524153458050545524153458050350414E8050545524153458050350414E8050545524153458050350414E8050545524153458050350414E805054552415345805045A4F4F4D80505505552474580
310
50551534156458
 94
        0
  0
ACAD_PROXY_OBJECT
  5
7DF
102
{ACAD_REACTORS
330
C
102
}
330
C
100
AcDbProxyObject
 90
      499
 91
      505
 95
   851991
 70
     0
 93
      218
310
060000444000000000000000000010641E000000000000AAA406AA8C
360
7E2
360
7E3
360
7E4
360
7E6
360
7F7
360
C28
 94
        0
  0
ACAD_PROXY_OBJECT
  5
7EA
102
{ACAD_REACTORS
330
C
102
}
330
C
100
AcDbProxyObject
 90
      499
 91
      515
 95
   851991
 70
     0
 93
       50
310
0600004164128C
 94
        0
  0
ACAD_PROXY_OBJECT
  5
7E1
102
{ACAD_REACTORS
330
C
102
}
330
C
100
AcDbProxyObject
 90
      499
 91
      507
 95
   851991
 70
     0
 93
       48
310
90341200000034
330
7E2
330
7E3
330
7E4
 94
        0
  0
ACAD_PROXY_OBJECT
  5
7F6
102
{ACAD_REACTORS
330
C
102
}
330
C
100
AcDbProxyObject
 90
      499
 91
      507
 95
   851991
 70
     0
 93
       32
310
90140A00FA
330
7F7
 94
        0
  0
DICTIONARY
  5
7D8
102
{ACAD_REACTORS
330
C
102
}
330
C
100
AcDbDictionary
281
     1
  3
AcMgSettings
350
7D9
  3
AMGLAYCFG
350
7FA
  0
DICTIONARY
  5
825
102
{ACAD_REACTORS
330
C
102
}
330
C
100
AcDbDictionary
281
     1
  3
DIMENSION
350
82A
  3
FEA
350
829
  3
HATCH (1)
350
826
  3
HATCH (2)
350
827
  3
SIMPLE WELD
350
82B
  3
SYMBOLS
350
828
  0
ACAD_PROXY_OBJECT
  5
7F1
102
{ACAD_REACTORS
330
C
102
}
330
C
100
AcDbProxyObject
 90
      499
 91
      520
 95
   851991
 70
     0
 93
       34
310
050000428C
 94
        0
  0
XRECORD
  5
1454
102
{ACAD_REACTORS
330
1453
102
}
330
1453
100
AcDbXrecord
280
     1
290
     1
  0
XRECORD
  5
1456
102
{ACAD_REACTORS
330
1455
102
}
330
1455
100
AcDbXrecord
280
     1
290
     1
  0
XRECORD
  5
1458
102
{ACAD_REACTORS
330
1457
102
}
330
1457
100
AcDbXrecord
280
     1
290
     1
  0
XRECORD
  5
145A
102
{ACAD_REACTORS
330
1459
102
}
330
1459
100
AcDbXrecord
280
     1
290
     1
  0
XRECORD
  5
145C
102
{ACAD_REACTORS
330
145B
102
}
330
145B
100
AcDbXrecord
280
     1
290
     1
  0
DICTIONARY
  5
82D
102
{ACAD_REACTORS
330
82C
102
}
330
82C
100
AcDbDictionary
281
     1
  3
*A1
350
82E
  0
LAYOUT
  5
7D4
102
{ACAD_REACTORS
330
7D1
102
}
330
7D1
100
AcDbPlotSettings
  1

  2
C:\Programmi\Acadm 6\plotters\Cadjet 2.pc3
  4

  6

 40
0.0
 41
0.0
 42
0.0
 43
0.0
 44
0.0
 45
0.0
 46
0.0
 47
0.0
 48
0.0
 49
0.0
140
0.0
141
0.0
142
1.0
143
1.0
 70
   688
 72
     0
 73
     0
 74
     5
  7

 75
    16
147
1.0
 76
     0
 77
     2
 78
   300
148
0.0
149
0.0
100
AcDbLayout
  1
Layout1
 70
     1
 71
     1
 10
0.0
 20
0.0
 11
420.0
 21
297.0
 12
0.0
 22
0.0
 32
0.0
 14
1.000000000000000E+20
 24
1.000000000000000E+20
 34
1.000000000000000E+20
 15
-1.000000000000000E+20
 25
-1.000000000000000E+20
 35
-1.000000000000000E+20
146
0.0
 13
0.0
 23
0.0
 33
0.0
 16
1.0
 26
0.0
 36
0.0
 17
0.0
 27
1.0
 37
0.0
 76
     0
330
15
  0
LAYOUT
  5
7D3
102
{ACAD_REACTORS
330
7D1
102
}
330
7D1
100
AcDbPlotSettings
  1

  2
C:\Programmi\Acadm 6\plotters\Cadjet 2.pc3
  4

  6

 40
0.0
 41
0.0
 42
0.0
 43
0.0
 44
0.0
 45
0.0
 46
0.0
 47
0.0
 48
0.0
 49
0.0
140
0.0
141
0.0
142
1.0
143
1.0
 70
  1712
 72
     0
 73
     0
 74
     0
  7

 75
     0
147
1.0
 76
     0
 77
     2
 78
   300
148
0.0
149
0.0
100
AcDbLayout
  1
Model
 70
     1
 71
     0
 10
0.0
 20
0.0
 11
12.0
 21
9.0
 12
0.0
 22
0.0
 32
0.0
 14
0.0
 24
0.0
 34
0.0
 15
0.0
 25
0.0
 35
0.0
146
0.0
 13
0.0
 23
0.0
 33
0.0
 16
1.0
 26
0.0
 36
0.0
 17
0.0
 27
1.0
 37
0.0
 76
     0
330
18
331
13F8
  0
MATERIAL
  5
1403
102
{ACAD_XDICTIONARY
360
1404
102
}
102
{ACAD_REACTORS
330
13FA
102
}
330
13FA
100
AcDbMaterial
  1
ByBlock
 72
     0
 43
0.0208333333333333
 43
0.0
 43
0.0
 43
0.0
 43
0.0
 43
0.0208333333333333
 43
0.0
 43
0.0
 43
0.0
 43
0.0
 43
1.0
 43
0.0
 43
0.0
 43
0.0
 43
0.0
 43
1.0
 77
     0
 47
0.0208333333333333
 47
0.0
 47
0.0
 47
0.0
 47
0.0
 47
0.0208333333333333
 47
0.0
 47
0.0
 47
0.0
 47
0.0
 47
1.0
 47
0.0
 47
0.0
 47
0.0
 47
0.0
 47
1.0
171
     0
 49
0.0208333333333333
 49
0.0
 49
0.0
 49
0.0
 49
0.0
 49
0.0208333333333333
 49
0.0
 49
0.0
 49
0.0
 49
0.0
 49
1.0
 49
0.0
 49
0.0
 49
0.0
 49
0.0
 49
1.0
175
     0
142
0.0208333333333333
142
0.0
142
0.0
142
0.0
142
0.0
142
0.0208333333333333
142
0.0
142
0.0
142
0.0
142
0.0
142
1.0
142
0.0
142
0.0
142
0.0
142
0.0
142
1.0
179
     0
144
0.0208333333333333
144
0.0
144
0.0
144
0.0
144
0.0
144
0.0208333333333333
144
0.0
144
0.0
144
0.0
144
0.0
144
1.0
144
0.0
144
0.0
144
0.0
144
0.0
144
1.0
147
0.0208333333333333
147
0.0
147
0.0
147
0.0
147
0.0
147
0.0208333333333333
147
0.0
147
0.0
147
0.0
147
0.0
147
1.0
147
0.0
147
0.0
147
0.0
147
0.0
147
1.0
  0
MATERIAL
  5
13FB
102
{ACAD_XDICTIONARY
360
13FC
102
}
102
{ACAD_REACTORS
330
13FA
102
}
330
13FA
100
AcDbMaterial
  1
ByLayer
 72
     0
 43
0.0208333333333333
 43
0.0
 43
0.0
 43
0.0
 43
0.0
 43
0.0208333333333333
 43
0.0
 43
0.0
 43
0.0
 43
0.0
 43
1.0
 43
0.0
 43
0.0
 43
0.0
 43
0.0
 43
1.0
 77
     0
 47
0.0208333333333333
 47
0.0
 47
0.0
 47
0.0
 47
0.0
 47
0.0208333333333333
 47
0.0
 47
0.0
 47
0.0
 47
0.0
 47
1.0
 47
0.0
 47
0.0
 47
0.0
 47
0.0
 47
1.0
171
     0
 49
0.0208333333333333
 49
0.0
 49
0.0
 49
0.0
 49
0.0
 49
0.0208333333333333
 49
0.0
 49
0.0
 49
0.0
 49
0.0
 49
1.0
 49
0.0
 49
0.0
 49
0.0
 49
0.0
 49
1.0
175
     0
142
0.0208333333333333
142
0.0
142
0.0
142
0.0
142
0.0
142
0.0208333333333333
142
0.0
142
0.0
142
0.0
142
0.0
142
1.0
142
0.0
142
0.0
142
0.0
142
0.0
142
1.0
179
     0
144
0.0208333333333333
144
0.0
144
0.0
144
0.0
144
0.0
144
0.0208333333333333
144
0.0
144
0.0
144
0.0
144
0.0
144
1.0
144
0.0
144
0.0
144
0.0
144
0.0
144
1.0
147
0.0208333333333333
147
0.0
147
0.0
147
0.0
147
0.0
147
0.0208333333333333
147
0.0
147
0.0
147
0.0
147
0.0
147
1.0
147
0.0
147
0.0
147
0.0
147
0.0
147
1.0
  0
MATERIAL
  5
140B
102
{ACAD_XDICTIONARY
360
140C
102
}
102
{ACAD_REACTORS
330
13FA
102
}
330
13FA
100
AcDbMaterial
  1
Global
 72
     0
 43
0.0208333333333333
 43
0.0
 43
0.0
 43
0.0
 43
0.0
 43
0.0208333333333333
 43
0.0
 43
0.0
 43
0.0
 43
0.0
 43
1.0
 43
0.0
 43
0.0
 43
0.0
 43
0.0
 43
1.0
 77
     0
 47
0.0208333333333333
 47
0.0
 47
0.0
 47
0.0
 47
0.0
 47
0.0208333333333333
 47
0.0
 47
0.0
 47
0.0
 47
0.0
 47
1.0
 47
0.0
 47
0.0
 47
0.0
 47
0.0
 47
1.0
171
     0
 49
0.0208333333333333
 49
0.0
 49
0.0
 49
0.0
 49
0.0
 49
0.0208333333333333
 49
0.0
 49
0.0
 49
0.0
 49
0.0
 49
1.0
 49
0.0
 49
0.0
 49
0.0
 49
0.0
 49
1.0
175
     0
142
0.0208333333333333
142
0.0
142
0.0
142
0.0
142
0.0
142
0.0208333333333333
142
0.0
142
0.0
142
0.0
142
0.0
142
1.0
142
0.0
142
0.0
142
0.0
142
0.0
142
1.0
179
     0
144
0.0208333333333333
144
0.0
144
0.0
144
0.0
144
0.0
144
0.0208333333333333
144
0.0
144
0.0
144
0.0
144
0.0
144
1.0
144
0.0
144
0.0
144
0.0
144
0.0
144
1.0
147
0.0208333333333333
147
0.0
147
0.0
147
0.0
147
0.0
147
0.0208333333333333
147
0.0
147
0.0
147
0.0
147
0.0
147
1.0
147
0.0
147
0.0
147
0.0
147
0.0
147
1.0
  0
MLEADERSTYLE
  5
144A
102
{ACAD_REACTORS
330
1449
102
}
330
1449
100
AcDbMLeaderStyle
170
     2
171
     1
172
     0
 90
        2
 40
0.0
 41
0.0
173
     1
 91
-1056964608
340
12
 92
       -2
290
     1
 42
2.0
291
     1
 43
0.36
  3
Standard
 44
4.0
300

342
F
174
     1
178
     6
175
     1
176
     0
 93
-1056964608
 45
4.0
292
     0
297
     0
 46
4.0
 94
-1056964608
 47
1.0
 49
1.0
140
1.0
293
     1
141
0.0
294
     1
177
     0
142
1.0
295
     0
296
     0
143
0.125
1001
ACAD_MLEADERVER
1070
     2
  0
MLINESTYLE
  5
1C
102
{ACAD_REACTORS
330
1B
102
}
330
1B
100
AcDbMlineStyle
  2
STANDARD
 70
     0
  3

 62
   256
 51
90.0
 52
90.0
 71
     2
 49
0.5
 62
   256
  6
BYLAYER
 49
-0.5
 62
   256
  6
BYLAYER
  0
ACDBPLACEHOLDER
  5
7D0
102
{ACAD_REACTORS
330
7CF
102
}
330
7CF
  0
SCALE
  5
1428
102
{ACAD_REACTORS
330
1427
102
}
330
1427
100
AcDbScale
 70
     0
300
1:1
140
1.0
141
1.0
290
     1
  0
SCALE
  5
1429
102
{ACAD_REACTORS
330
1427
102
}
330
1427
100
AcDbScale
 70
     0
300
1:2
140
1.0
141
2.0
290
     0
  0
SCALE
  5
142A
102
{ACAD_REACTORS
330
1427
102
}
330
1427
100
AcDbScale
 70
     0
300
1:4
140
1.0
141
4.0
290
     0
  0
SCALE
  5
142B
102
{ACAD_REACTORS
330
1427
102
}
330
1427
100
AcDbScale
 70
     0
300
1:5
140
1.0
141
5.0
290
     0
  0
SCALE
  5
142C
102
{ACAD_REACTORS
330
1427
102
}
330
1427
100
AcDbScale
 70
     0
300
1:8
140
1.0
141
8.0
290
     0
  0
SCALE
  5
142D
102
{ACAD_REACTORS
330
1427
102
}
330
1427
100
AcDbScale
 70
     0
300
1:10
140
1.0
141
10.0
290
     0
  0
SCALE
  5
142E
102
{ACAD_REACTORS
330
1427
102
}
330
1427
100
AcDbScale
 70
     0
300
1:16
140
1.0
141
16.0
290
     0
  0
SCALE
  5
142F
102
{ACAD_REACTORS
330
1427
102
}
330
1427
100
AcDbScale
 70
     0
300
1:20
140
1.0
141
20.0
290
     0
  0
SCALE
  5
1430
102
{ACAD_REACTORS
330
1427
102
}
330
1427
100
AcDbScale
 70
     0
300
1:30
140
1.0
141
30.0
290
     0
  0
SCALE
  5
1431
102
{ACAD_REACTORS
330
1427
102
}
330
1427
100
AcDbScale
 70
     0
300
1:40
140
1.0
141
40.0
290
     0
  0
SCALE
  5
1432
102
{ACAD_REACTORS
330
1427
102
}
330
1427
100
AcDbScale
 70
     0
300
1:50
140
1.0
141
50.0
290
     0
  0
SCALE
  5
1433
102
{ACAD_REACTORS
330
1427
102
}
330
1427
100
AcDbScale
 70
     0
300
1:100
140
1.0
141
100.0
290
     0
  0
SCALE
  5
1434
102
{ACAD_REACTORS
330
1427
102
}
330
1427
100
AcDbScale
 70
     0
300
2:1
140
2.0
141
1.0
290
     0
  0
SCALE
  5
1435
102
{ACAD_REACTORS
330
1427
102
}
330
1427
100
AcDbScale
 70
     0
300
4:1
140
4.0
141
1.0
290
     0
  0
SCALE
  5
1436
102
{ACAD_REACTORS
330
1427
102
}
330
1427
100
AcDbScale
 70
     0
300
8:1
140
8.0
141
1.0
290
     0
  0
SCALE
  5
1437
102
{ACAD_REACTORS
330
1427
102
}
330
1427
100
AcDbScale
 70
     0
300
10:1
140
10.0
141
1.0
290
     0
  0
SCALE
  5
1438
102
{ACAD_REACTORS
330
1427
102
}
330
1427
100
AcDbScale
 70
     0
300
100:1
140
100.0
141
1.0
290
     0
  0
SCALE
  5
1439
102
{ACAD_REACTORS
330
1427
102
}
330
1427
100
AcDbScale
 70
     0
300
1/128" = 1'-0"
140
0.0078125
141
12.0
290
     0
  0
SCALE
  5
143A
102
{ACAD_REACTORS
330
1427
102
}
330
1427
100
AcDbScale
 70
     0
300
1/64" = 1'-0"
140
0.015625
141
12.0
290
     0
  0
SCALE
  5
143B
102
{ACAD_REACTORS
330
1427
102
}
330
1427
100
AcDbScale
 70
     0
300
1/32" = 1'-0"
140
0.03125
141
12.0
290
     0
  0
SCALE
  5
143C
102
{ACAD_REACTORS
330
1427
102
}
330
1427
100
AcDbScale
 70
     0
300
1/16" = 1'-0"
140
0.0625
141
12.0
290
     0
  0
SCALE
  5
143D
102
{ACAD_REACTORS
330
1427
102
}
330
1427
100
AcDbScale
 70
     0
300
3/32" = 1'-0"
140
0.09375
141
12.0
290
     0
  0
SCALE
  5
143E
102
{ACAD_REACTORS
330
1427
102
}
330
1427
100
AcDbScale
 70
     0
300
1/8" = 1'-0"
140
0.125
141
12.0
290
     0
  0
SCALE
  5
143F
102
{ACAD_REACTORS
330
1427
102
}
330
1427
100
AcDbScale
 70
     0
300
3/16" = 1'-0"
140
0.1875
141
12.0
290
     0
  0
SCALE
  5
1440
102
{ACAD_REACTORS
330
1427
102
}
330
1427
100
AcDbScale
 70
     0
300
1/4" = 1'-0"
140
0.25
141
12.0
290
     0
  0
SCALE
  5
1441
102
{ACAD_REACTORS
330
1427
102
}
330
1427
100
AcDbScale
 70
     0
300
3/8" = 1'-0"
140
0.375
141
12.0
290
     0
  0
SCALE
  5
1442
102
{ACAD_REACTORS
330
1427
102
}
330
1427
100
AcDbScale
 70
     0
300
1/2" = 1'-0"
140
0.5
141
12.0
290
     0
  0
SCALE
  5
1443
102
{ACAD_REACTORS
330
1427
102
}
330
1427
100
AcDbScale
 70
     0
300
3/4" = 1'-0"
140
0.75
141
12.0
290
     0
  0
SCALE
  5
1444
102
{ACAD_REACTORS
330
1427
102
}
330
1427
100
AcDbScale
 70
     0
300
1" = 1'-0"
140
1.0
141
12.0
290
     0
  0
SCALE
  5
1445
102
{ACAD_REACTORS
330
1427
102
}
330
1427
100
AcDbScale
 70
     0
300
1-1/2" = 1'-0"
140
1.5
141
12.0
290
     0
  0
SCALE
  5
1446
102
{ACAD_REACTORS
330
1427
102
}
330
1427
100
AcDbScale
 70
     0
300
3" = 1'-0"
140
3.0
141
12.0
290
     0
  0
SCALE
  5
1447
102
{ACAD_REACTORS
330
1427
102
}
330
1427
100
AcDbScale
 70
     0
300
6" = 1'-0"
140
6.0
141
12.0
290
     0
  0
SCALE
  5
1448
102
{ACAD_REACTORS
330
1427
102
}
330
1427
100
AcDbScale
 70
     0
300
1'-0" = 1'-0"
140
12.0
141
12.0
290
     0
  0
TABLESTYLE
  5
1426
102
{ACAD_XDICTIONARY
360
1460
102
}
102
{ACAD_REACTORS
330
1425
102
}
330
1425
100
AcDbTableStyle
  3
Standard
 70
     0
 71
     0
 40
1.5
 41
1.5
280
     0
281
     0
  7
STANDARD
140
4.5
170
     2
 62
     0
 63
     7
283
     0
274
    -2
284
     1
 64
     0
275
    -2
285
     1
 65
     0
276
    -2
286
     1
 66
     0
277
    -2
287
     1
 67
     0
278
    -2
288
     1
 68
     0
279
    -2
289
     1
 69
     0
  7
STANDARD
140
6.0
170
     5
 62
     0
 63
     7
283
     0
274
    -2
284
     1
 64
     0
275
    -2
285
     1
 65
     0
276
    -2
286
     1
 66
     0
277
    -2
287
     1
 67
     0
278
    -2
288
     1
 68
     0
279
    -2
289
     1
 69
     0
  7
STANDARD
140
4.5
170
     5
 62
     0
 63
     7
283
     0
274
    -2
284
     1
 64
     0
275
    -2
285
     1
 65
     0
276
    -2
286
     1
 66
     0
277
    -2
287
     1
 67
     0
278
    -2
288
     1
 68
     0
279
    -2
289
     1
 69
     0
  0
VISUALSTYLE
  5
1419
102
{ACAD_REACTORS
330
1413
102
}
330
1413
100
AcDbVisualStyle
  2
2dWireframe
 70
     4
 71
     0
 72
     2
 73
     0
 90
        0
 40
-0.6
 41
-30.0
 62
     5
 63
     7
421
 16777215
 74
     1
 91
        4
 64
     7
 65
   257
 75
     1
175
     1
 42
1.0
 92
        0
 66
   257
 43
1.0
 76
     1
 77
     6
 78
     2
 67
     7
 79
     5
170
     0
171
     0
290
     0
174
     0
 93
        1
 44
0.0
173
     0
291
     0
 45
0.0
1001
ACAD
1000
AcDbSavedByObjectVersion
1070
     0
  0
VISUALSTYLE
  5
141B
102
{ACAD_REACTORS
330
1413
102
}
330
1413
100
AcDbVisualStyle
  2
3D Hidden
 70
     6
 71
     1
 72
     2
 73
     2
 90
        0
 40
-0.6
 41
-30.0
 62
     5
 63
     7
421
 16777215
 74
     2
 91
        2
 64
     7
 65
   257
 75
     2
175
     1
 42
40.0
 92
        0
 66
   257
 43
1.0
 76
     1
 77
     6
 78
     2
 67
     7
 79
     3
170
     0
171
     0
290
     0
174
     0
 93
        1
 44
0.0
173
     0
291
     0
 45
0.0
1001
ACAD
1000
AcDbSavedByObjectVersion
1070
     0
  0
VISUALSTYLE
  5
141A
102
{ACAD_REACTORS
330
1413
102
}
330
1413
100
AcDbVisualStyle
  2
3dWireframe
 70
     5
 71
     0
 72
     2
 73
     0
 90
        0
 40
-0.6
 41
-30.0
 62
     5
 63
     7
421
 16777215
 74
     1
 91
        4
 64
     7
 65
   257
 75
     1
175
     1
 42
1.0
 92
        0
 66
   257
 43
1.0
 76
     1
 77
     6
 78
     2
 67
     7
 79
     5
170
     0
171
     0
290
     0
174
     0
 93
        1
 44
0.0
173
     0
291
     0
 45
0.0
1001
ACAD
1000
AcDbSavedByObjectVersion
1070
     0
  0
VISUALSTYLE
  5
1418
102
{ACAD_REACTORS
330
1413
102
}
330
1413
100
AcDbVisualStyle
  2
Basic
 70
     7
 71
     1
 72
     0
 73
     1
 90
        0
 40
-0.6
 41
-30.0
 62
     5
 63
     7
421
 16777215
 74
     0
 91
        4
 64
     7
 65
   257
 75
     1
175
     1
 42
1.0
 92
        8
 66
     7
 43
1.0
 76
     1
 77
     6
 78
     2
 67
     7
 79
     5
170
     0
171
     0
290
     0
174
     0
 93
        1
 44
0.0
173
     0
291
     1
 45
0.0
1001
ACAD
1000
AcDbSavedByObjectVersion
1070
     0
  0
VISUALSTYLE
  5
141F
102
{ACAD_REACTORS
330
1413
102
}
330
1413
100
AcDbVisualStyle
  2
Brighten
 70
    12
 71
     2
 72
     2
 73
     0
 90
        0
 40
-0.6
 41
-30.0
 62
     5
 63
     7
421
 16777215
 74
     1
 91
        4
 64
     7
 65
   257
 75
     1
175
     1
 42
1.0
 92
        8
 66
     7
 43
1.0
 76
     1
 77
     6
 78
     2
 67
     7
 79
     5
170
     0
171
     0
290
     0
174
     0
 93
        1
 44
50.0
173
     0
291
     1
 45
0.0
1001
ACAD
1000
AcDbSavedByObjectVersion
1070
     0
  0
VISUALSTYLE
  5
1423
102
{ACAD_REACTORS
330
1413
102
}
330
1413
100
AcDbVisualStyle
  2
ColorChange
 70
    16
 71
     2
 72
     2
 73
     3
 90
        0
 40
-0.6
 41
-30.0
 62
     5
 63
     8
421
  8421504
 74
     1
 91
        4
 64
     7
 65
   257
 75
     1
175
     1
 42
1.0
 92
        8
 66
     8
424
  8421504
 43
1.0
 76
     1
 77
     6
 78
     2
 67
     7
 79
     5
170
     0
171
     0
290
     0
174
     0
 93
        1
 44
0.0
173
     0
291
     1
 45
0.0
1001
ACAD
1000
AcDbSavedByObjectVersion
1070
     0
  0
VISUALSTYLE
  5
141C
102
{ACAD_REACTORS
330
1413
102
}
330
1413
100
AcDbVisualStyle
  2
Conceptual
 70
     9
 71
     3
 72
     2
 73
     0
 90
        0
 40
-0.6
 41
-30.0
 62
     5
 63
     7
421
 16777215
 74
     2
 91
        2
 64
     7
 65
   257
 75
     1
175
     1
 42
40.0
 92
        8
 66
     7
 43
1.0
 76
     1
 77
     6
 78
     2
 67
     7
 79
     3
170
     0
171
     0
290
     0
174
     0
 93
        1
 44
0.0
173
     0
291
     0
 45
0.0
1001
ACAD
1000
AcDbSavedByObjectVersion
1070
     0
  0
VISUALSTYLE
  5
141E
102
{ACAD_REACTORS
330
1413
102
}
330
1413
100
AcDbVisualStyle
  2
Dim
 70
    11
 71
     2
 72
     2
 73
     0
 90
        0
 40
-0.6
 41
-30.0
 62
     5
 63
     7
421
 16777215
 74
     1
 91
        4
 64
     7
 65
   257
 75
     1
175
     1
 42
1.0
 92
        8
 66
     7
 43
1.0
 76
     1
 77
     6
 78
     2
 67
     7
 79
     5
170
     0
171
     0
290
     0
174
     0
 93
        1
 44
-50.0
173
     0
291
     1
 45
0.0
1001
ACAD
1000
AcDbSavedByObjectVersion
1070
     0
  0
VISUALSTYLE
  5
1422
102
{ACAD_REACTORS
330
1413
102
}
330
1413
100
AcDbVisualStyle
  2
Facepattern
 70
    15
 71
     2
 72
     2
 73
     0
 90
        0
 40
-0.6
 41
-30.0
 62
     5
 63
     7
421
 16777215
 74
     1
 91
        4
 64
     7
 65
   257
 75
     1
175
     1
 42
1.0
 92
        8
 66
     7
 43
1.0
 76
     1
 77
     6
 78
     2
 67
     7
 79
     5
170
     0
171
     0
290
     0
174
     0
 93
        1
 44
0.0
173
     0
291
     1
 45
0.0
1001
ACAD
1000
AcDbSavedByObjectVersion
1070
     0
  0
VISUALSTYLE
  5
1414
102
{ACAD_REACTORS
330
1413
102
}
330
1413
100
AcDbVisualStyle
  2
Flat
 70
     0
 71
     2
 72
     1
 73
     1
 90
        2
 40
-0.6
 41
30.0
 62
     5
 63
     7
421
 16777215
 74
     0
 91
        4
 64
     7
 65
   257
 75
     1
175
     1
 42
1.0
 92
        8
 66
     7
 43
1.0
 76
     1
 77
     6
 78
     2
 67
     7
 79
     5
170
     0
171
     0
290
     0
174
     0
 93
       13
 44
0.0
173
     0
291
     1
 45
0.0
1001
ACAD
1000
AcDbSavedByObjectVersion
1070
     0
  0
VISUALSTYLE
  5
1415
102
{ACAD_REACTORS
330
1413
102
}
330
1413
100
AcDbVisualStyle
  2
FlatWithEdges
 70
     1
 71
     2
 72
     1
 73
     1
 90
        2
 40
-0.6
 41
30.0
 62
     5
 63
     7
421
 16777215
 74
     1
 91
        4
 64
     7
 65
   257
 75
     1
175
     1
 42
1.0
 92
        0
 66
   257
 43
1.0
 76
     1
 77
     6
 78
     2
 67
     7
 79
     5
170
     0
171
     0
290
     0
174
     0
 93
       13
 44
0.0
173
     0
291
     1
 45
0.0
1001
ACAD
1000
AcDbSavedByObjectVersion
1070
     0
  0
VISUALSTYLE
  5
1416
102
{ACAD_REACTORS
330
1413
102
}
330
1413
100
AcDbVisualStyle
  2
Gouraud
 70
     2
 71
     2
 72
     2
 73
     1
 90
        2
 40
-0.6
 41
30.0
 62
     5
 63
     7
421
 16777215
 74
     0
 91
        4
 64
     7
 65
   257
 75
     1
175
     1
 42
1.0
 92
        0
 66
     7
 43
1.0
 76
     1
 77
     6
 78
     2
 67
     7
 79
     5
170
     0
171
     0
290
     0
174
     0
 93
       13
 44
0.0
173
     0
291
     1
 45
0.0
1001
ACAD
1000
AcDbSavedByObjectVersion
1070
     0
  0
VISUALSTYLE
  5
1417
102
{ACAD_REACTORS
330
1413
102
}
330
1413
100
AcDbVisualStyle
  2
GouraudWithEdges
 70
     3
 71
     2
 72
     2
 73
     1
 90
        2
 40
-0.6
 41
30.0
 62
     5
 63
     7
421
 16777215
 74
     1
 91
        4
 64
     7
 65
   257
 75
     1
175
     1
 42
1.0
 92
        0
 66
   257
 43
1.0
 76
     1
 77
     6
 78
     2
 67
     7
 79
     5
170
     0
171
     0
290
     0
174
     0
 93
       13
 44
0.0
173
     0
291
     1
 45
0.0
1001
ACAD
1000
AcDbSavedByObjectVersion
1070
     0
  0
VISUALSTYLE
  5
1421
102
{ACAD_REACTORS
330
1413
102
}
330
1413
100
AcDbVisualStyle
  2
Linepattern
 70
    14
 71
     2
 72
     2
 73
     0
 90
        0
 40
-0.6
 41
-30.0
 62
     5
 63
     7
421
 16777215
 74
     1
 91
        4
 64
     7
 65
   257
 75
     7
175
     7
 42
1.0
 92
        8
 66
     7
 43
1.0
 76
     1
 77
     6
 78
     2
 67
     7
 79
     5
170
     0
171
     0
290
     0
174
     0
 93
        1
 44
0.0
173
     0
291
     1
 45
0.0
1001
ACAD
1000
AcDbSavedByObjectVersion
1070
     0
  0
VISUALSTYLE
  5
141D
102
{ACAD_REACTORS
330
1413
102
}
330
1413
100
AcDbVisualStyle
  2
Realistic
 70
     8
 71
     2
 72
     2
 73
     0
 90
        0
 40
-0.6
 41
-30.0
 62
     5
 63
     7
421
 16777215
 74
     1
 91
        0
 64
     7
 65
   257
 75
     1
175
     1
 42
1.0
 92
        8
 66
     8
424
  7895160
 43
1.0
 76
     1
 77
     6
 78
     2
 67
     7
 79
     5
170
     0
171
     0
290
     0
174
     0
 93
       13
 44
0.0
173
     0
291
     0
 45
0.0
1001
ACAD
1000
AcDbSavedByObjectVersion
1070
     0
  0
VISUALSTYLE
  5
1420
102
{ACAD_REACTORS
330
1413
102
}
330
1413
100
AcDbVisualStyle
  2
Thicken
 70
    13
 71
     2
 72
     2
 73
     0
 90
        0
 40
-0.6
 41
-30.0
 62
     5
 63
     7
421
 16777215
 74
     1
 91
        4
 64
     7
 65
   257
 75
     1
175
     1
 42
1.0
 92
       12
 66
     7
 43
1.0
 76
     1
 77
     6
 78
     2
 67
     7
 79
     5
170
     0
171
     0
290
     0
174
     0
 93
        1
 44
0.0
173
     0
291
     1
 45
0.0
1001
ACAD
1000
AcDbSavedByObjectVersion
1070
     0
  0
DICTIONARYVAR
  5
145F
102
{ACAD_REACTORS
330
835
102
}
330
835
100
DictionaryVariables
280
     0
  1
1:1
  0
DICTIONARYVAR
  5
145E
102
{ACAD_REACTORS
330
835
102
}
330
835
100
DictionaryVariables
280
     0
  1
STANDARD
  0
DICTIONARYVAR
  5
145D
102
{ACAD_REACTORS
330
835
102
}
330
835
100
DictionaryVariables
280
     0
  1
STANDARD
  0
DICTIONARYVAR
  5
837
102
{ACAD_REACTORS
330
835
102
}
330
835
100
DictionaryVariables
280
     0
  1
1
  0
DICTIONARYVAR
  5
836
102
{ACAD_REACTORS
330
835
102
}
330
835
100
DictionaryVariables
280
     0
  1
1
  0
ACAD_PROXY_OBJECT
  5
7F3
102
{ACAD_REACTORS
330
7F2
102
}
330
7F2
100
AcDbProxyObject
 90
      499
 91
      521
 95
   851991
 70
     0
 93
      118
310
405010040CA904C415CD5B07571058
350
7F4
 94
        0
  0
DICTIONARY
  5
7F8
102
{ACAD_REACTORS
330
7F2
102
}
330
7F2
100
AcDbDictionary
281
     1
  3
ANSI
350
A22
  3
ISO
350
7F9
  0
ACAD_PROXY_OBJECT
  5
7E2
330
0
100
AcDbProxyObject
 90
      499
 91
      508
 95
   851991
 70
     0
 93
      156
310
00010143D050D351505391D5531054925390D49C
330
7DF
 94
        0
  0
ACAD_PROXY_OBJECT
  5
7E3
330
0
100
AcDbProxyObject
 90
      499
 91
      508
 95
   851991
 70
     0
 93
      148
310
000101439050D351531253915054925390D49C
330
7DF
 94
        0
  0
ACAD_PROXY_OBJECT
  5
7E4
330
0
100
AcDbProxyObject
 90
      499
 91
      509
 95
   851991
 70
     0
 93
      156
310
000101439050D35154D6535093D314D25691508C
330
7DF
 94
        0
  0
ACAD_PROXY_OBJECT
  5
7E6
330
0
100
AcDbProxyObject
 90
      499
 91
      511
 95
   851991
 70
     0
 93
      216
310
00010145111A5CDD1A5B9D184818DBDB5C1BDB995B9D1A4C402B0000
330
7DF
330
0
330
0
 94
        0
  0
ACAD_PROXY_OBJECT
  5
7F7
330
0
100
AcDbProxyObject
 90
      499
 91
      523
 95
   851991
 70
     0
 93
      140
310
00010142105350D55494D5110050349534FC
330
7DF
 94
        0
  0
ACAD_PROXY_OBJECT
  5
C28
330
0
100
AcDbProxyObject
 90
      499
 91
      557
 95
   851991
 70
     0
 93
       28
310
0001406C
330
7DF
 94
        0
  0
DICTIONARY
  5
7D9
102
{ACAD_REACTORS
330
7D8
102
}
330
7D8
100
AcDbDictionary
281
     1
  3
DWGSETTINGS
350
7DA
  3
TRANSSETTINGS
350
7DB
  0
ACAD_PROXY_OBJECT
  5
7FA
102
{ACAD_REACTORS
330
7D8
102
}
330
7D8
100
AcDbProxyObject
 90
      499
 91
      525
 95
   851991
 70
     0
 93
    12938
310
41102491013041105357CC1074CA404C504414D5F31439329013241105357CC9054CA404CD04414D5F33419199013441105357CD103466404D504414D5F3540D199013641105357CD90248E404DD04414D5F37411199013841105357CE101466404E504414D5F397F641102324141505357CC4C1074CA408D10505414D5F31
310
3140D19902495041505357CC4C9074C902408C13905414D5F304E41D32902314E41505357CC5390E4CA408C93905414D5F324E41532902334E41505357CCD3906466408D13905414D5F344E40D19902354E41505357CD53903466408D93905414D5F364E40923902374E41505357CDD3904466408E13905414D5F384E40519
310
902394E41505357CE539FD90440CC9053906414D5F31304E41D3290334414E41905357CC4C5390346640D25413906414D5F31324E41D32409044B4C494E41505357D0D3101465094112539193D08414D5F50415245464111942D055241484D3541905357D093D49074C9094115925155D08414D5F56494557534051942D064
310
24548494E4441905357D253959FD90D415514905253105414D5F545240D194250348494441905357D212511074650940D59254D06414D5F56495341D324250650415244494D42505357D410549112535034650941949151911253509414D5F52454644494D4111942553411092139590139CFFFFFFFF415092139594D06424
310
548494E44CFFFFFFFF411093D48C9055241484D3540519411093D48CD055241484D3540923411093D48D5055241484D35CFFFFFFFF4110D0530C90134CFFFFFFFF4110D0530CD0134409234110D0530D5013441D324110D0530DD0134479464110D1539390137CFFFFFFFF4110D15395D0137CFFFFFFFF4110D312539044B4
310
C494ECFFFFFFFF4110D3D38C50130CFFFFFFFF4110D3D38C90131CFFFFFFFF4110D3D38CD0132CFFFFFFFF4110D3D38D10132CFFFFFFFF411111551050134CFFFFFFFF4111125051D0135CFFFFFFFF411112531250135CFFFFFFFF411112535410650415244494DCFFFFFFFF411112535490652454644494DCFFFFFFFF4111
310
91535390138CFFFFFFFF4151915354139013840CFFFFFFFF4151915354D41023441CFFFFFFFF4151915354D5102344140D1941519153559390132CFFFFFFFF4151915355951013240D194112105510D0138CFFFFFFFF411212511390133CFFFFFFFF4112125115D0133CFFFFFFFF411213125390134CFFFFFFFF411213D0D3
310
90137CFFFFFFFF411213D0D5D0137CFFFFFFFF4112539193D04494E464FCFFFFFFFF411311505110135CFFFFFFFF419397D0921395902394ECFFFFFFFF419397D0D3D38C502304ECFFFFFFFF419397D0D3D38C902314ECFFFFFFFF419397D0D3D38CD02324ECFFFFFFFF419397D0D3D38D102324ECFFFFFFFF419397D0D153
310
93902374ECFFFFFFFF419397D0D15395D02374ECFFFFFFFF419397D1125312502354ECFFFFFFFF419397D2105510D02384ECFFFFFFFF419397D2125113902334ECFFFFFFFF419397D2125115D02334ECFFFFFFFF419397D3115051102354ECFFFFFFFF419397D391D25410349504ECFFFFFFFF419397D412105390334414EC
310
FFFFFFFF419397D510D3D3902304ECFFFFFFFF419397D5121312502344ECFFFFFFFF419397D5131153902304ECFFFFFFFF419397D594131250332414ECFFFFFFFF411391D2541024950CFFFFFFFF411410530C9055241484D3540519411410530CD055241484D3540923411410530D5055241484D35CFFFFFFFF4114121053
310
9023441CFFFFFFFF411413D4D390135CFFFFFFFF411490D1D390137CFFFFFFFF411490D1D5D0137CFFFFFFFF4114D09492D0134CFFFFFFFF4114D150D510134CFFFFFFFF4114D6508CD013540923411354D6535013540923411510D3D390130CFFFFFFFF411512131250134CFFFFFFFF411512550C9055241484D354051941
310
1512550CD055241484D3540923411512550D5055241484D35CFFFFFFFF411513115390130CFFFFFFFF415514905253105545241494CCFFFFFFFF411514931250134CFFFFFFFF411516150C5013640D19411516150C9013640D19411516150CD0136CFFFFFFFF411516150D5013641D32411516150DD0136479464115925155
310
D0456494557CFFFFFFFF4115915112103484944CFFFFFFFF4115915115903564953CFFFFFFFF41159413125023241CFFFFFFFF411692569050134CFFFFFFFFAA9FD404FE4290E4C9074C906465054C904465034650248D014651E519FD8C
340
14
340
14
340
14
340
7FB
340
14
340
14
340
14
340
7FC
340
14
340
14
340
7FC
340
7FD
340
14
340
14
340
14
340
14
340
7FB
340
14
340
14
340
14
340
7FC
340
14
340
14
340
7FC
340
7FD
340
14
340
7FE
340
14
340
14
340
14
340
14
340
14
340
7FB
340
14
340
14
340
14
340
13
340
13
340
13
340
13
340
13
340
13
340
13
340
13
340
13
340
7FF
340
13
340
13
340
13
340
13
340
13
340
13
340
13
340
13
340
13
340
13
340
13
340
13
340
13
340
14
340
13
340
13
340
13
340
13
340
800
340
13
340
13
340
7FF
340
13
340
13
340
13
340
13
340
13
340
13
340
13
340
13
340
7FF
340
13
340
13
340
13
340
800
340
13
340
13
340
13
340
13
340
13
340
13
340
13
340
13
340
13
340
13
340
13
340
13
340
13
340
13
340
7FF
340
13
340
13
340
13
340
13
340
13
340
13
340
13
340
13
340
13
340
13
340
13
340
13
340
13
340
13
340
13
340
13
340
13
340
13
340
13
340
13
340
13
340
13
340
803
 94
        0
  0
ACAD_PROXY_OBJECT
  5
82A
102
{ACAD_REACTORS
330
825
102
}
330
825
100
AcDbProxyObject
 90
      499
 91
      541
 95
   851991
 70
     0
 93
      253
310
43D1444494D454E53494F4E2C414D44545F2A5F44494D404A9012A404A9012AC
 94
        0
  0
ACAD_PROXY_OBJECT
  5
829
102
{ACAD_REACTORS
330
825
102
}
330
825
100
AcDbProxyObject
 90
      499
 91
      541
 95
   851991
 70
     0
 93
      181
310
43D012A42D05357D191504B505357CA9012A404A9012AC
 94
        0
  0
ACAD_PROXY_OBJECT
  5
826
102
{ACAD_REACTORS
330
825
102
}
330
825
100
AcDbProxyObject
 90
      499
 91
      541
 95
   851991
 70
     0
 93
      133
310
43D054841544348404A9012A404A9012AC
 94
        0
  0
ACAD_PROXY_OBJECT
  5
827
102
{ACAD_REACTORS
330
825
102
}
330
825
100
AcDbProxyObject
 90
      499
 91
      541
 95
   851991
 70
     0
 93
      549
310
43D044C494E4549CE0B0E138B0A8B4E0B0A8B4E138B105357CE0B105357CE138B0A8B505357CE0B0A8B505357CE139012A404A910494E534552542C535444504152543244C
 94
        0
  0
ACAD_PROXY_OBJECT
  5
82B
102
{ACAD_REACTORS
330
825
102
}
330
825
100
AcDbProxyObject
 90
      499
 91
      541
 95
   851991
 70
     0
 93
      181
310
43D0341524341105357CD5012A404C906494E534552544
 94
        0
  0
ACAD_PROXY_OBJECT
  5
828
102
{ACAD_REACTORS
330
825
102
}
330
825
100
AcDbProxyObject
 90
      499
 91
      541
 95
   851991
 70
     0
 93
     1053
310
43D7841434D46434652414D452C41434D444154554D5441524745542C41434D444154554D49442C41434D57454C4453594D2C41434D5355524653594D2C41434D4645415449442C41434D504152545245462C41434D42414C4C4F4F4E2C414D44544544474553594D2C414D47534352455743414C435441424C45404A9012A
310
404A9012AC
 94
        0
  0
LAYER_INDEX
  5
82E
102
{ACAD_REACTORS
330
82D
102
}
330
82D
100
AcDbIndex
 40
2455402.389819618
100
AcDbLayerIndex
  8
0
360
82F
 90
        0
  8
DISEGNO
360
830
 90
      438
  8
TRATTEGGI
360
831
 90
       38
  8
ASSI
360
832
 90
       54
  8
NORMALI
360
833
 90
       68
  8
DEFPOINTS
360
1205
 90
        0
  0
DICTIONARY
  5
1404
330
1403
100
AcDbDictionary
280
     1
281
     1
  3
ACAD_XREC_ROUNDTRIP
360
1464
  3
BUMPTILE
360
1406
  3
DIFFUSETILE
360
1405
  3
OPACITYTILE
360
1409
  3
REFLECTIONTILE
360
1408
  3
REFRACTIONTILE
360
140A
  3
SPECULARTILE
360
1407
  0
DICTIONARY
  5
13FC
330
13FB
100
AcDbDictionary
280
     1
281
     1
  3
ACAD_XREC_ROUNDTRIP
360
1463
  3
BUMPTILE
360
13FE
  3
DIFFUSETILE
360
13FD
  3
OPACITYTILE
360
1401
  3
REFLECTIONTILE
360
1400
  3
REFRACTIONTILE
360
1402
  3
SPECULARTILE
360
13FF
  0
DICTIONARY
  5
140C
330
140B
100
AcDbDictionary
280
     1
281
     1
  3
ACAD_XREC_ROUNDTRIP
360
1465
  3
BUMPTILE
360
140E
  3
DIFFUSETILE
360
140D
  3
OPACITYTILE
360
1411
  3
REFLECTIONTILE
360
1410
  3
REFRACTIONTILE
360
1412
  3
SPECULARTILE
360
140F
  0
DICTIONARY
  5
1460
330
1426
100
AcDbDictionary
280
     1
281
     1
  3
ACAD_ROUNDTRIP_2008_TABLESTYLE_CELLSTYLEMAP
360
1461
  3
ACAD_XREC_ROUNDTRIP
360
1466
  0
ACAD_PROXY_OBJECT
  5
7F4
102
{ACAD_REACTORS
330
7F3
102
}
330
7F3
100
AcDbProxyObject
 90
      499
 91
      522
 95
   851991
 70
     0
 93
      139
310
057356C1D5C406406AA8FFFFFFFF0AE2404C
330
18
330
0
330
0
 94
        0
  0
ACAD_PROXY_OBJECT
  5
A22
102
{ACAD_REACTORS
330
7F8
102
}
330
7F8
100
AcDbProxyObject
 90
      499
 91
      545
 95
   851991
 70
     0
 93
     2109
310
570B81E85EB51B8BE3FD04414E5349405901409022E07A17AD46E2F8FD2208721C82C6DAA6EAE4CCA8CAF0E8A6E8C88120284A0B1B6A321A329BA3220480A1A82C6DAAECAD8C8D2DCCEA6E8C8812028420B1B6A4B229BA3220480A1682C6DA88C2E8EADAA6E8C88120284A0B1B6A127A6A9BA3220480A2082DAC8E888CAE8C
310
2D2D8A6F2DAA6E8C88120288A0B6B23A29B2B1BA34B7B729BCB6A9BA3220480A2282DAC8E886CADCE8CAE498D2DCCAA6E8C88120285A0B6B23A2737BA32A9BA3220480A1682C682DACE98C2F2A6E8C88120285A0B1A0B6B3A234B6A9BA3220480A2282C682DACE90DED8CA86D0C2E4E8A6E8C88120286A0B1A0B6B3AA34BA3
310
632A9BA3220480A02814
340
878
360
A23
360
A24
360
A25
360
A26
360
A27
360
A28
360
A29
360
A2A
360
A2B
360
A2C
360
A2D
360
A2E
360
A2F
360
A30
 94
        0
  0
ACAD_PROXY_OBJECT
  5
7F9
102
{ACAD_REACTORS
330
7F8
102
}
330
7F8
100
AcDbProxyObject
 90
      499
 91
      524
 95
   851991
 70
     0
 93
     2211
310
5700000000000000C40D0349534F405901409020000000000000310322287A1682DAC8E88AC8CECAA6E8C8812028720B1B6A9BAB9332A32BC3A29BA3220480A1282C6DA8C868CA6E8C88120286A0B1B6ABB2B63234B733A9BA3220480A1082C6DA92C8A6E8C88120285A0B1B6A230BA3AB6A9BA3220480A1282C6DA849E9AA
310
6E8C8812028820B6B23A2232BA30B4B629BCB6A9BA3220480A2282DAC8E8A6CAC6E8D2DEDCA6F2DAA6E8C88120288A0B6B23A21B2B73A32B92634B732A9BA3220480A1682DAC8E89CDEE8CAA6E8C88120285A0B1A0B6B3A630BCA9BA3220480A1682C682DACE88D2DAA6E8C88120288A0B1A0B6B3A437B632A1B430B93A29B
310
A3220480A1A82C682DACEA8D2E8D8CAA6E8C881203204C
340
804
360
805
360
806
360
807
360
808
360
809
360
80A
360
80B
360
80C
360
80D
360
80E
360
80F
360
815
360
816
360
822
360
823
 94
        0
  0
ACAD_PROXY_OBJECT
  5
7DA
102
{ACAD_REACTORS
330
7D9
102
}
330
7D9
100
AcDbProxyObject
 90
      499
 91
      504
 95
   851991
 70
     0
 93
     2396
310
4050B44574753455454494E4753A1286829C8E82A4A482B282A106660F8686AF86C608321A2A720A723A0A849A1ABE1C983E18999AA0C868A9C889282940000000000000488083A1A2A72224A0A9A0A8418983E19183E199820E868A9C8892A6A894000000000000010808321A2A72622A7250000000000000122020C868A9
310
C9E8C8C940000000000000488084A1A624A720A92920ACA0A8418983E19183E19982108698929C8AA8B2A082A0AB098929C8A84A22BA3AAA9A1A0A622A50A0E9882A6A89E849482A02608426A0A5A2AB24A2ABA7E8120CA0A68682988A0C00800010652455649534941501304154D0D0531150540CC4E8C50954494D455354
310
414D504A08EFCA302FE17734141D5915494D253D3905414C4D4B8C0C1107B44574753455454494E4753454E447DC
 94
        0
  0
ACAD_PROXY_OBJECT
  5
7DB
102
{ACAD_REACTORS
330
7D9
102
}
330
7D9
100
AcDbProxyObject
 90
      499
 91
      504
 95
   851991
 70
     0
 93
      852
310
4050D5452414E5353455454494E4753A2488A482AE929C8EA8A4829CA69882A8929E9C0C00800050D4F524947494E414C4C595F4F4E0600400008529A7AAA921A2A620A723A0A81A4AA20A12AAA0A48AA68AA4AC8A0C0080001107B44574753455454494E4753454E447DC
 94
        0
  0
IDBUFFER
  5
82F
330
0
100
AcDbIdBuffer
  0
IDBUFFER
  5
830
330
0
100
AcDbIdBuffer
330
33E
330
33F
330
340
330
341
330
342
330
343
330
344
330
345
330
347
330
348
330
349
330
34A
330
34B
330
34E
330
34F
330
350
330
351
330
352
330
353
330
354
330
355
330
358
330
359
330
35C
330
35D
330
35E
330
363
330
364
330
365
330
366
330
36E
330
36F
330
371
330
374
330
377
330
379
330
37C
330
37F
330
382
330
383
330
38B
330
38C
330
38E
330
393
330
39E
330
39F
330
3A0
330
3A1
330
3A2
330
3A7
330
3A8
330
3B2
330
3B4
330
3B5
330
3B6
330
3B7
330
3B9
330
3BA
330
3BE
330
3BF
330
3C2
330
3C5
330
3C6
330
3C9
330
3CC
330
3CD
330
3CF
330
3D0
330
3D3
330
3D4
330
3D5
330
3D8
330
3DE
330
3DF
330
3E0
330
3E1
330
3E2
330
3E4
330
3E6
330
3E7
330
3E8
330
3EB
330
3EC
330
3EE
330
3EF
330
3F0
330
3F1
330
3F2
330
3F3
330
3F4
330
3F6
330
3F8
330
3F9
330
3FB
330
3FD
330
400
330
402
330
403
330
407
330
40A
330
40B
330
40C
330
40E
330
40F
330
413
330
415
330
416
330
417
330
419
330
41A
330
41B
330
41C
330
41D
330
41E
330
420
330
421
330
422
330
423
330
424
330
425
330
426
330
427
330
42B
330
42C
330
42D
330
42E
330
42F
330
432
330
436
330
437
330
438
330
439
330
43C
330
43F
330
440
330
442
330
447
330
448
330
449
330
44C
330
452
330
453
330
456
330
459
330
45A
330
464
330
467
330
468
330
46B
330
46E
330
471
330
472
330
473
330
48D
330
48E
330
48F
330
490
330
491
330
492
330
496
330
499
330
4A0
330
4A1
330
4A2
330
4A7
330
4A8
330
4AA
330
A38
330
A39
330
A3A
330
A3B
330
A3C
330
A3D
330
A42
330
A43
330
A44
330
A47
330
A48
330
A56
330
A58
330
A59
330
A5A
330
A5B
330
A5C
330
A5D
330
A5E
330
A5F
330
A60
330
A61
330
A62
330
A63
330
A64
330
A66
330
A67
330
A68
330
A69
330
A6A
330
A6B
330
A6C
330
A6D
330
A6E
330
A6F
330
A77
330
A78
330
A79
330
A7A
330
A7B
330
A7C
330
A7D
330
A7E
330
A7F
330
A81
330
A82
330
A83
330
A86
330
A87
330
A88
330
A89
330
A8A
330
A8B
330
A8D
330
A8E
330
A8F
330
A90
330
A91
330
A92
330
A93
330
A94
330
A95
330
A96
330
A97
330
A98
330
A99
330
A9C
330
A9D
330
A9E
330
A9F
330
AA1
330
AA2
330
AA4
330
AA8
330
AA9
330
AAA
330
AAB
330
AAC
330
AAD
330
AAE
330
AAF
330
AB0
330
AB1
330
AB2
330
AB3
330
AB4
330
AB5
330
AB6
330
AB7
330
AB8
330
AB9
330
ABA
330
ABB
330
ABC
330
ABD
330
ABE
330
ABF
330
AC0
330
AC1
330
AC2
330
AC3
330
AC4
330
AC5
330
AC6
330
AC7
330
AC8
330
AC9
330
ACA
330
ACB
330
ACC
330
ACD
330
ACE
330
ACF
330
AD0
330
AD1
330
AD2
330
AD3
330
AD4
330
AD5
330
AD6
330
AD7
330
AD8
330
AD9
330
ADA
330
ADB
330
ADC
330
ADE
330
ADF
330
AE0
330
AE2
330
AE3
330
AE4
330
AE5
330
AE6
330
AE7
330
AE8
330
AE9
330
AEA
330
AEB
330
AEC
330
AED
330
AEE
330
AEF
330
AF0
330
AF1
330
AF2
330
AF3
330
AF4
330
AF7
330
AF9
330
AFC
330
AFF
330
B03
330
B09
330
B11
330
B16
330
B17
330
B19
330
B1A
330
B1B
330
B1C
330
B1F
330
B20
330
B21
330
B22
330
B23
330
B24
330
B25
330
B26
330
B27
330
B28
330
B2C
330
B2D
330
B2E
330
B30
330
B31
330
B32
330
B33
330
B34
330
B35
330
B36
330
B37
330
B38
330
B39
330
B3A
330
B3C
330
B3F
330
B40
330
B41
330
B42
330
B55
330
B56
330
B57
330
B58
330
B6C
330
B6D
330
B6E
330
B73
330
B74
330
B75
330
B7A
330
B7E
330
B7F
330
B82
330
B83
330
B84
330
B85
330
B86
330
B88
330
B89
330
B8A
330
B8B
330
B8C
330
B8F
330
B90
330
B91
330
B92
330
B93
330
B94
330
B95
330
B96
330
B99
330
B9A
330
BA1
330
BA2
330
BA3
330
BA4
330
BA5
330
BA6
330
BA7
330
BA8
330
BAB
330
BAC
330
BAD
330
BAE
330
BAF
330
BB0
330
BB1
330
BB2
330
BB3
330
BB4
330
BB5
330
BB7
330
BB8
330
BBB
330
BBC
330
BBD
330
BBE
330
BBF
330
BC0
330
BC1
330
BC2
330
BC3
330
BC4
330
ECE
330
ECF
330
ED5
330
ED6
330
1009
330
100D
330
1034
330
1037
330
1039
330
1061
330
1063
330
108D
330
108E
330
108F
330
13E3
330
13E4
330
13E5
  0
IDBUFFER
  5
831
330
0
100
AcDbIdBuffer
330
373
330
39D
330
441
330
443
330
445
330
446
330
44D
330
44E
330
44F
330
450
330
451
330
474
330
475
330
477
330
478
330
479
330
47A
330
47B
330
481
330
482
330
483
330
484
330
485
330
486
330
487
330
489
330
48A
330
48B
330
48C
330
494
330
495
330
497
330
498
330
49A
330
49B
330
49C
330
49D
330
49E
  0
IDBUFFER
  5
832
330
0
100
AcDbIdBuffer
330
335
330
336
330
34D
330
361
330
362
330
36D
330
380
330
381
330
38A
330
38D
330
390
330
394
330
398
330
3A4
330
3B3
330
3BD
330
3C1
330
3C7
330
3C8
330
3CB
330
3CE
330
3DD
330
3E3
330
3E5
330
405
330
406
330
444
330
455
330
458
330
45E
330
45F
330
465
330
466
330
476
330
47D
330
480
330
488
330
493
330
A3E
330
A57
330
A65
330
AA5
330
ADD
330
AE1
330
1218
330
13B6
330
13BA
330
13BE
330
13C1
330
13C6
330
13C9
330
13CC
330
13CD
330
13E2
  0
IDBUFFER
  5
833
330
0
100
AcDbIdBuffer
330
346
330
356
330
357
330
37A
330
37B
330
37D
330
37E
330
387
330
388
330
389
330
391
330
392
330
395
330
396
330
397
330
3A5
330
3A6
330
3A9
330
3AA
330
3AB
330
3AC
330
3AD
330
3AE
330
3C0
330
3C3
330
3C4
330
3F5
330
3F7
330
414
330
428
330
429
330
430
330
431
330
434
330
435
330
44A
330
44B
330
457
330
45B
330
45C
330
4A3
330
4A4
330
4A5
330
4A6
330
A45
330
A80
330
A84
330
A9B
330
AFB
330
AFE
330
B12
330
B18
330
B3B
330
B7C
330
B7D
330
B80
330
B81
330
B97
330
B98
330
B9F
330
BA0
330
BA9
330
BAA
330
BB9
330
BBA
330
1090
330
109D
330
10A9
  0
IDBUFFER
  5
1205
330
0
100
AcDbIdBuffer
  0
XRECORD
  5
1464
102
{ACAD_REACTORS
330
1404
102
}
330
1404
100
AcDbXrecord
280
     1
102
MATERIAL
148
0.0
149
0.0
149
0.0
 93
        0
 94
      127
282
     0
 72
     0
 77
     0
171
     0
175
     0
179
     0
273
     0
  0
XRECORD
  5
1406
102
{ACAD_REACTORS
330
1404
102
}
330
1404
100
AcDbXrecord
280
     1
270
     1
271
     1
  0
XRECORD
  5
1405
102
{ACAD_REACTORS
330
1404
102
}
330
1404
100
AcDbXrecord
280
     1
270
     1
271
     1
  0
XRECORD
  5
1409
102
{ACAD_REACTORS
330
1404
102
}
330
1404
100
AcDbXrecord
280
     1
270
     1
271
     1
  0
XRECORD
  5
1408
102
{ACAD_REACTORS
330
1404
102
}
330
1404
100
AcDbXrecord
280
     1
270
     1
271
     1
  0
XRECORD
  5
140A
102
{ACAD_REACTORS
330
1404
102
}
330
1404
100
AcDbXrecord
280
     1
270
     1
271
     1
  0
XRECORD
  5
1407
102
{ACAD_REACTORS
330
1404
102
}
330
1404
100
AcDbXrecord
280
     1
270
     1
271
     1
  0
XRECORD
  5
1463
102
{ACAD_REACTORS
330
13FC
102
}
330
13FC
100
AcDbXrecord
280
     1
102
MATERIAL
148
0.0
149
0.0
149
0.0
 93
        0
 94
      127
282
     0
 72
     0
 77
     0
171
     0
175
     0
179
     0
273
     0
  0
XRECORD
  5
13FE
102
{ACAD_REACTORS
330
13FC
102
}
330
13FC
100
AcDbXrecord
280
     1
270
     1
271
     1
  0
XRECORD
  5
13FD
102
{ACAD_REACTORS
330
13FC
102
}
330
13FC
100
AcDbXrecord
280
     1
270
     1
271
     1
  0
XRECORD
  5
1401
102
{ACAD_REACTORS
330
13FC
102
}
330
13FC
100
AcDbXrecord
280
     1
270
     1
271
     1
  0
XRECORD
  5
1400
102
{ACAD_REACTORS
330
13FC
102
}
330
13FC
100
AcDbXrecord
280
     1
270
     1
271
     1
  0
XRECORD
  5
1402
102
{ACAD_REACTORS
330
13FC
102
}
330
13FC
100
AcDbXrecord
280
     1
270
     1
271
     1
  0
XRECORD
  5
13FF
102
{ACAD_REACTORS
330
13FC
102
}
330
13FC
100
AcDbXrecord
280
     1
270
     1
271
     1
  0
XRECORD
  5
1465
102
{ACAD_REACTORS
330
140C
102
}
330
140C
100
AcDbXrecord
280
     1
102
MATERIAL
148
0.0
149
0.0
149
0.0
 93
        0
 94
      127
282
     0
 72
     0
 77
     0
171
     0
175
     0
179
     0
273
     0
  0
XRECORD
  5
140E
102
{ACAD_REACTORS
330
140C
102
}
330
140C
100
AcDbXrecord
280
     1
270
     1
271
     1
  0
XRECORD
  5
140D
102
{ACAD_REACTORS
330
140C
102
}
330
140C
100
AcDbXrecord
280
     1
270
     1
271
     1
  0
XRECORD
  5
1411
102
{ACAD_REACTORS
330
140C
102
}
330
140C
100
AcDbXrecord
280
     1
270
     1
271
     1
  0
XRECORD
  5
1410
102
{ACAD_REACTORS
330
140C
102
}
330
140C
100
AcDbXrecord
280
     1
270
     1
271
     1
  0
XRECORD
  5
1412
102
{ACAD_REACTORS
330
140C
102
}
330
140C
100
AcDbXrecord
280
     1
270
     1
271
     1
  0
XRECORD
  5
140F
102
{ACAD_REACTORS
330
140C
102
}
330
140C
100
AcDbXrecord
280
     1
270
     1
271
     1
  0
CELLSTYLEMAP
  5
1461
102
{ACAD_REACTORS
330
1460
102
}
330
1460
100
AcDbCellStyleMap
 90
        3
300
CELLSTYLE
  1
TABLEFORMAT_BEGIN
 90
        5
170
     1
 91
        0
 92
    32768
 62
   257
 93
        1
300
CONTENTFORMAT
  1
CONTENTFORMAT_BEGIN
 90
        0
 91
        0
 92
      512
 93
        0
300

 40
0.0
140
1.0
 94
        5
 62
     0
340
F
144
6.0
309
CONTENTFORMAT_END
171
     1
301
MARGIN
  1
CELLMARGIN_BEGIN
 40
1.5
 40
1.5
 40
1.5
 40
1.5
 40
4.5
 40
4.5
309
CELLMARGIN_END
 94
        6
 95
        1
302
GRIDFORMAT
  1
GRIDFORMAT_BEGIN
 90
        0
 91
        1
 62
     0
 92
       -2
340
0
 93
        0
 40
1.125
309
GRIDFORMAT_END
 95
        2
302
GRIDFORMAT
  1
GRIDFORMAT_BEGIN
 90
        0
 91
        1
 62
     0
 92
       -2
340
0
 93
        0
 40
1.125
309
GRIDFORMAT_END
 95
        4
302
GRIDFORMAT
  1
GRIDFORMAT_BEGIN
 90
        0
 91
        1
 62
     0
 92
       -2
340
0
 93
        0
 40
1.125
309
GRIDFORMAT_END
 95
        8
302
GRIDFORMAT
  1
GRIDFORMAT_BEGIN
 90
        0
 91
        1
 62
     0
 92
       -2
340
0
 93
        0
 40
1.125
309
GRIDFORMAT_END
 95
       16
302
GRIDFORMAT
  1
GRIDFORMAT_BEGIN
 90
        0
 91
        1
 62
     0
 92
       -2
340
0
 93
        0
 40
1.125
309
GRIDFORMAT_END
 95
       32
302
GRIDFORMAT
  1
GRIDFORMAT_BEGIN
 90
        0
 91
        1
 62
     0
 92
       -2
340
0
 93
        0
 40
1.125
309
GRIDFORMAT_END
309
TABLEFORMAT_END
  1
CELLSTYLE_BEGIN
 90
        1
 91
        1
300
_TITLE
309
CELLSTYLE_END
300
CELLSTYLE
  1
TABLEFORMAT_BEGIN
 90
        5
170
     1
 91
        0
 92
        0
 62
   257
 93
        1
300
CONTENTFORMAT
  1
CONTENTFORMAT_BEGIN
 90
        0
 91
        0
 92
      512
 93
        0
300

 40
0.0
140
1.0
 94
        5
 62
     0
340
F
144
4.5
309
CONTENTFORMAT_END
171
     1
301
MARGIN
  1
CELLMARGIN_BEGIN
 40
1.5
 40
1.5
 40
1.5
 40
1.5
 40
4.5
 40
4.5
309
CELLMARGIN_END
 94
        6
 95
        1
302
GRIDFORMAT
  1
GRIDFORMAT_BEGIN
 90
        0
 91
        1
 62
     0
 92
       -2
340
0
 93
        0
 40
1.125
309
GRIDFORMAT_END
 95
        2
302
GRIDFORMAT
  1
GRIDFORMAT_BEGIN
 90
        0
 91
        1
 62
     0
 92
       -2
340
0
 93
        0
 40
1.125
309
GRIDFORMAT_END
 95
        4
302
GRIDFORMAT
  1
GRIDFORMAT_BEGIN
 90
        0
 91
        1
 62
     0
 92
       -2
340
0
 93
        0
 40
1.125
309
GRIDFORMAT_END
 95
        8
302
GRIDFORMAT
  1
GRIDFORMAT_BEGIN
 90
        0
 91
        1
 62
     0
 92
       -2
340
0
 93
        0
 40
1.125
309
GRIDFORMAT_END
 95
       16
302
GRIDFORMAT
  1
GRIDFORMAT_BEGIN
 90
        0
 91
        1
 62
     0
 92
       -2
340
0
 93
        0
 40
1.125
309
GRIDFORMAT_END
 95
       32
302
GRIDFORMAT
  1
GRIDFORMAT_BEGIN
 90
        0
 91
        1
 62
     0
 92
       -2
340
0
 93
        0
 40
1.125
309
GRIDFORMAT_END
309
TABLEFORMAT_END
  1
CELLSTYLE_BEGIN
 90
        2
 91
        1
300
_HEADER
309
CELLSTYLE_END
300
CELLSTYLE
  1
TABLEFORMAT_BEGIN
 90
        5
170
     1
 91
        0
 92
        0
 62
   257
 93
        1
300
CONTENTFORMAT
  1
CONTENTFORMAT_BEGIN
 90
        0
 91
        0
 92
      512
 93
        0
300

 40
0.0
140
1.0
 94
        2
 62
     0
340
F
144
4.5
309
CONTENTFORMAT_END
171
     1
301
MARGIN
  1
CELLMARGIN_BEGIN
 40
1.5
 40
1.5
 40
1.5
 40
1.5
 40
4.5
 40
4.5
309
CELLMARGIN_END
 94
        6
 95
        1
302
GRIDFORMAT
  1
GRIDFORMAT_BEGIN
 90
        0
 91
        1
 62
     0
 92
       -2
340
0
 93
        0
 40
1.125
309
GRIDFORMAT_END
 95
        2
302
GRIDFORMAT
  1
GRIDFORMAT_BEGIN
 90
        0
 91
        1
 62
     0
 92
       -2
340
0
 93
        0
 40
1.125
309
GRIDFORMAT_END
 95
        4
302
GRIDFORMAT
  1
GRIDFORMAT_BEGIN
 90
        0
 91
        1
 62
     0
 92
       -2
340
0
 93
        0
 40
1.125
309
GRIDFORMAT_END
 95
        8
302
GRIDFORMAT
  1
GRIDFORMAT_BEGIN
 90
        0
 91
        1
 62
     0
 92
       -2
340
0
 93
        0
 40
1.125
309
GRIDFORMAT_END
 95
       16
302
GRIDFORMAT
  1
GRIDFORMAT_BEGIN
 90
        0
 91
        1
 62
     0
 92
       -2
340
0
 93
        0
 40
1.125
309
GRIDFORMAT_END
 95
       32
302
GRIDFORMAT
  1
GRIDFORMAT_BEGIN
 90
        0
 91
        1
 62
     0
 92
       -2
340
0
 93
        0
 40
1.125
309
GRIDFORMAT_END
309
TABLEFORMAT_END
  1
CELLSTYLE_BEGIN
 90
        3
 91
        2
300
_DATA
309
CELLSTYLE_END
  0
XRECORD
  5
1466
102
{ACAD_REACTORS
330
1460
102
}
330
1460
100
AcDbXrecord
280
     1
102
ACAD_ROUNDTRIP_PRE2007_TABLESTYLE
 90
      512
 91
        0
  1

 92
      512
 93
        0
  2

 94
      512
 95
        0
  3

  0
ACAD_PROXY_OBJECT
  5
A23
330
A22
100
AcDbProxyObject
 90
      499
 91
      546
 95
   851991
 70
     0
 93
       96
310
57020E80A0280A0280A02808CC
 94
        0
  0
ACAD_PROXY_OBJECT
  5
A24
330
A22
100
AcDbProxyObject
 90
      499
 91
      547
 95
   851991
 70
     0
 93
      332
310
5710E405014050140501405014050140501405014250140501405014050140501200000000000000040C
340
879
 94
        0
  0
ACAD_PROXY_OBJECT
  5
A25
330
A22
100
AcDbProxyObject
 90
      499
 91
      548
 95
   851991
 70
     0
 93
      402
310
570C199999999999E99F91F405014050140501405014050140501405014050140501405014050140501405014050140501404C
340
0
 94
        0
  0
ACAD_PROXY_OBJECT
  5
A26
330
A22
100
AcDbProxyObject
 90
      499
 91
      549
 95
   851991
 70
     0
 93
       10
310
570C
 94
        0
  0
ACAD_PROXY_OBJECT
  5
A27
330
A22
100
AcDbProxyObject
 90
      499
 91
      550
 95
   851991
 70
     0
 93
      223
310
572290EA22A7D90F49F9353333333333727F44D4CCCCCCCCCDC9FA04
340
870
340
871
 94
        0
  0
ACAD_PROXY_OBJECT
  5
A28
330
A22
100
AcDbProxyObject
 90
      499
 91
      551
 95
   851991
 70
     0
 93
    12881
310
5710E4112551153501411413D4CB901405014069011349A4F2590CB64FD3347454E545241434F2C4954412C302C504F532E2C47454E54524154582C25732C2847454E4D53472067656E647767203232322940690120281A8AA2CA0281A8AA602028120280A03202269349E4B2196C9FA648E8A9CA8A482869E5892A8825860
310
58A2A980588E8A9CA8A482A8B0584AE658508E8A9C9AA68E40CECADCC8EECE406464665280D202405044E414D45405044E4F4D454051C40640A8BA5C2E97CBE502404CD1D15395149050D3CB1255104B0C0B1393D3514B11D15395149055160B095CCB0A11D1539354D1C819D95B991DD9C80C8C8D8A50190B3D424C4F434B
310
3A4E414D4540480A0A888AA686A480A16888AA686A492B4929E9C8A80A3A80C81D10782C06030180C809D23A2A72A2920A1A79624AA209618162222A9A1A924AD24A7A7229623A2A72A2920AA2C1612B9961423A2A726A9A39033B2B7323BB39019189B94A024809014214D51053911054911014214D510539110549110147
310
501904A383BFDFEFF5FBFCFD3747454E545241434F2C4954412C302C5354414E444152442C47454E54524154582C25732C2847454E4D53472067656E64776720323138294049012028426A0AA22A924A0A620284A6A0AA22A924A0A622A028EA0320B41416D838E9017D9FA708E8A9CA8A482869E5892A8825860589A82A88
310
AA49282988A588E8A9CA8A482A8B0584AE658508E8A9C9AA68E40CECADCC8EECE406464625280D202405044E4F5445405044E4F54414051D40641A8BA5C2E97CBE5F23F4CD1D15395149050D3CB1255104B0C0B1393D5104B11D15395149055160B095CCB0A11D1539354D1C819D95B991DD9C80C8C8D4A501A40480A0CAC8
310
A9C889EA480A128C9EA49C92A89EA48A80A3A80C83D174B85D2F97CBE47E9C23A2A72A2920A1A79624AA209618162327A92724AA27A9229623A2A72A2920AA2C1612B9961423A2A726A9A39033B2B7323BB39019191A14A0348090141911154D0D48C90143511154D0D492569253D391480C90147501908A20F0580C060301
310
9013B47454E545241434F2C4954412C302C4445534352495A494F4E4520322C47454E54524154582C25732C2847454E4D53472067656E6477672033362940490120284A9AA20A72220A922192028529AA20A72220A92210192028EA0321347077FBFDFEBF7F9FA728E8A9CA8A482869E5892A882586058A6A8829C8882A488
310
4064588E8A9CA8A482A8B0584AE658508E8A9C9AA68E40CECADCC8EECE4064646052809202405094D4154455249414C324050B4D4154455249414C4520324051D40642A8282DB071D202FB3F4E51D15395149050D3CB1255104B0C0B135055115492505311480C8B11D15395149055160B095CCB0A11D1539354D1C819D95B
310
991DD9C80D0C0A501240480A089A82A6A680A0A9A82A6A68280A3A80A0485A0681174B85D2F97CBE47E99A3A2A72A2920A1A79624AA2096181626A0A9A9A09623A2A72A2920AA2C1612B9961423A2A726A9A39033B2B7323BB3901A1914A024809014154149250D150141941491569693D01475014090C409022E970BA5F2F
310
97C8FD3447454E545241434F2C4954412C302C5052455A5A4F2C47454E54524154582C25732C2847454E4D53472067656E6477672034332940490120281A224A6A028326A4A9AAA920A028EA028121A81A045D2E174BE5F2F91FA688E8A9CA8A482869E5892A8825860589A92A6AAA482588E8A9CA8A482A8B0584AE658508
310
E8A9C9AA68E40CECADCC8EECE406868528092024050E441022E07A17AD46E338FD1E004062B355AAD56AB7D8FCACD56AB55AADF63F41CF4F125511534F9014062B355AAD56AB7D8FCACD56AB55AADF63F41CF4F125511534F9014062431F8FC5E0F3B8FC90C7E3F1783CEE3F41CF4F125511534F9014062431F8FC5E0F3B8F
310
C90C7E3F1783CEE3F41CF4F125511534F90140A404ACD56AB55AADF63F2B355AAD56AB7D8FD073D3C4954454D3E405063D3C5154593E405018ACD56AB55AADF63F2B355AAD56AB7D8FD073D3C4954454D3E40640400ACD56AB55AADF63F2B355AAD56AB7D8FE8800000000000002081A0881A068120480A032208521122080
310
D21480D211480A1485214852050000000000003C2FC000000000000F0BF4050241C3BDF4F8D976EA23F0EF7D3E365DBA88FCB81E85EB51B8BE3FC80D069014090541D06901A5C0F42F5A8DC5F1FA0483A048098A0280CC
340
0
340
0
 94
        0
  0
ACAD_PROXY_OBJECT
  5
A29
330
A22
100
AcDbProxyObject
 90
      499
 91
      552
 95
   851991
 70
     0
 93
      960
310
5700B81E85EB51B8CE3F4BCF511155105253080F11115510525317D3105091530F971414D0D05311480F11115510525317D05094D4D0D053114F92341C9A9999999999B93F26A666666666724FC000000000000E03F40000000000000040000000000000051000000000000002440478B81E85EB51B8CE3F00
340
86C
340
878
 94
        0
  0
ACAD_PROXY_OBJECT
  5
A2A
330
A22
100
AcDbProxyObject
 90
      499
 91
      553
 95
   851991
 70
     0
 93
      745
310
570031703D0BD6A3719C7E999EA9A2A1AA24A7A7101E29A2A1AA24A7A72FA620A122A62FA324A929AA1F169E29A2A1AA24A7A72FA620A122A62FA620A9AA1F1353333333333B27EFF41C8823C4D4CCCCCCCCCEC9FC5C0F42F5A8DC671FCC
340
86C
340
878
 94
        0
  0
ACAD_PROXY_OBJECT
  5
A2B
330
A22
100
AcDbProxyObject
 90
      499
 91
      554
 95
   851991
 70
     0
 93
      279
310
5702B8716D9CEF7C33F0A5723F0BD4A2F0FC295C8FC2F528BC3FA199999999999F99FC
 94
        0
  0
ACAD_PROXY_OBJECT
  5
A2C
330
A22
100
AcDbProxyObject
 90
      499
 91
      555
 95
   851991
 70
     0
 93
     5890
310
571084050B90142A40502405094D6F64656C6C6F2031405EA3D3C696628657175616C28486F6C653A7461707065642C223022292C222525632220486F6C653A6469612C20486F6C653A6E6F6D696E616C2022202220696628657175616C28486F6C653A756E6974732C223122292C2278222C222D22292022202220486F6C6
310
53A706974636864657363293E207B5C46414D4744543B787D203C696628657175616C28486F6C653A7465726D696E6174696F6E2C223022292C486F6C653A64657074682C225448525522293E5C507B5C46414D4744543B767D2525633C486F6C653A63746469613E207B5C46414D4744543B787D203C486F6C653A6374646
310
57074683E40640503405094D6F64656C6C6F2031405E33D3C696628657175616C28486F6C653A7461707065642C223022292C222525632220486F6C653A6469612C20486F6C653A6E6F6D696E616C2022202220696628657175616C28486F6C653A756E6974732C223122292C2278222C222D22292022202220486F6C653A7
310
06974636864657363293E207B5C46414D4744543B787D203C696628657175616C28486F6C653A7465726D696E6174696F6E2C223022292C486F6C653A64657074682C225448525522293E5C507B5C46414D4744543B777D2525633C486F6C653A63746469613E2058203C486F6C653A6374616E676C653E252564406405014
310
05094D6F64656C6C6F2031405B43D3C696628657175616C28486F6C653A7461707065642C223022292C222525632220486F6C653A6469612C20486F6C653A6E6F6D696E616C2022202220696628657175616C28486F6C653A756E6974732C223122292C2278222C222D22292022202220486F6C653A7069746368646573632
310
93E5C507B5C46414D4744543B787D203C696628657175616C28486F6C653A7465726D696E6174696F6E2C223022292C486F6C653A64657074682C225448525522293E4064051E405094D6F64656C6C6F20314050C3D3C535444503A444553433E40640515A8C
 94
        0
  0
ACAD_PROXY_OBJECT
  5
A2D
330
A22
100
AcDbProxyObject
 90
      499
 91
      537
 95
   851991
 70
     0
 93
       20
310
57101C
340
0
 94
        0
  0
ACAD_PROXY_OBJECT
  5
A2E
330
A22
100
AcDbProxyObject
 90
      499
 91
      538
 95
   851991
 70
     0
 93
      258
310
57102000000000000380FC000000000000E03F408F0F9023C3E40DB18CCCFFFF8C
340
87B
340
0
340
0
340
87C
340
87D
340
0
340
87E
340
87F
340
880
340
0
 94
        0
  0
ACAD_PROXY_OBJECT
  5
A2F
330
A22
100
AcDbProxyObject
 90
      499
 91
      556
 95
   851991
 70
     0
 93
    13409
310
5711A023FFFFFFFD010300002E07A17AD46E2F8FC09010300002E07A17AD46E2F8FC080511454C454E434F20434F4F5244494E415445015011D15395149050D3CB1255104B0C0B1153115390D3C810D3D3D49112539055114B11D15395149055160B095CCB0A11D1539354D1C819D95B991A5B5E880CCC0A78000C00000000
310
0000000000000000000000007B14AE47E17AA43F2E07A17AD46E2F8FD021EC52B91F85EA90FCB81E85EB51B8BE3F40A014315105091531310481193D4924053B47454E545241434F2C4954412C302C544142454C4C4120464F52492C47454E54524154582C25732C2847454E4D53472067656E64696D7A20333129E0003000
310
000000000000000000000000000001EC52B91F85EA90FCB81E85EB51B8BE3F4087B14AE47E17AA43F2E07A17AD46E2F8FD0290B4410F4450240D04415014391244D05449074510C4350F000141D3D49251D253914053547454E545241434F2C4954412C302C4F524947494E452C47454E54524154582C25732C2847454E4D5
310
3472067656E64696D7A20312900010105002214000283A7A924A3A4A72280A6A8E8A9CA8A482869E5892A8825860589EA4928E929C8A588E8A9CA8A482A8B0584AE658508E8A9C9AA68E40CECADCC8D2DAF4406252000202080043E8000504464F524F014C91D15395149050D3CB1255104B0C0B1193D493CB11D153951490
310
55160B095CCB0A11D1539354D1C819D95B991A5B5E880C8A405163D3C486F6C654974656D3E3C486F6C65496E6465783E010104002234000280AC00A5E8E8A9CA8A482869E5892A882586058B0588E8A9CA8A482A8B0584AE658508E8A9C9AA68E40CECADCC8D2DAF4406652000202000040A800050159014BD1D153951490
310
50D3CB1255104B0C0B164B11D15395149055160B095CCB0A11D1539354D1C819D95B991A5B5E880D0A4000404000081D0000A02A40297A3A2A72A2920A1A79624AA20961816291623A2A72A2920AA2C1612B9961423A2A726A9A39033B2B73234B6BD101B148000808000104A000141954ACC0D0D0D0053447454E54524143
310
4F2C4954412C302C552B303434342C47454E54524154582C25732C2847454E4D53472067656E64696D7A203729000101030020B40002822827A99700A668E8A9CA8A482869E5892A882586058A09EA65C588E8A9CA8A482A8B0584AE658508E8A9C9AA68E40CECADCC8D2DAF4406268520002020A004068000506494E44494
310
345014D51D15395149050D3CB1255104B0C0B1253911250D14B11D15395149055160B095CCB0A11D1539354D1C819D95B991A5B5E880C4D4A400040414008750000A088C9EA49E0299A3A2A72A2920A1A79624AA209618162327A9279623A2A72A2920AA2C1612B9961423A2A726A9A39033B2B73234B6BD10189B14800080
310
8200112A000142D253911250D1481193D493C053A47454E545241434F2C4954412C302C494E4449434520464F524F2C47454E54524154582C25732C2847454E4D53472067656E64696D7A20313729000101050022740002819292A180A628E8A9CA8A482869E5892A8825860584A4A86588E8A9CA8A482A8B0584AE658508E
310
8A9C9AA68E40CECADCC8D2DAF4407052000202020041E80005035154C0014C91D15395149050D3CB1255104B0C0B1455300B11D15395149055160B095CCB0A11D1539354D1C819D95B991A5B5E880C4E4A400040418008A50000A16888AA686A492B4929E9C8A029D23A2A72A2920A1A79624AA209618162222A9A1A924AD2
310
4A7A7229623A2A72A2920AA2C1612B9961423A2A726A9A39033B2B73234B6BD10191814800080020010CA00014214D51053911054910053747454E545241434F2C4954412C302C5354414E444152442C47454E54524154582C25732C2847454E4D53472067656E64696D7A20323129000100040021B4878030026A66666666
310
67A4FE064D4CCCCCCCCCF49FC049A9999999999E93F809353333333333D27F0226A6666666667A4FE044D4CCCCCCCCCF49FC009A9999999999D93F801353333333333D27F0026A6666666667A4FE004D4CCCCCCCCCF49FC0D819703D0BD6A371BC7F03000000000000001020633B333333333032050F006004D4CCCCCCCCCF
310
49FC0C9A9999999999E93F819353333333333D27F0326A6666666667A4FE064D4CCCCCCCCCF49FC0C9A9999999999E93F801353333333333B27F0026A6666666667A4FE064D4CCCCCCCCCF49FC009A9999999999E93F81B032E07A17AD46E378FE06000000000000002040C6766666666660640A088800000021E000000890
310
000002260000008220E00020089000000206000200810000804C
340
0
340
0
340
0
340
0
 94
        0
  0
ACAD_PROXY_OBJECT
  5
A30
330
A22
100
AcDbProxyObject
 90
      499
 91
      540
 95
   851991
 70
     0
 93
     5766
310
5719741105394D2506414E53495F4342905394D257D512551554D15414E53495F54525F5265766973696F6E6C697374614191243202831372E307832322E30706F6C6C2E2941905394D257D0D1246202832382E307834302E30706F6C6C2E2941905394D257D1911412028382E357831312E30706F6C6C2E2941905394D257
310
D051242202831312E307831372E30706F6C6C2E2941905394D257D091244202832322E307833342E30706F6C6C2E2941905394D257D111245202833342E307834342E30706F6C6C2E2941905394D257D150544505394D24810D85C9D1A59DB1A5BC81050D0C414E53495F5449544C4541434310D85C9D1A59DB1A5BC81554D
310
0A414E53495F544954555344105394D24810D85C9D1A59DB1A5BC81050B414E53495F5449544C454144105394D24810D85C9D1A59DB1A5BC81110B414E53495F5449544C454444505394D24810D85C9D1A59DB1A5BC81110D0C414E53495F5449544C45444342116456C656E636F207265766973696F6E6920445F54525F45
310
505394D257D51497D4995D9A5CDA5BDB9B1A5CDD19116456C656E636F207265766973696F6E6920415F424C5F45505394D257D09317D4995D9A5CDA5BDB9B1A5CDD18516456C656E636F207265766973696F6E6920415F544C5F45505394D257D51317D4995D9A5CDA5BDB9B1A5CDD18516456C656E636F207265766973696
310
F6E6920445F424C5F45505394D257D09317D4995D9A5CDA5BDB9B1A5CDD19116456C656E636F207265766973696F6E6920445F544C5F45505394D257D51317D4995D9A5CDA5BDB9B1A5CDD19116456C656E636F207265766973696F6E6920415F42525F45505394D257D09497D4995D9A5CDA5BDB9B1A5CDD18516456C656E
310
636F207265766973696F6E6920415F54525F45505394D257D51497D4995D9A5CDA5BDB9B1A5CDD18516456C656E636F207265766973696F6E6920445F42525F45505394D257D09497D4995D9A5CDA5BDB9B1A5CDD190
 94
        0
  0
ACAD_PROXY_OBJECT
  5
805
330
7F9
100
AcDbProxyObject
 90
      499
 91
      526
 95
   851991
 70
     0
 93
       12
310
571C
 94
        0
  0
ACAD_PROXY_OBJECT
  5
806
330
7F9
100
AcDbProxyObject
 90
      499
 91
      527
 95
   851991
 70
     0
 93
       96
310
572A0E80A0280A0280A0280F00
 94
        0
  0
ACAD_PROXY_OBJECT
  5
807
330
7F9
100
AcDbProxyObject
 90
      499
 91
      528
 95
   851991
 70
     0
 93
      272
310
5710E4050140501405014050140501405014050140D01405012C00000000000000406C
340
810
 94
        0
  0
ACAD_PROXY_OBJECT
  5
808
330
7F9
100
AcDbProxyObject
 90
      499
 91
      529
 95
   851991
 70
     0
 93
      496
310
5728666666666667A67E199999999999E99FD22405014050140501405014050140501405014050140501405014050140501405014050140501405014050141
340
811
 94
        0
  0
ACAD_PROXY_OBJECT
  5
809
330
7F9
100
AcDbProxyObject
 90
      499
 91
      530
 95
   851991
 70
     0
 93
       10
310
570C
 94
        0
  0
ACAD_PROXY_OBJECT
  5
80A
330
7F9
100
AcDbProxyObject
 90
      499
 91
      531
 95
   851991
 70
     0
 93
      223
310
572290EA22A7D90F49F8000000000000108140000000000000420204
340
812
340
813
 94
        0
  0
ACAD_PROXY_OBJECT
  5
80B
330
7F9
100
AcDbProxyObject
 90
      499
 91
      532
 95
   851991
 70
     0
 93
    12879
310
5710E411255115350141141BDCCB90140501406901000000000000091013347454E545241434F2C4954412C302C506F732E2C47454E54524154582C25732C2847454E4D53472067656E647767203232322940690120281A8AA2CA0281A8BA702028120280A0320200000000000012202648E8A9CA8A482869E5892A8825860
310
58A2E9C0588E8A9CA8A482A8B0584AE658508E8A9C9AA68E40CECADCC8EECE406464665280D202405044E414D45405044E6F6D654051C40640A80000000000004E404CD1D15395149050D3CB1255104B0C0B139BDB594B11D15395149055160B095CCB0A11D1539354D1C819D95B991DD9C80C8C8D8A50190B3D424C4F434B
310
3A4E414D4540480A0A888AA686A480A1688CAE6C6E4D2F4D2DEDCCA80A3A80C81D0000000000100A2809D23A2A72A2920A1A79624AA209618162232B9B1B934BD34B7B7329623A2A72A2920AA2C1612B9961423A2A726A9A39033B2B7323BB39019189B94A034809014214D51053911054911014214DD185B99185C9910147
310
501904A000000000000125013747454E545241434F2C4954412C302C5374616E646172642C47454E54524154582C25732C2847454E4D53472067656E64776720323138294069012028426A0AA22A924A0A620284A6B0BA32B934B0B632A028EA0320B40000000000001CA02708E8A9CA8A482869E5892A8825860589AC2E8C
310
AE4D2C2D8CA588E8A9CA8A482A8B0584AE658508E8A9C9AA68E40CECADCC8EECE406464625280D202405044E4F5445405044E6F74614051D40641A80000000000003E404CD1D15395149050D3CB1255104B0C0B139BDD184B11D15395149055160B095CCB0A11D1539354D1C819D95B991DD9C80C8C8D4A501240480A0CAC8
310
A9C889EA480A128CDEE4DCD2E8DEE4CA80A3A80C83D00000000000007C809C23A2A72A2920A1A79624AA209618162337B93734BA37B9329623A2A72A2920AA2C1612B9961423A2A726A9A39033B2B7323BB39019191A14A0248090141911154D0D48C9014351195CD8DC9A5E9A5BDB99480C90147501908A00000000002014
310
5013B47454E545241434F2C4954412C302C4465736372697A696F6E6520322C47454E54524154582C25732C2847454E4D53472067656E6477672033362940490120284A9AA20A72220A922192028529BA30B73230B93210192028EA03213400000000000024A02728E8A9CA8A482869E5892A882586058A6E8C2DCC8C2E4C8
310
4064588E8A9CA8A482A8B0584AE658508E8A9C9AA68E40CECADCC8EECE4064646052809202405094D4154455249414C324050B4D6174657269616C6520324051D40642A8713D0AD7A37045404E51D15395149050D3CB1255104B0C0B13585D195C9A585B19480C8B11D15395149055160B095CCB0A11D1539354D1C819D95B
310
991DD9C80D0C0A501240480A089A82A6A680A0A9AC2E6E6C280A3A80A0485A068100000000000007C8099A3A2A72A2920A1A79624AA2096181626B0B9B9B09623A2A72A2920AA2C1612B9961423A2A726A9A39033B2B7323BB3901A1914A024809014154149250D150141941C995E9E9BD01475014090C4090200000000000
310
00F9013447454E545241434F2C4954412C302C5072657A7A6F2C47454E54524154582C25732C2847454E4D53472067656E6477672034332940490120281A224A6A028326B4B9BAB930A028EA028121A81A040000000000001F202688E8A9CA8A482869E5892A8825860589AD2E6EAE4C2588E8A9CA8A482A8B0584AE658508
310
E8A9C9AA68E40CECADCC8EECE406868528092024050E445020000000000000510107004060000000000000F9000000000000003E4041CF4F125511534F9014060000000000000F9000000000000003E4041CF4F125511534F9014060000000000000D100000000000000344041CF4F125511534F9014060000000000000D10
310
0000000000000344041CF4F125511534F90140A4040000000000003E400000000000000F901073D3C4954454D3E405063D3C5154593E4050180000000000003E400000000000000F901073D3C4954454D3E406404000000000000003E400000000000000F902888000000000000208081A0881A068120480A0322085211220
310
80D21480D211480A1485214852050000000000003C2FC000000000000F0BF4050241CCDCCCCCCCCCCEC3F3373333333333B0FC0000000000000C40480D0590140D04416406800000000000018808120480A026280A02
340
0
340
0
 94
        0
  0
ACAD_PROXY_OBJECT
  5
80C
330
7F9
100
AcDbProxyObject
 90
      499
 91
      533
 95
   851991
 70
     0
 93
      864
310
5704000000000000144048CF4F11115510525317D3105091530F880A0F11115510525317D05094D4D0D053114F8A51141C9A9999999999B93F26A666666666724FC000000000000E03F4000000000000004000000000000005100000000000000244041C000000000000144000
340
14
340
804
 94
        0
  0
ACAD_PROXY_OBJECT
  5
80D
330
7F9
100
AcDbProxyObject
 90
      499
 91
      534
 95
   851991
 70
     0
 93
      745
310
5700B00000000000002880959E9E29A2A1AA24A7A72FA620A122A62FA324A929AA1F169E29A2A1AA24A7A72FA620A122A62FA620A9AA1F00000000000004880FF41C88A0E0000000000001220000000000000028800000000000000A204C
340
1AE
340
804
 94
        0
  0
ACAD_PROXY_OBJECT
  5
80E
330
7F9
100
AcDbProxyObject
 90
      499
 91
      535
 95
   851991
 70
     0
 93
      151
310
57280000000000000840A3D0A5723F0BD1F200
 94
        0
  0
ACAD_PROXY_OBJECT
  5
80F
330
7F9
100
AcDbProxyObject
 90
      499
 91
      536
 95
   851991
 70
     0
 93
     5762
310
571084050B90142A40502405094D6F64656C6C6F2031405DC3D2525633C486F6C653A63746469613E2078203C486F6C653A637464657074683E20555C503C696628657175616C28486F6C653A7461707065642C223022292C222525632220486F6C653A6469612C20486F6C653A6E6F6D696E616C20222078202220486F6C6
310
53A70697463686465736320696628657175616C28486F6C653A7461707065642C223122292C222078202220486F6C653A74617064657074682C222229293E203C696628657175616C28486F6C653A7465726D696E6174696F6E2C223022292C22202F202220486F6C653A64657074682C222022293E40640503405094D6F64
310
656C6C6F2031405DD3D2525633C486F6C653A63746469613E2078203C486F6C653A6374616E676C653E2525645C503C696628657175616C28486F6C653A7461707065642C223022292C222525632220486F6C653A6469612C20486F6C653A6E6F6D696E616C20222078202220486F6C653A706974636864657363206966286
310
57175616C28486F6C653A7461707065642C223122292C222078202220486F6C653A74617064657074682C222229293E203C696628657175616C28486F6C653A7465726D696E6174696F6E2C223022292C22202F202220486F6C653A64657074682C222022293E40640501405094D6F64656C6C6F2031405B83D3C696628657
310
175616C28486F6C653A7461707065642C223022292C222525632220486F6C653A6469612C20486F6C653A6E6F6D696E616C20222078202220486F6C653A70697463686465736320696628657175616C28486F6C653A7461707065642C223122292C222078202220486F6C653A74617064657074682C222229293E203C69662
310
8657175616C28486F6C653A7465726D696E6174696F6E2C223022292C22202F202220486F6C653A64657074682C222022293E4064051E405094D6F64656C6C6F20314050C3D3C535444503A444553433E40640515A8C
 94
        0
  0
ACAD_PROXY_OBJECT
  5
815
330
7F9
100
AcDbProxyObject
 90
      499
 91
      537
 95
   851991
 70
     0
 93
       20
310
57101C
340
7FA
 94
        0
  0
ACAD_PROXY_OBJECT
  5
816
330
7F9
100
AcDbProxyObject
 90
      499
 91
      538
 95
   851991
 70
     0
 93
      250
310
571020000000000000A1000000000000002440408F0F9023C3E409A0DCFFFF8C
340
817
340
0
340
0
340
818
340
819
340
81A
340
81B
340
81C
340
821
340
0
 94
        0
  0
ACAD_PROXY_OBJECT
  5
822
330
7F9
100
AcDbProxyObject
 90
      499
 91
      539
 95
   851991
 70
     0
 93
    13755
310
5711A003FFFFFFFD0303000300000000000003100090303000300000000000003100080511456C656E636F20636F6F7264696E617465015011D15395149050D3CB1255104B0C0B115B195B98DBC818DBDBDC991A5B985D194B11D15395149055160B095CCB0A11D1539354D1C819D95B991A5B5E880CCC0A78000C00000000
310
000000000000000000000001000000000000031010240000000000000C4040A0143151858995B1B1848199BDC9A4053B47454E545241434F2C4954412C302C546162656C6C6120666F72692C47454E54524154582C25732C2847454E4D53472067656E64696D7A20333129E000300000000000000000000000000000000400
310
00000000000C40409000000000000031010290D44111409034110541D0C4350F4050E44D03449074510F000141D3DC9A59DA5B994053547454E545241434F2C4954412C302C4F726967696E652C47454E54524154582C25732C2847454E4D53472067656E64696D7A203129000101050022140002822337B93780A648E8A9C
310
A8A482869E5892A8825860588CDEE4DE588E8A9CA8A482A8B0584AE658508E8A9C9AA68E40CECADCC8D2DAF4406452029F9E9E27B934B3B4B71F1E24A31427A91424A9A12620A7259427B934B3B4B7149624A9A12620A7259424B73232BC149496111116111711149F1E24B73232BC1F00808200111A000140560052F47454
310
E545241434F2C4954412C302C582C47454E54524154582C25732C2847454E4D53472067656E64696D7A20332900010100002054000280AC80A5E8E8A9CA8A482869E5892A882586058B2588E8A9CA8A482A8B0584AE658508E8A9C9AA68E40CECADCC8D2DAF4406852000202000040E800050172014BD1D15395149050D3CB
310
1255104B0C0B1C8B11D15395149055160B095CCB0A11D1539354D1C819D95B991A5B5E880D8A400040400008250000A0CAA5660686868029A23A2A72A2920A1A79624AA209618162A95981A1A1A1623A2A72A2920AA2C1612B9961423A2A726A9A39033B2B73234B6BD101B948000808180105A000140C94958C053147454E
310
545241434F2C4954412C302C2525632C47454E54524154582C25732C2847454E4D53472067656E64696D7A203829000101010020F4000285A232B9B1B934BD34B7B73280A748E8A9CA8A482869E5892A88258605888CAE6C6E4D2F4D2DEDCCA588E8A9CA8A482A8B0584AE658508E8A9C9AA68E40CECADCC8D2DAF44064605
310
2000200080043280005085374616E64617264014DD1D15395149050D3CB1255104B0C0B14DD185B99185C990B11D15395149055160B095CCB0A11D1539354D1C819D95B991A5B5E880C8C4A4000400100086D0000A0E9EE4D2CED2DCCA029AA3A2A72A2920A1A79624AA2096181627B934B3B4B7329623A2A72A2920AA2C16
310
12B9961423A2A726A9A39033B2B73234B6BD10189480A026202020A0043E8000504506F732E014CD1D15395149050D3CB1255104B0C0B141BDCCB8B11D15395149055160B095CCB0A11D1539354D1C819D95B991A5B5E880C4D0A4000404140080D0000A0C92DCC8D2C6CA029AA3A2A72A2920A1A79624AA2096181624B732
310
34B1B29623A2A72A2920AA2C1612B9961423A2A726A9A39033B2B73234B6BD10189A94800080828010EA000142D25B991A58D948199BDC9BC053A47454E545241434F2C4954412C302C496E6469636520666F726F2C47454E54524154582C25732C2847454E4D53472067656E64696D7A20313729000101050022740002822
310
337B93780A668E8A9CA8A482869E5892A8825860588CDEE4DE588E8A9CA8A482A8B0584AE658508E8A9C9AA68E40CECADCC8D2DAF440626C52000202080044A80005035174E0014C91D15395149050D3CB1255104B0C0B145D380B11D15395149055160B095CCB0A11D1539354D1C819D95B991A5B5E880C4E4A4000404180
310
08A521E000000000000001CA040C00000000000034408080000000000006881010000000000000D102040000000000001A204080000000000003440818000000000000728103000000000000125020600000000004028A040000000000000034408000000000000004881000000000000000D102000000000000001A204000
310
000000000003440818000000000000508143C0000000000000039408180000000000006881030000000000000D102060000000000001A2040C00000000000034408180000000000006881030000000000000E5020600000000000024A040C00000000008051408000000000000006881000000000000000910200000000000
310
0001A2040000000000000034408180000000000006881030000000000000A10283A2000000087800000204000000818000002080000008280000020E00000080A24000000C
340
0
340
0
340
0
340
0
 94
        0
  0
ACAD_PROXY_OBJECT
  5
823
330
7F9
100
AcDbProxyObject
 90
      499
 91
      540
 95
   851991
 70
     0
 93
     7258
310
5719740D254D3D0649534F5F4133429254D3D7D5125513115051349534F5F42525F5265766973696F6E6C69737446111413478342028323937783834316D6D2920421254D3D7D04D1E0D11141327835202835393478323130326D6D29421254D3D7D04C9E0D51141347839202832393778313839326D6D29421254D3D7D04D
310
1E0E51141337837202834323078323038306D6D29421254D3D7D04CDE0DD1141347838202832393778313638326D6D29421254D3D7D04D1E0E11141327834202835393478313638326D6D29421254D3D7D04C9E0D10E41312028353934783834316D6D29419254D3D7D04C51141347837202832393778313437316D6D29421
310
254D3D7D04D1E0DD1141347836202832393778313236316D6D29421254D3D7D04D1E0D91141347835202832393778313035316D6D29421254D3D7D04D1E0D5104130202838343078313138396D6D2920419254D3D7D04C10E41332028323937783432306D6D29419254D3D7D04CD1141327833202835393478313236316D6D
310
29421254D3D7D04C9E0CD10413478332028323937783633306D6D29421254D3D7D04D1E0CD1141337834202834323078313138396D6D29421254D3D7D04CDE0D11141337836202834323078313738336D6D29421254D3D7D04CDE0D91141337835202834323078313438366D6D29421254D3D7D04CDE0D50E4132202834323
310
0783539346D6D29419254D3D7D04C910413378332028343230783839316D6D29421254D3D7D04CDE0CD0E41342028323937783231306D6D29419254D3D7D04D1124130783220283131383978313638326D6D29421254D3D7D04C1E0C9124130783320283131383978323532336D6D29421254D3D7D04C1E0CD114131783420
310
2838343178323337386D6D29421254D3D7D04C5E0D11141317833202838343178313738336D6D29421254D3D7D04C5E0CD0243D254D3C810D85C9D1A59DB1A5BC81050A49534F5F5449544C454143D254D3C810D85C9D1A59DB1A5BC81090A49534F5F5449544C454241114456C656E636F207265766973696F6E695F54525
310
F44D254D3D7D51497D4995D9A5CDA5BDB9B1A5CDD114456C656E636F207265766973696F6E695F424C5F44D254D3D7D09317D4995D9A5CDA5BDB9B1A5CDD114456C656E636F207265766973696F6E695F544C5F44D254D3D7D51317D4995D9A5CDA5BDB9B1A5CDD114456C656E636F207265766973696F6E695F42525F44D2
310
54D3D7D09497D4995D9A5CDA5BDB9B1A5CDD0C
 94
        0
  0
ENDSEC
  0
EOF
