  0
SECTION
  2
HEADER
  9
$ACADVER
  1
AC1014
  9
$ACADMAINTVER
 70
     9
  9
$DWGCODEPAGE
  3
ANSI_1252
  9
$INSBASE
 10
0.0
 20
0.0
 30
0.0
  9
$EXTMIN
 10
-1584.210732068187
 20
-52.89985635070489
 30
-0.00000001
  9
$EXTMAX
 10
-324.9501277781742
 20
304.8903400895689
 30
0.00000001
  9
$LIMMIN
 10
0.0
 20
0.0
  9
$LIMMAX
 10
420.0
 20
297.0
  9
$ORTHOMODE
 70
     0
  9
$REGENMODE
 70
     1
  9
$FILLMODE
 70
     1
  9
$QTEXTMODE
 70
     0
  9
$MIRRTEXT
 70
     1
  9
$DRAGMODE
 70
     2
  9
$LTSCALE
 40
10.0
  9
$OSMODE
 70
    37
  9
$ATTMODE
 70
     1
  9
$TEXTSIZE
 40
2.5
  9
$TRACEWID
 40
1.0
  9
$TEXTSTYLE
  7
STANDARD
  9
$CLAYER
  8
NORMALI
  9
$CELTYPE
  6
BYLAYER
  9
$CECOLOR
 62
   256
  9
$CELTSCALE
 40
1.0
  9
$DELOBJ
 70
     1
  9
$DISPSILH
 70
     0
  9
$DIMSCALE
 40
2.5
  9
$DIMASZ
 40
3.0
  9
$DIMEXO
 40
1.0
  9
$DIMDLI
 40
1.0
  9
$DIMRND
 40
0.0
  9
$DIMDLE
 40
0.0
  9
$DIMEXE
 40
1.0
  9
$DIMTP
 40
0.0
  9
$DIMTM
 40
0.0
  9
$DIMTXT
 40
3.0
  9
$DIMCEN
 40
0.09
  9
$DIMTSZ
 40
0.0
  9
$DIMTOL
 70
     0
  9
$DIMLIM
 70
     0
  9
$DIMTIH
 70
     0
  9
$DIMTOH
 70
     0
  9
$DIMSE1
 70
     0
  9
$DIMSE2
 70
     0
  9
$DIMTAD
 70
     1
  9
$DIMZIN
 70
    12
  9
$DIMBLK
  1

  9
$DIMASO
 70
     1
  9
$DIMSHO
 70
     1
  9
$DIMPOST
  1

  9
$DIMAPOST
  1

  9
$DIMALT
 70
     0
  9
$DIMALTD
 70
     2
  9
$DIMALTF
 40
25.4
  9
$DIMLFAC
 40
1.0
  9
$DIMTOFL
 70
     1
  9
$DIMTVP
 40
0.0
  9
$DIMTIX
 70
     0
  9
$DIMSOXD
 70
     0
  9
$DIMSAH
 70
     0
  9
$DIMBLK1
  1

  9
$DIMBLK2
  1

  9
$DIMSTYLE
  2
SCALA2_5
  9
$DIMCLRD
 70
     1
  9
$DIMCLRE
 70
     1
  9
$DIMCLRT
 70
     7
  9
$DIMTFAC
 40
0.2
  9
$DIMGAP
 40
1.0
  9
$DIMJUST
 70
     0
  9
$DIMSD1
 70
     0
  9
$DIMSD2
 70
     0
  9
$DIMTOLJ
 70
     1
  9
$DIMTZIN
 70
     0
  9
$DIMALTZ
 70
     0
  9
$DIMALTTZ
 70
     0
  9
$DIMFIT
 70
     3
  9
$DIMUPT
 70
     0
  9
$DIMUNIT
 70
     2
  9
$DIMDEC
 70
     2
  9
$DIMTDEC
 70
     4
  9
$DIMALTU
 70
     2
  9
$DIMALTTD
 70
     2
  9
$DIMTXSTY
  7
SIMPLEX
  9
$DIMAUNIT
 70
     0
  9
$LUNITS
 70
     2
  9
$LUPREC
 70
     4
  9
$SKETCHINC
 40
1.0
  9
$FILLETRAD
 40
10.0
  9
$AUNITS
 70
     0
  9
$AUPREC
 70
     0
  9
$MENU
  1
.
  9
$ELEVATION
 40
0.0
  9
$PELEVATION
 40
0.0
  9
$THICKNESS
 40
0.0
  9
$LIMCHECK
 70
     0
  9
$BLIPMODE
 70
     0
  9
$CHAMFERA
 40
10.0
  9
$CHAMFERB
 40
10.0
  9
$CHAMFERC
 40
20.0
  9
$CHAMFERD
 40
0.0
  9
$SKPOLY
 70
     0
  9
$TDCREATE
 40
2452088.634692013
  9
$TDUPDATE
 40
2453139.387936736
  9
$TDINDWG
 40
0.2839610764
  9
$TDUSRTIMER
 40
0.2839610764
  9
$USRTIMER
 70
     1
  9
$ANGBASE
 50
0.0
  9
$ANGDIR
 70
     0
  9
$PDMODE
 70
     0
  9
$PDSIZE
 40
0.0
  9
$PLINEWID
 40
0.0
  9
$COORDS
 70
     1
  9
$SPLFRAME
 70
     0
  9
$SPLINETYPE
 70
     6
  9
$SPLINESEGS
 70
     8
  9
$ATTDIA
 70
     0
  9
$ATTREQ
 70
     1
  9
$HANDLING
 70
  4097
  9
$HANDSEED
  5
4827
  9
$SURFTAB1
 70
     6
  9
$SURFTAB2
 70
     6
  9
$SURFTYPE
 70
     6
  9
$SURFU
 70
     6
  9
$SURFV
 70
     6
  9
$UCSNAME
  2

  9
$UCSORG
 10
0.0
 20
0.0
 30
0.0
  9
$UCSXDIR
 10
1.0
 20
0.0
 30
0.0
  9
$UCSYDIR
 10
0.0
 20
1.0
 30
0.0
  9
$PUCSNAME
  2

  9
$PUCSORG
 10
0.0
 20
0.0
 30
0.0
  9
$PUCSXDIR
 10
1.0
 20
0.0
 30
0.0
  9
$PUCSYDIR
 10
0.0
 20
1.0
 30
0.0
  9
$USERI1
 70
     0
  9
$USERI2
 70
     0
  9
$USERI3
 70
     0
  9
$USERI4
 70
     0
  9
$USERI5
 70
     0
  9
$USERR1
 40
0.0
  9
$USERR2
 40
0.0
  9
$USERR3
 40
0.0
  9
$USERR4
 40
0.0
  9
$USERR5
 40
0.0
  9
$WORLDVIEW
 70
     1
  9
$SHADEDGE
 70
     3
  9
$SHADEDIF
 70
    70
  9
$TILEMODE
 70
     1
  9
$MAXACTVP
 70
    48
  9
$PINSBASE
 10
0.0
 20
0.0
 30
0.0
  9
$PLIMCHECK
 70
     0
  9
$PEXTMIN
 10
1.000000000000000E+20
 20
1.000000000000000E+20
 30
1.000000000000000E+20
  9
$PEXTMAX
 10
-1.000000000000000E+20
 20
-1.000000000000000E+20
 30
-1.000000000000000E+20
  9
$PLIMMIN
 10
0.0
 20
0.0
  9
$PLIMMAX
 10
420.0
 20
297.0
  9
$UNITMODE
 70
     0
  9
$VISRETAIN
 70
     1
  9
$PLINEGEN
 70
     0
  9
$PSLTSCALE
 70
     1
  9
$TREEDEPTH
 70
  3020
  9
$PICKSTYLE
 70
     1
  9
$CMLSTYLE
  2
STANDARD
  9
$CMLJUST
 70
     0
  9
$CMLSCALE
 40
20.0
  9
$PROXYGRAPHICS
 70
     1
  9
$MEASUREMENT
 70
     1
  0
ENDSEC
  0
SECTION
  2
CLASSES
  0
CLASS
  1
LWPOLYLINE
  2
AcDbPolyline
  3
AutoCAD 2000
 90
        0
280
     0
281
     1
  0
CLASS
  1
HATCH
  2
AcDbHatch
  3
AutoCAD 2000
 90
        0
280
     0
281
     1
  0
CLASS
  1
ACDBDICTIONARYWDFLT
  2
AcDbDictionaryWithDefault
  3
AutoCAD 2000
 90
        0
280
     0
281
     0
  0
CLASS
  1
ACDBPLACEHOLDER
  2
AcDbPlaceHolder
  3
AutoCAD 2000
 90
        0
280
     0
281
     0
  0
CLASS
  1
LAYOUT
  2
AcDbLayout
  3
AutoCAD 2000
 90
        0
280
     0
281
     0
  0
CLASS
  1
ACME_DOCUMENT
  2
AcMeDbDoc
  3
AcMeServices
 90
        0
280
     0
281
     0
  0
CLASS
  1
AMGSETTINGSOBJ
  2
AmgSettingsObj
  3
"AcadM|Product Description: AutoCAD Mechanical 2000|Company: Autodesk"
 90
        0
280
     0
281
     0
  0
CLASS
  1
ACMESCOPE
  2
AcMeScope
  3
AcMeServices
 90
        0
280
     0
281
     0
  0
CLASS
  1
ACMECOMMANDHISTORY
  2
AcMeCommandHistory
  3
AcMeServices
 90
        0
280
     0
281
     0
  0
CLASS
  1
ACIMSYSVARMAN
  2
AcImSysVarManager
  3
AcMeServices
 90
        0
280
     0
281
     0
  0
CLASS
  1
ACIMREALSYSVAR
  2
AcImRealSysVar
  3
AcMeServices
 90
        0
280
     0
281
     0
  0
CLASS
  1
ACIMINTSYSVAR
  2
AcImIntSysVar
  3
AcMeServices
 90
        0
280
     0
281
     0
  0
CLASS
  1
ACMEDRAWINGMAN
  2
AcMeDrawingMan
  3
AcMeServices
 90
        0
280
     0
281
     0
  0
CLASS
  1
ACMEVIEW
  2
AcMeView
  3
AcMeServices
 90
        0
280
     0
281
     0
  0
CLASS
  1
ACDBENTITYCACHE
  2
AcMeEntityCache
  3
AcMeServices
 90
        0
280
     0
281
     0
  0
CLASS
  1
GSMANAGER
  2
AcMeGSManager
  3
AcMeServices
 90
        0
280
     0
281
     0
  0
CLASS
  1
AMDTINTERNALREACTOR
  2
AmdtInternalReactor
  3
AcMeServices
 90
        0
280
     0
281
     0
  0
CLASS
  1
ACMESTATEMGR
  2
AcMeStateMgr
  3
AcMeServices
 90
        0
280
     0
281
     0
  0
CLASS
  1
ACGREFMASTER
  2
AcGrefMaster
  3
AcAttribServices
 90
        0
280
     0
281
     0
  0
CLASS
  1
ACME_DATABASE
  2
AcMeDbDatabase
  3
AcMeServices
 90
        0
280
     0
281
     0
  0
CLASS
  1
ACRFINSADJUSTERMGR
  2
AcRfInsAdjusterMgr
  3
AcMeServices
 90
        0
280
     0
281
     0
  0
CLASS
  1
ACGREFACADMASTER
  2
AcGrefacadMaster
  3
AcGrefServices
 90
        0
280
     0
281
     0
  0
CLASS
  1
AMIMASTER
  2
AmiMaster
  3
AmiServices
 90
        0
280
     0
281
     0
  0
CLASS
  1
ACMDATADICTIONARY
  2
AcmDataDictionary
  3
"AcmSymBB|Product Description: AutoCAD Mechanical 2000|Company: Autodesk"
 90
        0
280
     0
281
     0
  0
CLASS
  1
ACMDATAENTRYBLOCK
  2
AcmDataEntryBlock
  3
"AcmSymBB|Product Description: AutoCAD Mechanical 2000|Company: Autodesk"
 90
        0
280
     0
281
     0
  0
CLASS
  1
ACIMSTRSYSVAR
  2
AcImStrSysVar
  3
AcMeServices
 90
        0
280
     0
281
     0
  0
CLASS
  1
ACMSTANDARDISO
  2
AcmStandardISO
  3
"Amdt_StdImp|Product Description: AutoCAD Mechanical 2000|Company: Autodesk"
 90
        0
280
     0
281
     0
  0
CLASS
  1
AMGOBJPROPCFG
  2
AmgObjPropCfg
  3
"AmgLay|Product Description: AutoCAD Mechanical 2000|Company: Autodesk"
 90
        1
280
     0
281
     0
  0
CLASS
  1
AMDTEDGESTANDARDISO
  2
AmdtEdgeStdISO
  3
"Amdt_StdImp|Product Description: AutoCAD Mechanical 2000|Company: Autodesk"
 90
        0
280
     0
281
     0
  0
CLASS
  1
ACMSURFSTANDARDISO
  2
AcmSurfTextStdISO
  3
"Amdt_StdImp|Product Description: AutoCAD Mechanical 2000|Company: Autodesk"
 90
        0
280
     0
281
     0
  0
CLASS
  1
ACMFCFSTANDARDISO
  2
AcmFCFStdISO
  3
"Amdt_StdImp|Product Description: AutoCAD Mechanical 2000|Company: Autodesk"
 90
        0
280
     0
281
     0
  0
CLASS
  1
ACMWELDSTANDARDISO
  2
AcmWeldingStdISO
  3
"Amdt_StdImp|Product Description: AutoCAD Mechanical 2000|Company: Autodesk"
 90
        0
280
     0
281
     0
  0
CLASS
  1
ACMIDSTANDARDISO
  2
AcmIdStdISO
  3
"Amdt_StdImp|Product Description: AutoCAD Mechanical 2000|Company: Autodesk"
 90
        0
280
     0
281
     0
  0
CLASS
  1
ACMDATUMSTANDARDISO
  2
AcmDatumStdISO
  3
"Amdt_StdImp|Product Description: AutoCAD Mechanical 2000|Company: Autodesk"
 90
        0
280
     0
281
     0
  0
CLASS
  1
ACMBOMSTANDARDISO
  2
AcmBOMStdISO
  3
"Amdt_StdImp|Product Description: AutoCAD Mechanical 2000|Company: Autodesk"
 90
        0
280
     0
281
     0
  0
CLASS
  1
ACMDETAILSTANDARDISO
  2
AmdtDetailSymStdISO
  3
"Amdt_StdImp|Product Description: AutoCAD Mechanical 2000|Company: Autodesk"
 90
        0
280
     0
281
     0
  0
CLASS
  1
ACMSECTIONSTANDARDISO
  2
AmdtSectionSymStdISO
  3
"Amdt_StdImp|Product Description: AutoCAD Mechanical 2000|Company: Autodesk"
 90
        0
280
     0
281
     0
  0
CLASS
  1
ACMCENTERLINESTANDARDISO
  2
AmdtCenterLineStdISO
  3
"Amdt_StdImp|Product Description: AutoCAD Mechanical 2000|Company: Autodesk"
 90
        0
280
     0
281
     0
  0
CLASS
  1
ACMNOTESTANDARDISO
  2
AmdtNoteStdISO
  3
"Amdt_StdImp|Product Description: AutoCAD Mechanical 2000|Company: Autodesk"
 90
        0
280
     0
281
     0
  0
CLASS
  1
ACAMGLAYSTD
  2
AcAmgLayStd
  3
"AcAmgLayStd|Product Description: AutoCAD Mechanical 2000|Company: Autodesk"
 90
        0
280
     0
281
     0
  0
CLASS
  1
ACAMGDIMSTD
  2
AcAmgDimStd
  3
"AcAmgDimStd|Product Description: AutoCAD Mechanical 2000|Company: Autodesk"
 90
        0
280
     0
281
     0
  0
CLASS
  1
ACAMGHOLECHARTSTDISO
  2
AcAmgHoleChartStdISO
  3
ACMSYMBB_MODULE_NAME
 90
        0
280
     0
281
     0
  0
CLASS
  1
ACAMGTITLESTD
  2
AcAmgTitleStd
  3
"TITLEAPP"
 90
        0
280
     0
281
     0
  0
CLASS
  1
ACAMGFILTERDAT
  2
AcAmgFilterDat
  3
"AcadM|Product Description: AutoCAD Mechanical 2000|Company: Autodesk"
 90
        0
280
     0
281
     0
  0
CLASS
  1
ACMSTANDARDANSI
  2
AcmStandardANSI
  3
"Amdt_StdImp|Product Description: AutoCAD Mechanical 2000|Company: Autodesk"
 90
        0
280
     0
281
     0
  0
CLASS
  1
ACMSURFSTANDARDANSI
  2
AcmSurfTextStdANSI
  3
"Amdt_StdImp|Product Description: AutoCAD Mechanical 2000|Company: Autodesk"
 90
        0
280
     0
281
     0
  0
CLASS
  1
ACMFCFSTANDARDANSI
  2
AcmFCFStdANSI
  3
"Amdt_StdImp|Product Description: AutoCAD Mechanical 2000|Company: Autodesk"
 90
        0
280
     0
281
     0
  0
CLASS
  1
ACMWELDSTANDARDANSI
  2
AcmWeldingStdANSI
  3
"Amdt_StdImp|Product Description: AutoCAD Mechanical 2000|Company: Autodesk"
 90
        0
280
     0
281
     0
  0
CLASS
  1
ACMIDSTANDARDANSI
  2
AcmIdStdANSI
  3
"Amdt_StdImp|Product Description: AutoCAD Mechanical 2000|Company: Autodesk"
 90
        0
280
     0
281
     0
  0
CLASS
  1
ACMDATUMSTANDARDANSI
  2
AcmDatumStdANSI
  3
"Amdt_StdImp|Product Description: AutoCAD Mechanical 2000|Company: Autodesk"
 90
        0
280
     0
281
     0
  0
CLASS
  1
ACMBOMSTANDARDANSI
  2
AcmBOMStdANSI
  3
"Amdt_StdImp|Product Description: AutoCAD Mechanical 2000|Company: Autodesk"
 90
        0
280
     0
281
     0
  0
CLASS
  1
ACMDETAILSTANDARDANSI
  2
AmdtDetailSymStdANSI
  3
"Amdt_StdImp|Product Description: AutoCAD Mechanical 2000|Company: Autodesk"
 90
        0
280
     0
281
     0
  0
CLASS
  1
ACMSECTIONSTANDARDANSI
  2
AmdtSectionSymStdANSI
  3
"Amdt_StdImp|Product Description: AutoCAD Mechanical 2000|Company: Autodesk"
 90
        0
280
     0
281
     0
  0
CLASS
  1
ACMCENTERLINESTANDARDANSI
  2
AmdtCenterLineStdANSI
  3
"Amdt_StdImp|Product Description: AutoCAD Mechanical 2000|Company: Autodesk"
 90
        0
280
     0
281
     0
  0
CLASS
  1
ACMNOTESTANDARDANSI
  2
AmdtNoteStdANSI
  3
"Amdt_StdImp|Product Description: AutoCAD Mechanical 2000|Company: Autodesk"
 90
        0
280
     0
281
     0
  0
CLASS
  1
ACAMGHOLECHARTSTDANSI
  2
AcAmgHoleChartStdANSI
  3
ACMSYMBB_MODULE_NAME
 90
        0
280
     0
281
     0
  0
CLASS
  1
AMDTFORMULAUPDATEDISPATCHER
  2
AmdtFormulaUpdateDispatcher
  3
AcMeServices
 90
        0
280
     0
281
     0
  0
CLASS
  1
LAYER_INDEX
  2
AcDbLayerIndex
  3
AutoCAD 2000
 90
        0
280
     0
281
     0
  0
CLASS
  1
IDBUFFER
  2
AcDbIdBuffer
  3
AutoCAD 2000
 90
        0
280
     0
281
     0
  0
CLASS
  1
DICTIONARYVAR
  2
AcDbDictionaryVar
  3
AutoCAD 2000
 90
        0
280
     0
281
     0
  0
CLASS
  1
LONG_TRANSACTION
  2
AcDbLongTransaction
  3
AutoCAD 2000
 90
        0
280
     0
281
     0
  0
CLASS
  1
LWPOLYLINE
  2
AcDbPolyline
  3
AutoCAD 2000
 90
        0
280
     0
281
     1
  0
CLASS
  1
HATCH
  2
AcDbHatch
  3
AutoCAD 2000
 90
        0
280
     0
281
     1
  0
CLASS
  1
XRECORD
  2
AcDbXrecord
  3
AutoCAD 2000
 90
        0
280
     0
281
     0
  0
CLASS
  1
LONG_TRANSACTION
  2
AcDbLongTransaction
  3
AutoCAD 2000
 90
        0
280
     0
281
     0
  0
CLASS
  1
LWPOLYLINE
  2
AcDbPolyline
  3
AutoCAD 2000
 90
        0
280
     0
281
     1
  0
CLASS
  1
HATCH
  2
AcDbHatch
  3
AutoCAD 2000
 90
        0
280
     0
281
     1
  0
CLASS
  1
XRECORD
  2
AcDbXrecord
  3
AutoCAD 2000
 90
        0
280
     0
281
     0
  0
CLASS
  1
STDPART2D
  2
AmgStdPart
  3
"AmgStdPart|Product Description: AutoCAD Mechanical 2000|Company: Autodesk"
 90
     1023
280
     0
281
     1
  0
CLASS
  1
ACMPARTREF
  2
AcmPartRef
  3
"AcmSymBB|Product Description: AutoCAD Mechanical 2000|Company: Autodesk"
 90
     1023
280
     0
281
     1
  0
CLASS
  1
ACMDATAENTRYPART
  2
AcmDataEntryPart
  3
"AcmSymBB|Product Description: AutoCAD Mechanical 2000|Company: Autodesk"
 90
        0
280
     0
281
     0
  0
CLASS
  1
AM_DRAWING_MGR
  2
AcDmDwgMgr
  3
AcMechDwgViewMgmt
 90
        0
280
     0
281
     0
  0
CLASS
  1
AM_DWG_DOCUMENT
  2
AcDmDwgDocument
  3
AcMechDwgViewMgmt
 90
        0
280
     0
281
     0
  0
CLASS
  1
AM_DWG_SHEET
  2
AcDmSheet
  3
AcMechDwgViewMgmt
 90
        0
280
     0
281
     0
  0
CLASS
  1
AM_VIEWDIMPARMAP
  2
AcDmViewDimParMap
  3
AcMechDwgViewMgmt
 90
        0
280
     0
281
     0
  0
CLASS
  1
AM_DWGMGR_NAME
  2
AcDmDwgMgrName
  3
AcMechDwgViewMgmt
 90
        0
280
     0
281
     0
  0
CLASS
  1
AMDTMENUSTATEMGR
  2
AmdtMenuStateMgr
  3
McadcomServices
 90
        0
280
     0
281
     0
  0
CLASS
  1
AMDTMCOMMENUSTATE
  2
AmdtMcomMenuState
  3
McadcomServices
 90
        0
280
     0
281
     0
  0
CLASS
  1
ASAPP
  2
AcAsAppObject
  3
AutoSurfServices
 90
        0
280
     0
281
     0
  0
CLASS
  1
IM_STATIC_MAN
  2
AcImStaticVarManager
  3
AcMeServices
 90
        0
280
     0
281
     0
  0
CLASS
  1
ACIMDBLSTATICVAR
  2
AcImDblStaticVar
  3
AcMeServices
 90
        0
280
     0
281
     0
  0
CLASS
  1
ACIMSTRSTATICVAR
  2
AcImStrStaticVar
  3
AcMeServices
 90
        0
280
     0
281
     0
  0
CLASS
  1
ACIMINTSTATICVAR
  2
AcImIntStaticVar
  3
AcMeServices
 90
        0
280
     0
281
     0
  0
CLASS
  1
ACASGREFMASTER
  2
AcAsGrefMaster
  3
AutoSurfResolverServices
 90
        0
280
     0
281
     0
  0
CLASS
  1
ACADGREFMODULE
  2
AcAdGrefModule
  3
AdGrefServices
 90
        0
280
     0
281
     0
  0
CLASS
  1
AMDTMAPISURFMOUDULE
  2
AmdtMApiSurfModule
  3
MApiSurfServices
 90
        0
280
     0
281
     0
  0
CLASS
  1
MAPIAMMOUDLE
  2
MApiAmModule
  3
MApiAmServices
 90
        0
280
     0
281
     0
  0
CLASS
  1
AMDTADMENUSTATE
  2
AmdtAdMenuState
  3
DesignerServices
 90
        0
280
     0
281
     0
  0
CLASS
  1
ADAPPL
  2
AcAdAppl
  3
DesignerServices
 90
        0
280
     0
281
     0
  0
CLASS
  1
DEPMGR
  2
AcAdDepMgr
  3
DesignerServices
 90
        0
280
     0
281
     0
  0
CLASS
  1
PARAMMGR
  2
AcAdParamMgr
  3
DesignerServices
 90
        0
280
     0
281
     0
  0
CLASS
  1
PARAMSCOPE
  2
AcAdParamScope
  3
DesignerServices
 90
        0
280
     0
281
     0
  0
CLASS
  1
NAMEDAPPL
  2
AcAdNamedAppl
  3
DesignerServices
 90
        0
280
     0
281
     0
  0
CLASS
  1
AMDTDMMENUSTATE
  2
AmdtDmMenuState
  3
AcMechDwgViewMgmt
 90
        0
280
     0
281
     0
  0
CLASS
  1
MAPIADMODULE
  2
MApiAdModule
  3
MApiAdServices
 90
        0
280
     0
281
     0
  0
CLASS
  1
AMDTAMMENUSTATE
  2
AmdtAmMenuState
  3
DesignerAssemblies
 90
        0
280
     0
281
     0
  0
CLASS
  1
ACAMPROJECT
  2
AcAmProject
  3
DesignerAssemblies
 90
        0
280
     0
281
     0
  0
CLASS
  1
ACAMGRCOMPDEF
  2
AcAmGrCompDef
  3
DesignerAssemblies
 90
        0
280
     0
281
     0
  0
CLASS
  1
ACCMCONTEXT
  2
AcCmContext
  3
DesignerAssemblies
 90
        0
280
     0
281
     0
  0
CLASS
  1
ACAMCOMPDEF
  2
AcAmCompDef
  3
DesignerAssemblies
 90
        0
280
     0
281
     0
  0
CLASS
  1
ACAMCOMPDEFMGR
  2
AcAmCompDefMgr
  3
DesignerAssemblies
 90
        0
280
     0
281
     0
  0
CLASS
  1
AMCONTEXTMGR
  2
AcAmContextMgr
  3
DesignerAssemblies
 90
        0
280
     0
281
     0
  0
CLASS
  1
ACAMCONTEXTMODELER
  2
AcAmContextModeler
  3
DesignerAssemblies
 90
        0
280
     0
281
     0
  0
CLASS
  1
CATALOGSTATE
  2
AcAmCatalogState
  3
DesignerAssemblies
 90
        0
280
     0
281
     0
  0
CLASS
  1
ACAMGRCOMPDEFSET
  2
AcAmGrCompDefSet
  3
DesignerAssemblies
 90
        0
280
     0
281
     0
  0
CLASS
  1
AMDTBROWSERDBTAB
  2
AmdtBrowserDbTab
  3
McadcomServices
 90
        0
280
     0
281
     0
  0
CLASS
  1
CBROWSERAPPOBJECT
  2
CBrowserAppObject
  3
McadcomServices
 90
        0
280
     0
281
     0
  0
CLASS
  1
DM_PLACEHOLDER
  2
AcDmSelsetPlaceholder
  3
AcMechDwgViewMgmt
 90
        0
280
     0
281
     0
  0
CLASS
  1
ACAD_PROXY_OBJECT_WRAPPER
  2
AcDbProxyObjectWrapper
  3
AutoCAD 2000
 90
        0
280
     0
281
     0
  0
CLASS
  1
LONG_TRANSACTION
  2
AcDbLongTransaction
  3
AutoCAD 2000
 90
        0
280
     0
281
     0
  0
CLASS
  1
LWPOLYLINE
  2
AcDbPolyline
  3
AutoCAD 2000
 90
        0
280
     0
281
     1
  0
CLASS
  1
HATCH
  2
AcDbHatch
  3
AutoCAD 2000
 90
        0
280
     0
281
     1
  0
CLASS
  1
XRECORD
  2
AcDbXrecord
  3
AutoCAD 2000
 90
        0
280
     0
281
     0
  0
ENDSEC
  0
SECTION
  2
TABLES
  0
TABLE
  2
VPORT
  5
8
330
0
100
AcDbSymbolTable
 70
     3
  0
VPORT
  5
4804
330
8
100
AcDbSymbolTableRecord
100
AcDbViewportTableRecord
  2
*ACTIVE
 70
     0
 10
0.0
 20
0.0
 11
1.0
 21
1.0
 12
89.08040120157238
 22
-12.07713733643993
 13
0.0
 23
0.0
 14
10.0
 24
10.0
 15
10.0
 25
10.0
 16
0.0
 26
0.0
 36
1.0
 17
-954.5920365539714
 27
138.0705688793926
 37
0.0
 40
799.9809408899848
 41
1.80495867768595
 42
50.0
 43
0.0
 44
0.0
 50
0.0
 51
0.0
 71
     0
 72
  1234
 73
     1
 74
     0
 75
     0
 76
     0
 77
     0
 78
     0
  0
ENDTAB
  0
TABLE
  2
LTYPE
  5
5
330
0
100
AcDbSymbolTable
 70
    17
  0
LTYPE
  5
12
330
5
100
AcDbSymbolTableRecord
100
AcDbLinetypeTableRecord
  2
BYBLOCK
 70
     0
  3

 72
    65
 73
     0
 40
0.0
  0
LTYPE
  5
13
330
5
100
AcDbSymbolTableRecord
100
AcDbLinetypeTableRecord
  2
BYLAYER
 70
     0
  3

 72
    65
 73
     0
 40
0.0
  0
LTYPE
  5
14
330
5
100
AcDbSymbolTableRecord
100
AcDbLinetypeTableRecord
  2
CONTINUOUS
 70
     0
  3
Solid line
 72
    65
 73
     0
 40
0.0
  0
LTYPE
  5
B9
330
5
100
AcDbSymbolTableRecord
100
AcDbLinetypeTableRecord
  2
CENTER
 70
     0
  3

 72
    65
 73
     4
 40
2.0
 49
1.25
 74
     0
 49
-0.25
 74
     0
 49
0.25
 74
     0
 49
-0.25
 74
     0
  0
LTYPE
  5
BA
330
5
100
AcDbSymbolTableRecord
100
AcDbLinetypeTableRecord
  2
HIDDEN
 70
     0
  3
Hidden __ __ __ __ __ __ __ __ __ __ __ __ __ _
 72
    65
 73
     2
 40
0.375
 49
0.25
 74
     0
 49
-0.125
 74
     0
  0
LTYPE
  5
2478
330
5
100
AcDbSymbolTableRecord
100
AcDbLinetypeTableRecord
  2
AM_ISO02W050
 70
     0
  3
__ __ __ __ __ __ __ __ __ __ __ __ __ __ __
 72
    65
 73
     2
 40
7.5
 49
6.0
 74
     0
 49
-1.5
 74
     0
  0
LTYPE
  5
2479
330
5
100
AcDbSymbolTableRecord
100
AcDbLinetypeTableRecord
  2
AM_ISO08W050
 70
     0
  3
____ . ____ . ____ . ____ . ____ . ____ . ____
 72
    65
 73
     4
 40
18.0
 49
12.0
 74
     0
 49
-1.5
 74
     0
 49
3.0
 74
     0
 49
-1.5
 74
     0
  0
LTYPE
  5
247A
330
5
100
AcDbSymbolTableRecord
100
AcDbLinetypeTableRecord
  2
AM_ISO09W050
 70
     0
  3
_____ . . _____ . . _____ . . ____ .. ____
 72
    65
 73
     6
 40
22.5
 49
12.0
 74
     0
 49
-1.5
 74
     0
 49
3.0
 74
     0
 49
-1.5
 74
     0
 49
3.0
 74
     0
 49
-1.5
 74
     0
  0
LTYPE
  5
247B
330
5
100
AcDbSymbolTableRecord
100
AcDbLinetypeTableRecord
  2
AMCONSTR
 70
     0
  3
_______________________
 72
    65
 73
     2
 40
9999.0
 49
9999.0
 74
     0
 49
0.0
 74
     0
  0
LTYPE
  5
247C
330
5
100
AcDbSymbolTableRecord
100
AcDbLinetypeTableRecord
  2
AM_ISO08W050X2
 70
     0
  3
__ . __ . __ . __ . __ . __
 72
    65
 73
     4
 40
9.0
 49
6.0
 74
     0
 49
-0.75
 74
     0
 49
1.5
 74
     0
 49
-0.75
 74
     0
  0
LTYPE
  5
247D
330
5
100
AcDbSymbolTableRecord
100
AcDbLinetypeTableRecord
  2
AM_ISO02W050X2
 70
     0
  3
 _ _ _ _ _ _ _ _ _ _ _ _
 72
    65
 73
     2
 40
3.75
 49
3.0
 74
     0
 49
-0.75
 74
     0
  0
LTYPE
  5
2480
330
5
100
AcDbSymbolTableRecord
100
AcDbLinetypeTableRecord
  2
AMZIGZAG
 70
     0
  3
/\/-/\/-/\/-/\/-/\/-/\/
 72
    65
 73
     2
 40
11.00009999999999
 49
0.0001
 74
     4
 75
   135
340
247F
 46
0.04
 50
0.0
 44
0.0
 45
0.0
 49
-11.0
 74
     0
  0
LTYPE
  5
248E
330
5
100
AcDbSymbolTableRecord
100
AcDbLinetypeTableRecord
  2
ACISOWELD
 70
     0
  3
_ _ _ _ _
 72
    65
 73
     2
 40
2.0
 49
2.0
 74
     0
 49
-1.0
 74
     0
  0
LTYPE
  5
248F
330
5
100
AcDbSymbolTableRecord
100
AcDbLinetypeTableRecord
  2
ACISOTGB
 70
     0
  3
__ . . __ . .
 72
    65
 73
     6
 40
9.0
 49
4.0
 74
     0
 49
-1.0
 74
     0
 49
1.0
 74
     0
 49
-1.0
 74
     0
 49
1.0
 74
     0
 49
-1.0
 74
     0
  0
LTYPE
  5
2490
330
5
100
AcDbSymbolTableRecord
100
AcDbLinetypeTableRecord
  2
ACISOTGL
 70
     0
  3
_ _ _ _ _
 72
    65
 73
     2
 40
3.0
 49
2.0
 74
     0
 49
-1.0
 74
     0
  0
LTYPE
  5
2515
330
5
100
AcDbSymbolTableRecord
100
AcDbLinetypeTableRecord
  2
PHANTOM2
 70
     0
  3
Phantom (.5x) ___ _ _ ___ _ _ ___ _ _ ___ _ _
 72
    65
 73
     6
 40
1.25
 49
0.625
 74
     0
 49
-0.125
 74
     0
 49
0.125
 74
     0
 49
-0.125
 74
     0
 49
0.125
 74
     0
 49
-0.125
 74
     0
  0
LTYPE
  5
2519
330
5
100
AcDbSymbolTableRecord
100
AcDbLinetypeTableRecord
  2
ACANSTGB
 70
     0
  3
__ . . __ . .
 72
    65
 73
     6
 40
0.35433070866
 49
0.15748031496
 74
     0
 49
-0.03937007874
 74
     0
 49
0.03937007874
 74
     0
 49
-0.03937007874
 74
     0
 49
0.03937007874
 74
     0
 49
-0.03937007874
 74
     0
  0
LTYPE
  5
251A
330
5
100
AcDbSymbolTableRecord
100
AcDbLinetypeTableRecord
  2
ACANSTGL
 70
     0
  3
_ _ _ _ _
 72
    65
 73
     2
 40
0.11811023622
 49
0.07874015748
 74
     0
 49
-0.03937007874
 74
     0
  0
LTYPE
  5
29D7
330
5
100
AcDbSymbolTableRecord
100
AcDbLinetypeTableRecord
  2
PHANTOM
 70
     0
  3
______  __  __  ______  __  __  ______  __  __ 
 72
    65
 73
     6
 40
2.5
 49
1.25
 74
     0
 49
-0.25
 74
     0
 49
0.25
 74
     0
 49
-0.25
 74
     0
 49
0.25
 74
     0
 49
-0.25
 74
     0
  0
ENDTAB
  0
TABLE
  2
LAYER
  5
2
102
{ACAD_XDICTIONARY
360
3479
102
}
330
0
100
AcDbSymbolTable
 70
    11
  0
LAYER
  5
E
330
2
100
AcDbSymbolTableRecord
100
AcDbLayerTableRecord
  2
0
 70
     0
 62
     7
  6
CONTINUOUS
  0
LAYER
  5
BC
330
2
100
AcDbSymbolTableRecord
100
AcDbLayerTableRecord
  2
DISEGNO
 70
     0
 62
     7
  6
CONTINUOUS
  0
LAYER
  5
BF
330
2
100
AcDbSymbolTableRecord
100
AcDbLayerTableRecord
  2
ASSI
 70
     0
 62
     2
  6
CENTER
  0
LAYER
  5
C1
330
2
100
AcDbSymbolTableRecord
100
AcDbLayerTableRecord
  2
NORMALI
 70
     0
 62
     6
  6
CONTINUOUS
  0
LAYER
  5
29DD
330
2
100
AcDbSymbolTableRecord
100
AcDbLayerTableRecord
  2
INGOMBRI
 70
     0
 62
     4
  6
PHANTOM
  0
LAYER
  5
34CA
330
2
100
AcDbSymbolTableRecord
100
AcDbLayerTableRecord
  2
4150007_A-PIASTRA_DI_COLLE
 70
     0
 62
     7
  6
CONTINUOUS
  0
LAYER
  5
34CB
330
2
100
AcDbSymbolTableRecord
100
AcDbLayerTableRecord
  2
4360009_C_DX-TLM_MCR_S_105
 70
     0
 62
     7
  6
CONTINUOUS
  0
LAYER
  5
34CC
330
2
100
AcDbSymbolTableRecord
100
AcDbLayerTableRecord
  2
4130002-RASCHIATORE_TLM_MC
 70
     0
 62
     7
  6
CONTINUOUS
  0
LAYER
  5
362F
330
2
100
AcDbSymbolTableRecord
100
AcDbLayerTableRecord
  2
4360048-TLF_MCR_S_105_IAM_
 70
     0
 62
     7
  6
CONTINUOUS
  0
LAYER
  5
3ED2
330
2
100
AcDbSymbolTableRecord
100
AcDbLayerTableRecord
  2
AM_0
 70
     0
 62
     7
  6
CONTINUOUS
  0
LAYER
  5
4764
330
2
100
AcDbSymbolTableRecord
100
AcDbLayerTableRecord
  2
KAN_PROF
 70
     0
 62
     7
  6
CONTINUOUS
  0
ENDTAB
  0
TABLE
  2
STYLE
  5
3
330
0
100
AcDbSymbolTable
 70
     7
  0
STYLE
  5
F
330
3
100
AcDbSymbolTableRecord
100
AcDbTextStyleTableRecord
  2
STANDARD
 70
     0
 40
0.0
 41
1.0
 50
0.0
 71
     0
 42
2.5
  3
txt
  4

  0
STYLE
  5
247F
330
3
100
AcDbSymbolTableRecord
100
AcDbTextStyleTableRecord
  2

 70
     1
 40
0.0
 41
1.0
 50
0.0
 71
     0
 42
2.5
  3
ltypeshp.shx
  4

  0
STYLE
  5
2481
330
3
100
AcDbSymbolTableRecord
100
AcDbTextStyleTableRecord
  2
ACISOTS
 70
     0
 40
1.0
 41
1.0
 50
0.0
 71
     0
 42
2.5
  3
isocp.shx
  4

  0
STYLE
  5
248D
330
3
100
AcDbSymbolTableRecord
100
AcDbTextStyleTableRecord
  2
ACISOGDT
 70
     0
 40
0.0
 41
1.0
 50
0.0
 71
     0
 42
2.5
  3
amgdt.shx
  4

  0
STYLE
  5
251E
330
3
100
AcDbSymbolTableRecord
100
AcDbTextStyleTableRecord
  2
ACANSTS
 70
     0
 40
1.0
 41
1.0
 50
0.0
 71
     0
 42
3.0
  3
romans.shx
  4

  0
STYLE
  5
251F
330
3
100
AcDbSymbolTableRecord
100
AcDbTextStyleTableRecord
  2
ACANSGDT
 70
     0
 40
0.0
 41
1.0
 50
0.0
 71
     0
 42
3.0
  3
amgdtans.shx
  4

  0
STYLE
  5
2D17
330
3
100
AcDbSymbolTableRecord
100
AcDbTextStyleTableRecord
  2
SIMPLEX
 70
     0
 40
0.0
 41
1.0
 50
0.0
 71
     0
 42
3.0
  3
SIMPLEX.shx
  4

  0
ENDTAB
  0
TABLE
  2
VIEW
  5
6
330
0
100
AcDbSymbolTable
 70
     0
  0
ENDTAB
  0
TABLE
  2
UCS
  5
7
330
0
100
AcDbSymbolTable
 70
     0
  0
ENDTAB
  0
TABLE
  2
APPID
  5
9
330
0
100
AcDbSymbolTable
 70
    27
  0
APPID
  5
10
330
9
100
AcDbSymbolTableRecord
100
AcDbRegAppTableRecord
  2
ACAD
 70
     0
  0
APPID
  5
20
330
9
100
AcDbSymbolTableRecord
100
AcDbRegAppTableRecord
  2
ZIMM
 70
     0
  0
APPID
  5
C8
330
9
100
AcDbSymbolTableRecord
100
AcDbRegAppTableRecord
  2
COMAU_ACADLIB
 70
     0
  0
APPID
  5
C9
330
9
100
AcDbSymbolTableRecord
100
AcDbRegAppTableRecord
  2
PHOENIX7010
 70
     0
  0
APPID
  5
245A
330
9
100
AcDbSymbolTableRecord
100
AcDbRegAppTableRecord
  2
MCAD_NO_VIS
 70
     0
  0
APPID
  5
245B
330
9
100
AcDbSymbolTableRecord
100
AcDbRegAppTableRecord
  2
ACAD_TEMP_GRAPHIC
 70
     0
  0
APPID
  5
246C
330
9
100
AcDbSymbolTableRecord
100
AcDbRegAppTableRecord
  2
ACATTRIBSERVICES
 70
     0
  0
APPID
  5
299E
330
9
100
AcDbSymbolTableRecord
100
AcDbRegAppTableRecord
  2
GEVID1024383628
 70
     0
  0
APPID
  5
299F
330
9
100
AcDbSymbolTableRecord
100
AcDbRegAppTableRecord
  2
GEVDC
 70
     0
  0
APPID
  5
29A2
330
9
100
AcDbSymbolTableRecord
100
AcDbRegAppTableRecord
  2
GENIUS_GENBH_13
 70
     0
  0
APPID
  5
29A5
330
9
100
AcDbSymbolTableRecord
100
AcDbRegAppTableRecord
  2
GENIUS_GENODEF_13
 70
     0
  0
APPID
  5
29A6
330
9
100
AcDbSymbolTableRecord
100
AcDbRegAppTableRecord
  2
GENIUS_GENOLIS_13
 70
     0
  0
APPID
  5
29A7
330
9
100
AcDbSymbolTableRecord
100
AcDbRegAppTableRecord
  2
GENIUS_GENOENT_13
 70
     0
  0
APPID
  5
29A8
330
9
100
AcDbSymbolTableRecord
100
AcDbRegAppTableRecord
  2
GENIUS_GENOBJ-NBEHI-BHF_13
 70
     0
  0
APPID
  5
29A9
330
9
100
AcDbSymbolTableRecord
100
AcDbRegAppTableRecord
  2
GENIUS_GENOREF_13
 70
     0
  0
APPID
  5
29AB
330
9
100
AcDbSymbolTableRecord
100
AcDbRegAppTableRecord
  2
GENIUS_GENOBJ-NBEHI-BHB_13
 70
     0
  0
APPID
  5
2E72
330
9
100
AcDbSymbolTableRecord
100
AcDbRegAppTableRecord
  2
GENIUS_GENOBJ-N-CRS_13
 70
     0
  0
APPID
  5
3E14
330
9
100
AcDbSymbolTableRecord
100
AcDbRegAppTableRecord
  2
DCO15
 70
     0
  0
APPID
  5
3E20
330
9
100
AcDbSymbolTableRecord
100
AcDbRegAppTableRecord
  2
GENIUS_GENDIM_13
 70
     0
  0
APPID
  5
3E21
330
9
100
AcDbSymbolTableRecord
100
AcDbRegAppTableRecord
  2
GENIUS_GENDTOL_13
 70
     0
  0
APPID
  5
3E22
330
9
100
AcDbSymbolTableRecord
100
AcDbRegAppTableRecord
  2
GENIUS_GE3DTOL_13
 70
     0
  0
APPID
  5
3E48
330
9
100
AcDbSymbolTableRecord
100
AcDbRegAppTableRecord
  2
AD_DRAW
 70
     0
  0
APPID
  5
3E94
330
9
100
AcDbSymbolTableRecord
100
AcDbRegAppTableRecord
  2
ASURF_PCURVE_APPNAME
 70
     0
  0
APPID
  5
3E99
330
9
100
AcDbSymbolTableRecord
100
AcDbRegAppTableRecord
  2
AMG_3D2D_5_0
 70
     0
  0
APPID
  5
3EC4
330
9
100
AcDbSymbolTableRecord
100
AcDbRegAppTableRecord
  2
DESIGNERASSEMBLIES
 70
     0
  0
APPID
  5
3EC9
330
9
100
AcDbSymbolTableRecord
100
AcDbRegAppTableRecord
  2
ACADM_DIM_EDIT
 70
     0
  0
APPID
  5
3ECA
330
9
100
AcDbSymbolTableRecord
100
AcDbRegAppTableRecord
  2
AMDT_DM_ADJ
 70
     0
  0
ENDTAB
  0
TABLE
  2
DIMSTYLE
  5
A
330
0
100
AcDbSymbolTable
 70
    14
  0
DIMSTYLE
105
2494
330
A
100
AcDbSymbolTableRecord
100
AcDbDimStyleTableRecord
  2
AM_ISO
 70
     0
  3

  4
"
  5

  6

  7

 40
1.0
 41
2.5
 42
1.0
 43
10.0
 44
1.0
 45
0.0
 46
0.0
 47
0.1
 48
0.1
140
3.5
141
0.0
142
0.0
143
0.0393701
144
1.0
145
0.0
146
0.71
147
1.5
 71
     0
 72
     0
 73
     0
 74
     0
 75
     0
 76
     0
 77
     1
 78
     8
170
     0
171
     2
172
     1
173
     0
174
     0
175
     0
176
   256
177
   256
178
     2
270
     2
271
     2
272
     3
273
     2
274
     4
340
F
275
     0
280
     0
281
     0
282
     0
283
     0
284
     8
285
     0
286
     0
287
     3
288
     0
  0
DIMSTYLE
105
2495
330
A
100
AcDbSymbolTableRecord
100
AcDbDimStyleTableRecord
  2
AM_ISO$3
 70
     0
  3

  4
"
  5

  6

  7

 40
1.0
 41
2.5
 42
1.0
 43
10.0
 44
1.0
 45
0.0
 46
0.0
 47
0.1
 48
0.1
140
3.5
141
0.0
142
0.0
143
0.0393701
144
1.0
145
0.0
146
0.71
147
1.5
 71
     0
 72
     0
 73
     0
 74
     1
 75
     0
 76
     0
 77
     1
 78
     8
170
     0
171
     2
172
     0
173
     0
174
     0
175
     0
176
   256
177
   256
178
     2
270
     2
271
     2
272
     3
273
     2
274
     4
340
F
275
     0
280
     0
281
     0
282
     0
283
     0
284
     8
285
     0
286
     0
287
     0
288
     1
  0
DIMSTYLE
105
2496
330
A
100
AcDbSymbolTableRecord
100
AcDbDimStyleTableRecord
  2
AM_ISO$4
 70
     0
  3

  4
"
  5

  6

  7

 40
1.0
 41
2.5
 42
1.0
 43
10.0
 44
1.0
 45
0.0
 46
0.0
 47
0.1
 48
0.1
140
3.5
141
0.0
142
0.0
143
0.0393701
144
1.0
145
0.0
146
0.71
147
1.5
 71
     0
 72
     0
 73
     0
 74
     1
 75
     0
 76
     0
 77
     1
 78
     8
170
     0
171
     2
172
     0
173
     0
174
     0
175
     0
176
   256
177
   256
178
     2
270
     2
271
     2
272
     3
273
     2
274
     4
340
F
275
     0
280
     0
281
     0
282
     0
283
     0
284
     8
285
     0
286
     0
287
     0
288
     1
  0
DIMSTYLE
105
2497
330
A
100
AcDbSymbolTableRecord
100
AcDbDimStyleTableRecord
  2
AM_ISO$6
 70
     0
  3

  4
"
  5

  6

  7

 40
1.0
 41
2.5
 42
1.0
 43
10.0
 44
1.0
 45
0.0
 46
0.0
 47
0.1
 48
0.1
140
3.5
141
0.0
142
0.0
143
0.0393701
144
1.0
145
0.0
146
0.71
147
1.5
 71
     0
 72
     0
 73
     0
 74
     0
 75
     0
 76
     0
 77
     0
 78
     8
170
     0
171
     2
172
     1
173
     0
174
     0
175
     0
176
   256
177
   256
178
     2
270
     2
271
     2
272
     3
273
     2
274
     4
340
F
275
     0
280
     0
281
     0
282
     0
283
     0
284
     8
285
     0
286
     0
287
     3
288
     0
  0
DIMSTYLE
105
2498
330
A
100
AcDbSymbolTableRecord
100
AcDbDimStyleTableRecord
  2
AM_ISO$7
 70
     0
  3

  4
"
  5

  6

  7

 40
1.0
 41
2.5
 42
1.0
 43
10.0
 44
1.0
 45
0.0
 46
0.0
 47
0.1
 48
0.1
140
5.0
141
0.0
142
0.0
143
0.0393701
144
1.0
145
0.0
146
0.71
147
1.5
 71
     0
 72
     0
 73
     0
 74
     0
 75
     0
 76
     0
 77
     1
 78
     8
170
     0
171
     2
172
     1
173
     0
174
     0
175
     0
176
   256
177
   256
178
     2
270
     2
271
     2
272
     3
273
     2
274
     4
340
F
275
     0
280
     0
281
     0
282
     0
283
     0
284
     8
285
     0
286
     0
287
     3
288
     0
  0
DIMSTYLE
105
2499
330
A
100
AcDbSymbolTableRecord
100
AcDbDimStyleTableRecord
  2
AM_ISO$SF
 70
     0
  3

  4
"
  5

  6

  7

 40
1.0
 41
2.5
 42
1.0
 43
10.0
 44
1.0
 45
0.0
 46
0.0
 47
0.1
 48
0.1
140
3.5
141
0.0
142
0.0
143
0.0393701
144
1.0
145
0.0
146
0.71
147
1.5
 71
     0
 72
     0
 73
     0
 74
     0
 75
     1
 76
     1
 77
     1
 78
     8
170
     0
171
     2
172
     1
173
     0
174
     0
175
     0
176
   256
177
   256
178
     2
270
     2
271
     2
272
     3
273
     2
274
     4
340
F
275
     0
280
     0
281
     0
282
     0
283
     0
284
     8
285
     0
286
     0
287
     3
288
     0
  0
DIMSTYLE
105
249E
330
A
100
AcDbSymbolTableRecord
100
AcDbDimStyleTableRecord
  2
AM_ISO$SH
 70
     0
  3

  4
"
  5

  6
GENAXEH
  7

 40
1.0
 41
2.5
 42
1.0
 43
10.0
 44
1.0
 45
0.0
 46
0.0
 47
0.1
 48
0.1
140
3.5
141
0.0
142
0.0
143
0.0393701
144
2.0
145
0.0
146
0.71
147
1.5
 71
     0
 72
     0
 73
     0
 74
     0
 75
     1
 76
     1
 77
     1
 78
     8
170
     0
171
     2
172
     1
173
     1
174
     0
175
     0
176
   256
177
   256
178
     2
270
     2
271
     2
272
     3
273
     2
274
     4
340
F
275
     0
280
     0
281
     0
282
     0
283
     0
284
     8
285
     0
286
     0
287
     3
288
     0
  0
DIMSTYLE
105
2521
330
A
100
AcDbSymbolTableRecord
100
AcDbDimStyleTableRecord
  2
AM_ANSI
 70
     0
  3

  4
mm
  5

  6

  7

 40
1.0
 41
0.1
 42
0.05
 43
0.5
 44
0.1
 45
0.0
 46
0.0
 47
0.1
 48
0.1
140
0.12
141
0.0
142
0.0
143
25.4
144
1.0
145
0.0
146
0.71
147
0.06
 71
     0
 72
     0
 73
     1
 74
     1
 75
     0
 76
     0
 77
     0
 78
     7
170
     0
171
     2
172
     0
173
     0
174
     0
175
     0
176
   256
177
   256
178
     2
270
     2
271
     4
272
     4
273
     2
274
     4
340
F
275
     0
280
     0
281
     0
282
     0
283
     1
284
     7
285
     0
286
     0
287
     3
288
     0
  0
DIMSTYLE
105
2522
330
A
100
AcDbSymbolTableRecord
100
AcDbDimStyleTableRecord
  2
AM_ANSI$3
 70
     0
  3

  4
mm
  5

  6

  7

 40
1.0
 41
0.1
 42
0.05
 43
0.5
 44
0.1
 45
0.0
 46
0.0
 47
0.1
 48
0.1
140
0.12
141
0.0
142
0.0
143
25.4
144
1.0
145
0.0
146
0.71
147
0.06
 71
     0
 72
     0
 73
     1
 74
     1
 75
     0
 76
     0
 77
     0
 78
     7
170
     0
171
     2
172
     0
173
     0
174
     0
175
     0
176
   256
177
   256
178
     2
270
     2
271
     4
272
     4
273
     2
274
     4
340
F
275
     0
280
     0
281
     0
282
     0
283
     1
284
     7
285
     0
286
     0
287
     0
288
     1
  0
DIMSTYLE
105
2523
330
A
100
AcDbSymbolTableRecord
100
AcDbDimStyleTableRecord
  2
AM_ANSI$4
 70
     0
  3

  4
mm
  5

  6

  7

 40
1.0
 41
0.1
 42
0.05
 43
0.5
 44
0.1
 45
0.0
 46
0.0
 47
0.1
 48
0.1
140
0.12
141
0.0
142
0.0
143
25.4
144
1.0
145
0.0
146
0.71
147
0.06
 71
     0
 72
     0
 73
     1
 74
     1
 75
     0
 76
     0
 77
     0
 78
     7
170
     0
171
     2
172
     0
173
     0
174
     0
175
     0
176
   256
177
   256
178
     2
270
     2
271
     4
272
     4
273
     2
274
     4
340
F
275
     0
280
     0
281
     0
282
     0
283
     1
284
     7
285
     0
286
     0
287
     0
288
     1
  0
DIMSTYLE
105
2524
330
A
100
AcDbSymbolTableRecord
100
AcDbDimStyleTableRecord
  2
AM_ANSI$7
 70
     0
  3

  4
mm
  5

  6

  7

 40
1.0
 41
0.1
 42
0.05
 43
0.5
 44
0.1
 45
0.0
 46
0.0
 47
0.1
 48
0.1
140
0.24
141
0.0
142
0.0
143
25.4
144
1.0
145
0.0
146
0.71
147
0.06
 71
     0
 72
     0
 73
     1
 74
     1
 75
     0
 76
     0
 77
     0
 78
     7
170
     0
171
     2
172
     0
173
     0
174
     0
175
     0
176
   256
177
   256
178
     2
270
     2
271
     4
272
     4
273
     2
274
     4
340
F
275
     0
280
     0
281
     0
282
     0
283
     1
284
     7
285
     0
286
     0
287
     3
288
     0
  0
DIMSTYLE
105
2525
330
A
100
AcDbSymbolTableRecord
100
AcDbDimStyleTableRecord
  2
AM_ANSI$SF
 70
     0
  3

  4
mm
  5

  6

  7

 40
1.0
 41
0.1
 42
0.05
 43
0.5
 44
0.1
 45
0.0
 46
0.0
 47
0.1
 48
0.1
140
0.12
141
0.0
142
0.0
143
25.4
144
1.0
145
0.0
146
0.71
147
0.06
 71
     0
 72
     0
 73
     1
 74
     1
 75
     1
 76
     1
 77
     0
 78
     7
170
     0
171
     2
172
     0
173
     0
174
     0
175
     0
176
   256
177
   256
178
     2
270
     2
271
     4
272
     4
273
     2
274
     4
340
F
275
     0
280
     0
281
     0
282
     0
283
     1
284
     7
285
     0
286
     0
287
     3
288
     0
  0
DIMSTYLE
105
2526
330
A
100
AcDbSymbolTableRecord
100
AcDbDimStyleTableRecord
  2
AM_ANSI$SH
 70
     0
  3

  4
mm
  5

  6
GENAXEH
  7

 40
1.0
 41
0.1
 42
0.05
 43
0.5
 44
0.1
 45
0.0
 46
0.0
 47
0.1
 48
0.1
140
0.12
141
0.0
142
0.0
143
25.4
144
1.0
145
0.0
146
0.71
147
0.06
 71
     0
 72
     0
 73
     1
 74
     1
 75
     1
 76
     1
 77
     0
 78
     7
170
     0
171
     2
172
     0
173
     1
174
     0
175
     0
176
   256
177
   256
178
     2
270
     2
271
     4
272
     4
273
     2
274
     4
340
F
275
     0
280
     0
281
     0
282
     0
283
     1
284
     7
285
     0
286
     0
287
     3
288
     0
  0
DIMSTYLE
105
2D18
330
A
100
AcDbSymbolTableRecord
100
AcDbDimStyleTableRecord
  2
SCALA2_5
 70
     0
  3

  4

  5

  6

  7

 40
2.5
 41
3.0
 42
1.0
 43
1.0
 44
1.0
 45
0.0
 46
0.0
 47
0.0
 48
0.0
140
3.0
141
0.09
142
0.0
143
25.4
144
1.0
145
0.0
146
0.2
147
1.0
 71
     0
 72
     0
 73
     0
 74
     0
 75
     0
 76
     0
 77
     1
 78
    12
170
     0
171
     2
172
     1
173
     0
174
     0
175
     0
176
     1
177
     1
178
     7
270
     2
271
     2
272
     4
273
     2
274
     2
340
2D17
275
     0
280
     0
281
     0
282
     0
283
     1
284
     0
285
     0
286
     0
287
     3
288
     0
  0
ENDTAB
  0
TABLE
  2
BLOCK_RECORD
  5
1
330
0
100
AcDbSymbolTable
 70
     2
  0
BLOCK_RECORD
  5
18
102
{ACAD_XDICTIONARY
360
2691
102
}
330
1
100
AcDbSymbolTableRecord
100
AcDbBlockTableRecord
  2
*MODEL_SPACE
  0
BLOCK_RECORD
  5
15
102
{ACAD_XDICTIONARY
360
2703
102
}
330
1
100
AcDbSymbolTableRecord
100
AcDbBlockTableRecord
  2
*PAPER_SPACE
  0
BLOCK_RECORD
  5
249A
330
1
100
AcDbSymbolTableRecord
100
AcDbBlockTableRecord
  2
GENAXEH
  0
BLOCK_RECORD
  5
3EBB
330
1
100
AcDbSymbolTableRecord
100
AcDbBlockTableRecord
  2
*U1
  0
ENDTAB
  0
ENDSEC
  0
SECTION
  2
BLOCKS
  0
BLOCK
  5
19
330
18
100
AcDbEntity
  8
0
100
AcDbBlockBegin
  2
*MODEL_SPACE
 70
     0
 10
0.0
 20
0.0
 30
0.0
  3
*MODEL_SPACE
  1

  0
ENDBLK
  5
1A
330
18
100
AcDbEntity
  8
0
100
AcDbBlockEnd
  0
BLOCK
  5
16
330
15
100
AcDbEntity
 67
     1
  8
0
100
AcDbBlockBegin
  2
*PAPER_SPACE
 70
     0
 10
0.0
 20
0.0
 30
0.0
  3
*PAPER_SPACE
  1

  0
ENDBLK
  5
17
330
15
100
AcDbEntity
 67
     1
  8
0
100
AcDbBlockEnd
  0
BLOCK
  5
249C
330
249A
100
AcDbEntity
  8
0
100
AcDbBlockBegin
  2
GENAXEH
 70
     0
 10
0.0
 20
0.0
 30
0.0
  3
GENAXEH
  1

  0
LINE
  5
249B
330
249A
100
AcDbEntity
  8
0
100
AcDbLine
 10
-1.0
 20
0.0
 30
0.0
 11
1.0
 21
0.0
 31
0.0
  0
ENDBLK
  5
249D
330
249A
100
AcDbEntity
  8
0
100
AcDbBlockEnd
  0
BLOCK
  5
3EBC
330
3EBB
100
AcDbEntity
  8
0
100
AcDbBlockBegin
  2
*U1
 70
     1
 10
0.0
 20
0.0
 30
0.0
  3
*U1
  1

  0
ENDBLK
  5
3EBD
330
3EBB
100
AcDbEntity
  8
0
100
AcDbBlockEnd
  0
ENDSEC
  0
SECTION
  2
ENTITIES
  0
LINE
  5
31EB
330
18
100
AcDbEntity
  8
ASSI
100
AcDbLine
 10
-1527.597164166079
 20
150.6648619132213
 30
0.0
 11
-1527.597164166079
 21
300.7105387435538
 31
0.0
  0
ARC
  5
31EF
330
18
100
AcDbEntity
  8
DISEGNO
100
AcDbCircle
 10
-1561.297164166082
 20
257.5821626984143
 30
0.0
 40
5.0
100
AcDbArc
 50
342.5423968762767
 51
197.4576031237232
  0
LINE
  5
31F0
330
18
100
AcDbEntity
  8
DISEGNO
100
AcDbLine
 10
-1578.097164166081
 20
267.2821626984151
 30
0.0
 11
-1553.597164166081
 21
267.2821626984151
 31
0.0
  0
LINE
  5
31F2
330
18
100
AcDbEntity
  8
DISEGNO
100
AcDbLine
 10
-1561.797164166082
 20
202.0011626984142
 30
0.0
 11
-1572.497164166079
 21
210.9411626984147
 31
0.0
  0
ARC
  5
31F3
330
18
100
AcDbEntity
  8
DISEGNO
100
AcDbCircle
 10
-1561.297164166082
 20
215.2821626984151
 30
0.0
 40
5.0
100
AcDbArc
 50
162.5423968762767
 51
17.45760312372323
  0
ARC
  5
31F4
330
18
100
AcDbEntity
  8
DISEGNO
100
AcDbCircle
 10
-1563.597164166081
 20
166.782162698415
 30
0.0
 40
6.5
100
AcDbArc
 50
90.0
 51
179.9999892283999
  0
ARC
  5
31F5
330
18
100
AcDbEntity
  8
DISEGNO
100
AcDbCircle
 10
-1575.597164166081
 20
191.3861626984144
 30
0.0
 40
12.0
100
AcDbArc
 50
0.0000000048429924
 51
49.99999999999741
  0
LINE
  5
31F8
330
18
100
AcDbEntity
  8
DISEGNO
100
AcDbLine
 10
-1571.097164166081
 20
253.4481626984143
 30
0.0
 11
-1572.097164166081
 21
244.987162698415
 31
0.0
  0
LINE
  5
31F9
330
18
100
AcDbEntity
  8
DISEGNO
100
AcDbLine
 10
-1579.797164166082
 20
248.7821626984151
 30
0.0
 11
-1579.797164166082
 21
245.7821626984151
 31
0.0
  0
LINE
  5
31FA
330
18
100
AcDbEntity
  8
DISEGNO
100
AcDbLine
 10
-1580.097164166081
 20
212.7821626984151
 30
0.0
 11
-1580.097164166081
 21
194.7821626984151
 31
0.0
  0
LINE
  5
31FB
330
18
100
AcDbEntity
  8
DISEGNO
100
AcDbLine
 10
-1567.897164166081
 20
200.5791626984156
 30
0.0
 11
-1573.097164166081
 21
204.8931626984158
 31
0.0
  0
LINE
  5
31FC
330
18
100
AcDbEntity
  8
DISEGNO
100
AcDbLine
 10
-1580.097164166081
 20
185.782162698415
 30
0.0
 11
-1580.097164166081
 21
164.282162698415
 31
0.0
  0
ARC
  5
31FD
330
18
100
AcDbEntity
  8
DISEGNO
100
AcDbCircle
 10
-1567.097164166081
 20
165.782162698415
 30
0.0
 40
0.5
100
AcDbArc
 50
0.0
 51
90.0
  0
LINE
  5
31FE
330
18
100
AcDbEntity
  8
DISEGNO
100
AcDbLine
 10
-1578.097164166081
 20
162.282162698415
 30
0.0
 11
-1567.097164166081
 21
162.282162698415
 31
0.0
  0
ARC
  5
31FF
330
18
100
AcDbEntity
  8
DISEGNO
100
AcDbCircle
 10
-1578.097164166081
 20
164.282162698415
 30
0.0
 40
2.0
100
AcDbArc
 50
179.999999995157
 51
270.0
  0
ARC
  5
3200
330
18
100
AcDbEntity
  8
DISEGNO
100
AcDbCircle
 10
-1567.097164166081
 20
162.782162698415
 30
0.0
 40
0.5
100
AcDbArc
 50
270.0
 51
0.0
  0
LINE
  5
3201
330
18
100
AcDbEntity
  8
DISEGNO
100
AcDbLine
 10
-1566.597164166081
 20
165.782162698415
 30
0.0
 11
-1566.597164166081
 21
162.782162698415
 31
0.0
  0
LINE
  5
3202
330
18
100
AcDbEntity
  8
DISEGNO
100
AcDbLine
 10
-1567.097164166081
 20
166.282162698415
 30
0.0
 11
-1569.597164166081
 21
166.282162698415
 31
0.0
  0
ARC
  5
3203
330
18
100
AcDbEntity
  8
DISEGNO
100
AcDbCircle
 10
-1569.597164166081
 20
166.782162698415
 30
0.0
 40
0.5
100
AcDbArc
 50
180.0
 51
270.0
  0
LINE
  5
3204
330
18
100
AcDbEntity
  8
ASSI
100
AcDbLine
 10
-1584.210732068187
 20
190.282162698415
 30
0.0
 11
-1565.863807345542
 21
190.282162698415
 31
0.0
  0
ARC
  5
3205
330
18
100
AcDbEntity
  8
DISEGNO
100
AcDbCircle
 10
-1575.597164166081
 20
189.282162698415
 30
0.0
 40
6.5
100
AcDbArc
 50
270.0
 51
0.0
  0
LINE
  5
3206
330
18
100
AcDbEntity
  8
DISEGNO
100
AcDbLine
 10
-1576.097164166081
 20
183.282162698415
 30
0.0
 11
-1576.097164166081
 21
185.782162698415
 31
0.0
  0
ARC
  5
3207
330
18
100
AcDbEntity
  8
DISEGNO
100
AcDbCircle
 10
-1575.597164166081
 20
183.282162698415
 30
0.0
 40
0.5
100
AcDbArc
 50
180.0
 51
270.0
  0
ARC
  5
3208
330
18
100
AcDbEntity
  8
DISEGNO
100
AcDbCircle
 10
-1576.597164166081
 20
185.782162698415
 30
0.0
 40
0.5
100
AcDbArc
 50
0.0
 51
90.0
  0
ARC
  5
3209
330
18
100
AcDbEntity
  8
DISEGNO
100
AcDbCircle
 10
-1579.597164166081
 20
185.782162698415
 30
0.0
 40
0.5
100
AcDbArc
 50
90.0
 51
180.0
  0
LINE
  5
320A
330
18
100
AcDbEntity
  8
DISEGNO
100
AcDbLine
 10
-1576.597164166081
 20
186.282162698415
 30
0.0
 11
-1579.597164166081
 21
186.282162698415
 31
0.0
  0
ARC
  5
320B
330
18
100
AcDbEntity
  8
DISEGNO
100
AcDbCircle
 10
-1575.597164166081
 20
191.2811626984148
 30
0.0
 40
6.5
100
AcDbArc
 50
0.0
 51
90.0
  0
LINE
  5
320C
330
18
100
AcDbEntity
  8
DISEGNO
100
AcDbLine
 10
-1576.097164166081
 20
194.7821626984151
 30
0.0
 11
-1576.097164166081
 21
197.2821626984151
 31
0.0
  0
ARC
  5
320D
330
18
100
AcDbEntity
  8
DISEGNO
100
AcDbCircle
 10
-1576.597164166081
 20
194.7821626984151
 30
0.0
 40
0.5
100
AcDbArc
 50
270.0
 51
0.0
  0
ARC
  5
320E
330
18
100
AcDbEntity
  8
DISEGNO
100
AcDbCircle
 10
-1575.597164166081
 20
197.2821626984151
 30
0.0
 40
0.5
100
AcDbArc
 50
90.0
 51
180.0
  0
ARC
  5
320F
330
18
100
AcDbEntity
  8
DISEGNO
100
AcDbCircle
 10
-1579.597164166081
 20
194.7821626984151
 30
0.0
 40
0.5
100
AcDbArc
 50
180.0
 51
270.0
  0
LINE
  5
3210
330
18
100
AcDbEntity
  8
DISEGNO
100
AcDbLine
 10
-1576.597164166081
 20
194.2821626984151
 30
0.0
 11
-1579.597164166081
 21
194.2821626984151
 31
0.0
  0
LINE
  5
3211
330
18
100
AcDbEntity
  8
INGOMBRI
100
AcDbLine
 10
-1569.097164166081
 20
189.282162698415
 30
0.0
 11
-1569.097164166081
 21
191.2811626984148
 31
0.0
  0
LINE
  5
3212
330
18
100
AcDbEntity
  8
DISEGNO
100
AcDbLine
 10
-1580.097164166081
 20
245.7821626984151
 30
0.0
 11
-1580.097164166081
 21
215.7821626984151
 31
0.0
  0
LINE
  5
3213
330
18
100
AcDbEntity
  8
DISEGNO
100
AcDbLine
 10
-1571.097164166081
 20
219.4161626984151
 30
0.0
 11
-1572.097164166081
 21
227.8771626984144
 31
0.0
  0
ARC
  5
3214
330
18
100
AcDbEntity
  8
DISEGNO
100
AcDbCircle
 10
-1571.097164166081
 20
207.1911626984147
 30
0.0
 40
3.0
100
AcDbArc
 50
180.0
 51
229.9999999999974
  0
ARC
  5
3215
330
18
100
AcDbEntity
  8
INGOMBRI
100
AcDbCircle
 10
-1573.097164166081
 20
210.1751626984151
 30
0.0
 40
1.0
100
AcDbArc
 50
49.99999999999741
 51
180.0
  0
LINE
  5
3216
330
18
100
AcDbEntity
  8
INGOMBRI
100
AcDbLine
 10
-1574.097164166081
 20
210.1751626984151
 30
0.0
 11
-1574.097164166081
 21
207.1911626984147
 31
0.0
  0
LINE
  5
3217
330
18
100
AcDbEntity
  8
DISEGNO
100
AcDbLine
 10
-1579.797164166082
 20
215.7821626984151
 30
0.0
 11
-1580.097164166081
 21
215.7821626984151
 31
0.0
  0
LINE
  5
3218
330
18
100
AcDbEntity
  8
DISEGNO
100
AcDbLine
 10
-1579.797164166082
 20
212.7821626984151
 30
0.0
 11
-1580.097164166081
 21
212.7821626984151
 31
0.0
  0
LINE
  5
3219
330
18
100
AcDbEntity
  8
DISEGNO
100
AcDbLine
 10
-1579.797164166082
 20
215.7821626984151
 30
0.0
 11
-1579.797164166082
 21
212.7821626984151
 31
0.0
  0
LINE
  5
321A
330
18
100
AcDbEntity
  8
DISEGNO
100
AcDbLine
 10
-1568.097164166081
 20
216.7821626984151
 30
0.0
 11
-1566.066860173166
 21
216.7821626984151
 31
0.0
  0
ARC
  5
321B
330
18
100
AcDbEntity
  8
DISEGNO
100
AcDbCircle
 10
-1568.097164166081
 20
219.7821626984151
 30
0.0
 40
3.0
100
AcDbArc
 50
186.9999999999991
 51
270.0
  0
LINE
  5
321C
330
18
100
AcDbEntity
  8
DISEGNO
100
AcDbLine
 10
-1572.097164166081
 20
244.3761626984142
 30
0.0
 11
-1572.097164166081
 21
228.4881626984152
 31
0.0
  0
ARC
  5
321D
330
18
100
AcDbEntity
  8
DISEGNO
100
AcDbCircle
 10
-1567.097164166081
 20
228.4881626984152
 30
0.0
 40
5.0
100
AcDbArc
 50
180.0
 51
187.0130000000004
  0
LINE
  5
321E
330
18
100
AcDbEntity
  8
DISEGNO
100
AcDbLine
 10
-1579.797164166082
 20
245.7821626984151
 30
0.0
 11
-1580.097164166081
 21
245.7821626984151
 31
0.0
  0
ARC
  5
321F
330
18
100
AcDbEntity
  8
DISEGNO
100
AcDbCircle
 10
-1567.097164166081
 20
244.3761626984142
 30
0.0
 40
5.0
100
AcDbArc
 50
172.9869999999995
 51
180.0
  0
LINE
  5
3221
330
18
100
AcDbEntity
  8
DISEGNO
100
AcDbLine
 10
-1580.097164166081
 20
265.2821626984151
 30
0.0
 11
-1580.097164166081
 21
248.7821626984151
 31
0.0
  0
LINE
  5
3222
330
18
100
AcDbEntity
  8
DISEGNO
100
AcDbLine
 10
-1579.797164166082
 20
248.7821626984151
 30
0.0
 11
-1580.097164166081
 21
248.7821626984151
 31
0.0
  0
ARC
  5
3223
330
18
100
AcDbEntity
  8
DISEGNO
100
AcDbCircle
 10
-1568.097164166081
 20
253.0821626984143
 30
0.0
 40
3.0
100
AcDbArc
 50
90.0
 51
172.9869999999995
  0
LINE
  5
3224
330
18
100
AcDbEntity
  8
DISEGNO
100
AcDbLine
 10
-1566.066860173166
 20
256.0821626984143
 30
0.0
 11
-1568.097164166081
 21
256.0821626984143
 31
0.0
  0
ARC
  5
3225
330
18
100
AcDbEntity
  8
DISEGNO
100
AcDbCircle
 10
-1578.097164166081
 20
265.2821626984151
 30
0.0
 40
2.0
100
AcDbArc
 50
90.0
 51
179.999999995157
  0
LINE
  5
3229
330
18
100
AcDbEntity
  8
DISEGNO
100
AcDbLine
 10
-1503.597164166078
 20
253.082162698415
 30
0.0
 11
-1503.597164166079
 21
208.2821626984151
 31
0.0
  0
LINE
  5
322A
330
18
100
AcDbEntity
  8
DISEGNO
100
AcDbLine
 10
-1475.297164166082
 20
248.7821626984151
 30
0.0
 11
-1475.297164166082
 21
245.7821626984151
 31
0.0
  0
ARC
  5
322B
330
18
100
AcDbEntity
  8
DISEGNO
100
AcDbCircle
 10
-1488.097164166081
 20
246.4451626984155
 30
0.0
 40
5.0
100
AcDbArc
 50
0.0000000048429924
 51
10.49999999999962
  0
LINE
  5
322D
330
18
100
AcDbEntity
  8
DISEGNO
100
AcDbLine
 10
-1551.597164166079
 20
253.082162698415
 30
0.0
 11
-1551.597164166079
 21
208.7821626984151
 31
0.0
  0
ARC
  5
322E
330
18
100
AcDbEntity
  8
DISEGNO
100
AcDbCircle
 10
-1499.297164166082
 20
216.8321626984143
 30
0.0
 40
0.4
100
AcDbArc
 50
134.9999999999953
 51
270.0
  0
LINE
  5
322F
330
18
100
AcDbEntity
  8
DISEGNO
100
AcDbLine
 10
-1499.928025789067
 20
218.4321626984147
 30
0.0
 11
-1498.997164166079
 21
218.4321626984147
 31
0.0
  0
ARC
  5
3230
330
18
100
AcDbEntity
  8
DISEGNO
100
AcDbCircle
 10
-1495.69716416608
 20
183.8631626984151
 30
0.0
 40
4.08101
100
AcDbArc
 50
168.0000000000001
 51
0.0
  0
ARC
  5
3231
330
18
100
AcDbEntity
  8
DISEGNO
100
AcDbCircle
 10
-1499.597164166081
 20
166.782162698415
 30
0.0
 40
0.5
100
AcDbArc
 50
180.0
 51
270.0
  0
ARC
  5
3232
330
18
100
AcDbEntity
  8
DISEGNO
100
AcDbCircle
 10
-1493.597164166081
 20
166.782162698415
 30
0.0
 40
6.5
100
AcDbArc
 50
90.0
 51
179.9999892283999
  0
LINE
  5
3233
330
18
100
AcDbEntity
  8
DISEGNO
100
AcDbLine
 10
-1510.097164166081
 20
162.282162698415
 30
0.0
 11
-1497.097164166081
 21
162.282162698415
 31
0.0
  0
LINE
  5
3237
330
18
100
AcDbEntity
  8
DISEGNO
100
AcDbLine
 10
-1505.097164166081
 20
185.6581626984152
 30
0.0
 11
-1500.89716416608
 21
205.7751626984154
 31
0.0
  0
LINE
  5
3239
330
18
100
AcDbEntity
  8
DISEGNO
100
AcDbLine
 10
-1550.097164166081
 20
185.6581626984152
 30
0.0
 11
-1554.39716416608
 21
205.7751626984154
 31
0.0
  0
ARC
  5
323A
330
18
100
AcDbEntity
  8
DISEGNO
100
AcDbCircle
 10
-1569.497164166079
 20
192.8081626984149
 30
0.0
 40
12.0
100
AcDbArc
 50
11.99999999999978
 51
49.99999999999741
  0
LINE
  5
323B
330
18
100
AcDbEntity
  8
INGOMBRI
100
AcDbLine
 10
-1536.597164166072
 20
198.2821626984151
 30
0.0
 11
-1518.597164166081
 21
198.2821626984151
 31
0.0
  0
LINE
  5
323C
330
18
100
AcDbEntity
  8
DISEGNO
100
AcDbLine
 10
-1533.097164166081
 20
178.782162698415
 30
0.0
 11
-1522.097164166081
 21
178.782162698415
 31
0.0
  0
LINE
  5
323D
330
18
100
AcDbEntity
  8
INGOMBRI
100
AcDbLine
 10
-1517.997164166079
 20
181.782162698415
 30
0.0
 11
-1537.19716416608
 21
181.782162698415
 31
0.0
  0
LINE
  5
323E
330
18
100
AcDbEntity
  8
DISEGNO
100
AcDbLine
 10
-1542.097164166081
 20
162.282162698415
 30
0.0
 11
-1513.097164166081
 21
162.282162698415
 31
0.0
  0
LINE
  5
323F
330
18
100
AcDbEntity
  8
DISEGNO
100
AcDbLine
 10
-1548.097164166081
 20
167.5821626984143
 30
0.0
 11
-1507.097164166081
 21
167.5821626984143
 31
0.0
  0
LINE
  5
3240
330
18
100
AcDbEntity
  8
NORMALI
100
AcDbLine
 10
-1548.597164166079
 20
186.382162698415
 30
0.0
 11
-1537.597164166079
 21
186.3821626984149
 31
0.0
  0
LINE
  5
3241
330
18
100
AcDbEntity
  8
DISEGNO
100
AcDbLine
 10
-1534.097164166081
 20
177.782162698415
 30
0.0
 11
-1534.097164166081
 21
174.782162698415
 31
0.0
  0
ARC
  5
3242
330
18
100
AcDbEntity
  8
DISEGNO
100
AcDbCircle
 10
-1548.097164166081
 20
168.5821626984143
 30
0.0
 40
1.0
100
AcDbArc
 50
179.999999995157
 51
270.0
  0
ARC
  5
3243
330
18
100
AcDbEntity
  8
DISEGNO
100
AcDbCircle
 10
-1548.097164166081
 20
172.782162698415
 30
0.0
 40
1.0
100
AcDbArc
 50
90.0
 51
179.9999946522192
  0
LINE
  5
3244
330
18
100
AcDbEntity
  8
DISEGNO
100
AcDbLine
 10
-1558.097164166081
 20
162.282162698415
 30
0.0
 11
-1545.097164166081
 21
162.282162698415
 31
0.0
  0
LINE
  5
3245
330
18
100
AcDbEntity
  8
ASSI
100
AcDbLine
 10
-1562.597164166081
 20
159.657162698415
 30
0.0
 11
-1562.597164166081
 21
175.9231626984146
 31
0.0
  0
ARC
  5
3246
330
18
100
AcDbEntity
  8
DISEGNO
100
AcDbCircle
 10
-1558.097164166081
 20
165.782162698415
 30
0.0
 40
0.5
100
AcDbArc
 50
90.0
 51
180.0
  0
ARC
  5
3247
330
18
100
AcDbEntity
  8
DISEGNO
100
AcDbCircle
 10
-1558.097164166081
 20
162.782162698415
 30
0.0
 40
0.5
100
AcDbArc
 50
180.0
 51
270.0
  0
LINE
  5
3248
330
18
100
AcDbEntity
  8
DISEGNO
100
AcDbLine
 10
-1558.597164166081
 20
165.782162698415
 30
0.0
 11
-1558.597164166081
 21
162.782162698415
 31
0.0
  0
LINE
  5
3249
330
18
100
AcDbEntity
  8
DISEGNO
100
AcDbLine
 10
-1555.597164166081
 20
166.282162698415
 30
0.0
 11
-1558.097164166081
 21
166.282162698415
 31
0.0
  0
ARC
  5
324A
330
18
100
AcDbEntity
  8
DISEGNO
100
AcDbCircle
 10
-1561.597164166081
 20
166.782162698415
 30
0.0
 40
6.5
100
AcDbArc
 50
0.0
 51
90.0
  0
LINE
  5
324B
330
18
100
AcDbEntity
  8
DISEGNO
100
AcDbLine
 10
-1561.597164166081
 20
173.282162698415
 30
0.0
 11
-1563.597164166081
 21
173.282162698415
 31
0.0
  0
ARC
  5
324C
330
18
100
AcDbEntity
  8
DISEGNO
100
AcDbCircle
 10
-1555.597164166081
 20
166.782162698415
 30
0.0
 40
0.5
100
AcDbArc
 50
270.0
 51
0.0
  0
LINE
  5
324D
330
18
100
AcDbEntity
  8
DISEGNO
100
AcDbLine
 10
-1549.097164166081
 20
172.782162698415
 30
0.0
 11
-1549.097164166081
 21
168.5821626984143
 31
0.0
  0
LINE
  5
324E
330
18
100
AcDbEntity
  8
DISEGNO
100
AcDbLine
 10
-1542.097164166081
 20
162.532162698415
 30
0.0
 11
-1542.097164166081
 21
162.282162698415
 31
0.0
  0
LINE
  5
324F
330
18
100
AcDbEntity
  8
DISEGNO
100
AcDbLine
 10
-1545.097164166081
 20
162.532162698415
 30
0.0
 11
-1545.097164166081
 21
162.282162698415
 31
0.0
  0
LINE
  5
3250
330
18
100
AcDbEntity
  8
DISEGNO
100
AcDbLine
 10
-1542.097164166081
 20
162.532162698415
 30
0.0
 11
-1545.097164166081
 21
162.532162698415
 31
0.0
  0
LINE
  5
3251
330
18
100
AcDbEntity
  8
DISEGNO
100
AcDbLine
 10
-1548.097164166081
 20
173.782162698415
 30
0.0
 11
-1535.097164166081
 21
173.782162698415
 31
0.0
  0
ARC
  5
3252
330
18
100
AcDbEntity
  8
DISEGNO
100
AcDbCircle
 10
-1535.097164166081
 20
174.782162698415
 30
0.0
 40
1.0
100
AcDbArc
 50
270.0
 51
0.0
  0
LINE
  5
3253
330
18
100
AcDbEntity
  8
NORMALI
100
AcDbLine
 10
-1549.597164166079
 20
187.382162698415
 30
0.0
 11
-1548.597164166079
 21
186.382162698415
 31
0.0
  0
ARC
  5
3254
330
18
100
AcDbEntity
  8
DISEGNO
100
AcDbCircle
 10
-1547.19716416608
 20
186.282162698415
 30
0.0
 40
3.0
100
AcDbArc
 50
191.9999999999998
 51
270.0
  0
LINE
  5
3255
330
18
100
AcDbEntity
  8
DISEGNO
100
AcDbLine
 10
-1555.597164166081
 20
184.7111626984151
 30
0.0
 11
-1557.797164166082
 21
195.3031626984157
 31
0.0
  0
LINE
  5
3256
330
18
100
AcDbEntity
  8
DISEGNO
100
AcDbLine
 10
-1563.597164166081
 20
191.3861626984144
 30
0.0
 11
-1563.597164166081
 21
183.8631626984151
 31
0.0
  0
LINE
  5
3257
330
18
100
AcDbEntity
  8
NORMALI
100
AcDbLine
 10
-1549.597164166077
 20
203.782162698415
 30
0.0
 11
-1549.597164166079
 21
187.382162698415
 31
0.0
  0
ARC
  5
3258
330
18
100
AcDbEntity
  8
DISEGNO
100
AcDbCircle
 10
-1559.597164166081
 20
183.8631626984151
 30
0.0
 40
4.08101
100
AcDbArc
 50
180.0
 51
11.99999999999978
  0
LINE
  5
325A
330
18
100
AcDbEntity
  8
INGOMBRI
100
AcDbLine
 10
-1537.597164166072
 20
197.2821626984151
 30
0.0
 11
-1537.597164166081
 21
182.782162698415
 31
0.0
  0
LINE
  5
325B
330
18
100
AcDbEntity
  8
INGOMBRI
100
AcDbLine
 10
-1547.19716416608
 20
183.282162698415
 30
0.0
 11
-1538.19716416608
 21
183.282162698415
 31
0.0
  0
ARC
  5
325C
330
18
100
AcDbEntity
  8
DISEGNO
100
AcDbCircle
 10
-1533.097164166081
 20
177.782162698415
 30
0.0
 40
1.0
100
AcDbArc
 50
90.0
 51
179.999999995157
  0
LINE
  5
325D
330
18
100
AcDbEntity
  8
INGOMBRI
100
AcDbLine
 10
-1537.597164166081
 20
182.782162698415
 30
0.0
 11
-1536.597164166081
 21
181.782162698415
 31
0.0
  0
LINE
  5
325E
330
18
100
AcDbEntity
  8
INGOMBRI
100
AcDbLine
 10
-1537.69716416608
 20
182.282162698415
 30
0.0
 11
-1537.69716416608
 21
182.782162698415
 31
0.0
  0
ARC
  5
325F
330
18
100
AcDbEntity
  8
INGOMBRI
100
AcDbCircle
 10
-1538.19716416608
 20
182.782162698415
 30
0.0
 40
0.5
100
AcDbArc
 50
0.0000107390996264
 51
90.0
  0
ARC
  5
3260
330
18
100
AcDbEntity
  8
INGOMBRI
100
AcDbCircle
 10
-1537.19716416608
 20
182.282162698415
 30
0.0
 40
0.5
100
AcDbArc
 50
180.0
 51
270.0
  0
LINE
  5
3261
330
18
100
AcDbEntity
  8
INGOMBRI
100
AcDbLine
 10
-1537.597164166072
 20
197.2821626984151
 30
0.0
 11
-1536.597164166072
 21
198.2821626984151
 31
0.0
  0
LINE
  5
3262
330
18
100
AcDbEntity
  8
DISEGNO
100
AcDbLine
 10
-1521.097164166081
 20
177.782162698415
 30
0.0
 11
-1521.097164166081
 21
174.782162698415
 31
0.0
  0
LINE
  5
3263
330
18
100
AcDbEntity
  8
DISEGNO
100
AcDbLine
 10
-1507.097164166081
 20
173.782162698415
 30
0.0
 11
-1520.097164166081
 21
173.782162698415
 31
0.0
  0
ARC
  5
3264
330
18
100
AcDbEntity
  8
DISEGNO
100
AcDbCircle
 10
-1520.097164166081
 20
174.782162698415
 30
0.0
 40
1.0
100
AcDbArc
 50
179.999999995157
 51
270.0
  0
LINE
  5
3265
330
18
100
AcDbEntity
  8
DISEGNO
100
AcDbLine
 10
-1510.097164166081
 20
162.532162698415
 30
0.0
 11
-1510.097164166081
 21
162.282162698415
 31
0.0
  0
LINE
  5
3266
330
18
100
AcDbEntity
  8
DISEGNO
100
AcDbLine
 10
-1513.097164166081
 20
162.532162698415
 30
0.0
 11
-1513.097164166081
 21
162.282162698415
 31
0.0
  0
LINE
  5
3267
330
18
100
AcDbEntity
  8
DISEGNO
100
AcDbLine
 10
-1513.097164166081
 20
162.532162698415
 30
0.0
 11
-1510.097164166081
 21
162.532162698415
 31
0.0
  0
ARC
  5
3268
330
18
100
AcDbEntity
  8
DISEGNO
100
AcDbCircle
 10
-1507.097164166081
 20
168.5821626984143
 30
0.0
 40
1.0
100
AcDbArc
 50
270.0
 51
0.0
  0
ARC
  5
3269
330
18
100
AcDbEntity
  8
DISEGNO
100
AcDbCircle
 10
-1507.097164166081
 20
172.782162698415
 30
0.0
 40
1.0
100
AcDbArc
 50
0.0
 51
90.0
  0
LINE
  5
326A
330
18
100
AcDbEntity
  8
DISEGNO
100
AcDbLine
 10
-1506.097164166081
 20
172.782162698415
 30
0.0
 11
-1506.097164166081
 21
168.5821626984143
 31
0.0
  0
LINE
  5
326B
330
18
100
AcDbEntity
  8
INGOMBRI
100
AcDbLine
 10
-1508.097164166081
 20
183.282162698415
 30
0.0
 11
-1516.997164166079
 21
183.282162698415
 31
0.0
  0
LINE
  5
326C
330
18
100
AcDbEntity
  8
INGOMBRI
100
AcDbLine
 10
-1517.597164166081
 20
197.2821626984151
 30
0.0
 11
-1517.597164166081
 21
182.782162698415
 31
0.0
  0
ARC
  5
326F
330
18
100
AcDbEntity
  8
DISEGNO
100
AcDbCircle
 10
-1522.097164166081
 20
177.782162698415
 30
0.0
 40
1.0
100
AcDbArc
 50
0.0
 51
90.0
  0
LINE
  5
3270
330
18
100
AcDbEntity
  8
INGOMBRI
100
AcDbLine
 10
-1518.597164166081
 20
181.782162698415
 30
0.0
 11
-1517.597164166081
 21
182.782162698415
 31
0.0
  0
LINE
  5
3271
330
18
100
AcDbEntity
  8
INGOMBRI
100
AcDbLine
 10
-1517.497164166079
 20
182.282162698415
 30
0.0
 11
-1517.497164166079
 21
182.782162698415
 31
0.0
  0
ARC
  5
3272
330
18
100
AcDbEntity
  8
INGOMBRI
100
AcDbCircle
 10
-1516.997164166079
 20
182.782162698415
 30
0.0
 40
0.5
100
AcDbArc
 50
90.0
 51
180.0
  0
ARC
  5
3273
330
18
100
AcDbEntity
  8
INGOMBRI
100
AcDbCircle
 10
-1517.997164166079
 20
182.282162698415
 30
0.0
 40
0.5
100
AcDbArc
 50
270.0
 51
0.0
  0
LINE
  5
3277
330
18
100
AcDbEntity
  8
INGOMBRI
100
AcDbLine
 10
-1518.597164166081
 20
198.2821626984151
 30
0.0
 11
-1517.597164166081
 21
197.2821626984151
 31
0.0
  0
LINE
  5
3278
330
18
100
AcDbEntity
  8
NORMALI
100
AcDbLine
 10
-1505.597164166079
 20
203.782162698415
 30
0.0
 11
-1505.597164166079
 21
187.382162698415
 31
0.0
  0
ARC
  5
3279
330
18
100
AcDbEntity
  8
DISEGNO
100
AcDbCircle
 10
-1508.097164166081
 20
186.282162698415
 30
0.0
 40
3.0
100
AcDbArc
 50
270.0
 51
348.0000000000002
  0
LINE
  5
327A
330
18
100
AcDbEntity
  8
NORMALI
100
AcDbLine
 10
-1506.597164166079
 20
186.382162698415
 30
0.0
 11
-1505.597164166079
 21
187.382162698415
 31
0.0
  0
CIRCLE
  5
327D
330
18
100
AcDbEntity
  8
NORMALI
100
AcDbCircle
 10
-1527.597164166079
 20
224.7821626984151
 30
0.0
 40
12.5
  0
LINE
  5
327E
330
18
100
AcDbEntity
  8
DISEGNO
100
AcDbLine
 10
-1549.597164166081
 20
211.782162698415
 30
0.0
 11
-1503.597164166079
 21
211.782162698415
 31
0.0
  0
LINE
  5
327F
330
18
100
AcDbEntity
  8
NORMALI
100
AcDbLine
 10
-1548.597164166079
 20
211.782162698415
 30
0.0
 11
-1549.597164166079
 21
210.7821626984151
 31
0.0
  0
LINE
  5
3280
330
18
100
AcDbEntity
  8
DISEGNO
100
AcDbLine
 10
-1554.597164166081
 20
211.6291626984148
 30
0.0
 11
-1554.19716416608
 21
215.6771626984155
 31
0.0
  0
ARC
  5
3281
330
18
100
AcDbEntity
  8
INGOMBRI
100
AcDbCircle
 10
-1560.097164166081
 20
210.1821626984147
 30
0.0
 40
0.25
100
AcDbArc
 50
103.7340000000018
 51
175.4169999999994
  0
ARC
  5
3282
330
18
100
AcDbEntity
  8
INGOMBRI
100
AcDbCircle
 10
-1562.597164166081
 20
210.1821626984147
 30
0.0
 40
0.25
100
AcDbArc
 50
4.592839999998723
 51
76.2755999999922
  0
ARC
  5
3283
330
18
100
AcDbEntity
  8
INGOMBRI
100
AcDbCircle
 10
-1561.297164166082
 20
210.2821626984151
 30
0.0
 40
1.0
100
AcDbArc
 50
184.5930000000005
 51
355.4169999999994
  0
LINE
  5
3284
330
18
100
AcDbEntity
  8
DISEGNO
100
AcDbLine
 10
-1549.597164166081
 20
211.782162698415
 30
0.0
 11
-1549.597164166079
 21
208.7821626984151
 31
0.0
  0
LINE
  5
3285
330
18
100
AcDbEntity
  8
DISEGNO
100
AcDbLine
 10
-1554.597164166081
 20
211.6291626984148
 30
0.0
 11
-1554.597164166081
 21
207.8541626984152
 31
0.0
  0
LINE
  5
3286
330
18
100
AcDbEntity
  8
NORMALI
100
AcDbLine
 10
-1549.597164166079
 20
208.7821626984151
 30
0.0
 11
-1549.597164166077
 21
203.782162698415
 31
0.0
  0
ARC
  5
3288
330
18
100
AcDbEntity
  8
DISEGNO
100
AcDbCircle
 10
-1544.597164166081
 20
207.8541626984152
 30
0.0
 40
10.0
100
AcDbArc
 50
180.0
 51
191.9999999999998
  0
LINE
  5
3289
330
18
100
AcDbEntity
  8
DISEGNO
100
AcDbLine
 10
-1551.597164166079
 20
208.7821626984151
 30
0.0
 11
-1549.597164166077
 21
208.7821626984151
 31
0.0
  0
ARC
  5
328A
330
18
100
AcDbEntity
  8
DISEGNO
100
AcDbCircle
 10
-1549.597164166081
 20
211.3671626984142
 30
0.0
 40
5.0
100
AcDbArc
 50
174.0000000000015
 51
180.0
  0
LINE
  5
328B
330
18
100
AcDbEntity
  8
DISEGNO
100
AcDbLine
 10
-1556.527468158997
 20
216.7821626984151
 30
0.0
 11
-1555.19716416608
 21
216.7821626984151
 31
0.0
  0
ARC
  5
328C
330
18
100
AcDbEntity
  8
DISEGNO
100
AcDbCircle
 10
-1555.19716416608
 20
215.7821626984151
 30
0.0
 40
1.0
100
AcDbArc
 50
354.0000000000015
 51
90.0
  0
LINE
  5
328D
330
18
100
AcDbEntity
  8
DISEGNO
100
AcDbLine
 10
-1501.411564636251
 20
216.7105493213476
 30
0.0
 11
-1500.69716416608
 21
211.9281626984157
 31
0.0
  0
LINE
  5
328E
330
18
100
AcDbEntity
  8
NORMALI
100
AcDbLine
 10
-1505.597164166081
 20
210.7821626984151
 30
0.0
 11
-1505.597164166079
 21
203.782162698415
 31
0.0
  0
LINE
  5
328F
330
18
100
AcDbEntity
  8
DISEGNO
100
AcDbLine
 10
-1500.597164166081
 20
211.3051626984143
 30
0.0
 11
-1500.597164166081
 21
207.8541626984152
 31
0.0
  0
LINE
  5
3290
330
18
100
AcDbEntity
  8
DISEGNO
100
AcDbLine
 10
-1505.597164166081
 20
208.2821626984133
 30
0.0
 11
-1503.597164166079
 21
208.2821626984133
 31
0.0
  0
ARC
  5
3292
330
18
100
AcDbEntity
  8
DISEGNO
100
AcDbCircle
 10
-1510.597164166081
 20
207.8541626984152
 30
0.0
 40
10.0
100
AcDbArc
 50
348.0000000000002
 51
0.0000000048429924
  0
LINE
  5
3293
330
18
100
AcDbEntity
  8
NORMALI
100
AcDbLine
 10
-1505.597164166081
 20
210.7821626984151
 30
0.0
 11
-1506.597164166081
 21
211.782162698415
 31
0.0
  0
ARC
  5
3294
330
18
100
AcDbEntity
  8
DISEGNO
100
AcDbCircle
 10
-1503.597164166081
 20
211.3051626984143
 30
0.0
 40
3.0
100
AcDbArc
 50
0.0000000048429924
 51
11.99999999999978
  0
ARC
  5
3295
330
18
100
AcDbEntity
  8
DISEGNO
100
AcDbCircle
 10
-1499.928025789067
 20
216.9321626984147
 30
0.0
 40
1.5
100
AcDbArc
 50
90.0
 51
188.4961093133692
  0
LINE
  5
3296
330
18
100
AcDbEntity
  8
DISEGNO
100
AcDbLine
 10
-1475.097164166081
 20
212.7821626984151
 30
0.0
 11
-1475.097164166081
 21
194.7821626984151
 31
0.0
  0
ARC
  5
3297
330
18
100
AcDbEntity
  8
DISEGNO
100
AcDbCircle
 10
-1479.597164166081
 20
191.3861626984144
 30
0.0
 40
12.0
100
AcDbArc
 50
130.0000000000025
 51
180.0
  0
LINE
  5
3298
330
18
100
AcDbEntity
  8
DISEGNO
100
AcDbLine
 10
-1499.69716416608
 20
184.7111626984151
 30
0.0
 11
-1495.497164166079
 21
204.5951626984152
 31
0.0
  0
LINE
  5
3299
330
18
100
AcDbEntity
  8
DISEGNO
100
AcDbLine
 10
-1487.297164166082
 20
200.5791626984156
 30
0.0
 11
-1482.19716416608
 21
204.8931626984158
 31
0.0
  0
LINE
  5
329A
330
18
100
AcDbEntity
  8
DISEGNO
100
AcDbLine
 10
-1475.097164166081
 20
185.782162698415
 30
0.0
 11
-1475.097164166081
 21
164.282162698415
 31
0.0
  0
LINE
  5
329B
330
18
100
AcDbEntity
  8
DISEGNO
100
AcDbLine
 10
-1477.097164166081
 20
162.282162698415
 30
0.0
 11
-1488.097164166081
 21
162.282162698415
 31
0.0
  0
LINE
  5
329C
330
18
100
AcDbEntity
  8
ASSI
100
AcDbLine
 10
-1492.597164166081
 20
159.657162698415
 30
0.0
 11
-1492.597164166081
 21
175.9231626984146
 31
0.0
  0
ARC
  5
329D
330
18
100
AcDbEntity
  8
DISEGNO
100
AcDbCircle
 10
-1488.097164166081
 20
165.782162698415
 30
0.0
 40
0.5
100
AcDbArc
 50
90.0
 51
180.0
  0
ARC
  5
329E
330
18
100
AcDbEntity
  8
DISEGNO
100
AcDbCircle
 10
-1497.097164166081
 20
165.782162698415
 30
0.0
 40
0.5
100
AcDbArc
 50
0.0
 51
90.0
  0
ARC
  5
329F
330
18
100
AcDbEntity
  8
DISEGNO
100
AcDbCircle
 10
-1497.097164166081
 20
162.782162698415
 30
0.0
 40
0.5
100
AcDbArc
 50
270.0
 51
0.0
  0
LINE
  5
32A0
330
18
100
AcDbEntity
  8
DISEGNO
100
AcDbLine
 10
-1496.597164166081
 20
165.782162698415
 30
0.0
 11
-1496.597164166081
 21
162.782162698415
 31
0.0
  0
ARC
  5
32A1
330
18
100
AcDbEntity
  8
DISEGNO
100
AcDbCircle
 10
-1488.097164166081
 20
162.782162698415
 30
0.0
 40
0.5
100
AcDbArc
 50
180.0
 51
270.0
  0
LINE
  5
32A2
330
18
100
AcDbEntity
  8
DISEGNO
100
AcDbLine
 10
-1488.597164166081
 20
165.782162698415
 30
0.0
 11
-1488.597164166081
 21
162.782162698415
 31
0.0
  0
ARC
  5
32A3
330
18
100
AcDbEntity
  8
DISEGNO
100
AcDbCircle
 10
-1491.597164166081
 20
166.782162698415
 30
0.0
 40
6.5
100
AcDbArc
 50
0.0
 51
90.0
  0
LINE
  5
32A4
330
18
100
AcDbEntity
  8
DISEGNO
100
AcDbLine
 10
-1491.597164166081
 20
173.282162698415
 30
0.0
 11
-1493.597164166081
 21
173.282162698415
 31
0.0
  0
LINE
  5
32A5
330
18
100
AcDbEntity
  8
DISEGNO
100
AcDbLine
 10
-1497.097164166081
 20
166.282162698415
 30
0.0
 11
-1499.597164166081
 21
166.282162698415
 31
0.0
  0
LINE
  5
32A6
330
18
100
AcDbEntity
  8
DISEGNO
100
AcDbLine
 10
-1485.597164166081
 20
166.282162698415
 30
0.0
 11
-1488.097164166081
 21
166.282162698415
 31
0.0
  0
ARC
  5
32A7
330
18
100
AcDbEntity
  8
DISEGNO
100
AcDbCircle
 10
-1485.597164166081
 20
166.782162698415
 30
0.0
 40
0.5
100
AcDbArc
 50
270.0
 51
0.0
  0
ARC
  5
32A8
330
18
100
AcDbEntity
  8
DISEGNO
100
AcDbCircle
 10
-1477.097164166081
 20
164.282162698415
 30
0.0
 40
2.0
100
AcDbArc
 50
270.0
 51
0.0
  0
POINT
  5
32A9
330
18
100
AcDbEntity
  8
DISEGNO
100
AcDbPoint
 10
-1475.097164166081
 20
164.282162698415
 30
0.0
  0
ARC
  5
32AA
330
18
100
AcDbEntity
  8
DISEGNO
100
AcDbCircle
 10
-1479.597164166081
 20
191.2811626984148
 30
0.0
 40
6.5
100
AcDbArc
 50
90.0
 51
179.999997356169
  0
ARC
  5
32AB
330
18
100
AcDbEntity
  8
DISEGNO
100
AcDbCircle
 10
-1479.597164166081
 20
189.282162698415
 30
0.0
 40
6.5
100
AcDbArc
 50
179.9999892235992
 51
270.0
  0
LINE
  5
32AC
330
18
100
AcDbEntity
  8
ASSI
100
AcDbLine
 10
-1470.983596263979
 20
190.282162698415
 30
0.0
 11
-1489.330520986624
 21
190.282162698415
 31
0.0
  0
LINE
  5
32AD
330
18
100
AcDbEntity
  8
DISEGNO
100
AcDbLine
 10
-1491.597164166081
 20
191.3861626984144
 30
0.0
 11
-1491.597164166081
 21
183.8631626984151
 31
0.0
  0
LINE
  5
32AE
330
18
100
AcDbEntity
  8
DISEGNO
100
AcDbLine
 10
-1486.097164166081
 20
189.282162698415
 30
0.0
 11
-1486.097164166081
 21
191.2811626984148
 31
0.0
  0
ARC
  5
32AF
330
18
100
AcDbEntity
  8
DISEGNO
100
AcDbCircle
 10
-1475.597164166081
 20
185.782162698415
 30
0.0
 40
0.5
100
AcDbArc
 50
0.0
 51
90.0
  0
LINE
  5
32B0
330
18
100
AcDbEntity
  8
DISEGNO
100
AcDbLine
 10
-1479.097164166081
 20
185.782162698415
 30
0.0
 11
-1479.097164166081
 21
183.282162698415
 31
0.0
  0
ARC
  5
32B1
330
18
100
AcDbEntity
  8
DISEGNO
100
AcDbCircle
 10
-1479.597164166081
 20
183.282162698415
 30
0.0
 40
0.5
100
AcDbArc
 50
270.0
 51
0.0
  0
ARC
  5
32B2
330
18
100
AcDbEntity
  8
DISEGNO
100
AcDbCircle
 10
-1478.597164166081
 20
185.782162698415
 30
0.0
 40
0.5
100
AcDbArc
 50
90.0
 51
179.999999995157
  0
LINE
  5
32B3
330
18
100
AcDbEntity
  8
DISEGNO
100
AcDbLine
 10
-1478.597164166081
 20
186.282162698415
 30
0.0
 11
-1475.597164166081
 21
186.282162698415
 31
0.0
  0
ARC
  5
32B4
330
18
100
AcDbEntity
  8
DISEGNO
100
AcDbCircle
 10
-1475.597164166081
 20
194.7821626984151
 30
0.0
 40
0.5
100
AcDbArc
 50
270.0
 51
0.0
  0
LINE
  5
32B5
330
18
100
AcDbEntity
  8
DISEGNO
100
AcDbLine
 10
-1479.097164166081
 20
197.2821626984151
 30
0.0
 11
-1479.097164166081
 21
194.7821626984151
 31
0.0
  0
ARC
  5
32B6
330
18
100
AcDbEntity
  8
DISEGNO
100
AcDbCircle
 10
-1478.597164166081
 20
194.7821626984151
 30
0.0
 40
0.5
100
AcDbArc
 50
179.999999995157
 51
270.0
  0
ARC
  5
32B7
330
18
100
AcDbEntity
  8
DISEGNO
100
AcDbCircle
 10
-1479.597164166081
 20
197.2821626984151
 30
0.0
 40
0.5
100
AcDbArc
 50
0.0
 51
90.0
  0
LINE
  5
32B8
330
18
100
AcDbEntity
  8
DISEGNO
100
AcDbLine
 10
-1478.597164166081
 20
194.2821626984151
 30
0.0
 11
-1475.597164166081
 21
194.2821626984151
 31
0.0
  0
LINE
  5
32B9
330
18
100
AcDbEntity
  8
DISEGNO
100
AcDbLine
 10
-1475.097164166081
 20
245.7821626984151
 30
0.0
 11
-1475.097164166081
 21
215.7821626984151
 31
0.0
  0
LINE
  5
32BA
330
18
100
AcDbEntity
  8
DISEGNO
100
AcDbLine
 10
-1484.597164166081
 20
218.1761626984153
 30
0.0
 11
-1483.19716416608
 21
225.6021626984148
 31
0.0
  0
LINE
  5
32BB
330
18
100
AcDbEntity
  8
DISEGNO
100
AcDbLine
 10
-1482.097164166081
 20
210.9321626984147
 30
0.0
 11
-1487.69716416608
 21
210.9321626984147
 31
0.0
  0
ARC
  5
32BC
330
18
100
AcDbEntity
  8
DISEGNO
100
AcDbCircle
 10
-1487.69716416608
 20
202.9321626984147
 30
0.0
 40
8.0
100
AcDbArc
 50
90.0
 51
168.0000000000001
  0
LINE
  5
32BD
330
18
100
AcDbEntity
  8
DISEGNO
100
AcDbLine
 10
-1483.997164166079
 20
216.4321626984147
 30
0.0
 11
-1499.297164166082
 21
216.4321626984147
 31
0.0
  0
LINE
  5
32BE
330
18
100
AcDbEntity
  8
DISEGNO
100
AcDbLine
 10
-1499.585032131724
 20
217.1140306640591
 30
0.0
 11
-1498.785032131725
 21
217.9200306640596
 31
0.0
  0
ARC
  5
32BF
330
18
100
AcDbEntity
  8
DISEGNO
100
AcDbCircle
 10
-1498.997164166079
 20
218.1321626984154
 30
0.0
 40
0.3
100
AcDbArc
 50
314.9999999999954
 51
90.0
  0
ARC
  5
32C0
330
18
100
AcDbEntity
  8
DISEGNO
100
AcDbCircle
 10
-1484.297164166082
 20
218.1221626984152
 30
0.0
 40
0.3
100
AcDbArc
 50
169.5000000000003
 51
225.0000000000046
  0
LINE
  5
32C1
330
18
100
AcDbEntity
  8
DISEGNO
100
AcDbLine
 10
-1483.69716416608
 20
217.1141626984154
 30
0.0
 11
-1484.497164166079
 21
217.9091626984155
 31
0.0
  0
ARC
  5
32C2
330
18
100
AcDbEntity
  8
DISEGNO
100
AcDbCircle
 10
-1483.997164166079
 20
216.8321626984143
 30
0.0
 40
0.4
100
AcDbArc
 50
270.0
 51
45.0000000000046
  0
LINE
  5
32C3
330
18
100
AcDbEntity
  8
DISEGNO
100
AcDbLine
 10
-1481.097164166081
 20
209.9321626984147
 30
0.0
 11
-1481.097164166081
 21
207.1921626984149
 31
0.0
  0
ARC
  5
32C4
330
18
100
AcDbEntity
  8
DISEGNO
100
AcDbCircle
 10
-1484.097164166081
 20
207.1921626984149
 30
0.0
 40
3.0
100
AcDbArc
 50
310.0000000000026
 51
0.0000000048429924
  0
ARC
  5
32C5
330
18
100
AcDbEntity
  8
DISEGNO
100
AcDbCircle
 10
-1482.097164166081
 20
209.9321626984147
 30
0.0
 40
1.0
100
AcDbArc
 50
0.0000000048429924
 51
90.0
  0
LINE
  5
32C6
330
18
100
AcDbEntity
  8
DISEGNO
100
AcDbLine
 10
-1475.297164166082
 20
215.7821626984151
 30
0.0
 11
-1475.097164166081
 21
215.7821626984151
 31
0.0
  0
LINE
  5
32C7
330
18
100
AcDbEntity
  8
DISEGNO
100
AcDbLine
 10
-1475.297164166082
 20
212.7821626984151
 30
0.0
 11
-1475.097164166081
 21
212.7821626984151
 31
0.0
  0
LINE
  5
32C8
330
18
100
AcDbEntity
  8
DISEGNO
100
AcDbLine
 10
-1475.297164166082
 20
215.7821626984151
 30
0.0
 11
-1475.297164166082
 21
212.7821626984151
 31
0.0
  0
LINE
  5
32C9
330
18
100
AcDbEntity
  8
DISEGNO
100
AcDbLine
 10
-1483.097164166081
 20
246.4451626984155
 30
0.0
 11
-1483.097164166081
 21
226.514162698415
 31
0.0
  0
ARC
  5
32CA
330
18
100
AcDbEntity
  8
DISEGNO
100
AcDbCircle
 10
-1488.097164166081
 20
226.514162698415
 30
0.0
 40
5.0
100
AcDbArc
 50
349.5000000000003
 51
0.0000000048429924
  0
LINE
  5
32CB
330
18
100
AcDbEntity
  8
DISEGNO
100
AcDbLine
 10
-1475.297164166082
 20
245.7821626984151
 30
0.0
 11
-1475.097164166081
 21
245.7821626984151
 31
0.0
  0
LINE
  5
32CD
330
18
100
AcDbEntity
  8
DISEGNO
100
AcDbLine
 10
-1500.097164166081
 20
254.4331626984149
 30
0.0
 11
-1498.997164166079
 21
254.4311626984145
 31
0.0
  0
LINE
  5
32CE
330
18
100
AcDbEntity
  8
DISEGNO
100
AcDbLine
 10
-1501.597164166081
 20
267.2821626984151
 30
0.0
 11
-1477.097164166081
 21
267.2821626984151
 31
0.0
  0
LINE
  5
32CF
330
18
100
AcDbEntity
  8
DISEGNO
100
AcDbLine
 10
-1541.597164166079
 20
257.782162698415
 30
0.0
 11
-1513.597164166079
 21
257.782162698415
 31
0.0
  0
LINE
  5
32D1
330
18
100
AcDbEntity
  8
INGOMBRI
100
AcDbLine
 10
-1507.597164166081
 20
263.1821626984152
 30
0.0
 11
-1547.597164166081
 21
263.1821626984152
 31
0.0
  0
LINE
  5
32D2
330
18
100
AcDbEntity
  8
INGOMBRI
100
AcDbLine
 10
-1507.597164166083
 20
260.8821626984152
 30
0.0
 11
-1547.597164166081
 21
260.8821626984152
 31
0.0
  0
LINE
  5
32D3
330
18
100
AcDbEntity
  8
INGOMBRI
100
AcDbLine
 10
-1508.267037147161
 20
258.3821626984152
 30
0.0
 11
-1546.927291185
 21
258.3821626984152
 31
0.0
  0
LINE
  5
32D4
330
18
100
AcDbEntity
  8
DISEGNO
100
AcDbLine
 10
-1551.597164166079
 20
253.082162698415
 30
0.0
 11
-1503.597164166079
 21
253.082162698415
 31
0.0
  0
ARC
  5
32D5
330
18
100
AcDbEntity
  8
DISEGNO
100
AcDbCircle
 10
-1548.597164166081
 20
263.2821626984151
 30
0.0
 40
0.5
100
AcDbArc
 50
90.0
 51
180.0
  0
ARC
  5
32D6
330
18
100
AcDbEntity
  8
DISEGNO
100
AcDbCircle
 10
-1548.597164166081
 20
258.2821626984151
 30
0.0
 40
0.5
100
AcDbArc
 50
180.0
 51
270.0
  0
LINE
  5
32D7
330
18
100
AcDbEntity
  8
DISEGNO
100
AcDbLine
 10
-1543.597164166081
 20
256.0821626984143
 30
0.0
 11
-1550.69716416608
 21
256.0821626984143
 31
0.0
  0
LINE
  5
32D9
330
18
100
AcDbEntity
  8
DISEGNO
100
AcDbLine
 10
-1543.597164166081
 20
265.7821626984151
 30
0.0
 11
-1552.597164166081
 21
265.7821626984151
 31
0.0
  0
LINE
  5
32DA
330
18
100
AcDbEntity
  8
DISEGNO
100
AcDbLine
 10
-1549.097164166081
 20
258.2821626984151
 30
0.0
 11
-1549.097164166081
 21
263.2821626984151
 31
0.0
  0
ARC
  5
32DB
330
18
100
AcDbEntity
  8
DISEGNO
100
AcDbCircle
 10
-1552.997164166079
 20
258.0821626984143
 30
0.0
 40
1.5
100
AcDbArc
 50
13.00000000000026
 51
166.9999999999997
  0
LINE
  5
32DC
330
18
100
AcDbEntity
  8
DISEGNO
100
AcDbLine
 10
-1555.19716416608
 20
256.0821626984143
 30
0.0
 11
-1556.527468158997
 21
256.0821626984143
 31
0.0
  0
ARC
  5
32DD
330
18
100
AcDbEntity
  8
DISEGNO
100
AcDbCircle
 10
-1555.19716416608
 20
256.3821626984154
 30
0.0
 40
0.3
100
AcDbArc
 50
270.0
 51
346.9999999999997
  0
LINE
  5
32DE
330
18
100
AcDbEntity
  8
DISEGNO
100
AcDbLine
 10
-1554.89716416608
 20
256.3141626984143
 30
0.0
 11
-1554.39716416608
 21
258.4191626984157
 31
0.0
  0
ARC
  5
32DF
330
18
100
AcDbEntity
  8
DISEGNO
100
AcDbCircle
 10
-1550.69716416608
 20
256.3821626984154
 30
0.0
 40
0.3
100
AcDbArc
 50
193.0000000000002
 51
270.0
  0
LINE
  5
32E0
330
18
100
AcDbEntity
  8
DISEGNO
100
AcDbLine
 10
-1550.997164166079
 20
256.3141626984143
 30
0.0
 11
-1551.497164166079
 21
258.4191626984157
 31
0.0
  0
ARC
  5
32E2
330
18
100
AcDbEntity
  8
DISEGNO
100
AcDbCircle
 10
-1553.597164166081
 20
266.7821626984151
 30
0.0
 40
0.5
100
AcDbArc
 50
0.0
 51
90.0
  0
ARC
  5
32E3
330
18
100
AcDbEntity
  8
DISEGNO
100
AcDbCircle
 10
-1552.597164166081
 20
266.282162698415
 30
0.0
 40
0.5
100
AcDbArc
 50
179.9999946522192
 51
270.0
  0
LINE
  5
32E4
330
18
100
AcDbEntity
  8
DISEGNO
100
AcDbLine
 10
-1553.097164166081
 20
266.7821626984151
 30
0.0
 11
-1553.097164166081
 21
266.282162698415
 31
0.0
  0
LINE
  5
32E6
330
18
100
AcDbEntity
  8
INGOMBRI
100
AcDbLine
 10
-1547.597164166077
 20
260.8821626984152
 30
0.0
 11
-1546.927291185
 21
258.3821626984152
 31
0.0
  0
LINE
  5
32E7
330
18
100
AcDbEntity
  8
DISEGNO
100
AcDbLine
 10
-1543.097164166081
 20
256.5821626984143
 30
0.0
 11
-1543.097164166081
 21
257.2821626984151
 31
0.0
  0
ARC
  5
32E8
330
18
100
AcDbEntity
  8
DISEGNO
100
AcDbCircle
 10
-1543.597164166081
 20
256.5821626984143
 30
0.0
 40
0.5
100
AcDbArc
 50
270.0
 51
0.0
  0
ARC
  5
32E9
330
18
100
AcDbEntity
  8
DISEGNO
100
AcDbCircle
 10
-1543.597164166081
 20
257.2821626984151
 30
0.0
 40
0.5
100
AcDbArc
 50
0.0
 51
90.0
  0
LINE
  5
32EA
330
18
100
AcDbEntity
  8
DISEGNO
100
AcDbLine
 10
-1543.097164166081
 20
256.5821626984143
 30
0.0
 11
-1543.097164166081
 21
257.2821626984151
 31
0.0
  0
LINE
  5
32EB
330
18
100
AcDbEntity
  8
DISEGNO
100
AcDbLine
 10
-1543.597164166081
 20
257.782162698415
 30
0.0
 11
-1548.597164166081
 21
257.782162698415
 31
0.0
  0
ARC
  5
32EC
330
18
100
AcDbEntity
  8
DISEGNO
100
AcDbCircle
 10
-1544.597164166079
 20
256.082162698415
 30
0.0
 40
3.0
100
AcDbArc
 50
270.0
 51
0.0
  0
ARC
  5
32ED
330
18
100
AcDbEntity
  8
DISEGNO
100
AcDbCircle
 10
-1543.597164166081
 20
264.282162698415
 30
0.0
 40
0.5
100
AcDbArc
 50
270.0
 51
0.0
  0
LINE
  5
32EE
330
18
100
AcDbEntity
  8
DISEGNO
100
AcDbLine
 10
-1543.097164166081
 20
264.282162698415
 30
0.0
 11
-1543.097164166081
 21
265.2821626984151
 31
0.0
  0
ARC
  5
32EF
330
18
100
AcDbEntity
  8
DISEGNO
100
AcDbCircle
 10
-1543.597164166081
 20
265.2821626984151
 30
0.0
 40
0.5
100
AcDbArc
 50
0.0
 51
90.0
  0
LINE
  5
32F0
330
18
100
AcDbEntity
  8
INGOMBRI
100
AcDbLine
 10
-1547.597164166081
 20
263.1821626984152
 30
0.0
 11
-1547.597164166079
 21
260.8821626984152
 31
0.0
  0
LINE
  5
32F1
330
18
100
AcDbEntity
  8
DISEGNO
100
AcDbLine
 10
-1543.597164166081
 20
263.7821626984151
 30
0.0
 11
-1548.597164166081
 21
263.7821626984151
 31
0.0
  0
LINE
  5
32F2
330
18
100
AcDbEntity
  8
INGOMBRI
100
AcDbLine
 10
-1507.597164166085
 20
260.8821626984152
 30
0.0
 11
-1508.267037147162
 21
258.3821626984152
 31
0.0
  0
LINE
  5
32F3
330
18
100
AcDbEntity
  8
DISEGNO
100
AcDbLine
 10
-1506.097164166081
 20
258.2821626984151
 30
0.0
 11
-1506.097164166081
 21
263.2821626984151
 31
0.0
  0
LINE
  5
32F5
330
18
100
AcDbEntity
  8
DISEGNO
100
AcDbLine
 10
-1511.597164166081
 20
257.782162698415
 30
0.0
 11
-1506.597164166081
 21
257.782162698415
 31
0.0
  0
LINE
  5
32F6
330
18
100
AcDbEntity
  8
DISEGNO
100
AcDbLine
 10
-1502.597164166081
 20
256.0821626984143
 30
0.0
 11
-1511.597164166081
 21
256.0821626984143
 31
0.0
  0
LINE
  5
32F7
330
18
100
AcDbEntity
  8
DISEGNO
100
AcDbLine
 10
-1512.097164166081
 20
256.5821626984143
 30
0.0
 11
-1512.097164166081
 21
257.2821626984151
 31
0.0
  0
ARC
  5
32F8
330
18
100
AcDbEntity
  8
DISEGNO
100
AcDbCircle
 10
-1511.597164166081
 20
257.2821626984151
 30
0.0
 40
0.5
100
AcDbArc
 50
90.0
 51
180.0
  0
ARC
  5
32F9
330
18
100
AcDbEntity
  8
DISEGNO
100
AcDbCircle
 10
-1511.597164166081
 20
256.5821626984143
 30
0.0
 40
0.5
100
AcDbArc
 50
180.0
 51
270.0
  0
LINE
  5
32FA
330
18
100
AcDbEntity
  8
DISEGNO
100
AcDbLine
 10
-1512.097164166081
 20
256.5821626984143
 30
0.0
 11
-1512.097164166081
 21
257.2821626984151
 31
0.0
  0
ARC
  5
32FB
330
18
100
AcDbEntity
  8
DISEGNO
100
AcDbCircle
 10
-1510.597164166079
 20
256.082162698415
 30
0.0
 40
3.0
100
AcDbArc
 50
180.0
 51
270.0
  0
ARC
  5
32FC
330
18
100
AcDbEntity
  8
DISEGNO
100
AcDbCircle
 10
-1506.597164166081
 20
258.2821626984151
 30
0.0
 40
0.5
100
AcDbArc
 50
270.0
 51
0.0
  0
ARC
  5
32FD
330
18
100
AcDbEntity
  8
DISEGNO
100
AcDbCircle
 10
-1500.097164166081
 20
255.4331626984149
 30
0.0
 40
1.0
100
AcDbArc
 50
225.0000000000046
 51
269.9179999999972
  0
ARC
  5
32FE
330
18
100
AcDbEntity
  8
DISEGNO
100
AcDbCircle
 10
-1502.597164166081
 20
255.0821626984143
 30
0.0
 40
1.0
100
AcDbArc
 50
45.0000000000046
 51
90.0
  0
LINE
  5
32FF
330
18
100
AcDbEntity
  8
DISEGNO
100
AcDbLine
 10
-1500.797164166082
 20
254.7251626984144
 30
0.0
 11
-1501.897164166081
 21
255.7891626984147
 31
0.0
  0
LINE
  5
3300
330
18
100
AcDbEntity
  8
DISEGNO
100
AcDbLine
 10
-1511.597164166081
 20
263.7821626984151
 30
0.0
 11
-1506.597164166081
 21
263.7821626984151
 31
0.0
  0
LINE
  5
3302
330
18
100
AcDbEntity
  8
DISEGNO
100
AcDbLine
 10
-1511.597164166081
 20
265.7821626984151
 30
0.0
 11
-1502.597164166081
 21
265.7821626984151
 31
0.0
  0
ARC
  5
3303
330
18
100
AcDbEntity
  8
INGOMBRI
100
AcDbCircle
 10
-1511.597164166081
 20
264.282162698415
 30
0.0
 40
0.5
100
AcDbArc
 50
180.0
 51
270.0
  0
LINE
  5
3304
330
18
100
AcDbEntity
  8
DISEGNO
100
AcDbLine
 10
-1512.097164166081
 20
264.282162698415
 30
0.0
 11
-1512.097164166081
 21
265.2821626984151
 31
0.0
  0
ARC
  5
3305
330
18
100
AcDbEntity
  8
DISEGNO
100
AcDbCircle
 10
-1511.597164166081
 20
265.2821626984151
 30
0.0
 40
0.5
100
AcDbArc
 50
90.0
 51
180.0
  0
ARC
  5
3306
330
18
100
AcDbEntity
  8
DISEGNO
100
AcDbCircle
 10
-1506.597164166081
 20
263.2821626984151
 30
0.0
 40
0.5
100
AcDbArc
 50
0.0
 51
90.0
  0
LINE
  5
3307
330
18
100
AcDbEntity
  8
INGOMBRI
100
AcDbLine
 10
-1507.597164166081
 20
263.1821626984152
 30
0.0
 11
-1507.597164166079
 21
260.8821626984152
 31
0.0
  0
ARC
  5
3309
330
18
100
AcDbEntity
  8
DISEGNO
100
AcDbCircle
 10
-1501.597164166081
 20
266.7821626984151
 30
0.0
 40
0.5
100
AcDbArc
 50
90.0
 51
179.9999999951602
  0
ARC
  5
330A
330
18
100
AcDbEntity
  8
DISEGNO
100
AcDbCircle
 10
-1502.597164166081
 20
266.282162698415
 30
0.0
 40
0.5
100
AcDbArc
 50
270.0
 51
0.0
  0
LINE
  5
330B
330
18
100
AcDbEntity
  8
DISEGNO
100
AcDbLine
 10
-1502.097164166081
 20
266.7821626984151
 30
0.0
 11
-1502.097164166081
 21
266.282162698415
 31
0.0
  0
LINE
  5
330D
330
18
100
AcDbEntity
  8
DISEGNO
100
AcDbLine
 10
-1484.597164166081
 20
254.6871626984157
 30
0.0
 11
-1483.19716416608
 21
247.353162698415
 31
0.0
  0
LINE
  5
330E
330
18
100
AcDbEntity
  8
DISEGNO
100
AcDbLine
 10
-1483.997164166079
 20
256.4321626984147
 30
0.0
 11
-1498.997164166079
 21
256.4321626984147
 31
0.0
  0
ARC
  5
330F
330
18
100
AcDbEntity
  8
DISEGNO
100
AcDbCircle
 10
-1498.997164166079
 20
255.9321626984147
 30
0.0
 40
0.5
100
AcDbArc
 50
90.00080000000238
 51
225.0009999999995
  0
ARC
  5
3310
330
18
100
AcDbEntity
  8
DISEGNO
100
AcDbCircle
 10
-1498.997164166079
 20
254.7321626984158
 30
0.0
 40
0.3
100
AcDbArc
 50
269.9179999999972
 51
45.0000000000046
  0
LINE
  5
3311
330
18
100
AcDbEntity
  8
DISEGNO
100
AcDbLine
 10
-1499.39716416608
 20
255.5781626984154
 30
0.0
 11
-1498.69716416608
 21
254.9441626984153
 31
0.0
  0
ARC
  5
3312
330
18
100
AcDbEntity
  8
DISEGNO
100
AcDbCircle
 10
-1484.297164166082
 20
254.7421626984142
 30
0.0
 40
0.3
100
AcDbArc
 50
134.9999999999953
 51
190.4999999999996
  0
LINE
  5
3313
330
18
100
AcDbEntity
  8
DISEGNO
100
AcDbLine
 10
-1483.69716416608
 20
255.7491626984156
 30
0.0
 11
-1484.497164166079
 21
254.9541626984155
 31
0.0
  0
ARC
  5
3314
330
18
100
AcDbEntity
  8
DISEGNO
100
AcDbCircle
 10
-1483.997164166079
 20
256.0321626984151
 30
0.0
 40
0.4
100
AcDbArc
 50
314.9999999999954
 51
90.0
  0
LINE
  5
3315
330
18
100
AcDbEntity
  8
DISEGNO
100
AcDbLine
 10
-1475.097164166081
 20
265.2821626984151
 30
0.0
 11
-1475.097164166081
 21
248.7821626984151
 31
0.0
  0
LINE
  5
3316
330
18
100
AcDbEntity
  8
DISEGNO
100
AcDbLine
 10
-1475.297164166082
 20
248.7821626984151
 30
0.0
 11
-1475.097164166081
 21
248.7821626984151
 31
0.0
  0
ARC
  5
3317
330
18
100
AcDbEntity
  8
DISEGNO
100
AcDbCircle
 10
-1477.097164166081
 20
265.2821626984151
 30
0.0
 40
2.0
100
AcDbArc
 50
0.0
 51
90.0
  0
LINE
  5
3381
330
18
100
AcDbEntity
  8
NORMALI
100
AcDbLine
 10
-1517.597164166081
 20
186.382162698415
 30
0.0
 11
-1506.597164166079
 21
186.382162698415
 31
0.0
  0
LINE
  5
35EC
330
18
100
AcDbEntity
  8
ASSI
100
AcDbLine
 10
-1227.397299908305
 20
215.6821626984151
 30
0.0
 11
-1382.222649864845
 21
215.6821626984151
 31
0.0
  0
LINE
  5
42BA
330
18
100
AcDbEntity
  8
4360048-TLF_MCR_S_105_IAM_
  6
CONTINUOUS
 62
     7
 48
0.0
100
AcDbLine
 10
-581.6697359786903
 20
273.0821626984153
 30
0.0
 11
-571.6697359786904
 21
273.0821626984153
 31
0.0
  0
LINE
  5
42BB
330
18
100
AcDbEntity
  8
4360048-TLF_MCR_S_105_IAM_
  6
CONTINUOUS
 62
     7
 48
0.0
100
AcDbLine
 10
-572.1697359786904
 20
273.5821626984153
 30
0.0
 11
-581.1697359786903
 21
273.5821626984153
 31
0.0
  0
LINE
  5
42BC
330
18
100
AcDbEntity
  8
4360048-TLF_MCR_S_105_IAM_
  6
CONTINUOUS
 62
     7
 48
0.0
100
AcDbLine
 10
-570.7697359786889
 20
269.0821626984153
 30
0.0
 11
-582.5697359786899
 21
269.0821626984153
 31
0.0
  0
LINE
  5
42BD
330
18
100
AcDbEntity
  8
4360048-TLF_MCR_S_105_IAM_
  6
CONTINUOUS
 62
     7
 48
0.0
100
AcDbLine
 10
-679.6697359786939
 20
267.7821626984151
 30
0.0
 11
-553.6697359786939
 21
267.7821626984151
 31
0.0
  0
LINE
  5
42BE
330
18
100
AcDbEntity
  8
4360048-TLF_MCR_S_105_IAM_
  6
CONTINUOUS
 62
     7
 48
0.0
100
AcDbLine
 10
-554.6697359786939
 20
267.2821626984151
 30
0.0
 11
-681.6697359786949
 21
267.2821626984151
 31
0.0
  0
LINE
  5
42BF
330
18
100
AcDbEntity
  8
4360048-TLF_MCR_S_105_IAM_
  6
CONTINUOUS
 62
     7
 48
0.0
100
AcDbLine
 10
-554.6697359786958
 20
186.2821626984151
 30
0.0
 11
-656.1697359786958
 21
186.2821626984151
 31
0.0
  0
LINE
  5
42C0
330
18
100
AcDbEntity
  8
4360048-TLF_MCR_S_105_IAM_
  6
CONTINUOUS
 62
     7
 48
0.0
100
AcDbLine
 10
-554.6697359786958
 20
194.2821626984151
 30
0.0
 11
-656.1697359786958
 21
194.2821626984151
 31
0.0
  0
LINE
  5
42C1
330
18
100
AcDbEntity
  8
4360048-TLF_MCR_S_105_IAM_
  6
CONTINUOUS
 62
     7
 48
0.0
100
AcDbLine
 10
-554.6697359786939
 20
162.2821626984151
 30
0.0
 11
-681.6697359786949
 21
162.2821626984151
 31
0.0
  0
LINE
  5
42C2
330
18
100
AcDbEntity
  8
4360048-TLF_MCR_S_105_IAM_
  6
CONTINUOUS
 62
     7
100
AcDbLine
 10
-554.6697359787341
 20
-52.48564278832862
 30
0.0
 11
-681.6697359787341
 21
-52.48564278829087
 31
0.0
  0
LINE
  5
42C3
330
18
100
AcDbEntity
  8
4360048-TLF_MCR_S_105_IAM_
  6
CONTINUOUS
 62
     7
100
AcDbLine
 10
-554.6697359787032
 20
52.51435721166956
 30
0.0
 11
-681.6697359787032
 21
52.51435721170685
 31
0.0
  0
LINE
  5
42C4
330
18
100
AcDbEntity
  8
4360048-TLF_MCR_S_105_IAM_
  6
CONTINUOUS
 62
     7
100
AcDbLine
 10
-679.669735978705
 20
47.51435721170958
 30
0.0
 11
-553.669735978705
 21
47.51435721167228
 31
0.0
  0
LINE
  5
42C5
330
18
100
AcDbEntity
  8
4360048-TLF_MCR_S_105_IAM_
  6
CONTINUOUS
 62
     7
100
AcDbLine
 10
-679.6697359787323
 20
-47.48564278829087
 30
0.0
 11
-553.6697359787323
 21
-47.48564278832816
 31
0.0
  0
ARC
  5
42C6
330
18
100
AcDbEntity
  8
4360048-TLF_MCR_S_105_IAM_
  6
CONTINUOUS
 62
     7
100
AcDbCircle
 10
-576.6697359787286
 20
-32.48564278832043
 30
0.0
 40
5.899999999999999
100
AcDbArc
 50
9.862282315344563
 51
4.769362101282583
  0
ARC
  5
42C7
330
18
100
AcDbEntity
  8
4360048-TLF_MCR_S_105_IAM_
  6
CONTINUOUS
 62
     7
100
AcDbCircle
 10
-576.6697359787104
 20
32.51435721167865
 30
0.0
 40
5.9
100
AcDbArc
 50
2.525716686397963
 51
357.474283313576
  0
LINE
  5
42C8
330
18
100
AcDbEntity
  8
4360048-TLF_MCR_S_105_IAM_
  6
CONTINUOUS
 62
     7
100
AcDbLine
 10
-573.806341387277
 20
-32.11916666770036
 30
0.0
 11
-575.5554163133402
 21
-29.82263227075497
 31
0.0
  0
LINE
  5
42C9
330
18
100
AcDbEntity
  8
4360048-TLF_MCR_S_105_IAM_
  6
CONTINUOUS
 62
     7
100
AcDbLine
 10
-574.9206610526672
 20
-34.78217718526491
 30
0.0
 11
-573.806341387277
 21
-32.11916666770036
 31
0.0
  0
LINE
  5
42CA
330
18
100
AcDbEntity
  8
4360048-TLF_MCR_S_105_IAM_
  6
CONTINUOUS
 62
     7
100
AcDbLine
 10
-573.7829846327623
 20
32.51435721167956
 30
0.0
 11
-575.2263603057346
 21
35.01435721167956
 31
0.0
  0
LINE
  5
42CB
330
18
100
AcDbEntity
  8
4360048-TLF_MCR_S_105_IAM_
  6
CONTINUOUS
 62
     7
100
AcDbLine
 10
-575.2263603057364
 20
30.01435721167956
 30
0.0
 11
-573.7829846327623
 21
32.51435721167956
 31
0.0
  0
LINE
  5
42CC
330
18
100
AcDbEntity
  8
DISEGNO
100
AcDbLine
 10
-1215.907889789431
 20
267.2821626984144
 30
0.0
 11
-548.669735978694
 21
267.2821626984151
 31
0.0
  0
LINE
  5
42CD
330
18
100
AcDbEntity
  8
ASSI
100
AcDbLine
 10
-535.4425700205033
 20
190.2821626984008
 30
0.0
 11
-1235.259268587497
 21
190.2821626984003
 31
0.0
  0
LINE
  5
42CE
330
18
100
AcDbEntity
  8
ASSI
100
AcDbLine
 10
-535.4425700205033
 20
0.0143572117063968
 30
0.0
 11
-1404.403597216478
 21
0.0143572117063968
 31
0.0
  0
LINE
  5
42CF
330
18
100
AcDbEntity
  8
DISEGNO
100
AcDbLine
 10
-1231.670890630015
 20
52.51435721170662
 30
0.0
 11
-1193.131959350437
 21
52.51435721170651
 31
0.0
  0
LINE
  5
42D0
330
18
100
AcDbEntity
  8
DISEGNO
100
AcDbLine
 10
-1228.749390494541
 20
15.51435721170662
 30
0.0
 11
-1153.184047409073
 21
15.51435721170662
 31
0.0
  0
LINE
  5
42D1
330
18
100
AcDbEntity
  8
DISEGNO
100
AcDbLine
 10
-1118.616134534164
 20
-15.4856427882936
 30
0.0
 11
-1228.749390494543
 21
-15.48564278829348
 31
0.0
  0
LINE
  5
42D2
330
18
100
AcDbEntity
  8
DISEGNO
100
AcDbLine
 10
-1118.528813833297
 20
-52.4856427882936
 30
0.0
 11
-1231.670890630013
 21
-52.48564278829338
 31
0.0
  0
LINE
  5
42D3
330
18
100
AcDbEntity
  8
4130002-RASCHIATORE_TLM_MC
  6
CONTINUOUS
 62
     7
100
AcDbLine
 10
-1220.663827426744
 20
15.01435721170776
 30
0.0
 11
-1220.663827426744
 21
-14.98564278829223
 31
0.0
  0
LINE
  5
42D4
330
18
100
AcDbEntity
  8
4130002-RASCHIATORE_TLM_MC
  6
CONTINUOUS
 62
     7
100
AcDbLine
 10
-1241.170890630014
 20
-29.4856427882936
 30
0.0
 11
-1241.170890630014
 21
29.51435721170639
 31
0.0
  0
LINE
  5
42D5
330
18
100
AcDbEntity
  8
4360009_C_DX-TLM_MCR_S_105
  6
CONTINUOUS
 62
     7
 48
0.0
100
AcDbLine
 10
-1376.670890630013
 20
38.5143572117089
 30
0.0
 11
-1376.670890630013
 21
0.0143572117088979
 31
0.0
  0
LINE
  5
42D6
330
18
100
AcDbEntity
  8
DISEGNO
100
AcDbLine
 10
-1241.670890630015
 20
52.51435721170662
 30
0.0
 11
-1241.670890630013
 21
-52.4856427882936
 31
0.0
  0
LINE
  5
42D7
330
18
100
AcDbEntity
  8
4360009_C_DX-TLM_MCR_S_105
  6
CONTINUOUS
 62
     7
 48
0.0
100
AcDbLine
 10
-1241.670890630013
 20
38.51435721170594
 30
0.0
 11
-1241.670890630013
 21
0.0143572117059421
 31
0.0
  0
LINE
  5
42D8
330
18
100
AcDbEntity
  8
DISEGNO
100
AcDbLine
 10
-1231.670890630014
 20
-29.58659239553583
 30
0.0
 11
-1231.670890630013
 21
-52.48564278829338
 31
0.0
  0
LINE
  5
42D9
330
18
100
AcDbEntity
  8
4360009_C_DX-TLM_MCR_S_105
  6
CONTINUOUS
 62
     7
 48
0.0
100
AcDbLine
 10
-1241.670890630013
 20
-50.48564278829428
 30
0.0
 11
-1241.670890630013
 21
-38.48564278829428
 31
0.0
  0
LINE
  5
42DA
330
18
100
AcDbEntity
  8
4360009_C_DX-TLM_MCR_S_105
  6
CONTINUOUS
 62
     7
 48
0.0
100
AcDbLine
 10
-1376.670890630013
 20
-50.4856427882911
 30
0.0
 11
-1376.670890630013
 21
-38.4856427882911
 31
0.0
  0
LINE
  5
42DB
330
18
100
AcDbEntity
  8
4360009_C_DX-TLM_MCR_S_105
  6
CONTINUOUS
 62
     7
 48
0.0
100
AcDbLine
 10
-1366.670890630013
 20
-52.48564278829338
 30
0.0
 11
-1241.670890630013
 21
-52.4856427882936
 31
0.0
  0
LINE
  5
42DC
330
18
100
AcDbEntity
  8
4360009_C_DX-TLM_MCR_S_105
  6
CONTINUOUS
 62
     7
 48
0.0
100
AcDbLine
 10
-1366.670890630013
 20
-52.48564278829338
 30
0.0
 11
-1374.670890630013
 21
-52.4856427882911
 31
0.0
  0
ARC
  5
42DD
330
18
100
AcDbEntity
  8
4360009_C_DX-TLM_MCR_S_105
  6
CONTINUOUS
 62
     7
 48
0.0
100
AcDbCircle
 10
-1374.670890630013
 20
-50.48564278829087
 30
0.0
 40
1.999999999999993
100
AcDbArc
 50
180.0
 51
270.0
  0
LINE
  5
42DE
330
18
100
AcDbEntity
  8
DISEGNO
100
AcDbLine
 10
-1231.670890630013
 20
-52.48564278829338
 30
0.0
 11
-1241.670890630013
 21
-52.4856427882936
 31
0.0
  0
LINE
  5
42DF
330
18
100
AcDbEntity
  8
4360009_C_DX-TLM_MCR_S_105
  6
CONTINUOUS
 62
     7
 48
0.0
100
AcDbLine
 10
-1241.670890630013
 20
-50.48564278829428
 30
0.0
 11
-1241.670890630013
 21
-52.4856427882936
 31
0.0
  0
LINE
  5
42E0
330
18
100
AcDbEntity
  8
4360009_C_DX-TLM_MCR_S_105
  6
CONTINUOUS
 62
     7
 48
0.0
100
AcDbLine
 10
-1366.670890630013
 20
0.0143572117059421
 30
0.0
 11
-1241.670890630013
 21
0.0143572117059421
 31
0.0
  0
LINE
  5
42E1
330
18
100
AcDbEntity
  8
4360009_C_DX-TLM_MCR_S_105
  6
CONTINUOUS
 62
     7
 48
0.0
100
AcDbLine
 10
-1241.670890630013
 20
0.0143572117059421
 30
0.0
 11
-1366.670890630013
 21
0.0143572117059421
 31
0.0
  0
LINE
  5
42E2
330
18
100
AcDbEntity
  8
4360009_C_DX-TLM_MCR_S_105
  6
CONTINUOUS
 62
     7
 48
0.0
100
AcDbLine
 10
-1366.670890630013
 20
-38.48564278829405
 30
0.0
 11
-1241.670890630014
 21
-38.48564278829428
 31
0.0
  0
LINE
  5
42E3
330
18
100
AcDbEntity
  8
4360009_C_DX-TLM_MCR_S_105
  6
CONTINUOUS
 62
     7
 48
0.0
100
AcDbLine
 10
-1241.670890630013
 20
-38.48564278829428
 30
0.0
 11
-1366.670890630013
 21
-38.48564278829405
 31
0.0
  0
LINE
  5
42E4
330
18
100
AcDbEntity
  8
4360009_C_DX-TLM_MCR_S_105
  6
CONTINUOUS
 62
     7
 48
0.0
100
AcDbLine
 10
-1376.670890630013
 20
-38.4856427882911
 30
0.0
 11
-1376.670890630013
 21
0.0143572117091253
 31
0.0
  0
LINE
  5
42E5
330
18
100
AcDbEntity
  8
4360009_C_DX-TLM_MCR_S_105
  6
CONTINUOUS
 62
     7
 48
0.0
100
AcDbLine
 10
-1366.670890630013
 20
-38.48564278829405
 30
0.0
 11
-1376.670890630013
 21
-38.4856427882911
 31
0.0
  0
LINE
  5
42E6
330
18
100
AcDbEntity
  8
4360009_C_DX-TLM_MCR_S_105
  6
CONTINUOUS
 62
     7
 48
0.0
100
AcDbLine
 10
-1376.670890630013
 20
-38.4856427882911
 30
0.0
 11
-1366.670890630013
 21
-38.48564278829405
 31
0.0
  0
LINE
  5
42E7
330
18
100
AcDbEntity
  8
4360009_C_DX-TLM_MCR_S_105
  6
CONTINUOUS
 62
     7
 48
0.0
100
AcDbLine
 10
-1366.670890630013
 20
0.0143572117059421
 30
0.0
 11
-1376.670890630013
 21
0.0143572117088979
 31
0.0
  0
LINE
  5
42E8
330
18
100
AcDbEntity
  8
4360009_C_DX-TLM_MCR_S_105
  6
CONTINUOUS
 62
     7
 48
0.0
100
AcDbLine
 10
-1376.670890630013
 20
0.0143572117091253
 30
0.0
 11
-1366.670890630013
 21
0.0143572117059421
 31
0.0
  0
LINE
  5
42E9
330
18
100
AcDbEntity
  8
4360009_C_DX-TLM_MCR_S_105
  6
CONTINUOUS
 62
     7
 48
0.0
100
AcDbLine
 10
-1241.670890630014
 20
-38.48564278829428
 30
0.0
 11
-1241.670890630013
 21
0.0143572117059421
 31
0.0
  0
LINE
  5
42EA
330
18
100
AcDbEntity
  8
4130002-RASCHIATORE_TLM_MC
  6
CONTINUOUS
 62
     7
100
AcDbLine
 10
-1231.569941022772
 20
-19.9856427882936
 30
0.0
 11
-1231.569941022772
 21
-29.4856427882936
 31
0.0
  0
CIRCLE
  5
42EB
330
18
100
AcDbEntity
  8
4130002-RASCHIATORE_TLM_MC
  6
CONTINUOUS
 62
     7
100
AcDbCircle
 10
-1236.670890630014
 20
-25.9856427882936
 30
0.0
 40
2.5
  0
LINE
  5
42EC
330
18
100
AcDbEntity
  8
4130002-RASCHIATORE_TLM_MC
  6
CONTINUOUS
 62
     7
100
AcDbLine
 10
-1232.069941022772
 20
-29.9856427882936
 30
0.0
 11
-1240.670890630014
 21
-29.9856427882936
 31
0.0
  0
LINE
  5
42ED
330
18
100
AcDbEntity
  8
4130002-RASCHIATORE_TLM_MC
  6
CONTINUOUS
 62
     7
100
AcDbLine
 10
-1240.670890630014
 20
-29.9856427882936
 30
0.0
 11
-1241.170890630014
 21
-29.4856427882936
 31
0.0
  0
LINE
  5
42EE
330
18
100
AcDbEntity
  8
4130002-RASCHIATORE_TLM_MC
  6
CONTINUOUS
 62
     7
100
AcDbLine
 10
-1231.569941022772
 20
-29.4856427882936
 30
0.0
 11
-1232.069941022772
 21
-29.9856427882936
 31
0.0
  0
LINE
  5
42EF
330
18
100
AcDbEntity
  8
4130002-RASCHIATORE_TLM_MC
  6
CONTINUOUS
 62
     7
100
AcDbLine
 10
-1226.569941022772
 20
-14.98564278829292
 30
0.0
 11
-1220.663827426744
 21
-14.98564278829223
 31
0.0
  0
POLYLINE
  5
42F0
330
18
100
AcDbEntity
  8
4130002-RASCHIATORE_TLM_MC
  6
CONTINUOUS
 62
     7
100
AcDb2dPolyline
 66
     1
 10
0.0
 20
0.0
 30
0.0
  0
VERTEX
  5
42F1
330
42F0
100
AcDbEntity
  8
4130002-RASCHIATORE_TLM_MC
  6
CONTINUOUS
 62
     7
100
AcDbVertex
100
AcDb2dVertex
 10
-1230.723891357563
 20
-17.20495969516571
 30
0.0
  0
VERTEX
  5
42F2
330
42F0
100
AcDbEntity
  8
4130002-RASCHIATORE_TLM_MC
  6
CONTINUOUS
 62
     7
100
AcDbVertex
100
AcDb2dVertex
 10
-1230.790484050892
 20
-17.30584174854118
 30
0.0
  0
VERTEX
  5
42F3
330
42F0
100
AcDbEntity
  8
4130002-RASCHIATORE_TLM_MC
  6
CONTINUOUS
 62
     7
100
AcDbVertex
100
AcDb2dVertex
 10
-1230.853279928349
 20
-17.40642101032096
 30
0.0
  0
VERTEX
  5
42F4
330
42F0
100
AcDbEntity
  8
4130002-RASCHIATORE_TLM_MC
  6
CONTINUOUS
 62
     7
100
AcDbVertex
100
AcDb2dVertex
 10
-1230.912053684376
 20
-17.50657588702995
 30
0.0
  0
VERTEX
  5
42F5
330
42F0
100
AcDbEntity
  8
4130002-RASCHIATORE_TLM_MC
  6
CONTINUOUS
 62
     7
100
AcDbVertex
100
AcDb2dVertex
 10
-1230.969016651295
 20
-17.60942250949699
 30
0.0
  0
VERTEX
  5
42F6
330
42F0
100
AcDbEntity
  8
4130002-RASCHIATORE_TLM_MC
  6
CONTINUOUS
 62
     7
100
AcDbVertex
100
AcDb2dVertex
 10
-1231.024296383045
 20
-17.71516114932853
 30
0.0
  0
VERTEX
  5
42F7
330
42F0
100
AcDbEntity
  8
4130002-RASCHIATORE_TLM_MC
  6
CONTINUOUS
 62
     7
100
AcDbVertex
100
AcDb2dVertex
 10
-1231.077723602436
 20
-17.82357961398918
 30
0.0
  0
VERTEX
  5
42F8
330
42F0
100
AcDbEntity
  8
4130002-RASCHIATORE_TLM_MC
  6
CONTINUOUS
 62
     7
100
AcDbVertex
100
AcDb2dVertex
 10
-1231.129126648091
 20
-17.93447524768669
 30
0.0
  0
VERTEX
  5
42F9
330
42F0
100
AcDbEntity
  8
4130002-RASCHIATORE_TLM_MC
  6
CONTINUOUS
 62
     7
100
AcDbVertex
100
AcDb2dVertex
 10
-1231.178336242817
 20
-18.04763824207145
 30
0.0
  0
VERTEX
  5
42FA
330
42F0
100
AcDbEntity
  8
4130002-RASCHIATORE_TLM_MC
  6
CONTINUOUS
 62
     7
100
AcDbVertex
100
AcDb2dVertex
 10
-1231.225181917332
 20
-18.16286117297966
 30
0.0
  0
VERTEX
  5
42FB
330
42F0
100
AcDbEntity
  8
4130002-RASCHIATORE_TLM_MC
  6
CONTINUOUS
 62
     7
100
AcDbVertex
100
AcDb2dVertex
 10
-1231.269492010258
 20
-18.27993423206169
 30
0.0
  0
VERTEX
  5
42FC
330
42F0
100
AcDbEntity
  8
4130002-RASCHIATORE_TLM_MC
  6
CONTINUOUS
 62
     7
100
AcDbVertex
100
AcDb2dVertex
 10
-1231.311096052311
 20
-18.39864999515373
 30
0.0
  0
VERTEX
  5
42FD
330
42F0
100
AcDbEntity
  8
4130002-RASCHIATORE_TLM_MC
  6
CONTINUOUS
 62
     7
100
AcDbVertex
100
AcDb2dVertex
 10
-1231.3498247663
 20
-18.51879865390617
 30
0.0
  0
VERTEX
  5
42FE
330
42F0
100
AcDbEntity
  8
4130002-RASCHIATORE_TLM_MC
  6
CONTINUOUS
 62
     7
100
AcDbVertex
100
AcDb2dVertex
 10
-1231.385507682942
 20
-18.64017755252677
 30
0.0
  0
VERTEX
  5
42FF
330
42F0
100
AcDbEntity
  8
4130002-RASCHIATORE_TLM_MC
  6
CONTINUOUS
 62
     7
100
AcDbVertex
100
AcDb2dVertex
 10
-1231.417991022251
 20
-18.76256973010856
 30
0.0
  0
VERTEX
  5
4300
330
42F0
100
AcDbEntity
  8
4130002-RASCHIATORE_TLM_MC
  6
CONTINUOUS
 62
     7
100
AcDbVertex
100
AcDb2dVertex
 10
-1231.447244981907
 20
-18.88572484714347
 30
0.0
  0
VERTEX
  5
4301
330
42F0
100
AcDbEntity
  8
4130002-RASCHIATORE_TLM_MC
  6
CONTINUOUS
 62
     7
100
AcDbVertex
100
AcDb2dVertex
 10
-1231.473299364231
 20
-19.00938779575187
 30
0.0
  0
VERTEX
  5
4302
330
42F0
100
AcDbEntity
  8
4130002-RASCHIATORE_TLM_MC
  6
CONTINUOUS
 62
     7
100
AcDbVertex
100
AcDb2dVertex
 10
-1231.496181587361
 20
-19.13329393131095
 30
0.0
  0
VERTEX
  5
4303
330
42F0
100
AcDbEntity
  8
4130002-RASCHIATORE_TLM_MC
  6
CONTINUOUS
 62
     7
100
AcDbVertex
100
AcDb2dVertex
 10
-1231.515921453617
 20
-19.25718576175529
 30
0.0
  0
VERTEX
  5
4304
330
42F0
100
AcDbEntity
  8
4130002-RASCHIATORE_TLM_MC
  6
CONTINUOUS
 62
     7
100
AcDbVertex
100
AcDb2dVertex
 10
-1231.532546381138
 20
-19.38080341083366
 30
0.0
  0
VERTEX
  5
4305
330
42F0
100
AcDbEntity
  8
4130002-RASCHIATORE_TLM_MC
  6
CONTINUOUS
 62
     7
100
AcDbVertex
100
AcDb2dVertex
 10
-1231.546083788059
 20
-19.50388461810905
 30
0.0
  0
VERTEX
  5
4306
330
42F0
100
AcDbEntity
  8
4130002-RASCHIATORE_TLM_MC
  6
CONTINUOUS
 62
     7
100
AcDbVertex
100
AcDb2dVertex
 10
-1231.556564668797
 20
-19.62616950733024
 30
0.0
  0
VERTEX
  5
4307
330
42F0
100
AcDbEntity
  8
4130002-RASCHIATORE_TLM_MC
  6
CONTINUOUS
 62
     7
100
AcDbVertex
100
AcDb2dVertex
 10
-1231.564015249394
 20
-19.74739581806022
 30
0.0
  0
VERTEX
  5
4308
330
42F0
100
AcDbEntity
  8
4130002-RASCHIATORE_TLM_MC
  6
CONTINUOUS
 62
     7
100
AcDbVertex
100
AcDb2dVertex
 10
-1231.56846414008
 20
-19.86730844241935
 30
0.0
  0
VERTEX
  5
4309
330
42F0
100
AcDbEntity
  8
4130002-RASCHIATORE_TLM_MC
  6
CONTINUOUS
 62
     7
100
AcDbVertex
100
AcDb2dVertex
 10
-1231.569941143177
 20
-19.98564273578483
 30
0.0
  0
SEQEND
  5
430A
330
42F0
100
AcDbEntity
  8
4130002-RASCHIATORE_TLM_MC
  6
CONTINUOUS
 62
     7
  0
ARC
  5
430B
330
18
100
AcDbEntity
  8
4130002-RASCHIATORE_TLM_MC
  6
CONTINUOUS
 62
     7
100
AcDbCircle
 10
-1226.569941022771
 20
-19.98564278829292
 30
0.0
 40
4.999999999999999
100
AcDbArc
 50
90.0
 51
146.196727573081
  0
LINE
  5
430C
330
18
100
AcDbEntity
  8
DISEGNO
100
AcDbLine
 10
-1358.672230588724
 20
52.5143572117114
 30
0.0
 11
-1253.672230588724
 21
52.5143572117114
 31
0.0
  0
LINE
  5
430D
330
18
100
AcDbEntity
  8
4360009_C_DX-TLM_MCR_S_105
  6
CONTINUOUS
 62
     7
 48
0.0
100
AcDbLine
 10
-1366.670890630013
 20
52.51435721171117
 30
0.0
 11
-1241.670890630013
 21
52.5143572117114
 31
0.0
  0
LINE
  5
430E
330
18
100
AcDbEntity
  8
4360009_C_DX-TLM_MCR_S_105
  6
CONTINUOUS
 62
     7
 48
0.0
100
AcDbLine
 10
-1241.670890630013
 20
38.51435721170594
 30
0.0
 11
-1366.670890630013
 21
38.51435721170594
 31
0.0
  0
LINE
  5
430F
330
18
100
AcDbEntity
  8
DISEGNO
100
AcDbLine
 10
-1246.670890630013
 20
52.5143572117114
 30
0.0
 11
-1376.670890630015
 21
52.5143572117114
 31
0.0
  0
LINE
  5
4310
330
18
100
AcDbEntity
  8
4360009_C_DX-TLM_MCR_S_105
  6
CONTINUOUS
 62
     7
 48
0.0
100
AcDbLine
 10
-1376.670890630013
 20
50.51435721170889
 30
0.0
 11
-1376.670890630013
 21
38.5143572117089
 31
0.0
  0
LINE
  5
4311
330
18
100
AcDbEntity
  8
4360009_C_DX-TLM_MCR_S_105
  6
CONTINUOUS
 62
     7
 48
0.0
100
AcDbLine
 10
-1376.670890630013
 20
38.5143572117089
 30
0.0
 11
-1366.670890630013
 21
38.51435721170594
 31
0.0
  0
LINE
  5
4312
330
18
100
AcDbEntity
  8
4360009_C_DX-TLM_MCR_S_105
  6
CONTINUOUS
 62
     7
 48
0.0
100
AcDbLine
 10
-1366.670890630013
 20
52.51435721171117
 30
0.0
 11
-1374.670890630013
 21
52.51435721170889
 31
0.0
  0
ARC
  5
4313
330
18
100
AcDbEntity
  8
4360009_C_DX-TLM_MCR_S_105
  6
CONTINUOUS
 62
     7
 48
0.0
100
AcDbCircle
 10
-1374.670890630013
 20
50.51435721170867
 30
0.0
 40
1.999999999999993
100
AcDbArc
 50
90.0
 51
180.0
  0
LINE
  5
4314
330
18
100
AcDbEntity
  8
DISEGNO
100
AcDbLine
 10
-1231.670890630015
 20
52.51435721170685
 30
0.0
 11
-1231.670890630015
 21
29.61530681894953
 31
0.0
  0
LINE
  5
4315
330
18
100
AcDbEntity
  8
4130002-RASCHIATORE_TLM_MC
  6
CONTINUOUS
 62
     7
100
AcDbLine
 10
-1231.569941022772
 20
29.51435721170639
 30
0.0
 11
-1231.569941022772
 21
20.01435721170639
 31
0.0
  0
CIRCLE
  5
4316
330
18
100
AcDbEntity
  8
4130002-RASCHIATORE_TLM_MC
  6
CONTINUOUS
 62
     7
100
AcDbCircle
 10
-1236.670890630014
 20
26.0143572117064
 30
0.0
 40
2.5
  0
LINE
  5
4317
330
18
100
AcDbEntity
  8
4130002-RASCHIATORE_TLM_MC
  6
CONTINUOUS
 62
     7
100
AcDbLine
 10
-1220.663827426744
 20
15.01435721170776
 30
0.0
 11
-1226.569941022772
 21
15.01435721170707
 31
0.0
  0
ARC
  5
4318
330
18
100
AcDbEntity
  8
4130002-RASCHIATORE_TLM_MC
  6
CONTINUOUS
 62
     7
100
AcDbCircle
 10
-1226.569941022771
 20
20.01435721170707
 30
0.0
 40
4.999999999999999
100
AcDbArc
 50
213.803272426955
 51
270.0
  0
POLYLINE
  5
4319
330
18
100
AcDbEntity
  8
4130002-RASCHIATORE_TLM_MC
  6
CONTINUOUS
 62
     7
100
AcDb2dPolyline
 66
     1
 10
0.0
 20
0.0
 30
0.0
  0
VERTEX
  5
431A
330
4319
100
AcDbEntity
  8
4130002-RASCHIATORE_TLM_MC
  6
CONTINUOUS
 62
     7
100
AcDbVertex
100
AcDb2dVertex
 10
-1231.569941143177
 20
20.01435726421516
 30
0.0
  0
VERTEX
  5
431B
330
4319
100
AcDbEntity
  8
4130002-RASCHIATORE_TLM_MC
  6
CONTINUOUS
 62
     7
100
AcDbVertex
100
AcDb2dVertex
 10
-1231.56846414008
 20
19.89602297084968
 30
0.0
  0
VERTEX
  5
431C
330
4319
100
AcDbEntity
  8
4130002-RASCHIATORE_TLM_MC
  6
CONTINUOUS
 62
     7
100
AcDbVertex
100
AcDb2dVertex
 10
-1231.564015249394
 20
19.77611153858345
 30
0.0
  0
VERTEX
  5
431D
330
4319
100
AcDbEntity
  8
4130002-RASCHIATORE_TLM_MC
  6
CONTINUOUS
 62
     7
100
AcDbVertex
100
AcDb2dVertex
 10
-1231.556564668797
 20
19.65488284366768
 30
0.0
  0
VERTEX
  5
431E
330
4319
100
AcDbEntity
  8
4130002-RASCHIATORE_TLM_MC
  6
CONTINUOUS
 62
     7
100
AcDbVertex
100
AcDb2dVertex
 10
-1231.546083788059
 20
19.53259795444648
 30
0.0
  0
VERTEX
  5
431F
330
4319
100
AcDbEntity
  8
4130002-RASCHIATORE_TLM_MC
  6
CONTINUOUS
 62
     7
100
AcDbVertex
100
AcDb2dVertex
 10
-1231.532546381138
 20
19.40951793926399
 30
0.0
  0
VERTEX
  5
4320
330
4319
100
AcDbEntity
  8
4130002-RASCHIATORE_TLM_MC
  6
CONTINUOUS
 62
     7
100
AcDbVertex
100
AcDb2dVertex
 10
-1231.515921453617
 20
19.28590148227852
 30
0.0
  0
VERTEX
  5
4321
330
4319
100
AcDbEntity
  8
4130002-RASCHIATORE_TLM_MC
  6
CONTINUOUS
 62
     7
100
AcDbVertex
100
AcDb2dVertex
 10
-1231.496181587361
 20
19.16200965183418
 30
0.0
  0
VERTEX
  5
4322
330
4319
100
AcDbEntity
  8
4130002-RASCHIATORE_TLM_MC
  6
CONTINUOUS
 62
     7
100
AcDbVertex
100
AcDb2dVertex
 10
-1231.473299364231
 20
19.0381023241822
 30
0.0
  0
VERTEX
  5
4323
330
4319
100
AcDbEntity
  8
4130002-RASCHIATORE_TLM_MC
  6
CONTINUOUS
 62
     7
100
AcDbVertex
100
AcDb2dVertex
 10
-1231.447244981907
 20
18.9144393755738
 30
0.0
  0
VERTEX
  5
4324
330
4319
100
AcDbEntity
  8
4130002-RASCHIATORE_TLM_MC
  6
CONTINUOUS
 62
     7
100
AcDbVertex
100
AcDb2dVertex
 10
-1231.417991022251
 20
18.791283066446
 30
0.0
  0
VERTEX
  5
4325
330
4319
100
AcDbEntity
  8
4130002-RASCHIATORE_TLM_MC
  6
CONTINUOUS
 62
     7
100
AcDbVertex
100
AcDb2dVertex
 10
-1231.385507682942
 20
18.6688920809571
 30
0.0
  0
VERTEX
  5
4326
330
4319
100
AcDbEntity
  8
4130002-RASCHIATORE_TLM_MC
  6
CONTINUOUS
 62
     7
100
AcDbVertex
100
AcDb2dVertex
 10
-1231.3498247663
 20
18.54751437442939
 30
0.0
  0
VERTEX
  5
4327
330
4319
100
AcDbEntity
  8
4130002-RASCHIATORE_TLM_MC
  6
CONTINUOUS
 62
     7
100
AcDbVertex
100
AcDb2dVertex
 10
-1231.311096052311
 20
18.42736333149116
 30
0.0
  0
VERTEX
  5
4328
330
4319
100
AcDbEntity
  8
4130002-RASCHIATORE_TLM_MC
  6
CONTINUOUS
 62
     7
100
AcDbVertex
100
AcDb2dVertex
 10
-1231.269492010258
 20
18.30864756839912
 30
0.0
  0
VERTEX
  5
4329
330
4319
100
AcDbEntity
  8
4130002-RASCHIATORE_TLM_MC
  6
CONTINUOUS
 62
     7
100
AcDbVertex
100
AcDb2dVertex
 10
-1231.225181917332
 20
18.19157450931709
 30
0.0
  0
VERTEX
  5
432A
330
4319
100
AcDbEntity
  8
4130002-RASCHIATORE_TLM_MC
  6
CONTINUOUS
 62
     7
100
AcDbVertex
100
AcDb2dVertex
 10
-1231.178336242817
 20
18.07635277050178
 30
0.0
  0
VERTEX
  5
432B
330
4319
100
AcDbEntity
  8
4130002-RASCHIATORE_TLM_MC
  6
CONTINUOUS
 62
     7
100
AcDbVertex
100
AcDb2dVertex
 10
-1231.129126648091
 20
17.96319096820991
 30
0.0
  0
VERTEX
  5
432C
330
4319
100
AcDbEntity
  8
4130002-RASCHIATORE_TLM_MC
  6
CONTINUOUS
 62
     7
100
AcDbVertex
100
AcDb2dVertex
 10
-1231.077723602436
 20
17.8522953345124
 30
0.0
  0
VERTEX
  5
432D
330
4319
100
AcDbEntity
  8
4130002-RASCHIATORE_TLM_MC
  6
CONTINUOUS
 62
     7
100
AcDbVertex
100
AcDb2dVertex
 10
-1231.024296383045
 20
17.74387448566597
 30
0.0
  0
VERTEX
  5
432E
330
4319
100
AcDbEntity
  8
4130002-RASCHIATORE_TLM_MC
  6
CONTINUOUS
 62
     7
100
AcDbVertex
100
AcDb2dVertex
 10
-1230.969016651295
 20
17.63813703792732
 30
0.0
  0
VERTEX
  5
432F
330
4319
100
AcDbEntity
  8
4130002-RASCHIATORE_TLM_MC
  6
CONTINUOUS
 62
     7
100
AcDbVertex
100
AcDb2dVertex
 10
-1230.912053684376
 20
17.53529041546028
 30
0.0
  0
VERTEX
  5
4330
330
4319
100
AcDbEntity
  8
4130002-RASCHIATORE_TLM_MC
  6
CONTINUOUS
 62
     7
100
AcDbVertex
100
AcDb2dVertex
 10
-1230.853279928349
 20
17.43513553875129
 30
0.0
  0
VERTEX
  5
4331
330
4319
100
AcDbEntity
  8
4130002-RASCHIATORE_TLM_MC
  6
CONTINUOUS
 62
     7
100
AcDbVertex
100
AcDb2dVertex
 10
-1230.790484050892
 20
17.33455627697173
 30
0.0
  0
VERTEX
  5
4332
330
4319
100
AcDbEntity
  8
4130002-RASCHIATORE_TLM_MC
  6
CONTINUOUS
 62
     7
100
AcDbVertex
100
AcDb2dVertex
 10
-1230.723891357563
 20
17.2336730315036
 30
0.0
  0
SEQEND
  5
4333
330
4319
100
AcDbEntity
  8
4130002-RASCHIATORE_TLM_MC
  6
CONTINUOUS
 62
     7
  0
LINE
  5
4334
330
18
100
AcDbEntity
  8
4130002-RASCHIATORE_TLM_MC
  6
CONTINUOUS
 62
     7
100
AcDbLine
 10
-1240.670890630014
 20
30.01435721170639
 30
0.0
 11
-1232.069941022772
 21
30.01435721170639
 31
0.0
  0
LINE
  5
4335
330
18
100
AcDbEntity
  8
4130002-RASCHIATORE_TLM_MC
  6
CONTINUOUS
 62
     7
100
AcDbLine
 10
-1241.170890630014
 20
29.51435721170639
 30
0.0
 11
-1240.670890630014
 21
30.01435721170639
 31
0.0
  0
LINE
  5
4336
330
18
100
AcDbEntity
  8
4130002-RASCHIATORE_TLM_MC
  6
CONTINUOUS
 62
     7
100
AcDbLine
 10
-1232.069941022772
 20
30.01435721170639
 30
0.0
 11
-1231.569941022772
 21
29.51435721170639
 31
0.0
  0
LINE
  5
4337
330
18
100
AcDbEntity
  8
DISEGNO
100
AcDbLine
 10
-1231.670890630015
 20
52.51435721170685
 30
0.0
 11
-1241.670890630013
 21
52.5143572117114
 31
0.0
  0
LINE
  5
4338
330
18
100
AcDbEntity
  8
ASSI
100
AcDbLine
 10
-993.6532373691582
 20
-19.7944228601043
 30
0.0
 11
-993.6532373691582
 21
4.194425767047391
 31
0.0
  0
LINE
  5
4339
330
18
100
AcDbEntity
  8
ASSI
100
AcDbLine
 10
-1028.653237369158
 20
-4.416761887912002
 30
0.0
 11
-1028.653237369158
 21
20.80472781816593
 31
0.0
  0
LINE
  5
433A
330
18
100
AcDbEntity
  8
DISEGNO
 48
0.0
100
AcDbLine
 10
-918.6532373691584
 20
-17.4856427882936
 30
0.0
 11
-918.6532373691584
 21
17.51435721170639
 31
0.0
  0
LINE
  5
433B
330
18
100
AcDbEntity
  8
DISEGNO
 48
0.0
100
AcDbLine
 10
-913.6532373691586
 20
-48.9856427882936
 30
0.0
 11
-913.6532373691586
 21
49.01435721170639
 31
0.0
  0
LINE
  5
433C
330
18
100
AcDbEntity
  8
DISEGNO
 48
0.0
100
AcDbLine
 10
-1113.653237369158
 20
-48.9856427882936
 30
0.0
 11
-1113.653237369158
 21
49.01435721170639
 31
0.0
  0
LINE
  5
433D
330
18
100
AcDbEntity
  8
DISEGNO
 48
0.0
100
AcDbLine
 10
-1108.653237369158
 20
-17.4856427882936
 30
0.0
 11
-1108.653237369158
 21
17.51435721170639
 31
0.0
  0
ELLIPSE
  5
433E
330
18
100
AcDbEntity
  8
4360048-TLF_MCR_S_105_IAM_
  6
CONTINUOUS
 62
     7
100
AcDbEllipse
 10
-689.7983530487818
 20
14.01435721171139
 30
0.0
 11
0.0000000000001458
 21
0.5000000000000071
 31
0.0
210
0.0
220
0.0
230
-1.0
 40
0.9848077530122136
 41
4.712388980384723
 42
6.283185307179699
  0
LINE
  5
433F
330
18
100
AcDbEntity
  8
DISEGNO
 48
0.0
100
AcDbLine
 10
-918.6532373691584
 20
-49.4856427882936
 30
0.0
 11
-1108.653237369158
 21
-49.4856427882936
 31
0.0
  0
LINE
  5
4341
330
18
100
AcDbEntity
  8
DISEGNO
 48
0.0
100
AcDbLine
 10
-1108.653237369158
 20
-17.50280007581898
 30
0.0
 11
-918.6532373691584
 21
-17.50280007581898
 31
0.0
  0
LINE
  5
4343
330
18
100
AcDbEntity
  8
DISEGNO
 48
0.0
100
AcDbLine
 10
-918.6532373691584
 20
-49.46848550076822
 30
0.0
 11
-1108.653237369158
 21
-49.46848550076822
 31
0.0
  0
LINE
  5
4344
330
18
100
AcDbEntity
  8
DISEGNO
 48
0.0
100
AcDbLine
 10
-918.6532373691584
 20
-39.18564278829364
 30
0.0
 11
-1108.653237369158
 21
-39.18564278829364
 31
0.0
  0
LINE
  5
4345
330
18
100
AcDbEntity
  8
DISEGNO
 48
0.0
100
AcDbLine
 10
-1108.653237369158
 20
-30.78564278829378
 30
0.0
 11
-918.6532373691584
 21
-30.78564278829378
 31
0.0
  0
LINE
  5
4346
330
18
100
AcDbEntity
  8
DISEGNO
 48
0.0
100
AcDbLine
 10
-918.6532373691584
 20
-17.4856427882936
 30
0.0
 11
-1108.653237369158
 21
-17.4856427882936
 31
0.0
  0
LINE
  5
4347
330
18
100
AcDbEntity
  8
DISEGNO
100
AcDbLine
 10
-681.6697359787032
 20
-52.48564278829315
 30
0.0
 11
-1118.528813833297
 21
-52.4856427882936
 31
0.0
  0
LINE
  5
4348
330
18
100
AcDbEntity
  8
ASSI
100
AcDbLine
 10
-1088.653237369158
 20
-42.64169646874643
 30
0.0
 11
-1088.653237369158
 21
-27.56691912862288
 31
0.0
  0
LINE
  5
4349
330
18
100
AcDbEntity
  8
ASSI
100
AcDbLine
 10
-1013.653237369158
 20
-42.64169646874643
 30
0.0
 11
-1013.653237369158
 21
-27.56691912862288
 31
0.0
  0
LINE
  5
434A
330
18
100
AcDbEntity
  8
ASSI
100
AcDbLine
 10
-938.6532373691581
 20
-42.64169646874643
 30
0.0
 11
-938.6532373691581
 21
-27.56691912862288
 31
0.0
  0
LINE
  5
434B
330
18
100
AcDbEntity
  8
DISEGNO
 48
0.0
100
AcDbLine
 10
-1108.653237369158
 20
-49.46848550076822
 30
0.0
 11
-1108.653237369158
 21
-39.28564278829355
 31
0.0
  0
LINE
  5
434C
330
18
100
AcDbEntity
  8
DISEGNO
 48
0.0
100
AcDbLine
 10
-1108.653237369158
 20
-49.4856427882936
 30
0.0
 11
-1108.653237369158
 21
-49.46848550076822
 31
0.0
  0
LINE
  5
434D
330
18
100
AcDbEntity
  8
DISEGNO
 48
0.0
100
AcDbLine
 10
-1108.653237369158
 20
-48.9856427882936
 30
0.0
 11
-1113.653237369158
 21
-48.9856427882936
 31
0.0
  0
LINE
  5
434E
330
18
100
AcDbEntity
  8
DISEGNO
100
AcDbLine
 10
-1113.653237369158
 20
-15.48564278829337
 30
0.0
 11
-1118.616134534164
 21
-15.4856427882936
 31
0.0
  0
LINE
  5
434F
330
18
100
AcDbEntity
  8
DISEGNO
 48
0.0
100
AcDbLine
 10
-1108.653237369158
 20
-30.68564278829365
 30
0.0
 11
-1108.653237369158
 21
-17.50280007581898
 31
0.0
  0
LINE
  5
4350
330
18
100
AcDbEntity
  8
ASSI
100
AcDbLine
 10
-1101.542961627506
 20
-34.9856427882936
 30
0.0
 11
-1074.177477748698
 21
-34.9856427882936
 31
0.0
  0
LINE
  5
4351
330
18
100
AcDbEntity
  8
DISEGNO
 48
0.0
100
AcDbLine
 10
-1108.653237369158
 20
-39.18564278829364
 30
0.0
 11
-1108.653237369158
 21
-30.78564278829378
 31
0.0
  0
CIRCLE
  5
4352
330
18
100
AcDbEntity
  8
DISEGNO
 48
0.0
100
AcDbCircle
 10
-1088.653237369158
 20
-34.9856427882936
 30
0.0
 40
3.3235
  0
LINE
  5
4353
330
18
100
AcDbEntity
  8
DISEGNO
 48
0.0
100
AcDbLine
 10
-1078.653237369158
 20
-38.93564278829387
 30
0.0
 11
-1078.653237369158
 21
-31.03564278829356
 31
0.0
  0
LINE
  5
4354
330
18
100
AcDbEntity
  8
DISEGNO
 48
0.0
100
AcDbLine
 10
-1098.653237369158
 20
-31.03564278829356
 30
0.0
 11
-1098.653237369158
 21
-38.93564278829387
 31
0.0
  0
LINE
  5
4355
330
18
100
AcDbEntity
  8
DISEGNO
 48
0.0
100
AcDbLine
 10
-1098.653237369158
 20
-38.93564278829387
 30
0.0
 11
-1078.653237369158
 21
-38.93564278829387
 31
0.0
  0
LINE
  5
4356
330
18
100
AcDbEntity
  8
DISEGNO
 48
0.0
100
AcDbLine
 10
-1108.653237369158
 20
-39.28564278829355
 30
0.0
 11
-1108.653237369158
 21
-39.18564278829364
 31
0.0
  0
LINE
  5
4357
330
18
100
AcDbEntity
  8
DISEGNO
 48
0.0
100
AcDbLine
 10
-1098.653237369158
 20
-38.93564278829387
 30
0.0
 11
-1098.653237369158
 21
-39.18564278829364
 31
0.0
  0
LINE
  5
4358
330
18
100
AcDbEntity
  8
DISEGNO
 48
0.0
100
AcDbLine
 10
-1078.653237369158
 20
-39.18564278829364
 30
0.0
 11
-1078.653237369158
 21
-38.93564278829387
 31
0.0
  0
LINE
  5
4359
330
18
100
AcDbEntity
  8
DISEGNO
 48
0.0
100
AcDbLine
 10
-1098.653237369158
 20
-31.03564278829356
 30
0.0
 11
-1078.653237369158
 21
-31.03564278829356
 31
0.0
  0
LINE
  5
435A
330
18
100
AcDbEntity
  8
DISEGNO
 48
0.0
100
AcDbLine
 10
-1108.653237369158
 20
-30.78564278829378
 30
0.0
 11
-1108.653237369158
 21
-30.68564278829365
 31
0.0
  0
LINE
  5
435B
330
18
100
AcDbEntity
  8
DISEGNO
 48
0.0
100
AcDbLine
 10
-1098.653237369158
 20
-30.78564278829356
 30
0.0
 11
-1098.653237369158
 21
-31.03564278829356
 31
0.0
  0
LINE
  5
435C
330
18
100
AcDbEntity
  8
DISEGNO
 48
0.0
100
AcDbLine
 10
-1078.653237369158
 20
-31.03564278829356
 30
0.0
 11
-1078.653237369158
 21
-30.78564278829356
 31
0.0
  0
LINE
  5
435D
330
18
100
AcDbEntity
  8
DISEGNO
 48
0.0
100
AcDbLine
 10
-1108.653237369158
 20
-17.50280007581898
 30
0.0
 11
-1108.653237369158
 21
-17.4856427882936
 31
0.0
  0
LINE
  5
435E
330
18
100
AcDbEntity
  8
ASSI
100
AcDbLine
 10
-1026.542961627507
 20
-34.9856427882936
 30
0.0
 11
-999.1774777486989
 21
-34.9856427882936
 31
0.0
  0
LINE
  5
435F
330
18
100
AcDbEntity
  8
DISEGNO
 48
0.0
100
AcDbLine
 10
-1023.653237369158
 20
-38.93564278829387
 30
0.0
 11
-1003.653237369158
 21
-38.93564278829387
 31
0.0
  0
LINE
  5
4360
330
18
100
AcDbEntity
  8
DISEGNO
 48
0.0
100
AcDbLine
 10
-1023.653237369158
 20
-31.03564278829356
 30
0.0
 11
-1003.653237369158
 21
-31.03564278829356
 31
0.0
  0
CIRCLE
  5
4361
330
18
100
AcDbEntity
  8
DISEGNO
 48
0.0
100
AcDbCircle
 10
-1013.653237369158
 20
-34.9856427882936
 30
0.0
 40
3.3235
  0
LINE
  5
4362
330
18
100
AcDbEntity
  8
DISEGNO
 48
0.0
100
AcDbLine
 10
-1023.653237369158
 20
-31.03564278829356
 30
0.0
 11
-1023.653237369158
 21
-38.93564278829387
 31
0.0
  0
LINE
  5
4363
330
18
100
AcDbEntity
  8
DISEGNO
 48
0.0
100
AcDbLine
 10
-1023.653237369158
 20
-38.93564278829387
 30
0.0
 11
-1023.653237369158
 21
-39.18564278829364
 31
0.0
  0
LINE
  5
4364
330
18
100
AcDbEntity
  8
DISEGNO
 48
0.0
100
AcDbLine
 10
-1023.653237369158
 20
-30.78564278829356
 30
0.0
 11
-1023.653237369158
 21
-31.03564278829356
 31
0.0
  0
LINE
  5
4365
330
18
100
AcDbEntity
  8
DISEGNO
 48
0.0
100
AcDbLine
 10
-1003.653237369158
 20
-38.93564278829387
 30
0.0
 11
-1003.653237369158
 21
-31.03564278829356
 31
0.0
  0
LINE
  5
4366
330
18
100
AcDbEntity
  8
DISEGNO
 48
0.0
100
AcDbLine
 10
-1003.653237369158
 20
-39.18564278829364
 30
0.0
 11
-1003.653237369158
 21
-38.93564278829387
 31
0.0
  0
LINE
  5
4367
330
18
100
AcDbEntity
  8
DISEGNO
 48
0.0
100
AcDbLine
 10
-1003.653237369158
 20
-31.03564278829356
 30
0.0
 11
-1003.653237369158
 21
-30.78564278829356
 31
0.0
  0
LINE
  5
4368
330
18
100
AcDbEntity
  8
ASSI
100
AcDbLine
 10
-951.5429616275069
 20
-34.9856427882936
 30
0.0
 11
-924.1774777486989
 21
-34.9856427882936
 31
0.0
  0
CIRCLE
  5
4369
330
18
100
AcDbEntity
  8
DISEGNO
 48
0.0
100
AcDbCircle
 10
-938.6532373691581
 20
-34.9856427882936
 30
0.0
 40
3.3235
  0
LINE
  5
436A
330
18
100
AcDbEntity
  8
DISEGNO
 48
0.0
100
AcDbLine
 10
-948.6532373691584
 20
-38.93564278829387
 30
0.0
 11
-928.6532373691583
 21
-38.93564278829387
 31
0.0
  0
LINE
  5
436B
330
18
100
AcDbEntity
  8
DISEGNO
 48
0.0
100
AcDbLine
 10
-948.6532373691584
 20
-31.03564278829356
 30
0.0
 11
-928.6532373691583
 21
-31.03564278829356
 31
0.0
  0
LINE
  5
436C
330
18
100
AcDbEntity
  8
DISEGNO
 48
0.0
100
AcDbLine
 10
-948.6532373691584
 20
-31.03564278829356
 30
0.0
 11
-948.6532373691584
 21
-38.93564278829387
 31
0.0
  0
LINE
  5
436D
330
18
100
AcDbEntity
  8
DISEGNO
 48
0.0
100
AcDbLine
 10
-948.6532373691584
 20
-38.93564278829387
 30
0.0
 11
-948.6532373691584
 21
-39.18564278829364
 31
0.0
  0
LINE
  5
436E
330
18
100
AcDbEntity
  8
DISEGNO
 48
0.0
100
AcDbLine
 10
-948.6532373691584
 20
-30.78564278829356
 30
0.0
 11
-948.6532373691584
 21
-31.03564278829356
 31
0.0
  0
LINE
  5
436F
330
18
100
AcDbEntity
  8
DISEGNO
 48
0.0
100
AcDbLine
 10
-928.6532373691583
 20
-38.93564278829387
 30
0.0
 11
-928.6532373691583
 21
-31.03564278829356
 31
0.0
  0
LINE
  5
4370
330
18
100
AcDbEntity
  8
DISEGNO
 48
0.0
100
AcDbLine
 10
-928.6532373691583
 20
-39.18564278829364
 30
0.0
 11
-928.6532373691583
 21
-38.93564278829387
 31
0.0
  0
LINE
  5
4371
330
18
100
AcDbEntity
  8
DISEGNO
 48
0.0
100
AcDbLine
 10
-928.6532373691583
 20
-31.03564278829356
 30
0.0
 11
-928.6532373691583
 21
-30.78564278829356
 31
0.0
  0
CIRCLE
  5
437B
330
18
100
AcDbEntity
  8
DISEGNO
 48
0.0
100
AcDbCircle
 10
-1028.653237369158
 20
7.014357211706396
 30
0.0
 40
4.999999999999998
  0
LINE
  5
437C
330
18
100
AcDbEntity
  8
DISEGNO
 48
0.0
100
AcDbLine
 10
-1026.760441292622
 20
8.337480919445511
 30
0.0
 11
-1026.560980587639
 21
6.03670957911197
 31
0.0
  0
LINE
  5
437D
330
18
100
AcDbEntity
  8
DISEGNO
 48
0.0
100
AcDbLine
 10
-1030.546033445695
 20
5.691233503967282
 30
0.0
 11
-1030.745494150678
 21
7.992004844300822
 31
0.0
  0
CIRCLE
  5
437E
330
18
100
AcDbEntity
  8
DISEGNO
 48
0.0
100
AcDbCircle
 10
-1028.653237369158
 20
7.014357211706396
 30
0.0
 40
5.249999999999998
  0
LINE
  5
437F
330
18
100
AcDbEntity
  8
ASSI
100
AcDbLine
 10
-1018.591529178799
 20
7.014357211706396
 30
0.0
 11
-1037.935954918091
 21
7.014357211706396
 31
0.0
  0
LINE
  5
4380
330
18
100
AcDbEntity
  8
DISEGNO
 48
0.0
100
AcDbLine
 10
-1026.560980587639
 20
6.03670957911197
 30
0.0
 11
-1028.453776664175
 21
4.713585871372629
 31
0.0
  0
LINE
  5
4381
330
18
100
AcDbEntity
  8
DISEGNO
 48
0.0
100
AcDbLine
 10
-1028.453776664175
 20
4.713585871372629
 30
0.0
 11
-1030.546033445695
 21
5.691233503967282
 31
0.0
  0
LINE
  5
4382
330
18
100
AcDbEntity
  8
DISEGNO
 48
0.0
100
AcDbLine
 10
-1030.745494150678
 20
7.992004844300822
 30
0.0
 11
-1028.852698074142
 21
9.315128552039936
 31
0.0
  0
LINE
  5
4383
330
18
100
AcDbEntity
  8
DISEGNO
 48
0.0
100
AcDbLine
 10
-1028.852698074142
 20
9.315128552039936
 30
0.0
 11
-1026.760441292622
 21
8.337480919445511
 31
0.0
  0
LINE
  5
4384
330
18
100
AcDbEntity
  8
DISEGNO
 48
0.0
100
AcDbLine
 10
-991.4631963244348
 20
-6.252803409057719
 30
0.0
 11
-991.9235593274848
 21
-8.515854278737037
 31
0.0
  0
LINE
  5
4385
330
18
100
AcDbEntity
  8
DISEGNO
 48
0.0
100
AcDbLine
 10
-995.8432784138821
 20
-7.718482167529487
 30
0.0
 11
-995.3829154108323
 21
-5.455431297850168
 31
0.0
  0
CIRCLE
  5
4386
330
18
100
AcDbEntity
  8
DISEGNO
 48
0.0
100
AcDbCircle
 10
-993.6532373691582
 20
-6.985642788293603
 30
0.0
 40
4.999999999999998
  0
CIRCLE
  5
4387
330
18
100
AcDbEntity
  8
DISEGNO
 48
0.0
100
AcDbCircle
 10
-993.6532373691582
 20
-6.985642788293603
 30
0.0
 40
5.249999999999998
  0
LINE
  5
4388
330
18
100
AcDbEntity
  8
ASSI
100
AcDbLine
 10
-983.5915291787989
 20
-6.985642788293603
 30
0.0
 11
-1002.935954918091
 21
-6.985642788293603
 31
0.0
  0
LINE
  5
4389
330
18
100
AcDbEntity
  8
DISEGNO
 48
0.0
100
AcDbLine
 10
-991.9235593274848
 20
-8.515854278737037
 30
0.0
 11
-994.1136003722085
 21
-9.248693657972921
 31
0.0
  0
LINE
  5
438A
330
18
100
AcDbEntity
  8
DISEGNO
 48
0.0
100
AcDbLine
 10
-994.1136003722085
 20
-9.248693657972921
 30
0.0
 11
-995.8432784138821
 21
-7.718482167529487
 31
0.0
  0
LINE
  5
438B
330
18
100
AcDbEntity
  8
DISEGNO
 48
0.0
100
AcDbLine
 10
-995.3829154108323
 20
-5.455431297850168
 30
0.0
 11
-993.1928743661085
 21
-4.722591918614284
 31
0.0
  0
LINE
  5
438C
330
18
100
AcDbEntity
  8
DISEGNO
 48
0.0
100
AcDbLine
 10
-993.1928743661085
 20
-4.722591918614284
 30
0.0
 11
-991.4631963244348
 21
-6.252803409057719
 31
0.0
  0
LINE
  5
4397
330
18
100
AcDbEntity
  8
DISEGNO
 48
0.0
100
AcDbLine
 10
-918.6532373691584
 20
-39.28564278829355
 30
0.0
 11
-918.6532373691584
 21
-49.46848550076822
 31
0.0
  0
LINE
  5
4398
330
18
100
AcDbEntity
  8
4360048-TLF_MCR_S_105_IAM_
  6
CONTINUOUS
 62
     7
100
AcDbLine
 10
-681.6697359787332
 20
-50.48564278829042
 30
0.0
 11
-681.6697359787259
 21
-25.98564278829224
 31
0.0
  0
LINE
  5
4399
330
18
100
AcDbEntity
  8
4360048-TLF_MCR_S_105_IAM_
  6
CONTINUOUS
 62
     7
100
AcDbLine
 10
-681.6697359787268
 20
-26.48564278829041
 30
0.0
 11
-681.6697359787323
 21
-45.48564278828997
 31
0.0
  0
LINE
  5
439A
330
18
100
AcDbEntity
  8
DISEGNO
 48
0.0
100
AcDbLine
 10
-918.6532373691584
 20
-48.9856427882936
 30
0.0
 11
-913.6532373691586
 21
-48.9856427882936
 31
0.0
  0
LINE
  5
439B
330
18
100
AcDbEntity
  8
DISEGNO
 48
0.0
100
AcDbLine
 10
-918.6532373691584
 20
-49.46848550076822
 30
0.0
 11
-918.6532373691584
 21
-49.4856427882936
 31
0.0
  0
LINE
  5
439C
330
18
100
AcDbEntity
  8
4360048-TLF_MCR_S_105_IAM_
  6
CONTINUOUS
 62
     7
100
AcDbLine
 10
-681.6697359787332
 20
-50.48564278829042
 30
0.0
 11
-681.6697359787341
 21
-52.48564278829087
 31
0.0
  0
ARC
  5
439D
330
18
100
AcDbEntity
  8
4360048-TLF_MCR_S_105_IAM_
  6
CONTINUOUS
 62
     7
100
AcDbCircle
 10
-679.6697359787323
 20
-45.48564278829087
 30
0.0
 40
1.999999999999998
100
AcDbArc
 50
180.0
 51
270.0
  0
LINE
  5
439E
330
18
100
AcDbEntity
  8
DISEGNO
100
AcDbLine
 10
-913.6532373691547
 20
-15.48564278829315
 30
0.0
 11
-685.360847796792
 21
-15.48564278829315
 31
0.0
  0
LINE
  5
439F
330
18
100
AcDbEntity
  8
DISEGNO
 48
0.0
100
AcDbLine
 10
-918.6532373691584
 20
-17.50280007581898
 30
0.0
 11
-918.6532373691584
 21
-30.68564278829365
 31
0.0
  0
LINE
  5
43A6
330
18
100
AcDbEntity
  8
DISEGNO
 48
0.0
100
AcDbLine
 10
-918.6532373691584
 20
-39.18564278829364
 30
0.0
 11
-918.6532373691584
 21
-30.78564278829378
 31
0.0
  0
LINE
  5
43A9
330
18
100
AcDbEntity
  8
DISEGNO
 48
0.0
100
AcDbLine
 10
-918.6532373691584
 20
-39.18564278829364
 30
0.0
 11
-918.6532373691584
 21
-39.28564278829355
 31
0.0
  0
LINE
  5
43AB
330
18
100
AcDbEntity
  8
DISEGNO
 48
0.0
100
AcDbLine
 10
-918.6532373691584
 20
-30.68564278829365
 30
0.0
 11
-918.6532373691584
 21
-30.78564278829378
 31
0.0
  0
LINE
  5
43AD
330
18
100
AcDbEntity
  8
DISEGNO
 48
0.0
100
AcDbLine
 10
-918.6532373691584
 20
-17.4856427882936
 30
0.0
 11
-918.6532373691584
 21
-17.50280007581898
 31
0.0
  0
LINE
  5
43AE
330
18
100
AcDbEntity
  8
4360048-TLF_MCR_S_105_IAM_
  6
CONTINUOUS
 62
     7
100
AcDbLine
 10
-690.2907569252967
 20
-13.9856427882886
 30
0.0
 11
-690.2907569252885
 21
14.01435721171139
 31
0.0
  0
ARC
  5
43AF
330
18
100
AcDbEntity
  8
4360048-TLF_MCR_S_105_IAM_
  6
CONTINUOUS
 62
     7
100
AcDbCircle
 10
-656.6697359787286
 20
-32.48564278829769
 30
0.0
 40
5.900000000000003
100
AcDbArc
 50
2.528059762959443
 51
341.3465426024091
  0
LINE
  5
43B0
330
18
100
AcDbEntity
  8
4360048-TLF_MCR_S_105_IAM_
  6
CONTINUOUS
 62
     7
100
AcDbLine
 10
-656.6697359787286
 20
-35.37239413424401
 30
0.0
 11
-654.1697359787287
 21
-33.92901846127085
 31
0.0
  0
LINE
  5
43B1
330
18
100
AcDbEntity
  8
4360048-TLF_MCR_S_105_IAM_
  6
CONTINUOUS
 62
     7
100
AcDbLine
 10
-659.1697359787286
 20
-33.92901846126903
 30
0.0
 11
-656.6697359787286
 21
-35.37239413424401
 31
0.0
  0
LINE
  5
43B2
330
18
100
AcDbEntity
  8
4360048-TLF_MCR_S_105_IAM_
  6
CONTINUOUS
 62
     7
100
AcDbLine
 10
-659.1697359787278
 20
-31.04226711532089
 30
0.0
 11
-659.1697359787286
 21
-33.92901846126903
 31
0.0
  0
LINE
  5
43B3
330
18
100
AcDbEntity
  8
4360048-TLF_MCR_S_105_IAM_
  6
CONTINUOUS
 62
     7
100
AcDbLine
 10
-656.6697359787277
 20
-29.59889144234773
 30
0.0
 11
-659.1697359787278
 21
-31.04226711532089
 31
0.0
  0
LINE
  5
43B4
330
18
100
AcDbEntity
  8
4360048-TLF_MCR_S_105_IAM_
  6
CONTINUOUS
 62
     7
100
AcDbLine
 10
-654.1697359787287
 20
-31.04226711532271
 30
0.0
 11
-656.6697359787277
 21
-29.59889144234773
 31
0.0
  0
LINE
  5
43B5
330
18
100
AcDbEntity
  8
4360048-TLF_MCR_S_105_IAM_
  6
CONTINUOUS
 62
     7
100
AcDbLine
 10
-654.1697359787287
 20
-33.92901846127085
 30
0.0
 11
-654.1697359787287
 21
-31.04226711532271
 31
0.0
  0
LINE
  5
43B6
330
18
100
AcDbEntity
  8
4360048-TLF_MCR_S_105_IAM_
  6
CONTINUOUS
 62
     7
100
AcDbLine
 10
-685.3608477967947
 20
-24.98564278828951
 30
0.0
 11
-685.3608477967919
 21
-14.98564278828951
 31
0.0
  0
ELLIPSE
  5
43B7
330
18
100
AcDbEntity
  8
4360048-TLF_MCR_S_105_IAM_
  6
CONTINUOUS
 62
     7
100
AcDbEllipse
 10
-684.7649710004981
 20
-24.98564278828951
 30
0.0
 11
-0.5958767962971033
 21
0.000000000000028
 31
0.0
210
0.0
220
0.0
230
-1.0
 40
0.8390996311772827
 41
4.71238898038459
 42
6.283185307178984
  0
LINE
  5
43B8
330
18
100
AcDbEntity
  8
4360048-TLF_MCR_S_105_IAM_
  6
CONTINUOUS
 62
     7
100
AcDbLine
 10
-684.7649710004981
 20
-25.48564278828951
 30
0.0
 11
-683.9871090870675
 21
-25.48564278828951
 31
0.0
  0
LINE
  5
43B9
330
18
100
AcDbEntity
  8
4360048-TLF_MCR_S_105_IAM_
  6
CONTINUOUS
 62
     7
100
AcDbLine
 10
-683.6339173932557
 20
-25.48564278828951
 30
0.0
 11
-684.7649710004981
 21
-25.48564278828951
 31
0.0
  0
LINE
  5
43BA
330
18
100
AcDbEntity
  8
4360048-TLF_MCR_S_105_IAM_
  6
CONTINUOUS
 62
     7
100
AcDbLine
 10
-683.6339173932557
 20
-25.48564278828951
 30
0.0
 11
-682.6697359787259
 21
-25.48564278828951
 31
0.0
  0
ARC
  5
43BB
330
18
100
AcDbEntity
  8
4360048-TLF_MCR_S_105_IAM_
  6
CONTINUOUS
 62
     7
100
AcDbCircle
 10
-682.6697359787268
 20
-26.48564278828951
 30
0.0
 40
1.000000000000001
100
AcDbArc
 50
0.0
 51
90.0
  0
ELLIPSE
  5
43BC
330
18
100
AcDbEntity
  8
4360048-TLF_MCR_S_105_IAM_
  6
CONTINUOUS
 62
     7
100
AcDbEllipse
 10
-689.79835304879
 20
-13.9856427882886
 30
0.0
 11
-0.0000000000001522
 21
-0.4999999999999972
 31
0.0
210
0.0
220
0.0
230
-1.0
 40
0.9848077530122125
 41
0.0
 42
1.570796326794791
  0
LINE
  5
43BD
330
18
100
AcDbEntity
  8
4360048-TLF_MCR_S_105_IAM_
  6
CONTINUOUS
 62
     7
100
AcDbLine
 10
-689.79835304879
 20
-14.4856427882886
 30
0.0
 11
-689.711528959957
 21
-14.48564278828951
 31
0.0
  0
ELLIPSE
  5
43BE
330
18
100
AcDbEntity
  8
4360048-TLF_MCR_S_105_IAM_
  6
CONTINUOUS
 62
     7
100
AcDbEllipse
 10
-685.9567245930894
 20
-14.98564278828951
 30
0.0
 11
0.5958767962971033
 21
-0.000000000000028
 31
0.0
210
0.0
220
0.0
230
-1.0
 40
0.8390996311772827
 41
4.71238898038459
 42
6.283185307178984
  0
LINE
  5
43BF
330
18
100
AcDbEntity
  8
4360048-TLF_MCR_S_105_IAM_
  6
CONTINUOUS
 62
     7
100
AcDbLine
 10
-688.0778667287987
 20
-14.48564278828951
 30
0.0
 11
-689.79835304879
 21
-14.4856427882886
 31
0.0
  0
LINE
  5
43C0
330
18
100
AcDbEntity
  8
4360048-TLF_MCR_S_105_IAM_
  6
CONTINUOUS
 62
     7
100
AcDbLine
 10
-687.8432970127889
 20
-14.48564278828951
 30
0.0
 11
-688.0778667287987
 21
-14.48564278828951
 31
0.0
  0
LINE
  5
43C1
330
18
100
AcDbEntity
  8
4360048-TLF_MCR_S_105_IAM_
  6
CONTINUOUS
 62
     7
100
AcDbLine
 10
-685.9567245930885
 20
-14.48564278828951
 30
0.0
 11
-687.8432970127889
 21
-14.48564278828951
 31
0.0
  0
ARC
  5
43C2
330
18
100
AcDbEntity
  8
4360048-TLF_MCR_S_105_IAM_
  6
CONTINUOUS
 62
     7
100
AcDbCircle
 10
-656.6697359787286
 20
-32.48564278829769
 30
0.0
 40
5.900000000003037
100
AcDbArc
 50
2.525716686397963
 51
9.862282315370233
  0
ARC
  5
43C3
330
18
100
AcDbEntity
  8
4360048-TLF_MCR_S_105_IAM_
  6
CONTINUOUS
 62
     7
100
AcDbCircle
 10
-656.6697359787286
 20
-32.48564278829769
 30
0.0
 40
5.900000000003036
100
AcDbArc
 50
357.474283313576
 51
4.769362101282583
  0
ARC
  5
43C4
330
18
100
AcDbEntity
  8
4360048-TLF_MCR_S_105_IAM_
  6
CONTINUOUS
 62
     7
100
AcDbCircle
 10
-656.6697359787286
 20
-32.48564278829769
 30
0.0
 40
5.900000000000011
100
AcDbArc
 50
342.4245017340695
 51
357.4776648248514
  0
LINE
  5
43C5
330
18
100
AcDbEntity
  8
4360048-TLF_MCR_S_105_IAM_
  6
CONTINUOUS
 62
     7
100
AcDbLine
 10
-577.784055644117
 20
-35.14865330588497
 30
0.0
 11
-574.9206610526672
 21
-34.78217718526491
 31
0.0
  0
LINE
  5
43C6
330
18
100
AcDbEntity
  8
4360048-TLF_MCR_S_105_IAM_
  6
CONTINUOUS
 62
     7
100
AcDbLine
 10
-579.5331305701803
 20
-32.85211890893867
 30
0.0
 11
-577.784055644117
 21
-35.14865330588497
 31
0.0
  0
LINE
  5
43C7
330
18
100
AcDbEntity
  8
4360048-TLF_MCR_S_105_IAM_
  6
CONTINUOUS
 62
     7
100
AcDbLine
 10
-578.4188109047901
 20
-30.18910839137413
 30
0.0
 11
-579.5331305701803
 21
-32.85211890893867
 31
0.0
  0
LINE
  5
43C8
330
18
100
AcDbEntity
  8
4360048-TLF_MCR_S_105_IAM_
  6
CONTINUOUS
 62
     7
100
AcDbLine
 10
-575.5554163133402
 20
-29.82263227075497
 30
0.0
 11
-578.4188109047901
 21
-30.18910839137413
 31
0.0
  0
LINE
  5
43C9
330
18
100
AcDbEntity
  8
DISEGNO
 48
0.0
100
AcDbLine
 10
-1108.653237369158
 20
49.51435721170639
 30
0.0
 11
-918.6532373691584
 21
49.51435721170639
 31
0.0
  0
LINE
  5
43CA
330
18
100
AcDbEntity
  8
DISEGNO
 48
0.0
100
AcDbLine
 10
-918.6532373691584
 20
17.53151449923177
 30
0.0
 11
-1108.653237369158
 21
17.53151449923177
 31
0.0
  0
LINE
  5
43CC
330
18
100
AcDbEntity
  8
DISEGNO
 48
0.0
100
AcDbLine
 10
-1108.653237369158
 20
49.49719992418102
 30
0.0
 11
-918.6532373691584
 21
49.49719992418102
 31
0.0
  0
LINE
  5
43CE
330
18
100
AcDbEntity
  8
DISEGNO
 48
0.0
100
AcDbLine
 10
-1108.653237369158
 20
39.21435721170644
 30
0.0
 11
-918.6532373691584
 21
39.21435721170644
 31
0.0
  0
LINE
  5
43CF
330
18
100
AcDbEntity
  8
DISEGNO
 48
0.0
100
AcDbLine
 10
-918.6532373691584
 20
30.81435721170635
 30
0.0
 11
-1108.653237369158
 21
30.81435721170635
 31
0.0
  0
LINE
  5
43D0
330
18
100
AcDbEntity
  8
DISEGNO
 48
0.0
100
AcDbLine
 10
-1108.653237369158
 20
17.51435721170639
 30
0.0
 11
-918.6532373691584
 21
17.51435721170639
 31
0.0
  0
LINE
  5
43D1
330
18
100
AcDbEntity
  8
DISEGNO
100
AcDbLine
 10
-1193.131959350437
 20
52.51435721170651
 30
0.0
 11
-681.6697359787032
 21
52.51435721170685
 31
0.0
  0
LINE
  5
43D2
330
18
100
AcDbEntity
  8
ASSI
100
AcDbLine
 10
-1088.653237369158
 20
27.35830353125334
 30
0.0
 11
-1088.653237369158
 21
42.43308087137688
 31
0.0
  0
LINE
  5
43D3
330
18
100
AcDbEntity
  8
DISEGNO
 48
0.0
100
AcDbLine
 10
-1108.653237369158
 20
39.31435721170635
 30
0.0
 11
-1108.653237369158
 21
49.49719992418102
 31
0.0
  0
LINE
  5
43D4
330
18
100
AcDbEntity
  8
DISEGNO
100
AcDbLine
 10
-1153.184047409073
 20
15.51435721170662
 30
0.0
 11
-1113.653237369158
 21
15.51435721170662
 31
0.0
  0
LINE
  5
43D5
330
18
100
AcDbEntity
  8
DISEGNO
 48
0.0
100
AcDbLine
 10
-1108.653237369158
 20
17.53151449923177
 30
0.0
 11
-1108.653237369158
 21
30.71435721170644
 31
0.0
  0
LINE
  5
43D6
330
18
100
AcDbEntity
  8
DISEGNO
 48
0.0
100
AcDbLine
 10
-1108.653237369158
 20
17.51435721170639
 30
0.0
 11
-1108.653237369158
 21
17.53151449923177
 31
0.0
  0
LINE
  5
43D7
330
18
100
AcDbEntity
  8
ASSI
100
AcDbLine
 10
-1101.542961627506
 20
35.01435721170617
 30
0.0
 11
-1074.177477748698
 21
35.01435721170617
 31
0.0
  0
LINE
  5
43D8
330
18
100
AcDbEntity
  8
DISEGNO
 48
0.0
100
AcDbLine
 10
-1108.653237369158
 20
30.81435721170635
 30
0.0
 11
-1108.653237369158
 21
39.21435721170644
 31
0.0
  0
CIRCLE
  5
43D9
330
18
100
AcDbEntity
  8
DISEGNO
 48
0.0
100
AcDbCircle
 10
-1088.653237369158
 20
35.01435721170617
 30
0.0
 40
3.3235
  0
LINE
  5
43DA
330
18
100
AcDbEntity
  8
DISEGNO
 48
0.0
100
AcDbLine
 10
-1078.653237369158
 20
31.06435721170612
 30
0.0
 11
-1078.653237369158
 21
38.96435721170621
 31
0.0
  0
LINE
  5
43DB
330
18
100
AcDbEntity
  8
DISEGNO
 48
0.0
100
AcDbLine
 10
-1098.653237369158
 20
38.96435721170621
 30
0.0
 11
-1098.653237369158
 21
31.06435721170612
 31
0.0
  0
LINE
  5
43DC
330
18
100
AcDbEntity
  8
DISEGNO
 48
0.0
100
AcDbLine
 10
-1098.653237369158
 20
31.06435721170612
 30
0.0
 11
-1078.653237369158
 21
31.06435721170612
 31
0.0
  0
LINE
  5
43DD
330
18
100
AcDbEntity
  8
DISEGNO
 48
0.0
100
AcDbLine
 10
-1108.653237369158
 20
30.71435721170621
 30
0.0
 11
-1108.653237369158
 21
30.81435721170612
 31
0.0
  0
LINE
  5
43DE
330
18
100
AcDbEntity
  8
DISEGNO
 48
0.0
100
AcDbLine
 10
-1098.653237369158
 20
31.06435721170612
 30
0.0
 11
-1098.653237369158
 21
30.81435721170612
 31
0.0
  0
LINE
  5
43DF
330
18
100
AcDbEntity
  8
DISEGNO
 48
0.0
100
AcDbLine
 10
-1078.653237369158
 20
30.81435721170612
 30
0.0
 11
-1078.653237369158
 21
31.06435721170612
 31
0.0
  0
LINE
  5
43E0
330
18
100
AcDbEntity
  8
DISEGNO
 48
0.0
100
AcDbLine
 10
-1098.653237369158
 20
38.96435721170621
 30
0.0
 11
-1078.653237369158
 21
38.96435721170621
 31
0.0
  0
LINE
  5
43E1
330
18
100
AcDbEntity
  8
DISEGNO
 48
0.0
100
AcDbLine
 10
-1108.653237369158
 20
39.21435721170644
 30
0.0
 11
-1108.653237369158
 21
39.31435721170635
 31
0.0
  0
LINE
  5
43E2
330
18
100
AcDbEntity
  8
DISEGNO
 48
0.0
100
AcDbLine
 10
-1098.653237369158
 20
39.21435721170621
 30
0.0
 11
-1098.653237369158
 21
38.96435721170621
 31
0.0
  0
LINE
  5
43E3
330
18
100
AcDbEntity
  8
DISEGNO
 48
0.0
100
AcDbLine
 10
-1078.653237369158
 20
38.96435721170621
 30
0.0
 11
-1078.653237369158
 21
39.21435721170644
 31
0.0
  0
LINE
  5
43E4
330
18
100
AcDbEntity
  8
DISEGNO
 48
0.0
100
AcDbLine
 10
-1108.653237369158
 20
49.01435721170639
 30
0.0
 11
-1113.653237369158
 21
49.01435721170639
 31
0.0
  0
LINE
  5
43E5
330
18
100
AcDbEntity
  8
DISEGNO
 48
0.0
100
AcDbLine
 10
-1108.653237369158
 20
49.49719992418079
 30
0.0
 11
-1108.653237369158
 21
49.51435721170617
 31
0.0
  0
LINE
  5
43E6
330
18
100
AcDbEntity
  8
ASSI
100
AcDbLine
 10
-938.6532373691581
 20
27.35830353125334
 30
0.0
 11
-938.6532373691581
 21
42.43308087137688
 31
0.0
  0
LINE
  5
43E7
330
18
100
AcDbEntity
  8
ASSI
100
AcDbLine
 10
-1013.653237369158
 20
27.35830353125334
 30
0.0
 11
-1013.653237369158
 21
42.43308087137688
 31
0.0
  0
LINE
  5
43E8
330
18
100
AcDbEntity
  8
ASSI
100
AcDbLine
 10
-1026.542961627507
 20
35.01435721170617
 30
0.0
 11
-999.1774777486989
 21
35.01435721170617
 31
0.0
  0
LINE
  5
43E9
330
18
100
AcDbEntity
  8
DISEGNO
 48
0.0
100
AcDbLine
 10
-1023.653237369158
 20
31.06435721170612
 30
0.0
 11
-1003.653237369158
 21
31.06435721170612
 31
0.0
  0
LINE
  5
43EA
330
18
100
AcDbEntity
  8
DISEGNO
 48
0.0
100
AcDbLine
 10
-1023.653237369158
 20
38.96435721170621
 30
0.0
 11
-1003.653237369158
 21
38.96435721170621
 31
0.0
  0
CIRCLE
  5
43EB
330
18
100
AcDbEntity
  8
DISEGNO
 48
0.0
100
AcDbCircle
 10
-1013.653237369158
 20
35.01435721170617
 30
0.0
 40
3.3235
  0
LINE
  5
43EC
330
18
100
AcDbEntity
  8
DISEGNO
 48
0.0
100
AcDbLine
 10
-1023.653237369158
 20
38.96435721170621
 30
0.0
 11
-1023.653237369158
 21
31.06435721170612
 31
0.0
  0
LINE
  5
43ED
330
18
100
AcDbEntity
  8
DISEGNO
 48
0.0
100
AcDbLine
 10
-1023.653237369158
 20
31.06435721170612
 30
0.0
 11
-1023.653237369158
 21
30.81435721170612
 31
0.0
  0
LINE
  5
43EE
330
18
100
AcDbEntity
  8
DISEGNO
 48
0.0
100
AcDbLine
 10
-1023.653237369158
 20
39.21435721170621
 30
0.0
 11
-1023.653237369158
 21
38.96435721170621
 31
0.0
  0
LINE
  5
43EF
330
18
100
AcDbEntity
  8
DISEGNO
 48
0.0
100
AcDbLine
 10
-1003.653237369158
 20
31.06435721170612
 30
0.0
 11
-1003.653237369158
 21
38.96435721170621
 31
0.0
  0
LINE
  5
43F0
330
18
100
AcDbEntity
  8
DISEGNO
 48
0.0
100
AcDbLine
 10
-1003.653237369158
 20
30.81435721170612
 30
0.0
 11
-1003.653237369158
 21
31.06435721170612
 31
0.0
  0
LINE
  5
43F1
330
18
100
AcDbEntity
  8
DISEGNO
 48
0.0
100
AcDbLine
 10
-1003.653237369158
 20
38.96435721170621
 30
0.0
 11
-1003.653237369158
 21
39.21435721170644
 31
0.0
  0
LINE
  5
43F2
330
18
100
AcDbEntity
  8
ASSI
100
AcDbLine
 10
-951.5429616275069
 20
35.01435721170617
 30
0.0
 11
-924.1774777486989
 21
35.01435721170617
 31
0.0
  0
CIRCLE
  5
43F3
330
18
100
AcDbEntity
  8
DISEGNO
 48
0.0
100
AcDbCircle
 10
-938.6532373691581
 20
35.01435721170617
 30
0.0
 40
3.3235
  0
LINE
  5
43F4
330
18
100
AcDbEntity
  8
DISEGNO
 48
0.0
100
AcDbLine
 10
-948.6532373691584
 20
31.06435721170612
 30
0.0
 11
-928.6532373691583
 21
31.06435721170612
 31
0.0
  0
LINE
  5
43F5
330
18
100
AcDbEntity
  8
DISEGNO
 48
0.0
100
AcDbLine
 10
-948.6532373691584
 20
38.96435721170621
 30
0.0
 11
-928.6532373691583
 21
38.96435721170621
 31
0.0
  0
LINE
  5
43F6
330
18
100
AcDbEntity
  8
DISEGNO
 48
0.0
100
AcDbLine
 10
-948.6532373691584
 20
38.96435721170621
 30
0.0
 11
-948.6532373691584
 21
31.06435721170612
 31
0.0
  0
LINE
  5
43F7
330
18
100
AcDbEntity
  8
DISEGNO
 48
0.0
100
AcDbLine
 10
-948.6532373691584
 20
31.06435721170612
 30
0.0
 11
-948.6532373691584
 21
30.81435721170612
 31
0.0
  0
LINE
  5
43F8
330
18
100
AcDbEntity
  8
DISEGNO
 48
0.0
100
AcDbLine
 10
-948.6532373691584
 20
39.21435721170621
 30
0.0
 11
-948.6532373691584
 21
38.96435721170621
 31
0.0
  0
LINE
  5
43F9
330
18
100
AcDbEntity
  8
DISEGNO
 48
0.0
100
AcDbLine
 10
-928.6532373691583
 20
31.06435721170612
 30
0.0
 11
-928.6532373691583
 21
38.96435721170621
 31
0.0
  0
LINE
  5
43FA
330
18
100
AcDbEntity
  8
DISEGNO
 48
0.0
100
AcDbLine
 10
-928.6532373691583
 20
30.81435721170612
 30
0.0
 11
-928.6532373691583
 21
31.06435721170612
 31
0.0
  0
LINE
  5
43FB
330
18
100
AcDbEntity
  8
DISEGNO
 48
0.0
100
AcDbLine
 10
-928.6532373691583
 20
38.96435721170621
 30
0.0
 11
-928.6532373691583
 21
39.21435721170644
 31
0.0
  0
LINE
  5
43FC
330
18
100
AcDbEntity
  8
DISEGNO
100
AcDbLine
 10
-685.3608477967827
 20
15.51435721170685
 30
0.0
 11
-913.6532373691547
 21
15.51435721170685
 31
0.0
  0
LINE
  5
43FE
330
18
100
AcDbEntity
  8
DISEGNO
 48
0.0
100
AcDbLine
 10
-918.6532373691584
 20
49.49719992418102
 30
0.0
 11
-918.6532373691584
 21
39.31435721170635
 31
0.0
  0
LINE
  5
43FF
330
18
100
AcDbEntity
  8
DISEGNO
 48
0.0
100
AcDbLine
 10
-918.6532373691584
 20
30.71435721170644
 30
0.0
 11
-918.6532373691584
 21
17.53151449923177
 31
0.0
  0
LINE
  5
4400
330
18
100
AcDbEntity
  8
DISEGNO
 48
0.0
100
AcDbLine
 10
-918.6532373691584
 20
17.53151449923177
 30
0.0
 11
-918.6532373691584
 21
17.51435721170639
 31
0.0
  0
LINE
  5
4407
330
18
100
AcDbEntity
  8
DISEGNO
 48
0.0
100
AcDbLine
 10
-918.6532373691584
 20
30.81435721170635
 30
0.0
 11
-918.6532373691584
 21
39.21435721170644
 31
0.0
  0
LINE
  5
440A
330
18
100
AcDbEntity
  8
DISEGNO
 48
0.0
100
AcDbLine
 10
-918.6532373691584
 20
30.81435721170612
 30
0.0
 11
-918.6532373691584
 21
30.71435721170621
 31
0.0
  0
LINE
  5
440C
330
18
100
AcDbEntity
  8
DISEGNO
 48
0.0
100
AcDbLine
 10
-918.6532373691584
 20
39.31435721170635
 30
0.0
 11
-918.6532373691584
 21
39.21435721170644
 31
0.0
  0
LINE
  5
440E
330
18
100
AcDbEntity
  8
DISEGNO
 48
0.0
100
AcDbLine
 10
-918.6532373691584
 20
49.01435721170639
 30
0.0
 11
-913.6532373691586
 21
49.01435721170639
 31
0.0
  0
LINE
  5
440F
330
18
100
AcDbEntity
  8
DISEGNO
 48
0.0
100
AcDbLine
 10
-918.6532373691584
 20
49.51435721170617
 30
0.0
 11
-918.6532373691584
 21
49.49719992418079
 31
0.0
  0
LINE
  5
4410
330
18
100
AcDbEntity
  8
4360048-TLF_MCR_S_105_IAM_
  6
CONTINUOUS
 62
     7
100
AcDbLine
 10
-681.6697359787105
 20
26.01435721170412
 30
0.0
 11
-681.6697359787032
 21
50.51435721170776
 31
0.0
  0
LINE
  5
4411
330
18
100
AcDbEntity
  8
4360048-TLF_MCR_S_105_IAM_
  6
CONTINUOUS
 62
     7
100
AcDbLine
 10
-681.669735978705
 20
45.51435721170958
 30
0.0
 11
-681.6697359787105
 21
26.51435721170958
 31
0.0
  0
ARC
  5
4412
330
18
100
AcDbEntity
  8
4360048-TLF_MCR_S_105_IAM_
  6
CONTINUOUS
 62
     7
100
AcDbCircle
 10
-656.6697359787086
 20
32.5143572117023
 30
0.0
 40
5.899999999999999
100
AcDbArc
 50
2.522335174574735
 51
341.3451714503911
  0
LINE
  5
4413
330
18
100
AcDbEntity
  8
4360048-TLF_MCR_S_105_IAM_
  6
CONTINUOUS
 62
     7
100
AcDbLine
 10
-685.3608477967829
 20
15.01435721171048
 30
0.0
 11
-685.3608477967801
 21
25.01435721171048
 31
0.0
  0
LINE
  5
4414
330
18
100
AcDbEntity
  8
4360048-TLF_MCR_S_105_IAM_
  6
CONTINUOUS
 62
     7
100
AcDbLine
 10
-685.9562594772033
 20
14.51435721171049
 30
0.0
 11
-685.2757418984448
 21
14.51435721171049
 31
0.0
  0
ELLIPSE
  5
4415
330
18
100
AcDbEntity
  8
4360048-TLF_MCR_S_105_IAM_
  6
CONTINUOUS
 62
     7
100
AcDbEllipse
 10
-685.9567245930803
 20
15.01435721171048
 30
0.0
 11
0.5958767962971033
 21
-0.000000000000028
 31
0.0
210
0.0
220
0.0
230
-1.0
 40
0.8390996311772823
 41
0.0
 42
1.570796326794797
  0
LINE
  5
4416
330
18
100
AcDbEntity
  8
4360048-TLF_MCR_S_105_IAM_
  6
CONTINUOUS
 62
     7
100
AcDbLine
 10
-687.8432970127806
 20
14.51435721171049
 30
0.0
 11
-685.9567245930803
 21
14.51435721171049
 31
0.0
  0
LINE
  5
4417
330
18
100
AcDbEntity
  8
4360048-TLF_MCR_S_105_IAM_
  6
CONTINUOUS
 62
     7
100
AcDbLine
 10
-688.0778667287906
 20
14.51435721171049
 30
0.0
 11
-687.8432970127806
 21
14.51435721171049
 31
0.0
  0
LINE
  5
4418
330
18
100
AcDbEntity
  8
4360048-TLF_MCR_S_105_IAM_
  6
CONTINUOUS
 62
     7
100
AcDbLine
 10
-689.7983530487818
 20
14.51435721171139
 30
0.0
 11
-688.0778667287906
 21
14.51435721171049
 31
0.0
  0
ELLIPSE
  5
4419
330
18
100
AcDbEntity
  8
4360048-TLF_MCR_S_105_IAM_
  6
CONTINUOUS
 62
     7
100
AcDbEllipse
 10
-684.7649710004827
 20
25.01435721171048
 30
0.0
 11
-0.5958767962971033
 21
0.000000000000028
 31
0.0
210
0.0
220
0.0
230
-1.0
 40
0.8390996311772827
 41
0.0
 42
1.570796326794797
  0
LINE
  5
441A
330
18
100
AcDbEntity
  8
4360048-TLF_MCR_S_105_IAM_
  6
CONTINUOUS
 62
     7
100
AcDbLine
 10
-682.6697359787114
 20
25.51435721171049
 30
0.0
 11
-683.6339173932412
 21
25.51435721171049
 31
0.0
  0
LINE
  5
441B
330
18
100
AcDbEntity
  8
4360048-TLF_MCR_S_105_IAM_
  6
CONTINUOUS
 62
     7
100
AcDbLine
 10
-684.7649710004827
 20
25.51435721171049
 30
0.0
 11
-683.6339173932412
 21
25.51435721171049
 31
0.0
  0
ARC
  5
441C
330
18
100
AcDbEntity
  8
4360048-TLF_MCR_S_105_IAM_
  6
CONTINUOUS
 62
     7
100
AcDbCircle
 10
-682.6697359787105
 20
26.51435721171049
 30
0.0
 40
1.000000000000001
100
AcDbArc
 50
270.0
 51
0.0
  0
LINE
  5
441D
330
18
100
AcDbEntity
  8
4360048-TLF_MCR_S_105_IAM_
  6
CONTINUOUS
 62
     7
100
AcDbLine
 10
-658.1131116516836
 20
30.01435721170412
 30
0.0
 11
-655.2263603057363
 21
30.01435721170412
 31
0.0
  0
LINE
  5
441E
330
18
100
AcDbEntity
  8
4360048-TLF_MCR_S_105_IAM_
  6
CONTINUOUS
 62
     7
100
AcDbLine
 10
-659.5564873246567
 20
32.51435721170503
 30
0.0
 11
-658.1131116516836
 21
30.01435721170412
 31
0.0
  0
LINE
  5
441F
330
18
100
AcDbEntity
  8
4360048-TLF_MCR_S_105_IAM_
  6
CONTINUOUS
 62
     7
100
AcDbLine
 10
-658.1131116516827
 20
35.01435721170412
 30
0.0
 11
-659.5564873246567
 21
32.51435721170503
 31
0.0
  0
LINE
  5
4420
330
18
100
AcDbEntity
  8
4360048-TLF_MCR_S_105_IAM_
  6
CONTINUOUS
 62
     7
100
AcDbLine
 10
-655.2263603057346
 20
35.01435721170412
 30
0.0
 11
-658.1131116516827
 21
35.01435721170412
 31
0.0
  0
LINE
  5
4421
330
18
100
AcDbEntity
  8
4360048-TLF_MCR_S_105_IAM_
  6
CONTINUOUS
 62
     7
100
AcDbLine
 10
-653.7829846327605
 20
32.51435721170321
 30
0.0
 11
-655.2263603057346
 21
35.01435721170412
 31
0.0
  0
LINE
  5
4422
330
18
100
AcDbEntity
  8
4360048-TLF_MCR_S_105_IAM_
  6
CONTINUOUS
 62
     7
100
AcDbLine
 10
-655.2263603057363
 20
30.01435721170412
 30
0.0
 11
-653.7829846327605
 21
32.51435721170321
 31
0.0
  0
ARC
  5
4423
330
18
100
AcDbEntity
  8
4360048-TLF_MCR_S_105_IAM_
  6
CONTINUOUS
 62
     7
100
AcDbCircle
 10
-656.6697359787086
 20
32.5143572117023
 30
0.0
 40
5.900000000000039
100
AcDbArc
 50
342.4231387141071
 51
357.4719402364667
  0
LINE
  5
4424
330
18
100
AcDbEntity
  8
4360048-TLF_MCR_S_105_IAM_
  6
CONTINUOUS
 62
     7
100
AcDbLine
 10
-578.1131116516845
 20
30.01435721168047
 30
0.0
 11
-575.2263603057364
 21
30.01435721167956
 31
0.0
  0
LINE
  5
4425
330
18
100
AcDbEntity
  8
4360048-TLF_MCR_S_105_IAM_
  6
CONTINUOUS
 62
     7
100
AcDbLine
 10
-579.5564873246568
 20
32.51435721168138
 30
0.0
 11
-578.1131116516845
 21
30.01435721168047
 31
0.0
  0
LINE
  5
4426
330
18
100
AcDbEntity
  8
4360048-TLF_MCR_S_105_IAM_
  6
CONTINUOUS
 62
     7
100
AcDbLine
 10
-578.1131116516827
 20
35.01435721168047
 30
0.0
 11
-579.5564873246568
 21
32.51435721168138
 31
0.0
  0
LINE
  5
4427
330
18
100
AcDbEntity
  8
4360048-TLF_MCR_S_105_IAM_
  6
CONTINUOUS
 62
     7
100
AcDbLine
 10
-575.2263603057346
 20
35.01435721167956
 30
0.0
 11
-578.1131116516827
 21
35.01435721168047
 31
0.0
  0
ARC
  5
4428
330
18
100
AcDbEntity
  8
4360048-TLF_MCR_S_105_IAM_
  6
CONTINUOUS
 62
     7
100
AcDbCircle
 10
-679.669735978705
 20
45.51435721170958
 30
0.0
 40
2.000000000000011
100
AcDbArc
 50
90.0
 51
180.0
  0
LINE
  5
4429
330
18
100
AcDbEntity
  8
4360048-TLF_MCR_S_105_IAM_
  6
CONTINUOUS
 62
     7
100
AcDbLine
 10
-681.6697359787032
 20
52.51435721170685
 30
0.0
 11
-681.6697359787032
 21
50.51435721170776
 31
0.0
  0
LINE
  5
442A
330
18
100
AcDbEntity
  8
DISEGNO
100
AcDbLine
 10
-1231.670890630013
 20
162.2821626984151
 30
0.0
 11
-1187.781625877758
 21
162.2821626984142
 31
0.0
  0
LINE
  5
442B
330
18
100
AcDbEntity
  8
DISEGNO
100
AcDbLine
 10
-1194.210486200423
 20
186.2821626984006
 30
0.0
 11
-1231.670890630013
 21
186.2821626984006
 31
0.0
  0
LINE
  5
442C
330
18
100
AcDbEntity
  8
DISEGNO
100
AcDbLine
 10
-681.6697359786941
 20
194.2821626984008
 30
0.0
 11
-1196.353439641312
 21
194.2821626984003
 31
0.0
  0
LINE
  5
442D
330
18
100
AcDbEntity
  8
4150007_A-PIASTRA_DI_COLLE
  6
CONTINUOUS
 62
     7
 48
0.0
100
AcDbLine
 10
-1231.670890630014
 20
164.2821626984151
 30
0.0
 11
-1231.670890630014
 21
266.1821626984152
 31
0.0
  0
LINE
  5
442E
330
18
100
AcDbEntity
  8
4150007_A-PIASTRA_DI_COLLE
  6
CONTINUOUS
 62
     7
 48
0.0
100
AcDbLine
 10
-1241.670890630014
 20
266.1821626984152
 30
0.0
 11
-1241.670890630014
 21
164.2821626984151
 31
0.0
  0
LINE
  5
442F
330
18
100
AcDbEntity
  8
ASSI
100
AcDbLine
 10
-1251.670890630014
 20
221.9607632775633
 30
0.0
 11
-1251.670890630014
 21
243.6066105541136
 31
0.0
  0
LINE
  5
4430
330
18
100
AcDbEntity
  8
ASSI
100
AcDbLine
 10
-1313.670890630014
 20
148.8648430176427
 30
0.0
 11
-1313.670890630014
 21
278.6376719865758
 31
0.0
  0
CIRCLE
  5
4431
330
18
100
AcDbEntity
  8
DISEGNO
100
AcDbCircle
 10
-1313.670890630014
 20
215.682162698415
 30
0.0
 40
30.0
  0
CIRCLE
  5
4432
330
18
100
AcDbEntity
  8
DISEGNO
100
AcDbCircle
 10
-1251.670890630014
 20
233.182162698415
 30
0.0
 40
6.499999999999963
  0
LINE
  5
4433
330
18
100
AcDbEntity
  8
DISEGNO
100
AcDbLine
 10
-1376.670890630014
 20
173.1821626984151
 30
0.0
 11
-1376.670890630014
 21
258.1821626984151
 31
0.0
  0
LINE
  5
4434
330
18
100
AcDbEntity
  8
DISEGNO
100
AcDbLine
 10
-1241.670890630014
 20
268.182162698415
 30
0.0
 11
-1241.670890630014
 21
163.1821626984151
 31
0.0
  0
LINE
  5
44A4
330
18
100
AcDbEntity
  8
ASSI
100
AcDbLine
 10
-1364.670890630014
 20
163.4607632775633
 30
0.0
 11
-1364.670890630014
 21
185.1066105541136
 31
0.0
  0
LINE
  5
44A9
330
18
100
AcDbEntity
  8
DISEGNO
100
AcDbLine
 10
-1241.670890630014
 20
163.1821626984151
 30
0.0
 11
-1366.670890630014
 21
163.1821626984151
 31
0.0
  0
ARC
  5
44C6
330
18
100
AcDbEntity
  8
DISEGNO
100
AcDbCircle
 10
-1366.670890630014
 20
173.1821626984152
 30
0.0
 40
10.0
100
AcDbArc
 50
180.0
 51
270.0
  0
LINE
  5
44C7
330
18
100
AcDbEntity
  8
DISEGNO
100
AcDbLine
 10
-1368.133590281641
 20
174.7807077268058
 30
0.0
 11
-1366.316897957824
 21
177.7302210765952
 31
0.0
  0
LINE
  5
44C8
330
18
100
AcDbEntity
  8
DISEGNO
100
AcDbLine
 10
-1362.854198306197
 20
177.6316760482044
 30
0.0
 11
-1361.208190978387
 21
174.5836176700244
 31
0.0
  0
CIRCLE
  5
44C9
330
18
100
AcDbEntity
  8
DISEGNO
100
AcDbCircle
 10
-1364.670890630014
 20
174.6821626984151
 30
0.0
 40
6.499999999999973
  0
LINE
  5
44CA
330
18
100
AcDbEntity
  8
ASSI
100
AcDbLine
 10
-1374.994807874211
 20
174.6821626984151
 30
0.0
 11
-1355.221523534933
 21
174.6821626984151
 31
0.0
  0
LINE
  5
44CB
330
18
100
AcDbEntity
  8
DISEGNO
100
AcDbLine
 10
-1366.48758295383
 20
171.7326493486259
 30
0.0
 11
-1368.133590281641
 21
174.7807077268058
 31
0.0
  0
LINE
  5
44CC
330
18
100
AcDbEntity
  8
DISEGNO
100
AcDbLine
 10
-1363.024883302203
 20
171.6341043202351
 30
0.0
 11
-1366.48758295383
 21
171.7326493486259
 31
0.0
  0
LINE
  5
44CD
330
18
100
AcDbEntity
  8
DISEGNO
100
AcDbLine
 10
-1361.208190978387
 20
174.5836176700244
 30
0.0
 11
-1363.024883302203
 21
171.6341043202351
 31
0.0
  0
LINE
  5
44CE
330
18
100
AcDbEntity
  8
DISEGNO
100
AcDbLine
 10
-1366.316897957824
 20
177.7302210765952
 30
0.0
 11
-1362.854198306197
 21
177.6316760482044
 31
0.0
  0
LINE
  5
44CF
330
18
100
AcDbEntity
  8
4150007_A-PIASTRA_DI_COLLE
  6
CONTINUOUS
 62
     7
 48
0.0
100
AcDbLine
 10
-1239.740834401555
 20
162.2821626984151
 30
0.0
 11
-1231.670890630013
 21
162.2821626984151
 31
0.0
  0
LINE
  5
44D0
330
18
100
AcDbEntity
  8
4150007_A-PIASTRA_DI_COLLE
  6
CONTINUOUS
 62
     7
 48
0.0
100
AcDbLine
 10
-1239.740834401555
 20
162.2821626984151
 30
0.0
 11
-1241.670890630014
 21
163.1821626984151
 31
0.0
  0
LINE
  5
44D1
330
18
100
AcDbEntity
  8
4150007_A-PIASTRA_DI_COLLE
  6
CONTINUOUS
 62
     7
 48
0.0
100
AcDbLine
 10
-1241.670890630014
 20
163.1821626984151
 30
0.0
 11
-1241.670890630014
 21
164.2821626984151
 31
0.0
  0
LINE
  5
44D2
330
18
100
AcDbEntity
  8
4150007_A-PIASTRA_DI_COLLE
  6
CONTINUOUS
 62
     7
 48
0.0
100
AcDbLine
 10
-1231.670890630014
 20
164.2821626984151
 30
0.0
 11
-1231.670890630013
 21
162.2821626984151
 31
0.0
  0
CIRCLE
  5
4510
330
18
100
AcDbEntity
  8
DISEGNO
100
AcDbCircle
 10
-1313.670890630014
 20
215.682162698415
 30
0.0
 40
9.499999999999994
  0
CIRCLE
  5
4511
330
18
100
AcDbEntity
  8
DISEGNO
100
AcDbCircle
 10
-1313.670890630014
 20
215.6821626984151
 30
0.0
 40
13.49999999999995
  0
LINE
  5
4512
330
18
100
AcDbEntity
  8
ASSI
100
AcDbLine
 10
-1251.670890630014
 20
186.9607632775633
 30
0.0
 11
-1251.670890630014
 21
208.6066105541136
 31
0.0
  0
LINE
  5
4513
330
18
100
AcDbEntity
  8
DISEGNO
100
AcDbLine
 10
-1253.817861955677
 20
195.4636126939491
 30
0.0
 11
-1255.098709658171
 21
198.6822194054028
 31
0.0
  0
LINE
  5
4514
330
18
100
AcDbEntity
  8
DISEGNO
100
AcDbLine
 10
-1248.243071601857
 20
197.6821059914274
 30
0.0
 11
-1250.390042927519
 21
194.9635559869615
 31
0.0
  0
CIRCLE
  5
4515
330
18
100
AcDbEntity
  8
DISEGNO
100
AcDbCircle
 10
-1251.670890630014
 20
198.1821626984151
 30
0.0
 40
6.499999999999969
  0
LINE
  5
4516
330
18
100
AcDbEntity
  8
DISEGNO
100
AcDbLine
 10
-1250.390042927519
 20
194.9635559869615
 30
0.0
 11
-1253.817861955677
 21
195.4636126939491
 31
0.0
  0
LINE
  5
4517
330
18
100
AcDbEntity
  8
DISEGNO
100
AcDbLine
 10
-1196.353439641312
 20
194.2821626984003
 30
0.0
 11
-1231.670890630013
 21
194.2821626984001
 31
0.0
  0
LINE
  5
4518
330
18
100
AcDbEntity
  8
ASSI
100
AcDbLine
 10
-1261.99480787421
 20
198.1821626984151
 30
0.0
 11
-1242.221523534933
 21
198.1821626984151
 31
0.0
  0
LINE
  5
4519
330
18
100
AcDbEntity
  8
DISEGNO
100
AcDbLine
 10
-1255.098709658171
 20
198.6822194054028
 30
0.0
 11
-1252.951738332508
 21
201.4007694098687
 31
0.0
  0
LINE
  5
451A
330
18
100
AcDbEntity
  8
DISEGNO
100
AcDbLine
 10
-1249.523919304351
 20
200.9007127028811
 30
0.0
 11
-1248.243071601857
 21
197.6821059914274
 31
0.0
  0
LINE
  5
451B
330
18
100
AcDbEntity
  8
DISEGNO
100
AcDbLine
 10
-1252.951738332508
 20
201.4007694098687
 30
0.0
 11
-1249.523919304351
 21
200.9007127028811
 31
0.0
  0
LINE
  5
451C
330
18
100
AcDbEntity
  8
DISEGNO
100
AcDbLine
 10
-1248.264757146538
 20
233.8132369355241
 30
0.0
 11
-1249.421297567265
 21
230.5479016915985
 31
0.0
  0
LINE
  5
451D
330
18
100
AcDbEntity
  8
DISEGNO
100
AcDbLine
 10
-1252.827431050741
 20
229.9168274544895
 30
0.0
 11
-1255.07702411349
 21
232.551088461306
 31
0.0
  0
LINE
  5
451E
330
18
100
AcDbEntity
  8
DISEGNO
100
AcDbLine
 10
-1249.421297567265
 20
230.5479016915985
 30
0.0
 11
-1252.827431050741
 21
229.9168274544895
 31
0.0
  0
LINE
  5
451F
330
18
100
AcDbEntity
  8
ASSI
100
AcDbLine
 10
-1261.99480787421
 20
233.182162698415
 30
0.0
 11
-1242.221523534933
 21
233.182162698415
 31
0.0
  0
LINE
  5
4520
330
18
100
AcDbEntity
  8
DISEGNO
100
AcDbLine
 10
-1255.07702411349
 20
232.551088461306
 30
0.0
 11
-1253.920483692762
 21
235.8164237052317
 31
0.0
  0
LINE
  5
4521
330
18
100
AcDbEntity
  8
DISEGNO
100
AcDbLine
 10
-1250.514350209286
 20
236.4474979423407
 30
0.0
 11
-1248.264757146538
 21
233.8132369355242
 31
0.0
  0
LINE
  5
4522
330
18
100
AcDbEntity
  8
DISEGNO
100
AcDbLine
 10
-1253.920483692762
 20
235.8164237052317
 30
0.0
 11
-1250.514350209286
 21
236.4474979423407
 31
0.0
  0
POLYLINE
  5
4523
330
18
100
AcDbEntity
  8
DISEGNO
100
AcDb2dPolyline
 66
     1
 10
0.0
 20
0.0
 30
0.0
  0
VERTEX
  5
4524
330
4523
100
AcDbEntity
  8
DISEGNO
100
AcDbVertex
100
AcDb2dVertex
 10
-1507.597164166079
 20
288.0821626984147
 30
0.0
 42
-0.4142135623730951
  0
VERTEX
  5
4525
330
4523
100
AcDbEntity
  8
DISEGNO
100
AcDbVertex
100
AcDb2dVertex
 10
-1507.897164166079
 20
287.7821626984148
 30
0.0
  0
VERTEX
  5
4526
330
4523
100
AcDbEntity
  8
DISEGNO
100
AcDbVertex
100
AcDb2dVertex
 10
-1547.297164166079
 20
287.7821626984149
 30
0.0
 42
-0.4142135623730951
  0
VERTEX
  5
4527
330
4523
100
AcDbEntity
  8
DISEGNO
100
AcDbVertex
100
AcDb2dVertex
 10
-1547.597164166079
 20
288.082162698415
 30
0.0
  0
VERTEX
  5
4528
330
4523
100
AcDbEntity
  8
DISEGNO
100
AcDbVertex
100
AcDb2dVertex
 10
-1547.597164166079
 20
291.9821626984149
 30
0.0
 42
0.4142135623730951
  0
VERTEX
  5
4529
330
4523
100
AcDbEntity
  8
DISEGNO
100
AcDbVertex
100
AcDb2dVertex
 10
-1547.897164166079
 20
292.2821626984149
 30
0.0
  0
VERTEX
  5
452A
330
4523
100
AcDbEntity
  8
DISEGNO
100
AcDbVertex
100
AcDb2dVertex
 10
-1557.997164166079
 20
292.282162698415
 30
0.0
 42
0.4142135623730951
  0
VERTEX
  5
452B
330
4523
100
AcDbEntity
  8
DISEGNO
100
AcDbVertex
100
AcDb2dVertex
 10
-1558.497164166079
 20
291.7821626984149
 30
0.0
  0
VERTEX
  5
452C
330
4523
100
AcDbEntity
  8
DISEGNO
100
AcDbVertex
100
AcDb2dVertex
 10
-1558.497164166079
 20
288.5821626984149
 30
0.0
 42
0.4142135623730951
  0
VERTEX
  5
452D
330
4523
100
AcDbEntity
  8
DISEGNO
100
AcDbVertex
100
AcDb2dVertex
 10
-1557.997164166079
 20
288.082162698415
 30
0.0
  0
VERTEX
  5
452E
330
4523
100
AcDbEntity
  8
DISEGNO
100
AcDbVertex
100
AcDb2dVertex
 10
-1555.347164166079
 20
288.082162698415
 30
0.0
 42
-0.4142135623730951
  0
VERTEX
  5
452F
330
4523
100
AcDbEntity
  8
DISEGNO
100
AcDbVertex
100
AcDb2dVertex
 10
-1554.847164166079
 20
287.582162698415
 30
0.0
  0
VERTEX
  5
4530
330
4523
100
AcDbEntity
  8
DISEGNO
100
AcDbVertex
100
AcDb2dVertex
 10
-1554.847164166079
 20
286.2821626984149
 30
0.0
 42
-0.4142135623730951
  0
VERTEX
  5
4531
330
4523
100
AcDbEntity
  8
DISEGNO
100
AcDbVertex
100
AcDb2dVertex
 10
-1560.847164166079
 20
280.2821626984149
 30
0.0
  0
VERTEX
  5
4532
330
4523
100
AcDbEntity
  8
DISEGNO
100
AcDbVertex
100
AcDb2dVertex
 10
-1564.347164166079
 20
280.2821626984149
 30
0.0
 42
-0.4142135623730951
  0
VERTEX
  5
4533
330
4523
100
AcDbEntity
  8
DISEGNO
100
AcDbVertex
100
AcDb2dVertex
 10
-1570.347164166079
 20
286.2821626984149
 30
0.0
  0
VERTEX
  5
4534
330
4523
100
AcDbEntity
  8
DISEGNO
100
AcDbVertex
100
AcDb2dVertex
 10
-1570.347164166079
 20
287.5821626984148
 30
0.0
 42
-0.4142135623731617
  0
VERTEX
  5
4535
330
4523
100
AcDbEntity
  8
DISEGNO
100
AcDbVertex
100
AcDb2dVertex
 10
-1569.847164166079
 20
288.082162698415
 30
0.0
  0
VERTEX
  5
4536
330
4523
100
AcDbEntity
  8
DISEGNO
100
AcDbVertex
100
AcDb2dVertex
 10
-1567.197164166079
 20
288.0821626984149
 30
0.0
 42
0.4142135623730951
  0
VERTEX
  5
4537
330
4523
100
AcDbEntity
  8
DISEGNO
100
AcDbVertex
100
AcDb2dVertex
 10
-1566.697164166079
 20
288.5821626984149
 30
0.0
  0
VERTEX
  5
4538
330
4523
100
AcDbEntity
  8
DISEGNO
100
AcDbVertex
100
AcDb2dVertex
 10
-1566.697164166079
 20
291.7821626984149
 30
0.0
 42
0.4142135623730951
  0
VERTEX
  5
4539
330
4523
100
AcDbEntity
  8
DISEGNO
100
AcDbVertex
100
AcDb2dVertex
 10
-1567.197164166079
 20
292.2821626984149
 30
0.0
  0
VERTEX
  5
453A
330
4523
100
AcDbEntity
  8
DISEGNO
100
AcDbVertex
100
AcDb2dVertex
 10
-1576.797164166079
 20
292.282162698415
 30
0.0
 42
0.4142135623730951
  0
VERTEX
  5
453B
330
4523
100
AcDbEntity
  8
DISEGNO
100
AcDbVertex
100
AcDb2dVertex
 10
-1577.097164166079
 20
291.9821626984149
 30
0.0
  0
VERTEX
  5
453C
330
4523
100
AcDbEntity
  8
DISEGNO
100
AcDbVertex
100
AcDb2dVertex
 10
-1577.097164166079
 20
268.9821626984149
 30
0.0
 42
0.4142135623730951
  0
VERTEX
  5
453D
330
4523
100
AcDbEntity
  8
DISEGNO
100
AcDbVertex
100
AcDb2dVertex
 10
-1576.597164166079
 20
268.4821626984149
 30
0.0
  0
VERTEX
  5
453E
330
4523
100
AcDbEntity
  8
DISEGNO
100
AcDbVertex
100
AcDb2dVertex
 10
-1543.597164166075
 20
268.4821626984149
 30
0.0
  0
SEQEND
  5
453F
330
4523
100
AcDbEntity
  8
DISEGNO
  0
POLYLINE
  5
4543
330
18
100
AcDbEntity
  8
DISEGNO
100
AcDb2dPolyline
 66
     1
 10
0.0
 20
0.0
 30
0.0
  0
VERTEX
  5
4544
330
4543
100
AcDbEntity
  8
DISEGNO
100
AcDbVertex
100
AcDb2dVertex
 10
-1543.597164166075
 20
268.4821626984149
 30
0.0
 42
-0.4142135623730951
  0
VERTEX
  5
4545
330
4543
100
AcDbEntity
  8
DISEGNO
100
AcDbVertex
100
AcDb2dVertex
 10
-1541.597164166075
 20
266.4821626984149
 30
0.0
  0
VERTEX
  5
4546
330
4543
100
AcDbEntity
  8
DISEGNO
100
AcDbVertex
100
AcDb2dVertex
 10
-1541.597164166075
 20
263.1821626984149
 30
0.0
 42
0.4142135623730951
  0
SEQEND
  5
4547
330
4543
100
AcDbEntity
  8
DISEGNO
  0
LINE
  5
4579
330
18
100
AcDbEntity
  8
DISEGNO
100
AcDbLine
 10
-1366.670890630014
 20
268.182162698415
 30
0.0
 11
-1241.670890630014
 21
268.182162698415
 31
0.0
  0
POLYLINE
  5
457A
330
18
100
AcDbEntity
  8
DISEGNO
100
AcDb2dPolyline
 66
     1
 10
0.0
 20
0.0
 30
0.0
  0
VERTEX
  5
457B
330
457A
100
AcDbEntity
  8
DISEGNO
100
AcDbVertex
100
AcDb2dVertex
 10
-1513.597164166081
 20
263.1821626984149
 30
0.0
  0
VERTEX
  5
457C
330
457A
100
AcDbEntity
  8
DISEGNO
100
AcDbVertex
100
AcDb2dVertex
 10
-1513.597164166081
 20
266.4821626984148
 30
0.0
 42
-0.414213562373093
  0
VERTEX
  5
457D
330
457A
100
AcDbEntity
  8
DISEGNO
100
AcDbVertex
100
AcDb2dVertex
 10
-1511.597164166081
 20
268.4821626984148
 30
0.0
  0
SEQEND
  5
457E
330
457A
100
AcDbEntity
  8
DISEGNO
  0
ARC
  5
457F
330
18
100
AcDbEntity
  8
DISEGNO
100
AcDbCircle
 10
-1366.670890630014
 20
258.182162698415
 30
0.0
 40
10.0
100
AcDbArc
 50
90.0
 51
180.0
  0
LINE
  5
4583
330
18
100
AcDbEntity
  8
ASSI
100
AcDbLine
 10
-1364.670890630014
 20
245.4607632775633
 30
0.0
 11
-1364.670890630014
 21
267.1066105541136
 31
0.0
  0
CIRCLE
  5
45B2
330
18
100
AcDbEntity
  8
DISEGNO
100
AcDbCircle
 10
-1364.670890630014
 20
256.682162698415
 30
0.0
 40
6.499999999999966
  0
LINE
  5
45B3
330
18
100
AcDbEntity
  8
DISEGNO
100
AcDbLine
 10
-1367.935185251085
 20
257.841636987412
 30
0.0
 11
-1365.298903751243
 21
260.0888619101982
 31
0.0
  0
LINE
  5
45B4
330
18
100
AcDbEntity
  8
DISEGNO
100
AcDbLine
 10
-1362.034609130172
 20
258.9293876212012
 30
0.0
 11
-1361.406596008942
 21
255.5226884094182
 31
0.0
  0
LINE
  5
45B5
330
18
100
AcDbEntity
  8
ASSI
100
AcDbLine
 10
-1374.994807874211
 20
256.682162698415
 30
0.0
 11
-1355.221523534933
 21
256.682162698415
 31
0.0
  0
LINE
  5
45B6
330
18
100
AcDbEntity
  8
DISEGNO
100
AcDbLine
 10
-1367.307172129855
 20
254.4349377756288
 30
0.0
 11
-1367.935185251085
 21
257.841636987412
 31
0.0
  0
LINE
  5
45B7
330
18
100
AcDbEntity
  8
DISEGNO
100
AcDbLine
 10
-1364.042877508784
 20
253.275463486632
 30
0.0
 11
-1367.307172129855
 21
254.4349377756288
 31
0.0
  0
LINE
  5
45B8
330
18
100
AcDbEntity
  8
DISEGNO
100
AcDbLine
 10
-1361.406596008942
 20
255.5226884094182
 30
0.0
 11
-1364.042877508784
 21
253.275463486632
 31
0.0
  0
LINE
  5
45B9
330
18
100
AcDbEntity
  8
DISEGNO
100
AcDbLine
 10
-1365.298903751243
 20
260.0888619101982
 30
0.0
 11
-1362.034609130172
 21
258.9293876212012
 31
0.0
  0
POLYLINE
  5
45BA
330
18
100
AcDbEntity
  8
DISEGNO
100
AcDb2dPolyline
 66
     1
 10
0.0
 20
0.0
 30
0.0
  0
VERTEX
  5
45BB
330
45BA
100
AcDbEntity
  8
DISEGNO
100
AcDbVertex
100
AcDb2dVertex
 10
-1511.597164166081
 20
268.4821626984148
 30
0.0
  0
VERTEX
  5
45BC
330
45BA
100
AcDbEntity
  8
DISEGNO
100
AcDbVertex
100
AcDb2dVertex
 10
-1478.597164166079
 20
268.4821626984146
 30
0.0
 42
0.4142135623730951
  0
VERTEX
  5
45BD
330
45BA
100
AcDbEntity
  8
DISEGNO
100
AcDbVertex
100
AcDb2dVertex
 10
-1478.097164166079
 20
268.9821626984146
 30
0.0
  0
VERTEX
  5
45BE
330
45BA
100
AcDbEntity
  8
DISEGNO
100
AcDbVertex
100
AcDb2dVertex
 10
-1478.097164166079
 20
291.9821626984146
 30
0.0
 42
0.4142135623730951
  0
VERTEX
  5
45BF
330
45BA
100
AcDbEntity
  8
DISEGNO
100
AcDbVertex
100
AcDb2dVertex
 10
-1478.397164166079
 20
292.2821626984147
 30
0.0
  0
VERTEX
  5
45C0
330
45BA
100
AcDbEntity
  8
DISEGNO
100
AcDbVertex
100
AcDb2dVertex
 10
-1487.997164166079
 20
292.2821626984145
 30
0.0
 42
0.4142135623730951
  0
VERTEX
  5
45C1
330
45BA
100
AcDbEntity
  8
DISEGNO
100
AcDbVertex
100
AcDb2dVertex
 10
-1488.497164166079
 20
291.7821626984146
 30
0.0
  0
VERTEX
  5
45C2
330
45BA
100
AcDbEntity
  8
DISEGNO
100
AcDbVertex
100
AcDb2dVertex
 10
-1488.497164166079
 20
288.5821626984147
 30
0.0
 42
0.4142135623730951
  0
VERTEX
  5
45C3
330
45BA
100
AcDbEntity
  8
DISEGNO
100
AcDbVertex
100
AcDb2dVertex
 10
-1487.997164166079
 20
288.0821626984145
 30
0.0
  0
VERTEX
  5
45C4
330
45BA
100
AcDbEntity
  8
DISEGNO
100
AcDbVertex
100
AcDb2dVertex
 10
-1485.347164166079
 20
288.0821626984147
 30
0.0
 42
-0.4142135623731617
  0
VERTEX
  5
45C5
330
45BA
100
AcDbEntity
  8
DISEGNO
100
AcDbVertex
100
AcDb2dVertex
 10
-1484.847164166079
 20
287.5821626984145
 30
0.0
  0
VERTEX
  5
45C6
330
45BA
100
AcDbEntity
  8
DISEGNO
100
AcDbVertex
100
AcDb2dVertex
 10
-1484.847164166079
 20
286.2821626984146
 30
0.0
 42
-0.4142135623730959
  0
VERTEX
  5
45C7
330
45BA
100
AcDbEntity
  8
DISEGNO
100
AcDbVertex
100
AcDb2dVertex
 10
-1490.847164166079
 20
280.2821626984146
 30
0.0
  0
VERTEX
  5
45C8
330
45BA
100
AcDbEntity
  8
DISEGNO
100
AcDbVertex
100
AcDb2dVertex
 10
-1494.347164166079
 20
280.2821626984147
 30
0.0
 42
-0.4142135623730946
  0
VERTEX
  5
45C9
330
45BA
100
AcDbEntity
  8
DISEGNO
100
AcDbVertex
100
AcDb2dVertex
 10
-1500.347164166079
 20
286.2821626984147
 30
0.0
  0
VERTEX
  5
45CA
330
45BA
100
AcDbEntity
  8
DISEGNO
100
AcDbVertex
100
AcDb2dVertex
 10
-1500.347164166079
 20
287.5821626984147
 30
0.0
 42
-0.4142135623730868
  0
VERTEX
  5
45CB
330
45BA
100
AcDbEntity
  8
DISEGNO
100
AcDbVertex
100
AcDb2dVertex
 10
-1499.847164166079
 20
288.0821626984147
 30
0.0
  0
VERTEX
  5
45CC
330
45BA
100
AcDbEntity
  8
DISEGNO
100
AcDbVertex
100
AcDb2dVertex
 10
-1497.197164166079
 20
288.0821626984147
 30
0.0
 42
0.4142135623730951
  0
VERTEX
  5
45CD
330
45BA
100
AcDbEntity
  8
DISEGNO
100
AcDbVertex
100
AcDb2dVertex
 10
-1496.697164166079
 20
288.5821626984147
 30
0.0
  0
VERTEX
  5
45CE
330
45BA
100
AcDbEntity
  8
DISEGNO
100
AcDbVertex
100
AcDb2dVertex
 10
-1496.697164166079
 20
291.7821626984147
 30
0.0
 42
0.4142135623730951
  0
VERTEX
  5
45CF
330
45BA
100
AcDbEntity
  8
DISEGNO
100
AcDbVertex
100
AcDb2dVertex
 10
-1497.197164166079
 20
292.2821626984148
 30
0.0
  0
VERTEX
  5
45D0
330
45BA
100
AcDbEntity
  8
DISEGNO
100
AcDbVertex
100
AcDb2dVertex
 10
-1507.297164166079
 20
292.2821626984148
 30
0.0
 42
0.4142135623730951
  0
VERTEX
  5
45D1
330
45BA
100
AcDbEntity
  8
DISEGNO
100
AcDbVertex
100
AcDb2dVertex
 10
-1507.597164166079
 20
291.9821626984148
 30
0.0
  0
VERTEX
  5
45D2
330
45BA
100
AcDbEntity
  8
DISEGNO
100
AcDbVertex
100
AcDb2dVertex
 10
-1507.597164166079
 20
288.0821626984147
 30
0.0
 42
-0.4142135623730951
  0
SEQEND
  5
45D3
330
45BA
100
AcDbEntity
  8
DISEGNO
  0
LINE
  5
45D7
330
18
100
AcDbEntity
  8
INGOMBRI
100
AcDbLine
 10
-1214.170890630015
 20
292.2821626984151
 30
0.0
 11
-1214.170890630013
 21
271.533933574287
 31
0.0
  0
LINE
  5
45D8
330
18
100
AcDbEntity
  8
4150007_A-PIASTRA_DI_COLLE
  6
CONTINUOUS
 62
     7
 48
0.0
100
AcDbLine
 10
-1233.600946858472
 20
268.1821626984152
 30
0.0
 11
-1241.670890630013
 21
268.1821626984152
 31
0.0
  0
LINE
  5
45D9
330
18
100
AcDbEntity
  8
4150007_A-PIASTRA_DI_COLLE
  6
CONTINUOUS
 62
     7
 48
0.0
100
AcDbLine
 10
-1241.670890630014
 20
266.1821626984152
 30
0.0
 11
-1241.670890630013
 21
268.1821626984152
 31
0.0
  0
LINE
  5
45DA
330
18
100
AcDbEntity
  8
4150007_A-PIASTRA_DI_COLLE
  6
CONTINUOUS
 62
     7
 48
0.0
100
AcDbLine
 10
-1231.670890630014
 20
267.2821626984151
 30
0.0
 11
-1231.670890630014
 21
266.1821626984152
 31
0.0
  0
LINE
  5
45DB
330
18
100
AcDbEntity
  8
4150007_A-PIASTRA_DI_COLLE
  6
CONTINUOUS
 62
     7
 48
0.0
100
AcDbLine
 10
-1233.600946858472
 20
268.1821626984152
 30
0.0
 11
-1231.670890630014
 21
267.2821626984151
 31
0.0
  0
LINE
  5
45DC
330
18
100
AcDbEntity
  8
DISEGNO
100
AcDbLine
 10
-1231.670890630015
 20
267.2821626984147
 30
0.0
 11
-1215.907889789431
 21
267.2821626984144
 31
0.0
  0
LINE
  5
45DD
330
18
100
AcDbEntity
  8
INGOMBRI
100
AcDbLine
 10
-1214.170890630015
 20
292.2821626984151
 30
0.0
 11
-1195.734940262747
 21
292.2821626984151
 31
0.0
  0
LINE
  5
45DE
330
18
100
AcDbEntity
  8
4360048-TLF_MCR_S_105_IAM_
  6
CONTINUOUS
 62
     7
 48
0.0
100
AcDbLine
 10
-681.6697359786958
 20
215.7821626984151
 30
0.0
 11
-681.6697359786958
 21
245.7821626984151
 31
0.0
  0
LINE
  5
45DF
330
18
100
AcDbEntity
  8
ASSI
100
AcDbLine
 10
-621.669735978695
 20
278.6771801617224
 30
0.0
 11
-621.669735978695
 21
141.6202921538657
 31
0.0
  0
LINE
  5
45E0
330
18
100
AcDbEntity
  8
DISEGNO
100
AcDbLine
 10
-1187.781625877758
 20
162.2821626984142
 30
0.0
 11
-681.6697359786949
 21
162.2821626984151
 31
0.0
  0
LINE
  5
45E1
330
18
100
AcDbEntity
  8
DISEGNO
100
AcDbLine
 10
-681.6697359786945
 20
186.2821626984006
 30
0.0
 11
-1194.210486200423
 21
186.2821626984006
 31
0.0
  0
LINE
  5
45E2
330
18
100
AcDbEntity
  8
4360048-TLF_MCR_S_105_IAM_
  6
CONTINUOUS
 62
     7
 48
0.0
100
AcDbLine
 10
-681.6697359786958
 20
164.2821626984151
 30
0.0
 11
-681.6697359786958
 21
182.7821626984151
 31
0.0
  0
LINE
  5
45E3
330
18
100
AcDbEntity
  8
4360048-TLF_MCR_S_105_IAM_
  6
CONTINUOUS
 62
     7
 48
0.0
100
AcDbLine
 10
-681.6697359786958
 20
164.2821626984151
 30
0.0
 11
-681.6697359786949
 21
162.2821626984151
 31
0.0
  0
LINE
  5
45E4
330
18
100
AcDbEntity
  8
4360048-TLF_MCR_S_105_IAM_
  6
CONTINUOUS
 62
     7
 48
0.0
100
AcDbLine
 10
-681.6697359786958
 20
197.7821626984151
 30
0.0
 11
-681.6697359786958
 21
212.7821626984151
 31
0.0
  0
LINE
  5
45E5
330
18
100
AcDbEntity
  8
4360048-TLF_MCR_S_105_IAM_
  6
CONTINUOUS
 62
     7
 48
0.0
100
AcDbLine
 10
-681.6697359786921
 20
191.2821626984151
 30
0.0
 11
-681.6697359786949
 21
197.7821626984151
 31
0.0
  0
ARC
  5
45E6
330
18
100
AcDbEntity
  8
4360048-TLF_MCR_S_105_IAM_
  6
CONTINUOUS
 62
     7
 48
0.0
100
AcDbCircle
 10
-659.6697359786958
 20
194.2821626984151
 30
0.0
 40
3.500000000000023
100
AcDbArc
 50
8.213210701722832
 51
90.0
  0
LINE
  5
45E7
330
18
100
AcDbEntity
  8
4360048-TLF_MCR_S_105_IAM_
  6
CONTINUOUS
 62
     7
 48
0.0
100
AcDbLine
 10
-681.6697359786949
 20
182.7821626984151
 30
0.0
 11
-681.6697359786921
 21
189.2821626984151
 31
0.0
  0
LINE
  5
45E8
330
18
100
AcDbEntity
  8
4360048-TLF_MCR_S_105_IAM_
  6
CONTINUOUS
 62
     7
 48
0.0
100
AcDbLine
 10
-681.6697359786958
 20
182.7821626984151
 30
0.0
 11
-659.6697359786958
 21
182.7821626984151
 31
0.0
  0
ARC
  5
45E9
330
18
100
AcDbEntity
  8
4360048-TLF_MCR_S_105_IAM_
  6
CONTINUOUS
 62
     7
 48
0.0
100
AcDbCircle
 10
-659.6697359786958
 20
186.2821626984151
 30
0.0
 40
3.499999999999985
100
AcDbArc
 50
270.0
 51
351.7867892982514
  0
POLYLINE
  5
45EA
330
18
100
AcDbEntity
  8
4360048-TLF_MCR_S_105_IAM_
  6
CONTINUOUS
 62
     7
 48
0.0
100
AcDb2dPolyline
 66
     1
 10
0.0
 20
0.0
 30
0.0
  0
VERTEX
  5
45EB
330
45EA
100
AcDbEntity
  8
4360048-TLF_MCR_S_105_IAM_
  6
CONTINUOUS
 62
     7
 48
0.0
100
AcDbVertex
100
AcDb2dVertex
 10
-656.2056380020112
 20
185.7821617447408
 30
0.0
  0
VERTEX
  5
45EC
330
45EA
100
AcDbEntity
  8
4360048-TLF_MCR_S_105_IAM_
  6
CONTINUOUS
 62
     7
 48
0.0
100
AcDbVertex
100
AcDb2dVertex
 10
-656.2012511001557
 20
185.8136258446248
 30
0.0
  0
VERTEX
  5
45ED
330
45EA
100
AcDbEntity
  8
4360048-TLF_MCR_S_105_IAM_
  6
CONTINUOUS
 62
     7
 48
0.0
100
AcDbVertex
100
AcDb2dVertex
 10
-656.1971026168794
 20
185.8455596291097
 30
0.0
  0
VERTEX
  5
45EE
330
45EA
100
AcDbEntity
  8
4360048-TLF_MCR_S_105_IAM_
  6
CONTINUOUS
 62
     7
 48
0.0
100
AcDbVertex
100
AcDb2dVertex
 10
-656.1932211624116
 20
185.8777008377584
 30
0.0
  0
VERTEX
  5
45EF
330
45EA
100
AcDbEntity
  8
4360048-TLF_MCR_S_105_IAM_
  6
CONTINUOUS
 62
     7
 48
0.0
100
AcDbVertex
100
AcDb2dVertex
 10
-656.1896258102388
 20
185.9097776733907
 30
0.0
  0
VERTEX
  5
45F0
330
45EA
100
AcDbEntity
  8
4360048-TLF_MCR_S_105_IAM_
  6
CONTINUOUS
 62
     7
 48
0.0
100
AcDbVertex
100
AcDb2dVertex
 10
-656.1863642440767
 20
185.9415302597555
 30
0.0
  0
VERTEX
  5
45F1
330
45EA
100
AcDbEntity
  8
4360048-TLF_MCR_S_105_IAM_
  6
CONTINUOUS
 62
     7
 48
0.0
100
AcDbVertex
100
AcDb2dVertex
 10
-656.1834460006685
 20
185.9726867996725
 30
0.0
  0
VERTEX
  5
45F2
330
45EA
100
AcDbEntity
  8
4360048-TLF_MCR_S_105_IAM_
  6
CONTINUOUS
 62
     7
 48
0.0
100
AcDbVertex
100
AcDb2dVertex
 10
-656.1808901535004
 20
186.0029945694478
 30
0.0
  0
VERTEX
  5
45F3
330
45EA
100
AcDbEntity
  8
4360048-TLF_MCR_S_105_IAM_
  6
CONTINUOUS
 62
     7
 48
0.0
100
AcDbVertex
100
AcDb2dVertex
 10
-656.1786776290865
 20
186.032255681661
 30
0.0
  0
VERTEX
  5
45F4
330
45EA
100
AcDbEntity
  8
4360048-TLF_MCR_S_105_IAM_
  6
CONTINUOUS
 62
     7
 48
0.0
100
AcDbVertex
100
AcDb2dVertex
 10
-656.1767893539399
 20
186.0602865540059
 30
0.0
  0
VERTEX
  5
45F5
330
45EA
100
AcDbEntity
  8
4360048-TLF_MCR_S_105_IAM_
  6
CONTINUOUS
 62
     7
 48
0.0
100
AcDbVertex
100
AcDb2dVertex
 10
-656.1751967178316
 20
186.0869036041768
 30
0.0
  0
VERTEX
  5
45F6
330
45EA
100
AcDbEntity
  8
4360048-TLF_MCR_S_105_IAM_
  6
CONTINUOUS
 62
     7
 48
0.0
100
AcDbVertex
100
AcDb2dVertex
 10
-656.1738806472749
 20
186.111920865682
 30
0.0
  0
VERTEX
  5
45F7
330
45EA
100
AcDbEntity
  8
4360048-TLF_MCR_S_105_IAM_
  6
CONTINUOUS
 62
     7
 48
0.0
100
AcDbVertex
100
AcDb2dVertex
 10
-656.1728220687837
 20
186.135159524587
 30
0.0
  0
VERTEX
  5
45F8
330
45EA
100
AcDbEntity
  8
4360048-TLF_MCR_S_105_IAM_
  6
CONTINUOUS
 62
     7
 48
0.0
100
AcDbVertex
100
AcDb2dVertex
 10
-656.1719828353853
 20
186.1568961464437
 30
0.0
  0
VERTEX
  5
45F9
330
45EA
100
AcDbEntity
  8
4360048-TLF_MCR_S_105_IAM_
  6
CONTINUOUS
 62
     7
 48
0.0
100
AcDbVertex
100
AcDb2dVertex
 10
-656.1713057266206
 20
186.1774525963338
 30
0.0
  0
VERTEX
  5
45FA
330
45EA
100
AcDbEntity
  8
4360048-TLF_MCR_S_105_IAM_
  6
CONTINUOUS
 62
     7
 48
0.0
100
AcDbVertex
100
AcDb2dVertex
 10
-656.1707907424898
 20
186.1966333710225
 30
0.0
  0
VERTEX
  5
45FB
330
45EA
100
AcDbEntity
  8
4360048-TLF_MCR_S_105_IAM_
  6
CONTINUOUS
 62
     7
 48
0.0
100
AcDbVertex
100
AcDb2dVertex
 10
-656.17039973602
 20
186.2142381989034
 30
0.0
  0
VERTEX
  5
45FC
330
45EA
100
AcDbEntity
  8
4360048-TLF_MCR_S_105_IAM_
  6
CONTINUOUS
 62
     7
 48
0.0
100
AcDbVertex
100
AcDb2dVertex
 10
-656.1701231704683
 20
186.2300715767415
 30
0.0
  0
VERTEX
  5
45FD
330
45EA
100
AcDbEntity
  8
4360048-TLF_MCR_S_105_IAM_
  6
CONTINUOUS
 62
     7
 48
0.0
100
AcDbVertex
100
AcDb2dVertex
 10
-656.1699419723481
 20
186.2439356171163
 30
0.0
  0
VERTEX
  5
45FE
330
45EA
100
AcDbEntity
  8
4360048-TLF_MCR_S_105_IAM_
  6
CONTINUOUS
 62
     7
 48
0.0
100
AcDbVertex
100
AcDb2dVertex
 10
-656.1698275314301
 20
186.2556634270223
 30
0.0
  0
VERTEX
  5
45FF
330
45EA
100
AcDbEntity
  8
4360048-TLF_MCR_S_105_IAM_
  6
CONTINUOUS
 62
     7
 48
0.0
100
AcDbVertex
100
AcDb2dVertex
 10
-656.1697703109712
 20
186.2652335487874
 30
0.0
  0
VERTEX
  5
4600
330
45EA
100
AcDbEntity
  8
4360048-TLF_MCR_S_105_IAM_
  6
CONTINUOUS
 62
     7
 48
0.0
100
AcDbVertex
100
AcDb2dVertex
 10
-656.1697321639985
 20
186.2726579033407
 30
0.0
  0
VERTEX
  5
4601
330
45EA
100
AcDbEntity
  8
4360048-TLF_MCR_S_105_IAM_
  6
CONTINUOUS
 62
     7
 48
0.0
100
AcDbVertex
100
AcDb2dVertex
 10
-656.1697321639985
 20
186.2779460274251
 30
0.0
  0
VERTEX
  5
4602
330
45EA
100
AcDbEntity
  8
4360048-TLF_MCR_S_105_IAM_
  6
CONTINUOUS
 62
     7
 48
0.0
100
AcDbVertex
100
AcDb2dVertex
 10
-656.1697321639985
 20
186.2811098419698
 30
0.0
  0
VERTEX
  5
4603
330
45EA
100
AcDbEntity
  8
4360048-TLF_MCR_S_105_IAM_
  6
CONTINUOUS
 62
     7
 48
0.0
100
AcDbVertex
100
AcDb2dVertex
 10
-656.1697321639985
 20
186.2821636520894
 30
0.0
  0
SEQEND
  5
4604
330
45EA
100
AcDbEntity
  8
4360048-TLF_MCR_S_105_IAM_
  6
CONTINUOUS
 62
     7
 48
0.0
  0
LINE
  5
4605
330
18
100
AcDbEntity
  8
4360048-TLF_MCR_S_105_IAM_
  6
CONTINUOUS
 62
     7
 48
0.0
100
AcDbLine
 10
-681.6697359786921
 20
189.2821626984151
 30
0.0
 11
-681.6697359786921
 21
191.2821626984151
 31
0.0
  0
POLYLINE
  5
4606
330
18
100
AcDbEntity
  8
4360048-TLF_MCR_S_105_IAM_
  6
CONTINUOUS
 62
     7
 48
0.0
100
AcDb2dPolyline
 66
     1
 10
0.0
 20
0.0
 30
0.0
  0
VERTEX
  5
4607
330
4606
100
AcDbEntity
  8
4360048-TLF_MCR_S_105_IAM_
  6
CONTINUOUS
 62
     7
 48
0.0
100
AcDbVertex
100
AcDb2dVertex
 10
-656.1697321639985
 20
194.2821631752523
 30
0.0
  0
VERTEX
  5
4608
330
4606
100
AcDbEntity
  8
4360048-TLF_MCR_S_105_IAM_
  6
CONTINUOUS
 62
     7
 48
0.0
100
AcDbVertex
100
AcDb2dVertex
 10
-656.1697321639985
 20
194.2832146011861
 30
0.0
  0
VERTEX
  5
4609
330
4606
100
AcDbEntity
  8
4360048-TLF_MCR_S_105_IAM_
  6
CONTINUOUS
 62
     7
 48
0.0
100
AcDbVertex
100
AcDb2dVertex
 10
-656.1697321639985
 20
194.2863784157308
 30
0.0
  0
VERTEX
  5
460A
330
4606
100
AcDbEntity
  8
4360048-TLF_MCR_S_105_IAM_
  6
CONTINUOUS
 62
     7
 48
0.0
100
AcDbVertex
100
AcDb2dVertex
 10
-656.1697321639985
 20
194.2916665398153
 30
0.0
  0
VERTEX
  5
460B
330
4606
100
AcDbEntity
  8
4360048-TLF_MCR_S_105_IAM_
  6
CONTINUOUS
 62
     7
 48
0.0
100
AcDbVertex
100
AcDb2dVertex
 10
-656.1697703109712
 20
194.2990908943685
 30
0.0
  0
VERTEX
  5
460C
330
4606
100
AcDbEntity
  8
4360048-TLF_MCR_S_105_IAM_
  6
CONTINUOUS
 62
     7
 48
0.0
100
AcDbVertex
100
AcDb2dVertex
 10
-656.1698275314301
 20
194.3086610161336
 30
0.0
  0
VERTEX
  5
460D
330
4606
100
AcDbEntity
  8
4360048-TLF_MCR_S_105_IAM_
  6
CONTINUOUS
 62
     7
 48
0.0
100
AcDbVertex
100
AcDb2dVertex
 10
-656.1699419723481
 20
194.3203912102254
 30
0.0
  0
VERTEX
  5
460E
330
4606
100
AcDbEntity
  8
4360048-TLF_MCR_S_105_IAM_
  6
CONTINUOUS
 62
     7
 48
0.0
100
AcDbVertex
100
AcDb2dVertex
 10
-656.1701231704683
 20
194.3342528664144
 30
0.0
  0
VERTEX
  5
460F
330
4606
100
AcDbEntity
  8
4360048-TLF_MCR_S_105_IAM_
  6
CONTINUOUS
 62
     7
 48
0.0
100
AcDbVertex
100
AcDb2dVertex
 10
-656.17039973602
 20
194.3500862442525
 30
0.0
  0
VERTEX
  5
4610
330
4606
100
AcDbEntity
  8
4360048-TLF_MCR_S_105_IAM_
  6
CONTINUOUS
 62
     7
 48
0.0
100
AcDbVertex
100
AcDb2dVertex
 10
-656.1707907424898
 20
194.3676910721334
 30
0.0
  0
VERTEX
  5
4611
330
4606
100
AcDbEntity
  8
4360048-TLF_MCR_S_105_IAM_
  6
CONTINUOUS
 62
     7
 48
0.0
100
AcDbVertex
100
AcDb2dVertex
 10
-656.1713057266206
 20
194.3868718468221
 30
0.0
  0
VERTEX
  5
4612
330
4606
100
AcDbEntity
  8
4360048-TLF_MCR_S_105_IAM_
  6
CONTINUOUS
 62
     7
 48
0.0
100
AcDbVertex
100
AcDb2dVertex
 10
-656.1719828353853
 20
194.407430680898
 30
0.0
  0
VERTEX
  5
4613
330
4606
100
AcDbEntity
  8
4360048-TLF_MCR_S_105_IAM_
  6
CONTINUOUS
 62
     7
 48
0.0
100
AcDbVertex
100
AcDb2dVertex
 10
-656.1728220687837
 20
194.4291673027547
 30
0.0
  0
VERTEX
  5
4614
330
4606
100
AcDbEntity
  8
4360048-TLF_MCR_S_105_IAM_
  6
CONTINUOUS
 62
     7
 48
0.0
100
AcDbVertex
100
AcDb2dVertex
 10
-656.1738806472749
 20
194.4524035774739
 30
0.0
  0
VERTEX
  5
4615
330
4606
100
AcDbEntity
  8
4360048-TLF_MCR_S_105_IAM_
  6
CONTINUOUS
 62
     7
 48
0.0
100
AcDbVertex
100
AcDb2dVertex
 10
-656.1751967178316
 20
194.4774232231649
 30
0.0
  0
VERTEX
  5
4616
330
4606
100
AcDbEntity
  8
4360048-TLF_MCR_S_105_IAM_
  6
CONTINUOUS
 62
     7
 48
0.0
100
AcDbVertex
100
AcDb2dVertex
 10
-656.1767893539399
 20
194.50403788915
 30
0.0
  0
VERTEX
  5
4617
330
4606
100
AcDbEntity
  8
4360048-TLF_MCR_S_105_IAM_
  6
CONTINUOUS
 62
     7
 48
0.0
100
AcDbVertex
100
AcDb2dVertex
 10
-656.1786776290865
 20
194.532068761495
 30
0.0
  0
VERTEX
  5
4618
330
4606
100
AcDbEntity
  8
4360048-TLF_MCR_S_105_IAM_
  6
CONTINUOUS
 62
     7
 48
0.0
100
AcDbVertex
100
AcDb2dVertex
 10
-656.1808901535004
 20
194.5613298737081
 30
0.0
  0
VERTEX
  5
4619
330
4606
100
AcDbEntity
  8
4360048-TLF_MCR_S_105_IAM_
  6
CONTINUOUS
 62
     7
 48
0.0
100
AcDbVertex
100
AcDb2dVertex
 10
-656.1834460006685
 20
194.5916376434835
 30
0.0
  0
VERTEX
  5
461A
330
4606
100
AcDbEntity
  8
4360048-TLF_MCR_S_105_IAM_
  6
CONTINUOUS
 62
     7
 48
0.0
100
AcDbVertex
100
AcDb2dVertex
 10
-656.1863642440767
 20
194.6227965675863
 30
0.0
  0
VERTEX
  5
461B
330
4606
100
AcDbEntity
  8
4360048-TLF_MCR_S_105_IAM_
  6
CONTINUOUS
 62
     7
 48
0.0
100
AcDbVertex
100
AcDb2dVertex
 10
-656.1896258102388
 20
194.6545467697652
 30
0.0
  0
VERTEX
  5
461C
330
4606
100
AcDbEntity
  8
4360048-TLF_MCR_S_105_IAM_
  6
CONTINUOUS
 62
     7
 48
0.0
100
AcDbVertex
100
AcDb2dVertex
 10
-656.1932211624116
 20
194.6866259895833
 30
0.0
  0
VERTEX
  5
461D
330
4606
100
AcDbEntity
  8
4360048-TLF_MCR_S_105_IAM_
  6
CONTINUOUS
 62
     7
 48
0.0
100
AcDbVertex
100
AcDb2dVertex
 10
-656.1971026168794
 20
194.7187648140462
 30
0.0
  0
VERTEX
  5
461E
330
4606
100
AcDbEntity
  8
4360048-TLF_MCR_S_105_IAM_
  6
CONTINUOUS
 62
     7
 48
0.0
100
AcDbVertex
100
AcDb2dVertex
 10
-656.2012511001557
 20
194.7507009827169
 30
0.0
  0
VERTEX
  5
461F
330
4606
100
AcDbEntity
  8
4360048-TLF_MCR_S_105_IAM_
  6
CONTINUOUS
 62
     7
 48
0.0
100
AcDbVertex
100
AcDb2dVertex
 10
-656.2056380020112
 20
194.7821626984151
 30
0.0
  0
SEQEND
  5
4620
330
4606
100
AcDbEntity
  8
4360048-TLF_MCR_S_105_IAM_
  6
CONTINUOUS
 62
     7
 48
0.0
  0
LINE
  5
4621
330
18
100
AcDbEntity
  8
4360048-TLF_MCR_S_105_IAM_
  6
CONTINUOUS
 62
     7
 48
0.0
100
AcDbLine
 10
-659.6697359786958
 20
197.7821626984151
 30
0.0
 11
-681.6697359786958
 21
197.7821626984151
 31
0.0
  0
LINE
  5
4622
330
18
100
AcDbEntity
  8
4360048-TLF_MCR_S_105_IAM_
  6
CONTINUOUS
 62
     7
 48
0.0
100
AcDbLine
 10
-671.6697359786958
 20
219.7821626984069
 30
0.0
 11
-671.6697359786958
 21
229.7821626984069
 31
0.0
  0
LINE
  5
4623
330
18
100
AcDbEntity
  8
4360048-TLF_MCR_S_105_IAM_
  6
CONTINUOUS
 62
     7
 48
0.0
100
AcDbLine
 10
-681.6697359786958
 20
212.7821626984151
 30
0.0
 11
-681.6697359786958
 21
215.7821626984151
 31
0.0
  0
LINE
  5
4624
330
18
100
AcDbEntity
  8
DISEGNO
100
AcDbLine
 10
-681.6697359786958
 20
219.7821626984069
 30
0.0
 11
-671.6697359786958
 21
219.7821626984069
 31
0.0
  0
LINE
  5
4625
330
18
100
AcDbEntity
  8
DISEGNO
100
AcDbLine
 10
-681.6697359786958
 20
229.7821626984069
 30
0.0
 11
-671.6697359786958
 21
229.7821626984069
 31
0.0
  0
LINE
  5
4626
330
18
100
AcDbEntity
  8
AM_0
  6
CONTINUOUS
 48
0.0
100
AcDbLine
 10
-918.6532373691548
 20
267.9821626984149
 30
0.0
 11
-1108.653237369154
 21
267.9821626984149
 31
0.0
  0
LINE
  5
4627
330
18
100
AcDbEntity
  8
AM_0
  6
CONTINUOUS
 48
0.0
100
AcDbLine
 10
-1108.653237369154
 20
267.7821626984233
 30
0.0
 11
-918.6532373691548
 21
267.7821626984233
 31
0.0
  0
LINE
  5
4628
330
18
100
AcDbEntity
  8
AM_0
  6
CONTINUOUS
 48
0.0
100
AcDbLine
 10
-918.6532373691548
 20
292.2821626984149
 30
0.0
 11
-1108.653237369154
 21
292.2821626984149
 31
0.0
  0
LINE
  5
4629
330
18
100
AcDbEntity
  8
ASSI
100
AcDbLine
 10
-1003.653237369155
 20
278.8874739052655
 30
0.0
 11
-1003.653237369155
 21
295.9177112801619
 31
0.0
  0
LINE
  5
462A
330
18
100
AcDbEntity
  8
ASSI
100
AcDbLine
 10
-1023.653237369154
 20
278.5741683426433
 30
0.0
 11
-1023.653237369154
 21
295.5971153030516
 31
0.0
  0
LINE
  5
462B
330
18
100
AcDbEntity
  8
AM_0
  6
CONTINUOUS
 48
0.0
100
AcDbLine
 10
-1108.653237369154
 20
292.182162698415
 30
0.0
 11
-1108.653237369154
 21
268.2821626984149
 31
0.0
  0
LINE
  5
462C
330
18
100
AcDbEntity
  8
AM_0
  6
CONTINUOUS
 48
0.0
100
AcDbLine
 10
-1113.653237369154
 20
268.0821626984148
 30
0.0
 11
-1113.653237369154
 21
291.4821626984149
 31
0.0
  0
LINE
  5
462D
330
18
100
AcDbEntity
  8
AM_0
  6
CONTINUOUS
 48
0.0
100
AcDbLine
 10
-1108.653237369154
 20
267.7821626984254
 30
0.0
 11
-1108.653237369154
 21
267.2821626984144
 31
0.0
  0
LINE
  5
462E
330
18
100
AcDbEntity
  8
AM_0
  6
CONTINUOUS
 48
0.0
100
AcDbLine
 10
-1108.653237369154
 20
267.9821626984149
 30
0.0
 11
-1108.653237369154
 21
268.2821626984149
 31
0.0
  0
LINE
  5
462F
330
18
100
AcDbEntity
  8
AM_0
  6
CONTINUOUS
 48
0.0
100
AcDbLine
 10
-1108.653237369154
 20
267.9821626984233
 30
0.0
 11
-1108.653237369154
 21
267.7821626984235
 31
0.0
  0
LINE
  5
4630
330
18
100
AcDbEntity
  8
AM_0
  6
CONTINUOUS
 48
0.0
100
AcDbLine
 10
-1108.653237369154
 20
268.0821626984148
 30
0.0
 11
-1113.653237369154
 21
268.0821626984148
 31
0.0
  0
LINE
  5
4631
330
18
100
AcDbEntity
  8
AM_0
  6
CONTINUOUS
 48
0.0
100
AcDbLine
 10
-1108.653237369154
 20
292.182162698415
 30
0.0
 11
-1108.653237369154
 21
292.2821626984149
 31
0.0
  0
LINE
  5
4632
330
18
100
AcDbEntity
  8
AM_0
  6
CONTINUOUS
 48
0.0
100
AcDbLine
 10
-1108.653237369154
 20
291.4821626984149
 30
0.0
 11
-1113.653237369154
 21
291.4821626984149
 31
0.0
  0
LINE
  5
4633
330
18
100
AcDbEntity
  8
ASSI
100
AcDbLine
 10
-1036.542961627503
 20
287.4821626984147
 30
0.0
 11
-994.1972769008009
 21
287.4821626984147
 31
0.0
  0
CIRCLE
  5
4634
330
18
100
AcDbEntity
  8
AM_0
  6
CONTINUOUS
 48
0.0
100
AcDbCircle
 10
-1023.653237369154
 20
287.4821626984147
 30
0.0
 40
2.4585
  0
CIRCLE
  5
4635
330
18
100
AcDbEntity
  8
AM_0
  6
CONTINUOUS
 48
0.0
100
AcDbCircle
 10
-1003.653237369155
 20
287.4821626984147
 30
0.0
 40
2.4585
  0
LINE
  5
4636
330
18
100
AcDbEntity
  8
AM_0
  6
CONTINUOUS
 48
0.0
100
AcDbLine
 10
-913.6532373691549
 20
268.0821626984148
 30
0.0
 11
-913.6532373691549
 21
291.4821626984149
 31
0.0
  0
LINE
  5
4637
330
18
100
AcDbEntity
  8
AM_0
  6
CONTINUOUS
 48
0.0
100
AcDbLine
 10
-918.6532373691548
 20
268.2821626984149
 30
0.0
 11
-918.6532373691548
 21
292.182162698415
 31
0.0
  0
LINE
  5
4638
330
18
100
AcDbEntity
  8
AM_0
  6
CONTINUOUS
 48
0.0
100
AcDbLine
 10
-918.6532373691548
 20
267.2821626984144
 30
0.0
 11
-918.6532373691548
 21
267.7821626984254
 31
0.0
  0
LINE
  5
4639
330
18
100
AcDbEntity
  8
AM_0
  6
CONTINUOUS
 48
0.0
100
AcDbLine
 10
-918.6532373691548
 20
268.0821626984148
 30
0.0
 11
-913.6532373691549
 21
268.0821626984148
 31
0.0
  0
LINE
  5
463A
330
18
100
AcDbEntity
  8
AM_0
  6
CONTINUOUS
 48
0.0
100
AcDbLine
 10
-918.6532373691548
 20
268.2821626984149
 30
0.0
 11
-918.6532373691548
 21
267.9821626984149
 31
0.0
  0
LINE
  5
463B
330
18
100
AcDbEntity
  8
AM_0
  6
CONTINUOUS
 48
0.0
100
AcDbLine
 10
-918.6532373691548
 20
267.7821626984235
 30
0.0
 11
-918.6532373691548
 21
267.9821626984233
 31
0.0
  0
LINE
  5
463C
330
18
100
AcDbEntity
  8
AM_0
  6
CONTINUOUS
 48
0.0
100
AcDbLine
 10
-918.6532373691548
 20
291.4821626984149
 30
0.0
 11
-913.6532373691549
 21
291.4821626984149
 31
0.0
  0
LINE
  5
463D
330
18
100
AcDbEntity
  8
AM_0
  6
CONTINUOUS
 48
0.0
100
AcDbLine
 10
-918.6532373691548
 20
292.2821626984149
 30
0.0
 11
-918.6532373691548
 21
292.182162698415
 31
0.0
  0
LINE
  5
463E
330
18
100
AcDbEntity
  8
ASSI
100
AcDbLine
 10
-576.6697359786904
 20
263.8238318402965
 30
0.0
 11
-576.6697359786904
 21
276.2341175408142
 31
0.0
  0
LINE
  5
463F
330
18
100
AcDbEntity
  8
ASSI
100
AcDbLine
 10
-656.6697359786903
 20
263.9253462164866
 30
0.0
 11
-656.6697359786903
 21
277.3481506593185
 31
0.0
  0
LINE
  5
4640
330
18
100
AcDbEntity
  8
4360048-TLF_MCR_S_105_IAM_
  6
CONTINUOUS
 62
     7
 48
0.0
100
AcDbLine
 10
-681.6697359786949
 20
267.2821626984151
 30
0.0
 11
-681.6697359786958
 21
265.2821626984151
 31
0.0
  0
LINE
  5
4641
330
18
100
AcDbEntity
  8
4360048-TLF_MCR_S_105_IAM_
  6
CONTINUOUS
 62
     7
 48
0.0
100
AcDbLine
 10
-681.6697359786958
 20
248.7821626984151
 30
0.0
 11
-681.6697359786958
 21
265.2821626984151
 31
0.0
  0
LINE
  5
4642
330
18
100
AcDbEntity
  8
4360048-TLF_MCR_S_105_IAM_
  6
CONTINUOUS
 62
     7
 48
0.0
100
AcDbLine
 10
-681.6697359786958
 20
245.7821626984151
 30
0.0
 11
-681.6697359786958
 21
248.7821626984151
 31
0.0
  0
LINE
  5
4643
330
18
100
AcDbEntity
  8
4360048-TLF_MCR_S_105_IAM_
  6
CONTINUOUS
 62
     7
 48
0.0
100
AcDbLine
 10
-661.6697359786903
 20
273.0821626984153
 30
0.0
 11
-651.6697359786904
 21
273.0821626984153
 31
0.0
  0
LINE
  5
4644
330
18
100
AcDbEntity
  8
4360048-TLF_MCR_S_105_IAM_
  6
CONTINUOUS
 62
     7
 48
0.0
100
AcDbLine
 10
-652.1697359786903
 20
273.5821626984153
 30
0.0
 11
-651.6697359786904
 21
273.0821626984153
 31
0.0
  0
LINE
  5
4645
330
18
100
AcDbEntity
  8
4360048-TLF_MCR_S_105_IAM_
  6
CONTINUOUS
 62
     7
 48
0.0
100
AcDbLine
 10
-650.7697359786889
 20
269.0821626984153
 30
0.0
 11
-662.56973597869
 21
269.0821626984153
 31
0.0
  0
LINE
  5
4646
330
18
100
AcDbEntity
  8
INGOMBRI
100
AcDbLine
 10
-699.1697359786914
 20
292.2821626984152
 30
0.0
 11
-699.1697359786932
 21
271.5339335742871
 31
0.0
  0
LINE
  5
4647
330
18
100
AcDbEntity
  8
4360048-TLF_MCR_S_105_IAM_
  6
CONTINUOUS
 62
     7
 48
0.0
100
AcDbLine
 10
-661.6697359786903
 20
269.0821626984153
 30
0.0
 11
-661.6697359786903
 21
273.0821626984153
 31
0.0
  0
LINE
  5
4648
330
18
100
AcDbEntity
  8
4360048-TLF_MCR_S_105_IAM_
  6
CONTINUOUS
 62
     7
 48
0.0
100
AcDbLine
 10
-679.6697359786939
 20
267.7821626984151
 30
0.0
 11
-681.669735978694
 21
267.7821626984151
 31
0.0
  0
LINE
  5
4649
330
18
100
AcDbEntity
  8
4360048-TLF_MCR_S_105_IAM_
  6
CONTINUOUS
 62
     7
 48
0.0
100
AcDbLine
 10
-681.669735978694
 20
267.2821626984151
 30
0.0
 11
-681.669735978694
 21
267.7821626984151
 31
0.0
  0
LINE
  5
464A
330
18
100
AcDbEntity
  8
4360048-TLF_MCR_S_105_IAM_
  6
CONTINUOUS
 62
     7
 48
0.0
100
AcDbLine
 10
-682.6697359786876
 20
267.7821626984151
 30
0.0
 11
-681.6697359786886
 21
267.7821626984151
 31
0.0
  0
LINE
  5
464B
330
18
100
AcDbEntity
  8
4360048-TLF_MCR_S_105_IAM_
  6
CONTINUOUS
 62
     7
 48
0.0
100
AcDbLine
 10
-681.6697359786886
 20
267.2821626984151
 30
0.0
 11
-682.6697359786876
 21
267.2821626984151
 31
0.0
  0
ARC
  5
464C
330
18
100
AcDbEntity
  8
4360048-TLF_MCR_S_105_IAM_
  6
CONTINUOUS
 62
     7
 48
0.0
100
AcDbCircle
 10
-682.6697359786876
 20
266.2821626984151
 30
0.0
 40
1.500000000000039
100
AcDbArc
 50
90.0
 51
130.0000000000067
  0
LINE
  5
464D
330
18
100
AcDbEntity
  8
4360048-TLF_MCR_S_105_IAM_
  6
CONTINUOUS
 62
     7
 48
0.0
100
AcDbLine
 10
-683.6339173932174
 20
267.4312293630938
 30
0.0
 11
-683.8115681263849
 21
267.2821626984147
 31
0.0
  0
LINE
  5
464E
330
18
100
AcDbEntity
  8
4360048-TLF_MCR_S_105_IAM_
  6
CONTINUOUS
 62
     7
 48
0.0
100
AcDbLine
 10
-662.56973597869
 20
267.7821626984151
 30
0.0
 11
-662.56973597869
 21
269.0821626984153
 31
0.0
  0
LINE
  5
464F
330
18
100
AcDbEntity
  8
4360048-TLF_MCR_S_105_IAM_
  6
CONTINUOUS
 62
     7
 48
0.0
100
AcDbLine
 10
-652.1697359786903
 20
273.5821626984153
 30
0.0
 11
-661.1697359786903
 21
273.5821626984153
 31
0.0
  0
LINE
  5
4650
330
18
100
AcDbEntity
  8
4360048-TLF_MCR_S_105_IAM_
  6
CONTINUOUS
 62
     7
 48
0.0
100
AcDbLine
 10
-661.1697359786903
 20
273.5821626984153
 30
0.0
 11
-661.6697359786903
 21
273.0821626984153
 31
0.0
  0
LINE
  5
4651
330
18
100
AcDbEntity
  8
INGOMBRI
100
AcDbLine
 10
-699.1697359786914
 20
292.2821626984152
 30
0.0
 11
-717.6056863459599
 21
292.2821626984152
 31
0.0
  0
LINE
  5
4652
330
18
100
AcDbEntity
  8
4360048-TLF_MCR_S_105_IAM_
  6
CONTINUOUS
 62
     7
 48
0.0
100
AcDbLine
 10
-651.6697359786904
 20
269.0821626984153
 30
0.0
 11
-651.6697359786904
 21
273.0821626984153
 31
0.0
  0
LINE
  5
4653
330
18
100
AcDbEntity
  8
4360048-TLF_MCR_S_105_IAM_
  6
CONTINUOUS
 62
     7
 48
0.0
100
AcDbLine
 10
-650.7697359786889
 20
268.2324959083863
 30
0.0
 11
-650.7697359786889
 21
269.0821626984153
 31
0.0
  0
ELLIPSE
  5
4654
330
18
100
AcDbEntity
  8
4360048-TLF_MCR_S_105_IAM_
  6
CONTINUOUS
 62
     7
 48
0.0
100
AcDbEllipse
 10
-656.6697359786903
 20
268.2324959083836
 30
0.0
 11
-0.0000000000017493
 21
-10.21909976465634
 31
0.0
210
0.0
220
0.0
230
-1.0
 40
0.5773502691896273
 41
4.712388980384588
 42
4.756471052535409
  0
LINE
  5
4655
330
18
100
AcDbEntity
  8
4360048-TLF_MCR_S_105_IAM_
  6
CONTINUOUS
 62
     7
 48
0.0
100
AcDbLine
 10
-581.6697359786903
 20
269.0821626984153
 30
0.0
 11
-581.6697359786903
 21
273.0821626984153
 31
0.0
  0
LINE
  5
4656
330
18
100
AcDbEntity
  8
4360048-TLF_MCR_S_105_IAM_
  6
CONTINUOUS
 62
     7
 48
0.0
100
AcDbLine
 10
-582.5697359786899
 20
267.7821626984151
 30
0.0
 11
-582.5697359786899
 21
269.0821626984153
 31
0.0
  0
LINE
  5
4657
330
18
100
AcDbEntity
  8
4360048-TLF_MCR_S_105_IAM_
  6
CONTINUOUS
 62
     7
 48
0.0
100
AcDbLine
 10
-581.1697359786903
 20
273.5821626984153
 30
0.0
 11
-581.6697359786903
 21
273.0821626984153
 31
0.0
  0
LINE
  5
4658
330
18
100
AcDbEntity
  8
4360048-TLF_MCR_S_105_IAM_
  6
CONTINUOUS
 62
     7
100
AcDbLine
 10
-546.6697359787032
 20
50.51435721166683
 30
0.0
 11
-546.6697359787323
 21
-50.48564278833271
 31
0.0
  0
LINE
  5
4659
330
18
100
AcDbEntity
  8
4360048-TLF_MCR_S_105_IAM_
  6
CONTINUOUS
 62
     7
100
AcDbLine
 10
-551.669735978705
 20
45.51435721167138
 30
0.0
 11
-551.6697359787323
 21
-45.48564278832862
 31
0.0
  0
LINE
  5
465A
330
18
100
AcDbEntity
  8
4360048-TLF_MCR_S_105_IAM_
  6
CONTINUOUS
 62
     7
100
AcDbLine
 10
-551.3009723135147
 20
-52.48564278834544
 30
0.0
 11
-551.6697359787341
 21
-52.4856427883459
 31
0.0
  0
LINE
  5
465B
330
18
100
AcDbEntity
  8
4360048-TLF_MCR_S_105_IAM_
  6
CONTINUOUS
 62
     7
100
AcDbLine
 10
-554.6697359787341
 20
-52.48564278833043
 30
0.0
 11
-548.6697359787341
 21
-52.4856427883318
 31
0.0
  0
ARC
  5
465C
330
18
100
AcDbEntity
  8
4360048-TLF_MCR_S_105_IAM_
  6
CONTINUOUS
 62
     7
100
AcDbCircle
 10
-548.6697359787322
 20
-50.4856427883318
 30
0.0
 40
1.999999999999992
100
AcDbArc
 50
270.0
 51
0.0
  0
ARC
  5
465D
330
18
100
AcDbEntity
  8
4360048-TLF_MCR_S_105_IAM_
  6
CONTINUOUS
 62
     7
100
AcDbCircle
 10
-553.6697359787323
 20
-45.48564278832816
 30
0.0
 40
2.000000000000002
100
AcDbArc
 50
270.0
 51
0.0
  0
ARC
  5
465E
330
18
100
AcDbEntity
  8
4360048-TLF_MCR_S_105_IAM_
  6
CONTINUOUS
 62
     7
100
AcDbCircle
 10
-553.6697359787323
 20
-45.48564278832816
 30
0.0
 40
1.999999999999993
100
AcDbArc
 50
270.0
 51
0.0
  0
ARC
  5
465F
330
18
100
AcDbEntity
  8
4360048-TLF_MCR_S_105_IAM_
  6
CONTINUOUS
 62
     7
100
AcDbCircle
 10
-576.6697359787286
 20
-32.48564278832134
 30
0.0
 40
5.900000000003037
100
AcDbArc
 50
2.525716686397963
 51
9.862282315370233
  0
ARC
  5
4660
330
18
100
AcDbEntity
  8
4360048-TLF_MCR_S_105_IAM_
  6
CONTINUOUS
 62
     7
100
AcDbCircle
 10
-576.6697359787286
 20
-32.48564278832134
 30
0.0
 40
5.900000000003036
100
AcDbArc
 50
357.474283313576
 51
4.769362101282583
  0
ARC
  5
4661
330
18
100
AcDbEntity
  8
4360048-TLF_MCR_S_105_IAM_
  6
CONTINUOUS
 62
     7
100
AcDbCircle
 10
-553.669735978705
 20
45.51435721167229
 30
0.0
 40
1.999999999999993
100
AcDbArc
 50
0.0
 51
90.0
  0
ARC
  5
4662
330
18
100
AcDbEntity
  8
4360048-TLF_MCR_S_105_IAM_
  6
CONTINUOUS
 62
     7
100
AcDbCircle
 10
-553.669735978705
 20
45.51435721167138
 30
0.0
 40
2.000000000000002
100
AcDbArc
 50
0.0
 51
90.0
  0
LINE
  5
4663
330
18
100
AcDbEntity
  8
4360048-TLF_MCR_S_105_IAM_
  6
CONTINUOUS
 62
     7
100
AcDbLine
 10
-554.6697359787032
 20
52.51435721166956
 30
0.0
 11
-548.6697359787032
 21
52.51435721166775
 31
0.0
  0
ARC
  5
4664
330
18
100
AcDbEntity
  8
4360048-TLF_MCR_S_105_IAM_
  6
CONTINUOUS
 62
     7
100
AcDbCircle
 10
-548.6697359787032
 20
50.51435721166774
 30
0.0
 40
2.000000000000008
100
AcDbArc
 50
0.0
 51
90.0
  0
LINE
  5
4665
330
18
100
AcDbEntity
  8
DISEGNO
100
AcDbLine
 10
-349.9211799930108
 20
163.1821626984151
 30
0.0
 11
-349.9211799930103
 21
268.182162698415
 31
0.0
  0
LINE
  5
4666
330
18
100
AcDbEntity
  8
DISEGNO
100
AcDbLine
 10
-426.8924655695973
 20
163.1821626984151
 30
0.0
 11
-426.8924655695973
 21
268.182162698415
 31
0.0
  0
LINE
  5
4667
330
18
100
AcDbEntity
  8
4360048-TLF_MCR_S_105_IAM_
  6
CONTINUOUS
 62
     7
 48
0.0
100
AcDbLine
 10
-554.6697359786958
 20
245.782162698416
 30
0.0
 11
-554.6697359786958
 21
215.7821626984151
 31
0.0
  0
LINE
  5
4668
330
18
100
AcDbEntity
  8
4360048-TLF_MCR_S_105_IAM_
  6
CONTINUOUS
 62
     7
 48
0.0
100
AcDbLine
 10
-554.6697359786958
 20
265.2821626984151
 30
0.0
 11
-554.6697359786958
 21
164.2821626984151
 31
0.0
  0
LINE
  5
4669
330
18
100
AcDbEntity
  8
4360048-TLF_MCR_S_105_IAM_
  6
CONTINUOUS
 62
     7
 48
0.0
100
AcDbLine
 10
-546.669735978694
 20
245.2821626984151
 30
0.0
 11
-546.669735978694
 21
164.2821626984151
 31
0.0
  0
LINE
  5
466A
330
18
100
AcDbEntity
  8
DISEGNO
100
AcDbLine
 10
-388.4211799930103
 20
162.2821626984156
 30
0.0
 11
-388.4211799930103
 21
271.7821626984165
 31
0.0
  0
LINE
  5
466B
330
18
100
AcDbEntity
  8
ASSI
100
AcDbLine
 10
-388.4211799930103
 20
141.9518786591389
 30
0.0
 11
-388.4211799930103
 21
304.8903400895689
 31
0.0
  0
LINE
  5
466C
330
18
100
AcDbEntity
  8
DISEGNO
100
AcDbLine
 10
-440.8924655695973
 20
162.2821626984156
 30
0.0
 11
-440.8924655695973
 21
268.182162698415
 31
0.0
  0
LINE
  5
466D
330
18
100
AcDbEntity
  8
DISEGNO
100
AcDbLine
 10
-335.9211799930108
 20
162.2821626984156
 30
0.0
 11
-335.9211799930103
 21
268.182162698415
 31
0.0
  0
LINE
  5
466E
330
18
100
AcDbEntity
  8
4360048-TLF_MCR_S_105_IAM_
  6
CONTINUOUS
 62
     7
 48
0.0
100
AcDbLine
 10
-554.6697359786958
 20
185.7821626984151
 30
0.0
 11
-554.6697359786958
 21
164.2821626984151
 31
0.0
  0
LINE
  5
466F
330
18
100
AcDbEntity
  8
0
100
AcDbLine
 10
-440.8924655695973
 20
163.1821626984151
 30
0.0
 11
-335.9211799930108
 21
163.1821626984151
 31
0.0
  0
LINE
  5
4670
330
18
100
AcDbEntity
  8
DISEGNO
100
AcDbLine
 10
-335.9211799930108
 20
162.2821626984156
 30
0.0
 11
-440.8924655695973
 21
162.2821626984156
 31
0.0
  0
LINE
  5
4671
330
18
100
AcDbEntity
  8
4360048-TLF_MCR_S_105_IAM_
  6
CONTINUOUS
 62
     7
 48
0.0
100
AcDbLine
 10
-554.6697359786939
 20
162.2821626984151
 30
0.0
 11
-554.6697359786958
 21
164.2821626984151
 31
0.0
  0
LINE
  5
4672
330
18
100
AcDbEntity
  8
4360048-TLF_MCR_S_105_IAM_
  6
CONTINUOUS
 62
     7
 48
0.0
100
AcDbLine
 10
-554.6697359786939
 20
162.2821626984151
 30
0.0
 11
-554.6697359786958
 21
164.2821626984151
 31
0.0
  0
LINE
  5
4673
330
18
100
AcDbEntity
  8
4360048-TLF_MCR_S_105_IAM_
  6
CONTINUOUS
 62
     7
 48
0.0
100
AcDbLine
 10
-554.6697359786939
 20
162.2821626984151
 30
0.0
 11
-548.669735978694
 21
162.2821626984151
 31
0.0
  0
ARC
  5
4674
330
18
100
AcDbEntity
  8
4360048-TLF_MCR_S_105_IAM_
  6
CONTINUOUS
 62
     7
 48
0.0
100
AcDbCircle
 10
-548.669735978694
 20
164.2821626984151
 30
0.0
 40
2.00000000000001
100
AcDbArc
 50
270.0
 51
0.0
  0
LINE
  5
4675
330
18
100
AcDbEntity
  8
DISEGNO
100
AcDbLine
 10
-335.9211799930103
 20
164.2821626984156
 30
0.0
 11
-335.9211799930103
 21
162.2821626984151
 31
0.0
  0
LINE
  5
4676
330
18
100
AcDbEntity
  8
DISEGNO
100
AcDbLine
 10
-335.9211799930103
 20
162.2821626984156
 30
0.0
 11
-337.9211799930103
 21
162.2821626984156
 31
0.0
  0
LINE
  5
4677
330
18
100
AcDbEntity
  8
ASSI
100
AcDbLine
 10
-324.9501277781742
 20
215.6821626984175
 30
0.0
 11
-457.3330694734655
 21
215.6821626984175
 31
0.0
  0
LINE
  5
4678
330
18
100
AcDbEntity
  8
4360048-TLF_MCR_S_105_IAM_
  6
CONTINUOUS
 62
     7
 48
0.0
100
AcDbLine
 10
-554.6697359786958
 20
212.7821626984151
 30
0.0
 11
-554.6697359786958
 21
194.7821626984151
 31
0.0
  0
LINE
  5
4679
330
18
100
AcDbEntity
  8
AM_0
  6
CONTINUOUS
 48
0.0
100
AcDbLine
 10
-405.9383372805359
 20
292.2821626984145
 30
0.0
 11
-419.1211799930106
 21
292.2821626984145
 31
0.0
  0
LINE
  5
467A
330
18
100
AcDbEntity
  8
AM_0
  6
CONTINUOUS
 48
0.0
100
AcDbLine
 10
-339.4211799930103
 20
291.482162698413
 30
0.0
 11
-437.4211799930103
 21
291.482162698413
 31
0.0
  0
LINE
  5
467B
330
18
100
AcDbEntity
  8
0
100
AcDbLine
 10
-440.8924655695973
 20
268.182162698415
 30
0.0
 11
-335.9211799930103
 21
268.182162698415
 31
0.0
  0
LINE
  5
467C
330
18
100
AcDbEntity
  8
4360048-TLF_MCR_S_105_IAM_
  6
CONTINUOUS
 62
     7
 48
0.0
100
AcDbLine
 10
-554.6697359786958
 20
265.2821626984151
 30
0.0
 11
-554.6697359786939
 21
267.2821626984151
 31
0.0
  0
LINE
  5
467D
330
18
100
AcDbEntity
  8
4360048-TLF_MCR_S_105_IAM_
  6
CONTINUOUS
 62
     7
 48
0.0
100
AcDbLine
 10
-554.6697359786958
 20
265.2821626984151
 30
0.0
 11
-554.6697359786939
 21
267.2821626984151
 31
0.0
  0
ARC
  5
467E
330
18
100
AcDbEntity
  8
4360048-TLF_MCR_S_105_IAM_
  6
CONTINUOUS
 62
     7
 48
0.0
100
AcDbCircle
 10
-548.669735978694
 20
265.2821626984151
 30
0.0
 40
2.0
100
AcDbArc
 50
0.0
 51
90.0
  0
LINE
  5
467F
330
18
100
AcDbEntity
  8
4360048-TLF_MCR_S_105_IAM_
  6
CONTINUOUS
 62
     7
 48
0.0
100
AcDbLine
 10
-554.6697359786958
 20
265.2821626984151
 30
0.0
 11
-554.6697359786958
 21
248.782162698416
 31
0.0
  0
LINE
  5
4680
330
18
100
AcDbEntity
  8
4360048-TLF_MCR_S_105_IAM_
  6
CONTINUOUS
 62
     7
 48
0.0
100
AcDbLine
 10
-546.669735978694
 20
265.2821626984151
 30
0.0
 11
-546.669735978694
 21
245.2821626984151
 31
0.0
  0
LINE
  5
4681
330
18
100
AcDbEntity
  8
4360048-TLF_MCR_S_105_IAM_
  6
CONTINUOUS
 62
     7
 48
0.0
100
AcDbLine
 10
-571.6697359786904
 20
269.0821626984153
 30
0.0
 11
-571.6697359786904
 21
273.0821626984153
 31
0.0
  0
LINE
  5
4682
330
18
100
AcDbEntity
  8
4360048-TLF_MCR_S_105_IAM_
  6
CONTINUOUS
 62
     7
 48
0.0
100
AcDbLine
 10
-570.7697359786889
 20
268.2324959083863
 30
0.0
 11
-570.7697359786889
 21
269.0821626984153
 31
0.0
  0
ELLIPSE
  5
4683
330
18
100
AcDbEntity
  8
4360048-TLF_MCR_S_105_IAM_
  6
CONTINUOUS
 62
     7
 48
0.0
100
AcDbEllipse
 10
-576.6697359786904
 20
268.2324959083836
 30
0.0
 11
-0.0000000000017493
 21
-10.21909976465634
 31
0.0
210
0.0
220
0.0
230
-1.0
 40
0.5773502691896273
 41
4.712388980384588
 42
4.756471052535409
  0
LINE
  5
4684
330
18
100
AcDbEntity
  8
4360048-TLF_MCR_S_105_IAM_
  6
CONTINUOUS
 62
     7
 48
0.0
100
AcDbLine
 10
-551.669735978694
 20
267.7821626984151
 30
0.0
 11
-551.669735978694
 21
267.2821626984151
 31
0.0
  0
LINE
  5
4685
330
18
100
AcDbEntity
  8
4360048-TLF_MCR_S_105_IAM_
  6
CONTINUOUS
 62
     7
 48
0.0
100
AcDbLine
 10
-551.669735978694
 20
267.7821626984151
 30
0.0
 11
-553.6697359786939
 21
267.7821626984151
 31
0.0
  0
LINE
  5
4686
330
18
100
AcDbEntity
  8
4360048-TLF_MCR_S_105_IAM_
  6
CONTINUOUS
 62
     7
 48
0.0
100
AcDbLine
 10
-554.6697359786939
 20
267.2821626984151
 30
0.0
 11
-548.669735978694
 21
267.2821626984151
 31
0.0
  0
LINE
  5
4687
330
18
100
AcDbEntity
  8
4360048-TLF_MCR_S_105_IAM_
  6
CONTINUOUS
 62
     7
 48
0.0
100
AcDbLine
 10
-572.1697359786904
 20
273.5821626984153
 30
0.0
 11
-571.6697359786904
 21
273.0821626984153
 31
0.0
  0
LINE
  5
4688
330
18
100
AcDbEntity
  8
AM_0
  6
CONTINUOUS
 48
0.0
100
AcDbLine
 10
-437.9211799930103
 20
268.2821626984146
 30
0.0
 11
-437.9211799930103
 21
292.1821626984146
 31
0.0
  0
LINE
  5
4689
330
18
100
AcDbEntity
  8
AM_0
  6
CONTINUOUS
 48
0.0
100
AcDbLine
 10
-437.4211799930103
 20
291.482162698413
 30
0.0
 11
-437.4211799930103
 21
268.1821626983865
 31
0.0
  0
LINE
  5
468A
330
18
100
AcDbEntity
  8
AM_0
  6
CONTINUOUS
 48
0.0
100
AcDbLine
 10
-427.7211799930105
 20
292.2821626984145
 30
0.0
 11
-437.9040227054852
 21
292.2821626984145
 31
0.0
  0
ARC
  5
468B
330
18
100
AcDbEntity
  8
AM_0
  6
CONTINUOUS
 48
0.0
100
AcDbCircle
 10
-437.6211799930106
 20
292.1821626984146
 30
0.0
 40
0.2999999999998426
100
AcDbArc
 50
160.5287793654463
 51
180.0
  0
ARC
  5
468C
330
18
100
AcDbEntity
  8
AM_0
  6
CONTINUOUS
 48
0.0
100
AcDbCircle
 10
-428.1211799930101
 20
291.9821626984144
 30
0.0
 40
0.500000000000016
100
AcDbArc
 50
0.0
 51
36.86989764587007
  0
ARC
  5
468D
330
18
100
AcDbEntity
  8
AM_0
  6
CONTINUOUS
 48
0.0
100
AcDbCircle
 10
-418.7211799930105
 20
291.9821626984144
 30
0.0
 40
0.5000000000000055
100
AcDbArc
 50
143.1301023541299
 51
180.0
  0
LINE
  5
468E
330
18
100
AcDbEntity
  8
AM_0
  6
CONTINUOUS
 48
0.0
100
AcDbLine
 10
-427.6211799930106
 20
291.9821626984144
 30
0.0
 11
-427.6211799930106
 21
291.4821626984148
 31
0.0
  0
LINE
  5
468F
330
18
100
AcDbEntity
  8
AM_0
  6
CONTINUOUS
 48
0.0
100
AcDbLine
 10
-419.2211799930105
 20
291.4821626984148
 30
0.0
 11
-419.2211799930105
 21
291.9821626984144
 31
0.0
  0
LINE
  5
4690
330
18
100
AcDbEntity
  8
AM_0
  6
CONTINUOUS
 48
0.0
100
AcDbLine
 10
-338.9383372805359
 20
292.2821626984145
 30
0.0
 11
-349.1211799930106
 21
292.2821626984145
 31
0.0
  0
ARC
  5
4691
330
18
100
AcDbEntity
  8
AM_0
  6
CONTINUOUS
 48
0.0
100
AcDbCircle
 10
-406.2211799930105
 20
292.1821626984146
 30
0.0
 40
0.2999999999999931
100
AcDbArc
 50
0.0
 51
19.47122063452908
  0
LINE
  5
4692
330
18
100
AcDbEntity
  8
AM_0
  6
CONTINUOUS
 48
0.0
100
AcDbLine
 10
-405.9211799930103
 20
292.1821626984146
 30
0.0
 11
-405.9211799930103
 21
291.4821626984148
 31
0.0
  0
LINE
  5
4693
330
18
100
AcDbEntity
  8
AM_0
  6
CONTINUOUS
 48
0.0
100
AcDbLine
 10
-357.7211799930105
 20
292.2821626984145
 30
0.0
 11
-370.9040227054852
 21
292.2821626984145
 31
0.0
  0
ARC
  5
4694
330
18
100
AcDbEntity
  8
AM_0
  6
CONTINUOUS
 48
0.0
100
AcDbCircle
 10
-370.621179993011
 20
292.1821626984151
 30
0.0
 40
0.2999999999992386
100
AcDbArc
 50
160.5287793654174
 51
180.0
  0
LINE
  5
4695
330
18
100
AcDbEntity
  8
AM_0
  6
CONTINUOUS
 48
0.0
100
AcDbLine
 10
-370.9211799930103
 20
291.4821626984148
 30
0.0
 11
-370.9211799930103
 21
292.1821626984146
 31
0.0
  0
ARC
  5
4696
330
18
100
AcDbEntity
  8
AM_0
  6
CONTINUOUS
 48
0.0
100
AcDbCircle
 10
-348.7211799930105
 20
291.9821626984144
 30
0.0
 40
0.4999999999999806
100
AcDbArc
 50
143.1301023541299
 51
180.0
  0
ARC
  5
4697
330
18
100
AcDbEntity
  8
AM_0
  6
CONTINUOUS
 48
0.0
100
AcDbCircle
 10
-358.1211799930101
 20
291.9821626984144
 30
0.0
 40
0.5000000000000231
100
AcDbArc
 50
0.0
 51
36.86989764587007
  0
LINE
  5
4698
330
18
100
AcDbEntity
  8
AM_0
  6
CONTINUOUS
 48
0.0
100
AcDbLine
 10
-349.2211799930105
 20
291.4821626984148
 30
0.0
 11
-349.2211799930105
 21
291.9821626984144
 31
0.0
  0
LINE
  5
4699
330
18
100
AcDbEntity
  8
AM_0
  6
CONTINUOUS
 48
0.0
100
AcDbLine
 10
-357.6211799930101
 20
291.9821626984144
 30
0.0
 11
-357.6211799930101
 21
291.4821626984148
 31
0.0
  0
LINE
  5
469A
330
18
100
AcDbEntity
  8
AM_0
  6
CONTINUOUS
 48
0.0
100
AcDbLine
 10
-338.9211799930103
 20
292.1821626984146
 30
0.0
 11
-338.9211799930103
 21
268.2821626984146
 31
0.0
  0
LINE
  5
469B
330
18
100
AcDbEntity
  8
AM_0
  6
CONTINUOUS
 48
0.0
100
AcDbLine
 10
-339.4211799930103
 20
268.1821626983865
 30
0.0
 11
-339.4211799930103
 21
291.482162698413
 31
0.0
  0
ARC
  5
469C
330
18
100
AcDbEntity
  8
AM_0
  6
CONTINUOUS
 48
0.0
100
AcDbCircle
 10
-339.2211799930096
 20
292.1821626984151
 30
0.0
 40
0.2999999999992389
100
AcDbArc
 50
0.0
 51
19.47122063450018
  0
LINE
  5
470F
330
18
100
AcDbEntity
  8
DISEGNO
 48
0.0
100
AcDbLine
 10
-1013.10189482261
 20
1.253739098954952
 30
0.0
 11
-1011.054229896536
 21
2.321635013293985
 31
0.0
  0
LINE
  5
4710
330
18
100
AcDbEntity
  8
DISEGNO
 48
0.0
100
AcDbLine
 10
-1011.054229896536
 20
2.321635013293985
 30
0.0
 11
-1009.105572443085
 21
1.082253126044975
 31
0.0
  0
CIRCLE
  5
4711
330
18
100
AcDbEntity
  8
DISEGNO
 48
0.0
100
AcDbCircle
 10
-1011.153237369158
 20
0.0143572117063968
 30
0.0
 40
4.999999999999998
  0
CIRCLE
  5
4712
330
18
100
AcDbEntity
  8
DISEGNO
 48
0.0
100
AcDbCircle
 10
-1011.153237369158
 20
0.0143572117063968
 30
0.0
 40
5.249999999999998
  0
LINE
  5
4713
330
18
100
AcDbEntity
  8
DISEGNO
 48
0.0
100
AcDbLine
 10
-1009.204579915706
 20
-1.225024675542385
 30
0.0
 11
-1011.25224484178
 21
-2.292920589881191
 31
0.0
  0
LINE
  5
4714
330
18
100
AcDbEntity
  8
DISEGNO
 48
0.0
100
AcDbLine
 10
-1011.25224484178
 20
-2.292920589881191
 30
0.0
 11
-1013.200902295232
 21
-1.053538702632181
 31
0.0
  0
LINE
  5
4715
330
18
100
AcDbEntity
  8
DISEGNO
 48
0.0
100
AcDbLine
 10
-1009.105572443085
 20
1.082253126044975
 30
0.0
 11
-1009.204579915706
 21
-1.225024675542385
 31
0.0
  0
LINE
  5
4716
330
18
100
AcDbEntity
  8
DISEGNO
 48
0.0
100
AcDbLine
 10
-1013.200902295232
 20
-1.053538702632181
 30
0.0
 11
-1013.10189482261
 21
1.253739098954952
 31
0.0
  0
LINE
  5
4717
330
18
100
AcDbEntity
  8
ASSI
100
AcDbLine
 10
-1011.153237369158
 20
-9.860616576783399
 30
0.0
 11
-1011.153237369158
 21
10.62807324995299
 31
0.0
  0
LWPOLYLINE
  5
4786
330
18
100
AcDbEntity
  8
KAN_PROF
100
AcDbPolyline
 90
        8
 70
     1
 43
0.0
 10
-1558.647164166079
 20
288.0821626984148
 10
-1558.647164166079
 20
289.0821626984148
 10
-1566.547164166079
 20
289.0821626984148
 10
-1566.547164166079
 20
288.0821626984148
 10
-1569.385389265468
 20
288.0821626984148
 42
0.431559500288244
 10
-1569.585042944864
 20
287.8703979925324
 42
0.9428090415892425
 10
-1555.609285387294
 20
287.8703979925324
 42
0.4315595002882282
 10
-1555.80893906669
 20
288.0821626984148
  0
LWPOLYLINE
  5
479A
330
18
100
AcDbEntity
  8
KAN_PROF
100
AcDbPolyline
 90
        8
 70
     1
 43
0.0
 10
-1488.647164166079
 20
288.0821626984148
 10
-1488.647164166079
 20
289.0821626984148
 10
-1496.547164166079
 20
289.0821626984148
 10
-1496.547164166079
 20
288.0821626984148
 10
-1499.385389265468
 20
288.0821626984148
 42
0.431559500288244
 10
-1499.585042944864
 20
287.8703979925324
 42
0.9428090415892425
 10
-1485.609285387294
 20
287.8703979925324
 42
0.4315595002882282
 10
-1485.808939066689
 20
288.0821626984148
  0
ENDSEC
  0
SECTION
  2
OBJECTS
  0
DICTIONARY
  5
C
330
0
100
AcDbDictionary
  3
ACAD_GROUP
350
D
  3
ACAD_LAYOUT
350
244E
  3
ACAD_MLINESTYLE
350
1B
  3
ACAD_PLOTSETTINGS
350
244F
  3
ACAD_PLOTSTYLENAME
350
244C
  3
ACAMCATALOGSTATE
350
3EC6
  3
ACASAPPOBJECT
350
3E4D
  3
ACASGREF_MASTER
350
3E95
  3
ACDBVARIABLEDICTIONARY
350
269F
  3
ACDMSYSVARMGR
350
3E2C
  3
ACGREF_MASTER
350
2469
  3
ACGREFACAD_MASTER
350
246D
  3
ACMDICTIONARY
350
246F
  3
ACME_BOM_MANAGER_NAME
350
282C
  3
ACME_COMMAND_HISTORY
350
2827
  3
ACME_SCOPE_NAME
350
2826
  3
ACMESTATEMGR
350
2831
  3
ACMESYSVARMANAGER
350
2828
  3
ACMSYSTEMVARIABLEMANAGER
350
2838
  3
AD_APPL
350
3EAD
  3
AD_GREF_MODULE
350
3E96
  3
AD_MAPI_MODULE
350
3EAF
  3
ADSYSVARMGR
350
3E9F
  3
AMDTNAMEDDWGMGR
350
3E47
  3
AMG
350
2455
  3
AMGSNAPSETTINGS
350
24A2
  3
AMI_MASTER
350
246E
  3
ASE_INDEX_DICTIONARY
350
3E13
  3
ASURF_STATIC_VARS
350
3E4E
  3
AUTOCAD_ASSEMBLIES_PROJECT
350
3EBA
  3
AUTOSURF_SYSVARS
350
3E4F
  3
DESIGNER_ASSEMBLIES_SYSVARS
350
3EB1
  3
DWGPROPS
350
4763
  3
GREFAM_MODULE
350
3E98
  3
MAPISURF_MODULE
350
3E97
  3
ACDBHEADERROUNDTRIPXREC
350
4805
  0
DICTIONARY
  5
3479
330
2
100
AcDbDictionary
280
     1
  3
ACAD_LAYERFILTERS
360
347A
  0
DICTIONARY
  5
2691
330
18
100
AcDbDictionary
280
     1
  3
ACAD_INDEX
360
3059
  3
ACAD_LAYOUTSELFREF
360
4826
  0
DICTIONARY
  5
2703
330
15
100
AcDbDictionary
280
     1
  3
ACAD_LAYOUTSELFREF
360
4825
  0
DICTIONARY
  5
D
102
{ACAD_REACTORS
330
C
102
}
330
C
100
AcDbDictionary
  0
DICTIONARY
  5
244E
102
{ACAD_REACTORS
330
C
102
}
330
C
100
AcDbDictionary
  0
DICTIONARY
  5
1B
102
{ACAD_REACTORS
330
C
102
}
330
C
100
AcDbDictionary
  3
STANDARD
350
1C
  0
DICTIONARY
  5
244F
102
{ACAD_REACTORS
330
C
102
}
330
C
100
AcDbDictionary
  0
ACDBDICTIONARYWDFLT
  5
244C
102
{ACAD_REACTORS
330
C
102
}
330
C
100
AcDbDictionary
281
     1
  3
Normal
350
244D
100
AcDbDictionaryWithDefault
340
244D
  0
ACAD_PROXY_OBJECT
  5
3EC6
102
{ACAD_REACTORS
330
C
102
}
330
C
100
AcDbProxyObject
 90
      499
 91
      608
 93
      760
310
3FFFFFFFE00A0281402A92E2E2A32B1B737B198182E2A32B1B7379021B2B73A32B92E2234B932BD34B7B732902A32B1B734B1B0AE20A921A424AB24A7902224A9A2A3A724AE21A0A22E26B7B23634B732AE19222E26B1B92FB998981AC00AA24
 94
        0
1001
ACAD
1000
AcadProxyRoundTripData
1071
      603
1071
   393239
1070
     0
  0
ACAD_PROXY_OBJECT
  5
3E4D
102
{ACAD_REACTORS
330
C
102
}
330
C
100
AcDbProxyObject
 90
      499
 91
      608
 93
       10
310
4043
 94
        0
1001
ACAD
1000
AcadProxyRoundTripData
1071
      578
1071
   393239
1070
     0
  0
ACAD_PROXY_OBJECT
  5
3E95
102
{ACAD_REACTORS
330
C
102
}
330
C
100
AcDbProxyObject
 90
      499
 91
      608
 93
       34
310
010000404E
 94
        0
1001
ACAD
1000
AcadProxyRoundTripData
1071
      583
1071
   393239
1070
     0
  0
DICTIONARY
  5
269F
102
{ACAD_REACTORS
330
C
102
}
330
C
100
AcDbDictionary
  3
DIMASSOC
350
26A1
  3
INDEXCTL
350
26A0
  0
ACAD_PROXY_OBJECT
  5
3E2C
102
{ACAD_REACTORS
330
C
102
}
330
C
100
AcDbProxyObject
 90
      499
 91
      608
 93
      240
310
4C51A47A000000000000000000000000000000000000000000000000000007
330
3E2D
330
3E2E
330
3E2F
330
3E30
330
3E31
330
3E32
330
3E33
330
3E34
330
3E35
330
3E36
330
3E37
330
3E38
330
3E39
330
3E3A
330
3E3B
330
3E3C
330
3E3D
330
3E3E
330
3E3F
330
3E40
330
3E41
330
3E42
330
3E43
330
3E44
330
3E45
330
3E46
 94
        0
1001
ACAD
1000
AcadProxyRoundTripData
1071
      509
1071
   393239
1070
     0
  0
ACAD_PROXY_OBJECT
  5
2469
102
{ACAD_REACTORS
330
C
102
}
330
C
100
AcDbProxyObject
 90
      499
 91
      608
 93
       34
310
040000428E
 94
        0
1001
ACAD
1000
AcadProxyRoundTripData
1071
      518
1071
   393239
1070
     0
  0
ACAD_PROXY_OBJECT
  5
246D
102
{ACAD_REACTORS
330
C
102
}
330
C
100
AcDbProxyObject
 90
      499
 91
      608
 93
      114
310
04000041C000000000000000000012
 94
        0
1001
ACAD
1000
AcadProxyRoundTripData
1071
      521
1071
   393239
1070
     0
  0
DICTIONARY
  5
246F
102
{ACAD_REACTORS
330
C
102
}
330
C
100
AcDbDictionary
  3
ACMBOMDATA
350
2835
  3
ACMSTDDICTIONARY
350
2475
  0
ACAD_PROXY_OBJECT
  5
282C
102
{ACAD_REACTORS
330
C
102
}
330
C
100
AcDbProxyObject
 90
      499
 91
      608
 93
       50
310
0001004040001C
330
0
330
0
330
282D
 94
        0
1001
ACAD
1000
AcadProxyRoundTripData
1071
      512
1071
   393239
1070
     0
  0
ACAD_PROXY_OBJECT
  5
2827
102
{ACAD_REACTORS
330
C
102
}
330
C
100
AcDbProxyObject
 90
      499
 91
      608
 93
     2314
310
478050C475249505F53545245544348805094D4154434850524F50805045A4F4F4D805055153415645805065341564541538050E414D4454524553455444424D4F4440805084E202D20554E444F014213880B4815539113C0504554E444F80504554E444F80504554E444F80504554E444F80504554E444F80505455241534
310
5805054552415345805054552415345805054552415345805045A4F4F4D8050551534156458050E414D4454524553455444424D4F4440805084E202D20554E444F014213880B4815539113C0504554E444F80504554E444F80504554E444F80504554E444F80504554E444F805095041535445434C4950805044D4F5645805
310
054552415345805054552415345805045A4F4F4D8050550555247458050551534156458C
 94
        0
1001
ACAD
1000
AcadProxyRoundTripData
1071
      508
1071
   393239
1070
     0
  0
ACAD_PROXY_OBJECT
  5
2826
102
{ACAD_REACTORS
330
C
102
}
330
C
100
AcDbProxyObject
 90
      499
 91
      608
 93
     1234
310
06000044400000000000000000001856260000000000000000000000000000000000000000000000000000000000000000000000000000000000000000000000000000000000000000000000000000000000000000000000000000000000000000000000000000000000000000000000000000000000000000000000000000
310
0000000000000000000000000000000000000000000000AAA406AAB4
360
2829
360
282A
360
282B
360
282D
360
2839
360
2CDA
360
3E27
360
3E28
360
3E29
360
3E2A
360
3E2D
360
3E2E
360
3E2F
360
3E30
360
3E31
360
3E32
360
3E33
360
3E34
360
3E35
360
3E36
360
3E37
360
3E38
360
3E39
360
3E3A
360
3E3B
360
3E3C
360
3E3D
360
3E3E
360
3E3F
360
3E40
360
3E41
360
3E42
360
3E43
360
3E44
360
3E45
360
3E46
360
3E50
360
3E51
360
3E52
360
3E53
360
3E54
360
3E55
360
3E56
360
3E57
360
3E58
360
3E59
360
3E5A
360
3E5B
360
3E5C
360
3E5D
360
3E5E
360
3E5F
360
3E60
360
3E61
360
3E62
360
3E63
360
3E64
360
3E65
360
3E66
360
3E67
360
3E68
360
3E69
360
3E6A
360
3E6B
360
3E6C
360
3E6D
360
3E6E
360
3E6F
360
3E70
360
3E71
360
3E72
360
3E73
360
3E74
360
3E75
360
3E76
360
3E77
360
3E78
360
3E79
360
3E7A
360
3E7B
360
3E7C
360
3E7D
360
3E7E
360
3E7F
360
3E80
360
3E81
360
3E82
360
3E83
360
3E84
360
3E85
360
3E86
360
3E87
360
3E88
360
3E89
360
3E8A
360
3E8B
360
3E8C
360
3E8D
360
3E8E
360
3E8F
360
3E90
360
3E91
360
3E9B
360
3E9C
360
3E9D
360
3E9E
360
3EA0
360
3EA1
360
3EA2
360
3EA3
360
3EA4
360
3EA5
360
3EA6
360
3EA7
360
3EA8
360
3EA9
360
3EAA
360
3EAB
360
3EAC
360
3EB2
360
3EB3
360
3EB4
360
3EB5
360
3EB6
360
3EB7
360
3EB8
360
3EB9
360
3EBE
360
3EBF
360
3EC0
360
3EC1
360
3EC2
360
3EC3
 94
        0
1001
ACAD
1000
AcadProxyRoundTripData
1071
      507
1071
   393239
1070
     0
  0
ACAD_PROXY_OBJECT
  5
2831
102
{ACAD_REACTORS
330
C
102
}
330
C
100
AcDbProxyObject
 90
      499
 91
      608
 93
       50
310
06000041641284
 94
        0
1001
ACAD
1000
AcadProxyRoundTripData
1071
      517
1071
   393239
1070
     0
  0
ACAD_PROXY_OBJECT
  5
2828
102
{ACAD_REACTORS
330
C
102
}
330
C
100
AcDbProxyObject
 90
      499
 91
      608
 93
       48
310
90341200000041
330
2829
330
282A
330
282B
 94
        0
1001
ACAD
1000
AcadProxyRoundTripData
1071
      509
1071
   393239
1070
     0
  0
ACAD_PROXY_OBJECT
  5
2838
102
{ACAD_REACTORS
330
C
102
}
330
C
100
AcDbProxyObject
 90
      499
 91
      608
 93
       32
310
90140A0053
330
2839
 94
        0
1001
ACAD
1000
AcadProxyRoundTripData
1071
      509
1071
   393239
1070
     0
  0
ACAD_PROXY_OBJECT
  5
3EAD
102
{ACAD_REACTORS
330
C
102
}
330
C
100
AcDbProxyObject
 90
      499
 91
      608
 93
       42
310
0006000043C3
330
3E9B
 94
        0
1001
ACAD
1000
AcadProxyRoundTripData
1071
      592
1071
   393239
1070
     0
  0
ACAD_PROXY_OBJECT
  5
3E96
102
{ACAD_REACTORS
330
C
102
}
330
C
100
AcDbProxyObject
 90
      499
 91
      608
 93
      114
310
000000438000000000000000000016
 94
        0
1001
ACAD
1000
AcadProxyRoundTripData
1071
      584
1071
   393239
1070
     0
  0
ACAD_PROXY_OBJECT
  5
3EAF
102
{ACAD_REACTORS
330
C
102
}
330
C
100
AcDbProxyObject
 90
      499
 91
      608
 93
       34
310
05000044CE
 94
        0
1001
ACAD
1000
AcadProxyRoundTripData
1071
      594
1071
   393239
1070
     0
  0
ACAD_PROXY_OBJECT
  5
3E9F
102
{ACAD_REACTORS
330
C
102
}
330
C
100
AcDbProxyObject
 90
      499
 91
      608
 93
      128
310
90D4460000000000000000000000000000
330
3EA0
330
3EA1
330
3EA2
330
3EA3
330
3EA4
330
3EA5
330
3EA6
330
3EA7
330
3EA8
330
3EA9
330
3EAA
330
3EAB
330
3EAC
 94
        0
1001
ACAD
1000
AcadProxyRoundTripData
1071
      509
1071
   393239
1070
     0
  0
ACAD_PROXY_OBJECT
  5
3E47
102
{ACAD_REACTORS
330
C
102
}
330
C
100
AcDbProxyObject
 90
      499
 91
      608
 93
       42
310
000100005AC3
330
3E27
 94
        0
1001
ACAD
1000
AcadProxyRoundTripData
1071
      575
1071
   393239
1070
     0
  0
DICTIONARY
  5
2455
102
{ACAD_REACTORS
330
C
102
}
330
C
100
AcDbDictionary
  3
ACMGSETTINGS
350
2456
  3
AMGLAYCFG
350
283B
  0
DICTIONARY
  5
24A2
102
{ACAD_REACTORS
330
C
102
}
330
C
100
AcDbDictionary
  0
ACAD_PROXY_OBJECT
  5
246E
102
{ACAD_REACTORS
330
C
102
}
330
C
100
AcDbProxyObject
 90
      499
 91
      608
 93
       34
310
050000428E
 94
        0
1001
ACAD
1000
AcadProxyRoundTripData
1071
      522
1071
   393239
1070
     0
  0
DICTIONARY
  5
3E13
102
{ACAD_REACTORS
330
C
102
}
330
C
100
AcDbDictionary
  3
ASEBLOCKHIERARCHYINDEXRECORD
350
3E15
1001
DCO15
1040
1478519657.837
  0
ACAD_PROXY_OBJECT
  5
3E4E
102
{ACAD_REACTORS
330
C
102
}
330
C
100
AcDbProxyObject
 90
      499
 91
      608
 93
      424
310
585314D60000000000000000000000000000000000000000000000000000000000000000000000000000000000000000000000000000
330
3E61
330
3E62
330
3E63
330
3E64
330
3E65
330
3E66
330
3E67
330
3E68
330
3E69
330
3E6A
330
3E6B
330
3E6C
330
3E6D
330
3E6E
330
3E6F
330
3E70
330
3E71
330
3E72
330
3E73
330
3E74
330
3E75
330
3E76
330
3E77
330
3E78
330
3E79
330
3E7A
330
3E7B
330
3E7C
330
3E7D
330
3E7E
330
3E7F
330
3E80
330
3E81
330
3E82
330
3E83
330
3E84
330
3E85
330
3E86
330
3E87
330
3E88
330
3E89
330
3E8A
330
3E8B
330
3E8C
330
3E8D
330
3E8E
330
3E8F
330
3E90
330
3E91
 94
        0
1001
ACAD
1000
AcadProxyRoundTripData
1071
      579
1071
   393239
1070
     0
  0
ACAD_PROXY_OBJECT
  5
3EBA
102
{ACAD_REACTORS
330
C
102
}
330
C
100
AcDbProxyObject
 90
      499
 91
      608
 93
       74
310
0600004A40000000000C
330
3EC1
330
0
330
3EC2
330
0
330
0
 94
        0
1001
ACAD
1000
AcadProxyRoundTripData
1071
      596
1071
   393239
1070
     0
  0
ACAD_PROXY_OBJECT
  5
3E4F
102
{ACAD_REACTORS
330
C
102
}
330
C
100
AcDbProxyObject
 90
      499
 91
      608
 93
      168
310
4C511456000000000000000000000000000000000000
330
3E50
330
3E51
330
3E52
330
3E53
330
3E54
330
3E55
330
3E56
330
3E57
330
3E58
330
3E59
330
3E5A
330
3E5B
330
3E5C
330
3E5D
330
3E5E
330
3E5F
330
3E60
 94
        0
1001
ACAD
1000
AcadProxyRoundTripData
1071
      509
1071
   393239
1070
     0
  0
ACAD_PROXY_OBJECT
  5
3EB1
102
{ACAD_REACTORS
330
C
102
}
330
C
100
AcDbProxyObject
 90
      499
 91
      608
 93
       88
310
908432000000000000000000
330
3EB2
330
3EB3
330
3EB4
330
3EB5
330
3EB6
330
3EB7
330
3EB8
330
3EB9
 94
        0
1001
ACAD
1000
AcadProxyRoundTripData
1071
      509
1071
   393239
1070
     0
  0
XRECORD
  5
4763
102
{ACAD_REACTORS
330
C
102
}
330
C
100
AcDbXrecord
  1
DWGPROPS COOKIE
  2

  3

  4

  6

  7

  8

  9

300
AmdtFileType=84
301
=
302
=
303
=
304
=
305
=
306
=
307
=
308
=
309
=
 40
0.2830284722222222
 41
2452088.634692013
 42
2453130.667579236
  1

 90
        1
  0
ACAD_PROXY_OBJECT
  5
3E98
102
{ACAD_REACTORS
330
C
102
}
330
C
100
AcDbProxyObject
 90
      499
 91
      608
 93
        8
310
0501
 94
        0
1001
ACAD
1000
AcadProxyRoundTripData
1071
      586
1071
   393239
1070
     0
  0
ACAD_PROXY_OBJECT
  5
3E97
102
{ACAD_REACTORS
330
C
102
}
330
C
100
AcDbProxyObject
 90
      499
 91
      608
 93
        8
310
0401
 94
        0
1001
ACAD
1000
AcadProxyRoundTripData
1071
      585
1071
   393239
1070
     0
  0
DICTIONARY
  5
4805
102
{ACAD_REACTORS
330
C
102
}
330
C
100
AcDbDictionary
  3
TSTACKALIGN
350
4806
  3
TSTACKSIZE
350
4807
  3
HYPERLINKBASE
350
4808
  3
STYLESHEET
350
4809
  3
LAYOUTDICT
350
480A
  3
PLOTSETDICT
350
480B
  3
PLOTSTYLNAMDICT
350
480C
  3
LWETCUNION
350
480D
  3
INSUNITS
350
480E
  3
CEPSNTYPE
350
480F
  3
FINGERPRINTGUID
350
4810
  3
VERSIONGUID
350
4811
  3
PSVPSCALE
350
4812
  3
PUCSORTHOREF
350
4813
  3
PUCSORTHOVIEW
350
4814
  3
PUCSBASE
350
4815
  3
PUCSORGTOP
350
4816
  3
PUCSORGBOTTOM
350
4817
  3
PUCSORGLEFT
350
4818
  3
PUCSORGRIGHT
350
4819
  3
PUCSORGFRONT
350
481A
  3
PUCSORGBACK
350
481B
  3
UCSORTHOREF
350
481C
  3
UCSORTHOVIEW
350
481D
  3
UCSBASE
350
481E
  3
UCSORGTOP
350
481F
  3
UCSORGBOTTOM
350
4820
  3
UCSORGLEFT
350
4821
  3
UCSORGRIGHT
350
4822
  3
UCSORGFRONT
350
4823
  3
UCSORGBACK
350
4824
  0
DICTIONARY
  5
347A
102
{ACAD_REACTORS
330
3479
102
}
330
3479
100
AcDbDictionary
280
     1
  3
-1
360
347B
  3
-16
360
347C
  3
-19
360
347D
  3
-2
360
347E
  3
-3
360
347F
  3
-4
360
3480
  3
00013
360
3481
  3
00031
360
3482
  3
00033
360
3483
  3
00041
360
3484
  3
00051
360
3485
  3
00071
360
3486
  3
00081
360
3487
  3
00183
360
3488
  3
00203
360
3489
  3
00213
360
348A
  3
00223
360
348B
  3
00323
360
348C
  3
00333
360
348D
  3
00343
360
348E
  3
00383
360
348F
  3
00413
360
3490
  3
00433
360
3491
  3
00443
360
3492
  3
00450
360
3493
  3
00453
360
3494
  3
00463
360
3495
  3
00483
360
3496
  3
00493
360
3497
  3
00533
360
3498
  3
00543
360
3499
  3
00613
360
349A
  3
00623
360
349B
  3
00633
360
349C
  3
01283
360
349D
  3
01293
360
349E
  3
01323
360
349F
  3
01363
360
34A0
  3
01373
360
34A1
  3
01543
360
34A2
  3
1
360
34A3
  3
12-9
360
34A4
  3
16
360
34A5
  3
19
360
34A6
  3
2
360
34A7
  3
3
360
34A8
  3
4
360
34A9
  3
9
360
34AA
  3
AM
360
34AB
  3
AM3
360
34AC
  3
BA
360
34AD
  3
BA-SIMUL
360
34AE
  3
CACHE
360
34AF
  3
CACHER
360
34B0
  3
CALQUE
360
34B1
  3
CALQUE_9
360
34B2
  3
CENTER
360
34B3
  3
COTATION
360
34B4
  3
DIM
360
34B5
  3
FORT
360
34B6
  3
GELER_LES_PLANS
360
34B7
  3
GELER_TOUT
360
34B8
  3
GELÉ
360
34B9
  3
HID
360
34BA
  3
HIDDEN
360
34BB
  3
MATER
360
34BC
  3
N
360
34BD
  3
NOM
360
34BE
  3
PIECE
360
34BF
  3
PIPPO
360
34C0
  3
POINTILLÉ
360
34C1
  3
TEMP
360
34C2
  3
TRACER-16
360
34C3
  3
TRACER-2
360
34C4
  3
TRACER1
360
34C5
  3
VIS
360
34C6
  3
XX
360
34C7
  0
DICTIONARY
  5
3059
102
{ACAD_REACTORS
330
2691
102
}
330
2691
100
AcDbDictionary
  3
*A1
350
305A
  0
XRECORD
  5
4826
102
{ACAD_REACTORS
330
2691
102
}
330
2691
100
AcDbXrecord
340
18
  0
XRECORD
  5
4825
102
{ACAD_REACTORS
330
2703
102
}
330
2703
100
AcDbXrecord
340
15
  0
MLINESTYLE
  5
1C
102
{ACAD_REACTORS
330
1B
102
}
330
1B
100
AcDbMlineStyle
  2
STANDARD
 70
     0
  3

 62
   256
 51
90.0
 52
90.0
 71
     2
 49
0.5
 62
   256
  6
BYLAYER
 49
-0.5
 62
   256
  6
BYLAYER
  0
ACDBPLACEHOLDER
  5
244D
102
{ACAD_REACTORS
330
244C
102
}
330
244C
100
AcDbPlaceHolder
280
     0
  0
DICTIONARYVAR
  5
26A1
102
{ACAD_REACTORS
330
269F
102
}
330
269F
100
DictionaryVariables
280
     0
  1
1
  0
DICTIONARYVAR
  5
26A0
102
{ACAD_REACTORS
330
269F
102
}
330
269F
100
DictionaryVariables
280
     0
  1
1
  0
ACAD_PROXY_OBJECT
  5
2835
102
{ACAD_REACTORS
330
246F
102
}
330
246F
100
AcDbProxyObject
 90
      499
 91
      608
 93
      126
310
405010040CA904C415CD5B075710D405
350
2836
330
0
 94
        0
1001
ACAD
1000
AcadProxyRoundTripData
1071
      523
1071
   393239
1070
     0
  0
DICTIONARY
  5
2475
102
{ACAD_REACTORS
330
246F
102
}
330
246F
100
AcDbDictionary
  3
ANSI
350
2B3F
  3
ISO
350
283A
  0
ACAD_PROXY_OBJECT
  5
2829
330
0
100
AcDbProxyObject
 90
      499
 91
      608
 93
      156
310
00010143D050D351505391D5531054925390D499
330
2826
 94
        0
1001
ACAD
1000
AcadProxyRoundTripData
1071
      510
1071
   393239
1070
     0
  0
ACAD_PROXY_OBJECT
  5
282A
330
0
100
AcDbProxyObject
 90
      499
 91
      608
 93
      148
310
000101439050D351531253915054925390D490
330
2826
 94
        0
1001
ACAD
1000
AcadProxyRoundTripData
1071
      510
1071
   393239
1070
     0
  0
ACAD_PROXY_OBJECT
  5
282B
330
0
100
AcDbProxyObject
 90
      499
 91
      608
 93
      156
310
000101439050D35154D6535093D314D256915089
330
2826
 94
        0
1001
ACAD
1000
AcadProxyRoundTripData
1071
      511
1071
   393239
1070
     0
  0
ACAD_PROXY_OBJECT
  5
282D
330
0
100
AcDbProxyObject
 90
      499
 91
      608
 93
      216
310
00010145111A5CDD1A5B9D184818DBDB5C1BDB995B9D1A4C402B0000
330
2826
330
0
330
0
 94
        0
1001
ACAD
1000
AcadProxyRoundTripData
1071
      513
1071
   393239
1070
     0
  0
ACAD_PROXY_OBJECT
  5
2839
330
0
100
AcDbProxyObject
 90
      499
 91
      608
 93
      140
310
00010142105350D55494D5110050349534F0
330
2826
 94
        0
1001
ACAD
1000
AcadProxyRoundTripData
1071
      525
1071
   393239
1070
     0
  0
ACAD_PROXY_OBJECT
  5
2CDA
330
0
100
AcDbProxyObject
 90
      499
 91
      608
 93
       28
310
00014060
330
2826
 94
        0
1001
ACAD
1000
AcadProxyRoundTripData
1071
      556
1071
   393239
1070
     0
  0
ACAD_PROXY_OBJECT
  5
3E27
330
0
100
AcDbProxyObject
 90
      499
 91
      608
 93
      358
310
0001014119185D1840507362E332E302E31014119185D1840507362E332E302E3140501000041505391D311658
330
2826
330
3E28
330
3E2C
 94
        0
1001
ACAD
1000
AcadProxyRoundTripData
1071
      571
1071
   393239
1070
     0
  0
ACAD_PROXY_OBJECT
  5
3E28
330
0
100
AcDbProxyObject
 90
      499
 91
      608
 93
       48
310
000190140A004F
330
2826
330
3E29
 94
        0
1001
ACAD
1000
AcadProxyRoundTripData
1071
      572
1071
   393239
1070
     0
  0
ACAD_PROXY_OBJECT
  5
3E29
330
0
100
AcDbProxyObject
 90
      499
 91
      608
 93
       48
310
0001AA00000048
330
2826
330
2451
330
3E2A
330
0
 94
        0
1001
ACAD
1000
AcadProxyRoundTripData
1071
      573
1071
   393239
1070
     0
  0
ACAD_PROXY_OBJECT
  5
3E2A
330
0
100
AcDbProxyObject
 90
      499
 91
      608
 93
       28
310
0001AAA0
330
2826
 94
        0
1001
ACAD
1000
AcadProxyRoundTripData
1071
      574
1071
   393239
1070
     0
  0
ACAD_PROXY_OBJECT
  5
3E2D
330
0
100
AcDbProxyObject
 90
      499
 91
      608
 93
      108
310
000101421053521310D05310D013
330
2826
 94
        0
1001
ACAD
1000
AcadProxyRoundTripData
1071
      511
1071
   393239
1070
     0
  0
ACAD_PROXY_OBJECT
  5
3E2E
330
0
100
AcDbProxyObject
 90
      499
 91
      608
 93
      124
310
00010142905354915554D15112535013
330
2826
 94
        0
1001
ACAD
1000
AcadProxyRoundTripData
1071
      511
1071
   393239
1070
     0
  0
ACAD_PROXY_OBJECT
  5
3E2F
330
0
100
AcDbProxyObject
 90
      499
 91
      608
 93
      132
310
00010143105354D150D51253D391125362
330
2826
 94
        0
1001
ACAD
1000
AcadProxyRoundTripData
1071
      511
1071
   393239
1070
     0
  0
ACAD_PROXY_OBJECT
  5
3E30
330
0
100
AcDbProxyObject
 90
      499
 91
      608
 93
      124
310
00010142905355941093D49111549014
330
2826
 94
        0
1001
ACAD
1000
AcadProxyRoundTripData
1071
      511
1071
   393239
1070
     0
  0
ACAD_PROXY_OBJECT
  5
3E31
330
0
100
AcDbProxyObject
 90
      499
 91
      608
 93
      116
310
0001014290535115D1D0D3D313D4A1
330
2826
 94
        0
1001
ACAD
1000
AcadProxyRoundTripData
1071
      511
1071
   393239
1070
     0
  0
ACAD_PROXY_OBJECT
  5
3E32
330
0
100
AcDbProxyObject
 90
      499
 91
      608
 93
      148
310
00010143505355925155D49151949154D21015
330
2826
 94
        0
1001
ACAD
1000
AcadProxyRoundTripData
1071
      511
1071
   393239
1070
     0
  0
ACAD_PROXY_OBJECT
  5
3E33
330
0
100
AcDbProxyObject
 90
      499
 91
      608
 93
      172
310
00010144105350539393D51154149154D15495915010
330
2826
 94
        0
1001
ACAD
1000
AcadProxyRoundTripData
1071
      511
1071
   393239
1070
     0
  0
ACAD_PROXY_OBJECT
  5
3E34
330
0
100
AcDbProxyObject
 90
      499
 91
      608
 93
      172
310
00010144105350555513D11253505494905391D15010
330
2826
 94
        0
1001
ACAD
1000
AcadProxyRoundTripData
1071
      511
1071
   393239
1070
     0
  0
ACAD_PROXY_OBJECT
  5
3E35
330
0
100
AcDbProxyObject
 90
      499
 91
      608
 93
      124
310
00010142D05351561514915191125360
330
2826
 94
        0
1001
ACAD
1000
AcadProxyRoundTripData
1071
      511
1071
   393239
1070
     0
  0
ACAD_PROXY_OBJECT
  5
3E36
330
0
100
AcDbProxyObject
 90
      499
 91
      608
 93
      132
310
00010142D05355105410539393D5115013
330
2826
 94
        0
1001
ACAD
1000
AcadProxyRoundTripData
1071
      511
1071
   393239
1070
     0
  0
ACAD_PROXY_OBJECT
  5
3E37
330
0
100
AcDbProxyObject
 90
      499
 91
      608
 93
      108
310
00010142105350555513D0D31013
330
2826
 94
        0
1001
ACAD
1000
AcadProxyRoundTripData
1071
      511
1071
   393239
1070
     0
  0
ACAD_PROXY_OBJECT
  5
3E38
330
0
100
AcDbProxyObject
 90
      499
 91
      608
 93
      108
310
00010142105350D3119150551053
330
2826
 94
        0
1001
ACAD
1000
AcadProxyRoundTripData
1071
      511
1071
   393239
1070
     0
  0
ACAD_PROXY_OBJECT
  5
3E39
330
0
100
AcDbProxyObject
 90
      499
 91
      608
 93
      108
310
00010142105350D315925155D3F3
330
2826
 94
        0
1001
ACAD
1000
AcadProxyRoundTripData
1071
      511
1071
   393239
1070
     0
  0
ACAD_PROXY_OBJECT
  5
3E3A
330
0
100
AcDbProxyObject
 90
      499
 91
      608
 93
      148
310
0001014350535212511156915493D112535010
330
2826
 94
        0
1001
ACAD
1000
AcadProxyRoundTripData
1071
      511
1071
   393239
1070
     0
  0
ACAD_PROXY_OBJECT
  5
3E3B
330
0
100
AcDbProxyObject
 90
      499
 91
      608
 93
      124
310
00010142905352105510D21254D3D013
330
2826
 94
        0
1001
ACAD
1000
AcadProxyRoundTripData
1071
      511
1071
   393239
1070
     0
  0
ACAD_PROXY_OBJECT
  5
3E3C
330
0
100
AcDbProxyObject
 90
      499
 91
      608
 93
      148
310
00010143905354D25391D31152105513105660
330
2826
 94
        0
1001
ACAD
1000
AcadProxyRoundTripData
1071
      511
1071
   393239
1070
     0
  0
ACAD_PROXY_OBJECT
  5
3E3D
330
0
100
AcDbProxyObject
 90
      499
 91
      608
 93
      124
310
00010142D0535115D1D193111254D424
330
2826
 94
        0
1001
ACAD
1000
AcadProxyRoundTripData
1071
      511
1071
   393239
1070
     0
  0
ACAD_PROXY_OBJECT
  5
3E3E
330
0
100
AcDbProxyObject
 90
      499
 91
      608
 93
      100
310
00010142105350555513D213A5
330
2826
 94
        0
1001
ACAD
1000
AcadProxyRoundTripData
1071
      511
1071
   393239
1070
     0
  0
ACAD_PROXY_OBJECT
  5
3E3F
330
0
100
AcDbProxyObject
 90
      499
 91
      608
 93
      116
310
000101425053521390D3D553951013
330
2826
 94
        0
1001
ACAD
1000
AcadProxyRoundTripData
1071
      511
1071
   393239
1070
     0
  0
ACAD_PROXY_OBJECT
  5
3E40
330
0
100
AcDbProxyObject
 90
      499
 91
      608
 93
      108
310
0001014210535213941493D29010
330
2826
 94
        0
1001
ACAD
1000
AcadProxyRoundTripData
1071
      511
1071
   393239
1070
     0
  0
ACAD_PROXY_OBJECT
  5
3E41
330
0
100
AcDbProxyObject
 90
      499
 91
      608
 93
      108
310
0001014210535213951654115070
330
2826
 94
        0
1001
ACAD
1000
AcadProxyRoundTripData
1071
      511
1071
   393239
1070
     0
  0
ACAD_PROXY_OBJECT
  5
3E42
330
0
100
AcDbProxyObject
 90
      499
 91
      608
 93
      108
310
000101421053521395925155D0F0
330
2826
 94
        0
1001
ACAD
1000
AcadProxyRoundTripData
1071
      511
1071
   393239
1070
     0
  0
ACAD_PROXY_OBJECT
  5
3E43
330
0
100
AcDbProxyObject
 90
      499
 91
      608
 93
      140
310
00010143505354D150D51253D390D3D41665
330
2826
 94
        0
1001
ACAD
1000
AcadProxyRoundTripData
1071
      511
1071
   393239
1070
     0
  0
ACAD_PROXY_OBJECT
  5
3E44
330
0
100
AcDbProxyObject
 90
      499
 91
      608
 93
      108
310
00010142105350D3141493D29030
330
2826
 94
        0
1001
ACAD
1000
AcadProxyRoundTripData
1071
      511
1071
   393239
1070
     0
  0
ACAD_PROXY_OBJECT
  5
3E45
330
0
100
AcDbProxyObject
 90
      499
 91
      608
 93
      212
310
00010143905350555513D2105510D21493D500000000000002E400
330
2826
 94
        0
1001
ACAD
1000
AcadProxyRoundTripData
1071
      510
1071
   393239
1070
     0
  0
ACAD_PROXY_OBJECT
  5
3E46
330
0
100
AcDbProxyObject
 90
      499
 91
      608
 93
      156
310
00010143905350555513D2105510D21111551010
330
2826
 94
        0
1001
ACAD
1000
AcadProxyRoundTripData
1071
      511
1071
   393239
1070
     0
  0
ACAD_PROXY_OBJECT
  5
3E50
330
0
100
AcDbProxyObject
 90
      499
 91
      608
 93
      116
310
000101425053541051D15311539191
330
2826
 94
        0
1001
ACAD
1000
AcadProxyRoundTripData
1071
      511
1071
   393239
1070
     0
  0
ACAD_PROXY_OBJECT
  5
3E51
330
0
100
AcDbProxyObject
 90
      499
 91
      608
 93
      108
310
000101421053555312539154D053
330
2826
 94
        0
1001
ACAD
1000
AcadProxyRoundTripData
1071
      511
1071
   393239
1070
     0
  0
ACAD_PROXY_OBJECT
  5
3E52
330
0
100
AcDbProxyObject
 90
      499
 91
      608
 93
      108
310
000101421053559312539154D033
330
2826
 94
        0
1001
ACAD
1000
AcadProxyRoundTripData
1071
      511
1071
   393239
1070
     0
  0
ACAD_PROXY_OBJECT
  5
3E53
330
0
100
AcDbProxyObject
 90
      499
 91
      608
 93
      140
310
00010143105354D1911254D41353D111501A
330
2826
 94
        0
1001
ACAD
1000
AcadProxyRoundTripData
1071
      511
1071
   393239
1070
     0
  0
ACAD_PROXY_OBJECT
  5
3E54
330
0
100
AcDbProxyObject
 90
      499
 91
      608
 93
      172
310
00010142505354119255105391C1C052DC9A6F104403
330
2826
 94
        0
1001
ACAD
1000
AcadProxyRoundTripData
1071
      510
1071
   393239
1070
     0
  0
ACAD_PROXY_OBJECT
  5
3E55
330
0
100
AcDbProxyObject
 90
      499
 91
      608
 93
      164
310
000101421053559150D05551C000000000000E03F8
330
2826
 94
        0
1001
ACAD
1000
AcadProxyRoundTripData
1071
      510
1071
   393239
1070
     0
  0
ACAD_PROXY_OBJECT
  5
3E56
330
0
100
AcDbProxyObject
 90
      499
 91
      608
 93
      180
310
00010142905350931153911513D307B14AE47E17A843F3
330
2826
 94
        0
1001
ACAD
1000
AcadProxyRoundTripData
1071
      510
1071
   393239
1070
     0
  0
ACAD_PROXY_OBJECT
  5
3E57
330
0
100
AcDbProxyObject
 90
      499
 91
      608
 93
      172
310
0001014250535293D25391D05407B14AE47E17A843F8
330
2826
 94
        0
1001
ACAD
1000
AcadProxyRoundTripData
1071
      510
1071
   393239
1070
     0
  0
ACAD_PROXY_OBJECT
  5
3E58
330
0
100
AcDbProxyObject
 90
      499
 91
      608
 93
      172
310
000101425053541192551311538000000FC83D797418
330
2826
 94
        0
1001
ACAD
1000
AcadProxyRoundTripData
1071
      510
1071
   393239
1070
     0
  0
ACAD_PROXY_OBJECT
  5
3E59
330
0
100
AcDbProxyObject
 90
      499
 91
      608
 93
      156
310
00010141D053559150D4D18000000000000E03F8
330
2826
 94
        0
1001
ACAD
1000
AcadProxyRoundTripData
1071
      510
1071
   393239
1070
     0
  0
ACAD_PROXY_OBJECT
  5
3E5A
330
0
100
AcDbProxyObject
 90
      499
 91
      608
 93
      156
310
00010141D05354D19513D309A9999999999993F8
330
2826
 94
        0
1001
ACAD
1000
AcadProxyRoundTripData
1071
      510
1071
   393239
1070
     0
  0
ACAD_PROXY_OBJECT
  5
3E5B
330
0
100
AcDbProxyObject
 90
      499
 91
      608
 93
      172
310
000101425053541192551513D307B14AE47E17A843F8
330
2826
 94
        0
1001
ACAD
1000
AcadProxyRoundTripData
1071
      510
1071
   393239
1070
     0
  0
ACAD_PROXY_OBJECT
  5
3E5C
330
0
100
AcDbProxyObject
 90
      499
 91
      608
 93
      188
310
00010142D05354D151D192551513D307B14AE47E17A843F0
330
2826
 94
        0
1001
ACAD
1000
AcadProxyRoundTripData
1071
      510
1071
   393239
1070
     0
  0
ACAD_PROXY_OBJECT
  5
3E5D
330
0
100
AcDbProxyObject
 90
      499
 91
      608
 93
      148
310
000101419053541311538000000FC83D79741F
330
2826
 94
        0
1001
ACAD
1000
AcadProxyRoundTripData
1071
      510
1071
   393239
1070
     0
  0
ACAD_PROXY_OBJECT
  5
3E5E
330
0
100
AcDbProxyObject
 90
      499
 91
      608
 93
      172
310
00010142505354105391D513D301C052DC9A6F104402
330
2826
 94
        0
1001
ACAD
1000
AcadProxyRoundTripData
1071
      510
1071
   393239
1070
     0
  0
ACAD_PROXY_OBJECT
  5
3E5F
330
0
100
AcDbProxyObject
 90
      499
 91
      608
 93
      132
310
0001014114D25691400000000000024404
330
2826
 94
        0
1001
ACAD
1000
AcadProxyRoundTripData
1071
      510
1071
   393239
1070
     0
  0
ACAD_PROXY_OBJECT
  5
3E60
330
0
100
AcDbProxyObject
 90
      499
 91
      608
 93
      156
310
00010142905351D4941491519256005034153470
330
2826
 94
        0
1001
ACAD
1000
AcadProxyRoundTripData
1071
      525
1071
   393239
1070
     0
  0
ACAD_PROXY_OBJECT
  5
3E61
330
0
100
AcDbProxyObject
 90
      499
 91
      608
 93
      314
310
00014080509646973745363616C650000000000003C2FC000000000000F0BF0000003F20F5E5D050
330
2826
 94
        0
1001
ACAD
1000
AcadProxyRoundTripData
1071
      580
1071
   393239
1070
     0
  0
ACAD_PROXY_OBJECT
  5
3E62
330
0
100
AcDbProxyObject
 90
      499
 91
      608
 93
      322
310
0001408050A65646175526F74617465060B51153EC87E4FC182D4454FB2119C0060B51153EC8465004
330
2826
 94
        0
1001
ACAD
1000
AcadProxyRoundTripData
1071
      580
1071
   393239
1070
     0
  0
ACAD_PROXY_OBJECT
  5
3E63
330
0
100
AcDbProxyObject
 90
      499
 91
      608
 93
      314
310
00014080509656461755477697374060B51153EC846500000000FC83D797C10000003F20F5E5D050
330
2826
 94
        0
1001
ACAD
1000
AcadProxyRoundTripData
1071
      580
1071
   393239
1070
     0
  0
ACAD_PROXY_OBJECT
  5
3E64
330
0
100
AcDbProxyObject
 90
      499
 91
      608
 93
      294
310
000140C050A656467654F75747075740144D41BDB1A5B1A5B99584817D41BDB1E5B1A5B994
330
2826
 94
        0
1001
ACAD
1000
AcadProxyRoundTripData
1071
      581
1071
   393239
1070
     0
  0
ACAD_PROXY_OBJECT
  5
3E65
330
0
100
AcDbProxyObject
 90
      499
 91
      608
 93
      154
310
0001404050B65646974507265766965774064040
330
2826
 94
        0
1001
ACAD
1000
AcadProxyRoundTripData
1071
      582
1071
   393239
1070
     0
  0
ACAD_PROXY_OBJECT
  5
3E66
330
0
100
AcDbProxyObject
 90
      499
 91
      608
 93
      170
310
0001404050A666C6F77556C696E657342A3A00C00003
330
2826
 94
        0
1001
ACAD
1000
AcadProxyRoundTripData
1071
      582
1071
   393239
1070
     0
  0
ACAD_PROXY_OBJECT
  5
3E67
330
0
100
AcDbProxyObject
 90
      499
 91
      608
 93
      170
310
0001404050A666C6F77566C696E657342A3A00C00003
330
2826
 94
        0
1001
ACAD
1000
AcadProxyRoundTripData
1071
      582
1071
   393239
1070
     0
  0
ACAD_PROXY_OBJECT
  5
3E68
330
0
100
AcDbProxyObject
 90
      499
 91
      608
 93
      322
310
0001408050A666C7366456E645261640000000000003C2FC000000000000F0BF0000003F20F5E5D044
330
2826
 94
        0
1001
ACAD
1000
AcadProxyRoundTripData
1071
      580
1071
   393239
1070
     0
  0
ACAD_PROXY_OBJECT
  5
3E69
330
0
100
AcDbProxyObject
 90
      499
 91
      608
 93
      246
310
000140C05086A6E33644D6F64650143D3585B9D585B194817D3585B9D585B1
330
2826
 94
        0
1001
ACAD
1000
AcadProxyRoundTripData
1071
      581
1071
   393239
1070
     0
  0
ACAD_PROXY_OBJECT
  5
3E6A
330
0
100
AcDbProxyObject
 90
      499
 91
      608
 93
      294
310
000140C050A6A6E33644F75747075740144D41BDB1A5B1A5B99584817D41BDB1E5B1A5B995
330
2826
 94
        0
1001
ACAD
1000
AcadProxyRoundTripData
1071
      581
1071
   393239
1070
     0
  0
ACAD_PROXY_OBJECT
  5
3E6B
330
0
100
AcDbProxyObject
 90
      499
 91
      608
 93
      306
310
000140805086C656E675065726300000000002016D002D431CEBE2361A3F0000003F20F5E5D046
330
2826
 94
        0
1001
ACAD
1000
AcadProxyRoundTripData
1071
      580
1071
   393239
1070
     0
  0
ACAD_PROXY_OBJECT
  5
3E6C
330
0
100
AcDbProxyObject
 90
      499
 91
      608
 93
      266
310
0001408050B6D61737344656E7369747942D431CEBE2361A3F0000003F20F5E5D04B
330
2826
 94
        0
1001
ACAD
1000
AcadProxyRoundTripData
1071
      580
1071
   393239
1070
     0
  0
ACAD_PROXY_OBJECT
  5
3E6D
330
0
100
AcDbProxyObject
 90
      499
 91
      608
 93
      186
310
000140805096D617373546869636BA0000003F20F5E5D04D
330
2826
 94
        0
1001
ACAD
1000
AcadProxyRoundTripData
1071
      580
1071
   393239
1070
     0
  0
ACAD_PROXY_OBJECT
  5
3E6E
330
0
100
AcDbProxyObject
 90
      499
 91
      608
 93
      222
310
000140C05086D61737354797065014314DA195B1B0817D4DA195B1B1
330
2826
 94
        0
1001
ACAD
1000
AcadProxyRoundTripData
1071
      581
1071
   393239
1070
     0
  0
ACAD_PROXY_OBJECT
  5
3E6F
330
0
100
AcDbProxyObject
 90
      499
 91
      608
 93
      242
310
000140805086F667366446973744000000FC83D797C10000003F20F5E5D065
330
2826
 94
        0
1001
ACAD
1000
AcadProxyRoundTripData
1071
      580
1071
   393239
1070
     0
  0
ACAD_PROXY_OBJECT
  5
3E70
330
0
100
AcDbProxyObject
 90
      499
 91
      608
 93
      258
310
0001408050A7072696D52616469757342D431CEBE2361A3F0000003F20F5E5D050
330
2826
 94
        0
1001
ACAD
1000
AcadProxyRoundTripData
1071
      580
1071
   393239
1070
     0
  0
ACAD_PROXY_OBJECT
  5
3E71
330
0
100
AcDbProxyObject
 90
      499
 91
      608
 93
      194
310
0001408050A7072696D546F70526164A0000003F20F5E5D07F
330
2826
 94
        0
1001
ACAD
1000
AcadProxyRoundTripData
1071
      580
1071
   393239
1070
     0
  0
ACAD_PROXY_OBJECT
  5
3E72
330
0
100
AcDbProxyObject
 90
      499
 91
      608
 93
      266
310
0001408050B7072696D5475626552616442D431CEBE2361A3F0000003F20F5E5D04B
330
2826
 94
        0
1001
ACAD
1000
AcadProxyRoundTripData
1071
      580
1071
   393239
1070
     0
  0
ACAD_PROXY_OBJECT
  5
3E73
330
0
100
AcDbProxyObject
 90
      499
 91
      608
 93
      258
310
0001408050A7072696D4865696768744000000FC83D797C10000003F20F5E5D046
330
2826
 94
        0
1001
ACAD
1000
AcadProxyRoundTripData
1071
      580
1071
   393239
1070
     0
  0
ACAD_PROXY_OBJECT
  5
3E74
330
0
100
AcDbProxyObject
 90
      499
 91
      608
 93
      250
310
000140805097072696D5374416E678182D4454FB2119C0060B51153EC8465000
330
2826
 94
        0
1001
ACAD
1000
AcadProxyRoundTripData
1071
      580
1071
   393239
1070
     0
  0
ACAD_PROXY_OBJECT
  5
3E75
330
0
100
AcDbProxyObject
 90
      499
 91
      608
 93
      322
310
0001408050A7072696D456E64416E67060B51153EC846500182D4454FB2119C0060B51153EC8465004
330
2826
 94
        0
1001
ACAD
1000
AcadProxyRoundTripData
1071
      580
1071
   393239
1070
     0
  0
ACAD_PROXY_OBJECT
  5
3E76
330
0
100
AcDbProxyObject
 90
      499
 91
      608
 93
      242
310
000140805087265765374416E678182D4454FB2119C0060B51153EC8465000
330
2826
 94
        0
1001
ACAD
1000
AcadProxyRoundTripData
1071
      580
1071
   393239
1070
     0
  0
ACAD_PROXY_OBJECT
  5
3E77
330
0
100
AcDbProxyObject
 90
      499
 91
      608
 93
      314
310
00014080509726576456E64416E67060B51153EC846500182D4454FB2119C0060B51153EC8465015
330
2826
 94
        0
1001
ACAD
1000
AcadProxyRoundTripData
1071
      580
1071
   393239
1070
     0
  0
ACAD_PROXY_OBJECT
  5
3E78
330
0
100
AcDbProxyObject
 90
      499
 91
      608
 93
      194
310
0001404050C7266736655706174636865734290139C0C0003D
330
2826
 94
        0
1001
ACAD
1000
AcadProxyRoundTripData
1071
      582
1071
   393239
1070
     0
  0
ACAD_PROXY_OBJECT
  5
3E79
330
0
100
AcDbProxyObject
 90
      499
 91
      608
 93
      194
310
0001404050C7266736656706174636865734290139C0C0003D
330
2826
 94
        0
1001
ACAD
1000
AcadProxyRoundTripData
1071
      582
1071
   393239
1070
     0
  0
ACAD_PROXY_OBJECT
  5
3E7A
330
0
100
AcDbProxyObject
 90
      499
 91
      608
 93
      246
310
000140C0508747562654D6F64650143D3585B9D585B194817D3585B9D585B0
330
2826
 94
        0
1001
ACAD
1000
AcadProxyRoundTripData
1071
      581
1071
   393239
1070
     0
  0
ACAD_PROXY_OBJECT
  5
3E7B
330
0
100
AcDbProxyObject
 90
      499
 91
      608
 93
      274
310
0001408050C747562654469616D6574657242D431CEBE2361A3F0000003F20F5E5D045
330
2826
 94
        0
1001
ACAD
1000
AcadProxyRoundTripData
1071
      580
1071
   393239
1070
     0
  0
ACAD_PROXY_OBJECT
  5
3E7C
330
0
100
AcDbProxyObject
 90
      499
 91
      608
 93
      130
310
00014040509696E746572506F6C79A4056
330
2826
 94
        0
1001
ACAD
1000
AcadProxyRoundTripData
1071
      582
1071
   393239
1070
     0
  0
ACAD_PROXY_OBJECT
  5
3E7D
330
0
100
AcDbProxyObject
 90
      499
 91
      608
 93
      162
310
0001404050D696E746572417567506F696E74A4049
330
2826
 94
        0
1001
ACAD
1000
AcadProxyRoundTripData
1071
      582
1071
   393239
1070
     0
  0
ACAD_PROXY_OBJECT
  5
3E7E
330
0
100
AcDbProxyObject
 90
      499
 91
      608
 93
      246
310
000140C0509696E7465727472696D0143915B9D1C985B58994817D09BDD1A1
330
2826
 94
        0
1001
ACAD
1000
AcadProxyRoundTripData
1071
      581
1071
   393239
1070
     0
  0
ACAD_PROXY_OBJECT
  5
3E7F
330
0
100
AcDbProxyObject
 90
      499
 91
      608
 93
      230
310
000140C0509696E746572747970650143151859DB1A584817D51C9A5B5
330
2826
 94
        0
1001
ACAD
1000
AcadProxyRoundTripData
1071
      581
1071
   393239
1070
     0
  0
ACAD_PROXY_OBJECT
  5
3E80
330
0
100
AcDbProxyObject
 90
      499
 91
      608
 93
      146
310
0001404050A636F726E65727472696D4064060
330
2826
 94
        0
1001
ACAD
1000
AcadProxyRoundTripData
1071
      582
1071
   393239
1070
     0
  0
ACAD_PROXY_OBJECT
  5
3E81
330
0
100
AcDbProxyObject
 90
      499
 91
      608
 93
      130
310
000140405086F6673666B656570406404A
330
2826
 94
        0
1001
ACAD
1000
AcadProxyRoundTripData
1071
      582
1071
   393239
1070
     0
  0
ACAD_PROXY_OBJECT
  5
3E82
330
0
100
AcDbProxyObject
 90
      499
 91
      608
 93
      146
310
0001404050A70726F6A4F757470757440A40E0
330
2826
 94
        0
1001
ACAD
1000
AcadProxyRoundTripData
1071
      582
1071
   393239
1070
     0
  0
ACAD_PROXY_OBJECT
  5
3E83
330
0
100
AcDbProxyObject
 90
      499
 91
      608
 93
      254
310
000140C050D70726F6A446972656374696F6E0142DD925CDD184817DD92595DD
330
2826
 94
        0
1001
ACAD
1000
AcadProxyRoundTripData
1071
      581
1071
   393239
1070
     0
  0
ACAD_PROXY_OBJECT
  5
3E84
330
0
100
AcDbProxyObject
 90
      499
 91
      608
 93
      130
310
0001404050870726F6A4B6565704064070
330
2826
 94
        0
1001
ACAD
1000
AcadProxyRoundTripData
1071
      582
1071
   393239
1070
     0
  0
ACAD_PROXY_OBJECT
  5
3E85
330
0
100
AcDbProxyObject
 90
      499
 91
      608
 93
      286
310
000140C050B70726F6A53706163696E67014453DD1D1A5B585B194817D3DC1D1A5B585B1
330
2826
 94
        0
1001
ACAD
1000
AcadProxyRoundTripData
1071
      581
1071
   393239
1070
     0
  0
ACAD_PROXY_OBJECT
  5
3E86
330
0
100
AcDbProxyObject
 90
      499
 91
      608
 93
      250
310
0001408050970726F6A54617065728182D4454FB21F9BF060B51153EC87E4FFD
330
2826
 94
        0
1001
ACAD
1000
AcadProxyRoundTripData
1071
      580
1071
   393239
1070
     0
  0
ACAD_PROXY_OBJECT
  5
3E87
330
0
100
AcDbProxyObject
 90
      499
 91
      608
 93
      130
310
00014040508647261674B6565704064057
330
2826
 94
        0
1001
ACAD
1000
AcadProxyRoundTripData
1071
      582
1071
   393239
1070
     0
  0
ACAD_PROXY_OBJECT
  5
3E88
330
0
100
AcDbProxyObject
 90
      499
 91
      608
 93
      302
310
000140C050F647261674F7269656E746174696F6E0143D39BDC9B585B194817D39BDC9B585B2
330
2826
 94
        0
1001
ACAD
1000
AcadProxyRoundTripData
1071
      581
1071
   393239
1070
     0
  0
ACAD_PROXY_OBJECT
  5
3E89
330
0
100
AcDbProxyObject
 90
      499
 91
      608
 93
      270
310
000140C050E647261675472616E736974696F6E01431CD0D85B184817DCD0D85B195
330
2826
 94
        0
1001
ACAD
1000
AcadProxyRoundTripData
1071
      581
1071
   393239
1070
     0
  0
ACAD_PROXY_OBJECT
  5
3E8A
330
0
100
AcDbProxyObject
 90
      499
 91
      608
 93
      302
310
000140C051061646A757374436F6E74696E7569747901439B195D9A51D84817D4DB5BDBDD1A2
330
2826
 94
        0
1001
ACAD
1000
AcadProxyRoundTripData
1071
      581
1071
   393239
1070
     0
  0
ACAD_PROXY_OBJECT
  5
3E8B
330
0
100
AcDbProxyObject
 90
      499
 91
      608
 93
      138
310
0001404050A61646A7573744B656570A405C
330
2826
 94
        0
1001
ACAD
1000
AcadProxyRoundTripData
1071
      582
1071
   393239
1070
     0
  0
ACAD_PROXY_OBJECT
  5
3E8C
330
0
100
AcDbProxyObject
 90
      499
 91
      608
 93
      250
310
0001408050972756C65576964746842D431CEBE2361A3F0000003F20F5E5D048
330
2826
 94
        0
1001
ACAD
1000
AcadProxyRoundTripData
1071
      580
1071
   393239
1070
     0
  0
ACAD_PROXY_OBJECT
  5
3E8D
330
0
100
AcDbProxyObject
 90
      499
 91
      608
 93
      274
310
0001408050C616E616C797A65447261667421D139D28615ED8FE060B51153EC8425003
330
2826
 94
        0
1001
ACAD
1000
AcadProxyRoundTripData
1071
      580
1071
   393239
1070
     0
  0
ACAD_PROXY_OBJECT
  5
3E8E
330
0
100
AcDbProxyObject
 90
      499
 91
      608
 93
      210
310
0001404050F616E616C797A654E756D4C696E65734163FDFC00026
330
2826
 94
        0
1001
ACAD
1000
AcadProxyRoundTripData
1071
      582
1071
   393239
1070
     0
  0
ACAD_PROXY_OBJECT
  5
3E8F
330
0
100
AcDbProxyObject
 90
      499
 91
      608
 93
      202
310
00014040512616E616C797A65526F746174654C696E6573A4040
330
2826
 94
        0
1001
ACAD
1000
AcadProxyRoundTripData
1071
      582
1071
   393239
1070
     0
  0
ACAD_PROXY_OBJECT
  5
3E90
330
0
100
AcDbProxyObject
 90
      499
 91
      608
 93
      210
310
00014040513616E616C797A65446973706C61794C696E6573A4066
330
2826
 94
        0
1001
ACAD
1000
AcadProxyRoundTripData
1071
      582
1071
   393239
1070
     0
  0
ACAD_PROXY_OBJECT
  5
3E91
330
0
100
AcDbProxyObject
 90
      499
 91
      608
 93
      258
310
00014040519616E616C797A655472616E736C7563656E7453757266616365A4043
330
2826
 94
        0
1001
ACAD
1000
AcadProxyRoundTripData
1071
      582
1071
   393239
1070
     0
  0
ACAD_PROXY_OBJECT
  5
3E9B
330
0
100
AcDbProxyObject
 90
      499
 91
      608
 93
      698
310
0001000000009AA6A9AA4051E547565204D61792030342031333A34393A333320323030342028555443290141CD8B8CCB8C0B8C80518547565204D61792030342031363A33363A323420323030340141CD8B8CCB8C0B8C92
330
2826
330
3E9C
330
3E9D
330
3E9F
330
0
 94
        0
1001
ACAD
1000
AcadProxyRoundTripData
1071
      588
1071
   393239
1070
     0
  0
ACAD_PROXY_OBJECT
  5
3E9C
330
0
100
AcDbProxyObject
 90
      499
 91
      608
 93
       70
310
0001AAA80820000000
330
2826
330
3E9C
330
3E9C
 94
        0
1001
ACAD
1000
AcadProxyRoundTripData
1071
      589
1071
   393239
1070
     0
  0
ACAD_PROXY_OBJECT
  5
3E9D
330
0
100
AcDbProxyObject
 90
      499
 91
      608
 93
       48
310
00010000000000
330
2826
330
0
330
3E9E
330
0
330
0
 94
        0
1001
ACAD
1000
AcadProxyRoundTripData
1071
      590
1071
   393239
1070
     0
  0
ACAD_PROXY_OBJECT
  5
3E9E
330
0
100
AcDbProxyObject
 90
      499
 91
      608
 93
       40
310
000100AAAA4F
330
2826
330
0
 94
        0
1001
ACAD
1000
AcadProxyRoundTripData
1071
      591
1071
   393239
1070
     0
  0
ACAD_PROXY_OBJECT
  5
3EA0
330
0
100
AcDbProxyObject
 90
      499
 91
      608
 93
      124
310
00010142905350D3D39114D414D69051
330
2826
 94
        0
1001
ACAD
1000
AcadProxyRoundTripData
1071
      511
1071
   393239
1070
     0
  0
ACAD_PROXY_OBJECT
  5
3EA1
330
0
100
AcDbProxyObject
 90
      499
 91
      608
 93
      124
310
000101429053549553115353D1115011
330
2826
 94
        0
1001
ACAD
1000
AcadProxyRoundTripData
1071
      511
1071
   393239
1070
     0
  0
ACAD_PROXY_OBJECT
  5
3EA2
330
0
100
AcDbProxyObject
 90
      499
 91
      608
 93
      108
310
00010142105354D2D353D1115013
330
2826
 94
        0
1001
ACAD
1000
AcadProxyRoundTripData
1071
      511
1071
   393239
1070
     0
  0
ACAD_PROXY_OBJECT
  5
3EA3
330
0
100
AcDbProxyObject
 90
      499
 91
      608
 93
      140
310
000101435053511253511254D41353D11160
330
2826
 94
        0
1001
ACAD
1000
AcadProxyRoundTripData
1071
      511
1071
   393239
1070
     0
  0
ACAD_PROXY_OBJECT
  5
3EA4
330
0
100
AcDbProxyObject
 90
      499
 91
      608
 93
      180
310
00010142905354D2D05391D513D3000000000000010404
330
2826
 94
        0
1001
ACAD
1000
AcadProxyRoundTripData
1071
      510
1071
   393239
1070
     0
  0
ACAD_PROXY_OBJECT
  5
3EA5
330
0
100
AcDbProxyObject
 90
      499
 91
      608
 93
      164
310
00010142505354D2D4D516531140505434F4E542A4
330
2826
 94
        0
1001
ACAD
1000
AcadProxyRoundTripData
1071
      525
1071
   393239
1070
     0
  0
ACAD_PROXY_OBJECT
  5
3EA6
330
0
100
AcDbProxyObject
 90
      499
 91
      608
 93
      108
310
00010142105350D3511112535016
330
2826
 94
        0
1001
ACAD
1000
AcadProxyRoundTripData
1071
      511
1071
   393239
1070
     0
  0
ACAD_PROXY_OBJECT
  5
3EA7
330
0
100
AcDbProxyObject
 90
      499
 91
      608
 93
      108
310
00010142105350D3D35414D59016
330
2826
 94
        0
1001
ACAD
1000
AcadProxyRoundTripData
1071
      511
1071
   393239
1070
     0
  0
ACAD_PROXY_OBJECT
  5
3EA8
330
0
100
AcDbProxyObject
 90
      499
 91
      608
 93
      172
310
0001014290535410549514D411960050550415254454
330
2826
 94
        0
1001
ACAD
1000
AcadProxyRoundTripData
1071
      525
1071
   393239
1070
     0
  0
ACAD_PROXY_OBJECT
  5
3EA9
330
0
100
AcDbProxyObject
 90
      499
 91
      608
 93
      220
310
0001014350535513D3D31093D116541196005085554454E53494C455
330
2826
 94
        0
1001
ACAD
1000
AcadProxyRoundTripData
1071
      525
1071
   393239
1070
     0
  0
ACAD_PROXY_OBJECT
  5
3EAA
330
0
100
AcDbProxyObject
 90
      499
 91
      608
 93
      116
310
000101425053511254D410D3D39011
330
2826
 94
        0
1001
ACAD
1000
AcadProxyRoundTripData
1071
      511
1071
   393239
1070
     0
  0
ACAD_PROXY_OBJECT
  5
3EAB
330
0
100
AcDbProxyObject
 90
      499
 91
      608
 93
      108
310
00010142105350D3D39114D41016
330
2826
 94
        0
1001
ACAD
1000
AcadProxyRoundTripData
1071
      511
1071
   393239
1070
     0
  0
ACAD_PROXY_OBJECT
  5
3EAC
330
0
100
AcDbProxyObject
 90
      499
 91
      608
 93
      124
310
0001014290535490511114D414D69190
330
2826
 94
        0
1001
ACAD
1000
AcadProxyRoundTripData
1071
      511
1071
   393239
1070
     0
  0
ACAD_PROXY_OBJECT
  5
3EB2
330
0
100
AcDbProxyObject
 90
      499
 91
      608
 93
      132
310
00010142D05050555513D4D3D315915013
330
2826
 94
        0
1001
ACAD
1000
AcadProxyRoundTripData
1071
      511
1071
   393239
1070
     0
  0
ACAD_PROXY_OBJECT
  5
3EB3
330
0
100
AcDbProxyObject
 90
      499
 91
      608
 93
      156
310
00010143905050555513D054D4D1535093115014
330
2826
 94
        0
1001
ACAD
1000
AcadProxyRoundTripData
1071
      511
1071
   393239
1070
     0
  0
ACAD_PROXY_OBJECT
  5
3EB4
330
0
100
AcDbProxyObject
 90
      499
 91
      608
 93
      148
310
00010143505055925155D49154D513D4915015
330
2826
 94
        0
1001
ACAD
1000
AcadProxyRoundTripData
1071
      511
1071
   393239
1070
     0
  0
ACAD_PROXY_OBJECT
  5
3EB5
330
0
100
AcDbProxyObject
 90
      499
 91
      608
 93
      124
310
00010142D050525394D15495105094E5
330
2826
 94
        0
1001
ACAD
1000
AcadProxyRoundTripData
1071
      511
1071
   393239
1070
     0
  0
ACAD_PROXY_OBJECT
  5
3EB6
330
0
100
AcDbProxyObject
 90
      499
 91
      608
 93
      148
310
00010143505054D0D153915554111055115015
330
2826
 94
        0
1001
ACAD
1000
AcadProxyRoundTripData
1071
      511
1071
   393239
1070
     0
  0
ACAD_PROXY_OBJECT
  5
3EB7
330
0
100
AcDbProxyObject
 90
      499
 91
      608
 93
      188
310
00010143105054D5509054D4D354119600505534F54544F5
330
2826
 94
        0
1001
ACAD
1000
AcadProxyRoundTripData
1071
      525
1071
   393239
1070
     0
  0
ACAD_PROXY_OBJECT
  5
3EB8
330
0
100
AcDbProxyObject
 90
      499
 91
      608
 93
      172
310
00010142905054D0D15391541196005055343454E413
330
2826
 94
        0
1001
ACAD
1000
AcadProxyRoundTripData
1071
      525
1071
   393239
1070
     0
  0
ACAD_PROXY_OBJECT
  5
3EB9
330
0
100
AcDbProxyObject
 90
      499
 91
      608
 93
      148
310
00010143505350555513D313D0D2D4D0D39013
330
2826
 94
        0
1001
ACAD
1000
AcadProxyRoundTripData
1071
      511
1071
   393239
1070
     0
  0
ACAD_PROXY_OBJECT
  5
3EBE
330
0
100
AcDbProxyObject
 90
      499
 91
      608
 93
       32
310
0001000043
330
2826
340
3EBB
330
3EC0
330
3EBB
 94
        0
1001
ACAD
1000
AcadProxyRoundTripData
1071
      597
1071
   393239
1070
     0
  0
ACAD_PROXY_OBJECT
  5
3EBF
330
0
100
AcDbProxyObject
 90
      499
 91
      608
 93
       18
310
000188
330
2826
 94
        0
1001
ACAD
1000
AcadProxyRoundTripData
1071
      598
1071
   393239
1070
     0
  0
ACAD_PROXY_OBJECT
  5
3EC0
330
0
100
AcDbProxyObject
 90
      499
 91
      608
 93
      239
310
000101455350D4C80C4C0D480B4810D0549493C810D3D49513D050055401
330
2826
330
3EBE
330
3EBF
 94
        0
1001
ACAD
1000
AcadProxyRoundTripData
1071
      599
1071
   393239
1070
     0
  0
ACAD_PROXY_OBJECT
  5
3EC1
330
0
100
AcDbProxyObject
 90
      499
 91
      608
 93
       40
310
000100AAAA50
330
2826
330
3EC0
 94
        0
1001
ACAD
1000
AcadProxyRoundTripData
1071
      600
1071
   393239
1070
     0
  0
ACAD_PROXY_OBJECT
  5
3EC2
330
0
100
AcDbProxyObject
 90
      499
 91
      608
 93
      108
310
000190140A000000000000AAAAA3
330
2826
330
3EC3
330
3EC3
330
3EC3
330
3EC3
330
3EC3
330
0
 94
        0
1001
ACAD
1000
AcadProxyRoundTripData
1071
      601
1071
   393239
1070
     0
  0
ACAD_PROXY_OBJECT
  5
3EC3
330
0
100
AcDbProxyObject
 90
      499
 91
      608
 93
       51
310
00010000AAAA82
330
2826
330
3EC2
330
3EC0
 94
        0
1001
ACAD
1000
AcadProxyRoundTripData
1071
      602
1071
   393239
1070
     0
  0
DICTIONARY
  5
2456
102
{ACAD_REACTORS
330
2455
102
}
330
2455
100
AcDbDictionary
  3
BEHIND
350
29A1
  3
DWGSETTINGS
350
2823
  3
FEM
350
2CE6
  3
SHAFT
350
2CE5
  3
TRANSSETTINGS
350
2824
  0
ACAD_PROXY_OBJECT
  5
283B
102
{ACAD_REACTORS
330
2455
102
}
330
2455
100
AcDbProxyObject
 90
      499
 91
      608
 93
    12938
310
41102491013041105357CC1074CA404C504414D5F31439329013241105357CC9054CA404CD04414D5F33419199013441105357CD103466404D504414D5F3540D199013641105357CD90248E404DD04414D5F37411199013841105357CE101466404E504414D5F397F641102324141505357CC4C1074CA408D10505414D5F31
310
3140D19902495041505357CC4C9074C902408C13905414D5F304E41D32902314E41505357CC5390E4CA408C93905414D5F324E41532902334E41505357CCD3906466408D13905414D5F344E40D19902354E41505357CD53903466408D93905414D5F364E40923902374E41505357CDD3904466408E13905414D5F384E40519
310
902394E41505357CE539FD90440CC9053906414D5F31304E41D3290334414E41905357CC4C5390346640D25413906414D5F31324E41D32409044B4C494E41505357D0D3101465094112539193D08414D5F50415245464111942D055241484D3541905357D093D49074C9094115925155D08414D5F56494557534051942D064
310
24548494E4441905357D253959FD90D415514905253105414D5F545240D194250348494441905357D212511074650940D59254D06414D5F56495341D324250650415244494D42505357D410549112535034650941949151911253509414D5F52454644494D4111942553411092139590139CFFFFFFFF415092139594D06424
310
548494E44CFFFFFFFF411093D48C9055241484D3540519411093D48CD055241484D3540923411093D48D5055241484D35CFFFFFFFF4110D0530C90134CFFFFFFFF4110D0530CD0134409234110D0530D5013441D324110D0530DD0134479464110D1539390137CFFFFFFFF4110D15395D0137CFFFFFFFF4110D312539044B4
310
C494ECFFFFFFFF4110D3D38C50130CFFFFFFFF4110D3D38C90131CFFFFFFFF4110D3D38CD0132CFFFFFFFF4110D3D38D10132CFFFFFFFF411111551050134CFFFFFFFF4111125051D0135CFFFFFFFF411112531250135CFFFFFFFF411112535410650415244494DCFFFFFFFF411112535490652454644494DCFFFFFFFF4111
310
91535390138CFFFFFFFF4151915354139013840CFFFFFFFF4151915354D41023441CFFFFFFFF4151915354D5102344140D1941519153559390132CFFFFFFFF4151915355951013240D194112105510D0138CFFFFFFFF411212511390133CFFFFFFFF4112125115D0133CFFFFFFFF411213125390134CFFFFFFFF411213D0D3
310
90137CFFFFFFFF411213D0D5D0137CFFFFFFFF4112539193D04494E464FCFFFFFFFF411311505110135CFFFFFFFF419397D0921395902394ECFFFFFFFF419397D0D3D38C502304ECFFFFFFFF419397D0D3D38C902314ECFFFFFFFF419397D0D3D38CD02324ECFFFFFFFF419397D0D3D38D102324ECFFFFFFFF419397D0D153
310
93902374ECFFFFFFFF419397D0D15395D02374ECFFFFFFFF419397D1125312502354ECFFFFFFFF419397D2105510D02384ECFFFFFFFF419397D2125113902334ECFFFFFFFF419397D2125115D02334ECFFFFFFFF419397D3115051102354ECFFFFFFFF419397D391D25410349504ECFFFFFFFF419397D412105390334414EC
310
FFFFFFFF419397D510D3D3902304ECFFFFFFFF419397D5121312502344ECFFFFFFFF419397D5131153902304ECFFFFFFFF419397D594131250332414ECFFFFFFFF411391D2541024950CFFFFFFFF411410530C9055241484D3540519411410530CD055241484D3540923411410530D5055241484D35CFFFFFFFF4114121053
310
9023441CFFFFFFFF411413D4D390135CFFFFFFFF411490D1D390137CFFFFFFFF411490D1D5D0137CFFFFFFFF4114D09492D0134CFFFFFFFF4114D150D510134CFFFFFFFF4114D6508CD013540923411354D6535013540923411510D3D390130CFFFFFFFF411512131250134CFFFFFFFF411512550C9055241484D354051941
310
1512550CD055241484D3540923411512550D5055241484D35CFFFFFFFF411513115390130CFFFFFFFF415514905253105545241494CCFFFFFFFF411514931250134CFFFFFFFF411516150C5013640D19411516150C9013640D19411516150CD0136CFFFFFFFF411516150D5013641D32411516150DD0136479464115925155
310
D0456494557CFFFFFFFF4115915112103484944CFFFFFFFF4115915115903564953CFFFFFFFF41159413125023241CFFFFFFFF411692569050134CFFFFFFFFAA9FD404FE4290E4C9074C906465054C904465034650248D014651E519FD80
340
14
340
14
340
14
340
2478
340
14
340
14
340
14
340
2479
340
14
340
14
340
2479
340
247A
340
14
340
14
340
14
340
14
340
2478
340
14
340
14
340
14
340
2479
340
14
340
14
340
2479
340
247A
340
14
340
247B
340
14
340
14
340
14
340
14
340
14
340
2478
340
14
340
14
340
14
340
13
340
13
340
13
340
13
340
13
340
13
340
13
340
13
340
13
340
247C
340
13
340
13
340
13
340
13
340
13
340
13
340
13
340
13
340
13
340
13
340
13
340
13
340
13
340
14
340
13
340
13
340
13
340
13
340
247D
340
13
340
13
340
247C
340
13
340
13
340
13
340
13
340
13
340
13
340
13
340
13
340
247C
340
13
340
13
340
13
340
247D
340
13
340
13
340
13
340
13
340
13
340
13
340
13
340
13
340
13
340
13
340
13
340
13
340
13
340
13
340
247C
340
13
340
13
340
13
340
13
340
13
340
13
340
13
340
13
340
13
340
13
340
13
340
13
340
13
340
13
340
13
340
13
340
13
340
13
340
13
340
13
340
13
340
13
340
2480
 94
        0
1001
ACAD
1000
AcadProxyRoundTripData
1071
      527
1071
   393239
1070
     0
  0
XRECORD
  5
3E15
102
{ACAD_REACTORS
330
3E13
102
}
330
3E13
100
AcDbXrecord
330
0
330
0
330
0
330
0
330
0
330
0
  0
XRECORD
  5
4806
102
{ACAD_REACTORS
330
4805
102
}
330
4805
100
AcDbXrecord
 90
        1
  0
XRECORD
  5
4807
102
{ACAD_REACTORS
330
4805
102
}
330
4805
100
AcDbXrecord
 90
       70
  0
XRECORD
  5
4808
102
{ACAD_REACTORS
330
4805
102
}
330
4805
100
AcDbXrecord
  1

  0
XRECORD
  5
4809
102
{ACAD_REACTORS
330
4805
102
}
330
4805
100
AcDbXrecord
  1

  0
XRECORD
  5
480A
102
{ACAD_REACTORS
330
4805
102
}
330
4805
100
AcDbXrecord
340
244E
  0
XRECORD
  5
480B
102
{ACAD_REACTORS
330
4805
102
}
330
4805
100
AcDbXrecord
340
244F
  0
XRECORD
  5
480C
102
{ACAD_REACTORS
330
4805
102
}
330
4805
100
AcDbXrecord
340
244C
  0
XRECORD
  5
480D
102
{ACAD_REACTORS
330
4805
102
}
330
4805
100
AcDbXrecord
 90
    14877
  0
XRECORD
  5
480E
102
{ACAD_REACTORS
330
4805
102
}
330
4805
100
AcDbXrecord
 90
        0
  0
XRECORD
  5
480F
102
{ACAD_REACTORS
330
4805
102
}
330
4805
100
AcDbXrecord
 90
        0
  0
XRECORD
  5
4810
102
{ACAD_REACTORS
330
4805
102
}
330
4805
100
AcDbXrecord
  1
{B1CDB5D4-46F3-11D6-99F9-000102212E7C}
  0
XRECORD
  5
4811
102
{ACAD_REACTORS
330
4805
102
}
330
4805
100
AcDbXrecord
  1
{6474A680-0B55-456F-AC72-4B34BB52C748}
  0
XRECORD
  5
4812
102
{ACAD_REACTORS
330
4805
102
}
330
4805
100
AcDbXrecord
 40
0.0
  0
XRECORD
  5
4813
102
{ACAD_REACTORS
330
4805
102
}
330
4805
100
AcDbXrecord
340
0
  0
XRECORD
  5
4814
102
{ACAD_REACTORS
330
4805
102
}
330
4805
100
AcDbXrecord
 70
     0
  0
XRECORD
  5
4815
102
{ACAD_REACTORS
330
4805
102
}
330
4805
100
AcDbXrecord
340
0
  0
XRECORD
  5
4816
102
{ACAD_REACTORS
330
4805
102
}
330
4805
100
AcDbXrecord
 10
0.0
 20
0.0
 30
0.0
  0
XRECORD
  5
4817
102
{ACAD_REACTORS
330
4805
102
}
330
4805
100
AcDbXrecord
 10
0.0
 20
0.0
 30
0.0
  0
XRECORD
  5
4818
102
{ACAD_REACTORS
330
4805
102
}
330
4805
100
AcDbXrecord
 10
0.0
 20
0.0
 30
0.0
  0
XRECORD
  5
4819
102
{ACAD_REACTORS
330
4805
102
}
330
4805
100
AcDbXrecord
 10
0.0
 20
0.0
 30
0.0
  0
XRECORD
  5
481A
102
{ACAD_REACTORS
330
4805
102
}
330
4805
100
AcDbXrecord
 10
0.0
 20
0.0
 30
0.0
  0
XRECORD
  5
481B
102
{ACAD_REACTORS
330
4805
102
}
330
4805
100
AcDbXrecord
 10
0.0
 20
0.0
 30
0.0
  0
XRECORD
  5
481C
102
{ACAD_REACTORS
330
4805
102
}
330
4805
100
AcDbXrecord
340
0
  0
XRECORD
  5
481D
102
{ACAD_REACTORS
330
4805
102
}
330
4805
100
AcDbXrecord
 70
     0
  0
XRECORD
  5
481E
102
{ACAD_REACTORS
330
4805
102
}
330
4805
100
AcDbXrecord
340
0
  0
XRECORD
  5
481F
102
{ACAD_REACTORS
330
4805
102
}
330
4805
100
AcDbXrecord
 10
0.0
 20
0.0
 30
0.0
  0
XRECORD
  5
4820
102
{ACAD_REACTORS
330
4805
102
}
330
4805
100
AcDbXrecord
 10
0.0
 20
0.0
 30
0.0
  0
XRECORD
  5
4821
102
{ACAD_REACTORS
330
4805
102
}
330
4805
100
AcDbXrecord
 10
0.0
 20
0.0
 30
0.0
  0
XRECORD
  5
4822
102
{ACAD_REACTORS
330
4805
102
}
330
4805
100
AcDbXrecord
 10
0.0
 20
0.0
 30
0.0
  0
XRECORD
  5
4823
102
{ACAD_REACTORS
330
4805
102
}
330
4805
100
AcDbXrecord
 10
0.0
 20
0.0
 30
0.0
  0
XRECORD
  5
4824
102
{ACAD_REACTORS
330
4805
102
}
330
4805
100
AcDbXrecord
 10
0.0
 20
0.0
 30
0.0
  0
XRECORD
  5
347B
102
{ACAD_REACTORS
330
347A
102
}
330
347A
100
AcDbXrecord
  1
-1
  1
*-1
  1
*
  1
*
 70
     0
  1
*
  1
*
  0
XRECORD
  5
347C
102
{ACAD_REACTORS
330
347A
102
}
330
347A
100
AcDbXrecord
  1
-16
  1
*-16
  1
*
  1
*
 70
     4
  1
*
  1
*
  0
XRECORD
  5
347D
102
{ACAD_REACTORS
330
347A
102
}
330
347A
100
AcDbXrecord
  1
-19
  1
*-19
  1
*
  1
*
 70
     0
  1
*
  1
*
  0
XRECORD
  5
347E
102
{ACAD_REACTORS
330
347A
102
}
330
347A
100
AcDbXrecord
  1
-2
  1
*-2
  1
*
  1
*
 70
     0
  1
*
  1
*
  0
XRECORD
  5
347F
102
{ACAD_REACTORS
330
347A
102
}
330
347A
100
AcDbXrecord
  1
-3
  1
*-3
  1
*
  1
*
 70
     0
  1
*
  1
*
  0
XRECORD
  5
3480
102
{ACAD_REACTORS
330
347A
102
}
330
347A
100
AcDbXrecord
  1
-4
  1
*-4
  1
*
  1
*
 70
     0
  1
*
  1
*
  0
XRECORD
  5
3481
102
{ACAD_REACTORS
330
347A
102
}
330
347A
100
AcDbXrecord
  1
00013
  1
00013-*
  1
*
  1
*
 70
     0
  1
*
  1
*
  0
XRECORD
  5
3482
102
{ACAD_REACTORS
330
347A
102
}
330
347A
100
AcDbXrecord
  1
00031
  1
00031-*
  1
*
  1
*
 70
     0
  1
*
  1
*
  0
XRECORD
  5
3483
102
{ACAD_REACTORS
330
347A
102
}
330
347A
100
AcDbXrecord
  1
00033
  1
00033-*
  1
*
  1
*
 70
     0
  1
*
  1
*
  0
XRECORD
  5
3484
102
{ACAD_REACTORS
330
347A
102
}
330
347A
100
AcDbXrecord
  1
00041
  1
00041-*
  1
*
  1
*
 70
     0
  1
*
  1
*
  0
XRECORD
  5
3485
102
{ACAD_REACTORS
330
347A
102
}
330
347A
100
AcDbXrecord
  1
00051
  1
00051-*
  1
*
  1
*
 70
     0
  1
*
  1
*
  0
XRECORD
  5
3486
102
{ACAD_REACTORS
330
347A
102
}
330
347A
100
AcDbXrecord
  1
00071
  1
00071-*
  1
*
  1
*
 70
     0
  1
*
  1
*
  0
XRECORD
  5
3487
102
{ACAD_REACTORS
330
347A
102
}
330
347A
100
AcDbXrecord
  1
00081
  1
00081-*
  1
*
  1
*
 70
     0
  1
*
  1
*
  0
XRECORD
  5
3488
102
{ACAD_REACTORS
330
347A
102
}
330
347A
100
AcDbXrecord
  1
00183
  1
00183-*
  1
*
  1
*
 70
     0
  1
*
  1
*
  0
XRECORD
  5
3489
102
{ACAD_REACTORS
330
347A
102
}
330
347A
100
AcDbXrecord
  1
00203
  1
00203-*
  1
*
  1
*
 70
     0
  1
*
  1
*
  0
XRECORD
  5
348A
102
{ACAD_REACTORS
330
347A
102
}
330
347A
100
AcDbXrecord
  1
00213
  1
00213-*
  1
*
  1
*
 70
     0
  1
*
  1
*
  0
XRECORD
  5
348B
102
{ACAD_REACTORS
330
347A
102
}
330
347A
100
AcDbXrecord
  1
00223
  1
00223-*
  1
*
  1
*
 70
     0
  1
*
  1
*
  0
XRECORD
  5
348C
102
{ACAD_REACTORS
330
347A
102
}
330
347A
100
AcDbXrecord
  1
00323
  1
00323-*
  1
*
  1
*
 70
     0
  1
*
  1
*
  0
XRECORD
  5
348D
102
{ACAD_REACTORS
330
347A
102
}
330
347A
100
AcDbXrecord
  1
00333
  1
00333-*
  1
*
  1
*
 70
     0
  1
*
  1
*
  0
XRECORD
  5
348E
102
{ACAD_REACTORS
330
347A
102
}
330
347A
100
AcDbXrecord
  1
00343
  1
00343-*
  1
*
  1
*
 70
     0
  1
*
  1
*
  0
XRECORD
  5
348F
102
{ACAD_REACTORS
330
347A
102
}
330
347A
100
AcDbXrecord
  1
00383
  1
00383-*
  1
*
  1
*
 70
     0
  1
*
  1
*
  0
XRECORD
  5
3490
102
{ACAD_REACTORS
330
347A
102
}
330
347A
100
AcDbXrecord
  1
00413
  1
00413-*
  1
*
  1
*
 70
     0
  1
*
  1
*
  0
XRECORD
  5
3491
102
{ACAD_REACTORS
330
347A
102
}
330
347A
100
AcDbXrecord
  1
00433
  1
00433-*
  1
*
  1
*
 70
     0
  1
*
  1
*
  0
XRECORD
  5
3492
102
{ACAD_REACTORS
330
347A
102
}
330
347A
100
AcDbXrecord
  1
00443
  1
00443-*
  1
*
  1
*
 70
     0
  1
*
  1
*
  0
XRECORD
  5
3493
102
{ACAD_REACTORS
330
347A
102
}
330
347A
100
AcDbXrecord
  1
00450
  1
00450-*
  1
*
  1
*
 70
     0
  1
*
  1
*
  0
XRECORD
  5
3494
102
{ACAD_REACTORS
330
347A
102
}
330
347A
100
AcDbXrecord
  1
00453
  1
00453-*
  1
*
  1
*
 70
     0
  1
*
  1
*
  0
XRECORD
  5
3495
102
{ACAD_REACTORS
330
347A
102
}
330
347A
100
AcDbXrecord
  1
00463
  1
00463-*
  1
*
  1
*
 70
     0
  1
*
  1
*
  0
XRECORD
  5
3496
102
{ACAD_REACTORS
330
347A
102
}
330
347A
100
AcDbXrecord
  1
00483
  1
00483-*
  1
*
  1
*
 70
     0
  1
*
  1
*
  0
XRECORD
  5
3497
102
{ACAD_REACTORS
330
347A
102
}
330
347A
100
AcDbXrecord
  1
00493
  1
00493-*
  1
*
  1
*
 70
     0
  1
*
  1
*
  0
XRECORD
  5
3498
102
{ACAD_REACTORS
330
347A
102
}
330
347A
100
AcDbXrecord
  1
00533
  1
00533-*
  1
*
  1
*
 70
     0
  1
*
  1
*
  0
XRECORD
  5
3499
102
{ACAD_REACTORS
330
347A
102
}
330
347A
100
AcDbXrecord
  1
00543
  1
00543-*
  1
*
  1
*
 70
     0
  1
*
  1
*
  0
XRECORD
  5
349A
102
{ACAD_REACTORS
330
347A
102
}
330
347A
100
AcDbXrecord
  1
00613
  1
00613-*
  1
*
  1
*
 70
     0
  1
*
  1
*
  0
XRECORD
  5
349B
102
{ACAD_REACTORS
330
347A
102
}
330
347A
100
AcDbXrecord
  1
00623
  1
00623-*
  1
*
  1
*
 70
     0
  1
*
  1
*
  0
XRECORD
  5
349C
102
{ACAD_REACTORS
330
347A
102
}
330
347A
100
AcDbXrecord
  1
00633
  1
00633-*
  1
*
  1
*
 70
     0
  1
*
  1
*
  0
XRECORD
  5
349D
102
{ACAD_REACTORS
330
347A
102
}
330
347A
100
AcDbXrecord
  1
01283
  1
01283-*
  1
*
  1
*
 70
     0
  1
*
  1
*
  0
XRECORD
  5
349E
102
{ACAD_REACTORS
330
347A
102
}
330
347A
100
AcDbXrecord
  1
01293
  1
01293-*
  1
*
  1
*
 70
     0
  1
*
  1
*
  0
XRECORD
  5
349F
102
{ACAD_REACTORS
330
347A
102
}
330
347A
100
AcDbXrecord
  1
01323
  1
01323-*
  1
*
  1
*
 70
     0
  1
*
  1
*
  0
XRECORD
  5
34A0
102
{ACAD_REACTORS
330
347A
102
}
330
347A
100
AcDbXrecord
  1
01363
  1
01363-*
  1
*
  1
*
 70
     0
  1
*
  1
*
  0
XRECORD
  5
34A1
102
{ACAD_REACTORS
330
347A
102
}
330
347A
100
AcDbXrecord
  1
01373
  1
01373-*
  1
*
  1
*
 70
     0
  1
*
  1
*
  0
XRECORD
  5
34A2
102
{ACAD_REACTORS
330
347A
102
}
330
347A
100
AcDbXrecord
  1
01543
  1
01543-*
  1
*
  1
*
 70
     0
  1
*
  1
*
  0
XRECORD
  5
34A3
102
{ACAD_REACTORS
330
347A
102
}
330
347A
100
AcDbXrecord
  1
1
  1
*-1
  1
*
  1
*
 70
     0
  1
*
  1
*
  0
XRECORD
  5
34A4
102
{ACAD_REACTORS
330
347A
102
}
330
347A
100
AcDbXrecord
  1
12-9
  1
*12*,*9*
  1
*
  1
*
 70
     0
  1
*
  1
*
  0
XRECORD
  5
34A5
102
{ACAD_REACTORS
330
347A
102
}
330
347A
100
AcDbXrecord
  1
16
  1
*-16
  1
*
  1
*
 70
     0
  1
*
  1
*
  0
XRECORD
  5
34A6
102
{ACAD_REACTORS
330
347A
102
}
330
347A
100
AcDbXrecord
  1
19
  1
*-19
  1
*
  1
*
 70
     0
  1
*
  1
*
  0
XRECORD
  5
34A7
102
{ACAD_REACTORS
330
347A
102
}
330
347A
100
AcDbXrecord
  1
2
  1
*-2
  1
*
  1
*
 70
     0
  1
*
  1
*
  0
XRECORD
  5
34A8
102
{ACAD_REACTORS
330
347A
102
}
330
347A
100
AcDbXrecord
  1
3
  1
*3
  1
*
  1
*
 70
     0
  1
*
  1
*
  0
XRECORD
  5
34A9
102
{ACAD_REACTORS
330
347A
102
}
330
347A
100
AcDbXrecord
  1
4
  1
*-4
  1
*
  1
*
 70
     0
  1
*
  1
*
  0
XRECORD
  5
34AA
102
{ACAD_REACTORS
330
347A
102
}
330
347A
100
AcDbXrecord
  1
9
  1
*9,*9n
  1
*
  1
*
 70
     0
  1
*
  1
*
  0
XRECORD
  5
34AB
102
{ACAD_REACTORS
330
347A
102
}
330
347A
100
AcDbXrecord
  1
am
  1
*am*
  1
*
  1
*
 70
     0
  1
*
  1
*
  0
XRECORD
  5
34AC
102
{ACAD_REACTORS
330
347A
102
}
330
347A
100
AcDbXrecord
  1
am3
  1
*3
  1
*
  1
*
 70
     0
  1
*
  1
*
  0
XRECORD
  5
34AD
102
{ACAD_REACTORS
330
347A
102
}
330
347A
100
AcDbXrecord
  1
BA
  1
BA*
  1
*
  1
*
 70
     0
  1
*
  1
*
  0
XRECORD
  5
34AE
102
{ACAD_REACTORS
330
347A
102
}
330
347A
100
AcDbXrecord
  1
BA-SIMUL
  1
BA-SIMUL*
  1
*
  1
*
 70
     0
  1
*
  1
*
  0
XRECORD
  5
34AF
102
{ACAD_REACTORS
330
347A
102
}
330
347A
100
AcDbXrecord
  1
CACHE
  1
*
  1
*
  1
CACHE
 70
     0
  1
*
  1
*
  0
XRECORD
  5
34B0
102
{ACAD_REACTORS
330
347A
102
}
330
347A
100
AcDbXrecord
  1
cacher
  1
*-2
  1
*
  1
*
 70
     0
  1
*
  1
*
  0
XRECORD
  5
34B1
102
{ACAD_REACTORS
330
347A
102
}
330
347A
100
AcDbXrecord
  1
Calque
  1
*
  1
*
  1
*
 70
     4
  1
*
  1
*
  0
XRECORD
  5
34B2
102
{ACAD_REACTORS
330
347A
102
}
330
347A
100
AcDbXrecord
  1
Calque 9
  1
*9*
  1
*
  1
*
 70
     0
  1
*
  1
*
  0
XRECORD
  5
34B3
102
{ACAD_REACTORS
330
347A
102
}
330
347A
100
AcDbXrecord
  1
CENTER
  1
*
  1
*
  1
CENTER
 70
     0
  1
*
  1
*
  0
XRECORD
  5
34B4
102
{ACAD_REACTORS
330
347A
102
}
330
347A
100
AcDbXrecord
  1
cotation
  1
*-3
  1
*
  1
*
 70
     0
  1
*
  1
*
  0
XRECORD
  5
34B5
102
{ACAD_REACTORS
330
347A
102
}
330
347A
100
AcDbXrecord
  1
dim
  1
*dim
  1
*
  1
*
 70
     0
  1
*
  1
*
  0
XRECORD
  5
34B6
102
{ACAD_REACTORS
330
347A
102
}
330
347A
100
AcDbXrecord
  1
FORT
  1
*
  1
*
  1
cONTINUOUS
 70
     0
  1
*
  1
*
  0
XRECORD
  5
34B7
102
{ACAD_REACTORS
330
347A
102
}
330
347A
100
AcDbXrecord
  1
Geler les plans
  1
*
  1
*
  1
*
 70
    12
  1
*
  1
*
  0
XRECORD
  5
34B8
102
{ACAD_REACTORS
330
347A
102
}
330
347A
100
AcDbXrecord
  1
geler tout
  1
*
  1
*
  1
*
 70
     4
  1
*
  1
*
  0
XRECORD
  5
34B9
102
{ACAD_REACTORS
330
347A
102
}
330
347A
100
AcDbXrecord
  1
gelé
  1
*
  1
*
  1
*
 70
     4
  1
*
  1
*
  0
XRECORD
  5
34BA
102
{ACAD_REACTORS
330
347A
102
}
330
347A
100
AcDbXrecord
  1
hid
  1
*hid
  1
*
  1
*
 70
     0
  1
*
  1
*
  0
XRECORD
  5
34BB
102
{ACAD_REACTORS
330
347A
102
}
330
347A
100
AcDbXrecord
  1
HIDDEN
  1
*
  1
*
  1
HIDDEN
 70
     0
  1
*
  1
*
  0
XRECORD
  5
34BC
102
{ACAD_REACTORS
330
347A
102
}
330
347A
100
AcDbXrecord
  1
mater
  1
mater-*
  1
*
  1
*
 70
     0
  1
*
  1
*
  0
XRECORD
  5
34BD
102
{ACAD_REACTORS
330
347A
102
}
330
347A
100
AcDbXrecord
  1
n
  1
*n*
  1
*
  1
*
 70
     0
  1
*
  1
*
  0
XRECORD
  5
34BE
102
{ACAD_REACTORS
330
347A
102
}
330
347A
100
AcDbXrecord
  1
nom
  1
*n
  1
*
  1
*
 70
     0
  1
*
  1
*
  0
XRECORD
  5
34BF
102
{ACAD_REACTORS
330
347A
102
}
330
347A
100
AcDbXrecord
  1
Piece
  1
*N
  1
*
  1
*
 70
     0
  1
*
  1
*
  0
XRECORD
  5
34C0
102
{ACAD_REACTORS
330
347A
102
}
330
347A
100
AcDbXrecord
  1
PIPPO
  1
*
  1
7
  1
*
 70
     0
  1
*
  1
*
  0
XRECORD
  5
34C1
102
{ACAD_REACTORS
330
347A
102
}
330
347A
100
AcDbXrecord
  1
pointillé
  1
*3
  1
*
  1
*
 70
     0
  1
*
  1
*
  0
XRECORD
  5
34C2
102
{ACAD_REACTORS
330
347A
102
}
330
347A
100
AcDbXrecord
  1
TEMP
  1
*9N
  1
*
  1
*
 70
     0
  1
*
  1
*
  0
XRECORD
  5
34C3
102
{ACAD_REACTORS
330
347A
102
}
330
347A
100
AcDbXrecord
  1
TRACER-16
  1
*-16
  1
*
  1
*
 70
     0
  1
*
  1
*
  0
XRECORD
  5
34C4
102
{ACAD_REACTORS
330
347A
102
}
330
347A
100
AcDbXrecord
  1
TRACER-2
  1
*-2
  1
*
  1
*
 70
     0
  1
*
  1
*
  0
XRECORD
  5
34C5
102
{ACAD_REACTORS
330
347A
102
}
330
347A
100
AcDbXrecord
  1
TRACER1
  1
*-1
  1
*
  1
*
 70
     0
  1
*
  1
*
  0
XRECORD
  5
34C6
102
{ACAD_REACTORS
330
347A
102
}
330
347A
100
AcDbXrecord
  1
vis
  1
*vis
  1
*
  1
*
 70
     0
  1
*
  1
*
  0
XRECORD
  5
34C7
102
{ACAD_REACTORS
330
347A
102
}
330
347A
100
AcDbXrecord
  1
xx
  1
*9
  1
*
  1
*
 70
     0
  1
*
  1
*
  0
LAYER_INDEX
  5
305A
102
{ACAD_REACTORS
330
3059
102
}
330
3059
100
AcDbIndex
 40
2453139.387936736
100
AcDbLayerIndex
  8
0
360
305B
 90
        2
  8
DISEGNO
360
305C
 90
      424
  8
ASSI
360
305D
 90
       42
  8
NORMALI
360
305E
 90
       11
  8
INGOMBRI
360
305F
 90
       34
  8
4150007_A-Piastra di collegamento.ipt.1-Spigoli visibili
360
3060
 90
       10
  8
4360009_C_DX-TLM MCR_S 105 ø25 ø19 Destra.iam.1-Spigoli visibili
360
3061
 90
       24
  8
4130002-Raschiatore TLM MCR_S 105.ipt.1-Spigoli visibili
360
3062
 90
       18
  8
4360048-TLF MCR_S 105.iam.1-Spigoli visibili
360
3064
 90
      147
  8
AM_0
360
3065
 90
       44
  8
KAN_PROF
360
4718
 90
        2
  0
ACAD_PROXY_OBJECT
  5
2836
102
{ACAD_REACTORS
330
2835
102
}
330
2835
100
AcDbProxyObject
 90
      499
 91
      608
 93
      315
310
057356C1D5C406406AA8FFFFFFFF0AE5154D435320313035202D20434152524F20434F52544F404A
330
18
330
0
330
3EC0
 94
        0
1001
ACAD
1000
AcadProxyRoundTripData
1071
      524
1071
   393239
1070
     0
  0
ACAD_PROXY_OBJECT
  5
2B3F
102
{ACAD_REACTORS
330
2475
102
}
330
2475
100
AcDbProxyObject
 90
      499
 91
      608
 93
     2109
310
570B81E85EB51B8BE3FD04414E5349405901409022E07A17AD46E2F8FD2208721C82C6DAA6EAE4CCA8CAF0E8A6E8C88120284A0B1B6A321A329BA3220480A1A82C6DAAECAD8C8D2DCCEA6E8C8812028420B1B6A4B229BA3220480A1682C6DA88C2E8EADAA6E8C88120284A0B1B6A127A6A9BA3220480A2082DAC8E888CAE8C
310
2D2D8A6F2DAA6E8C88120288A0B6B23A29B2B1BA34B7B729BCB6A9BA3220480A2282DAC8E886CADCE8CAE498D2DCCAA6E8C88120285A0B6B23A2737BA32A9BA3220480A1682C682DACE98C2F2A6E8C88120285A0B1A0B6B3A234B6A9BA3220480A2282C682DACE90DED8CA86D0C2E4E8A6E8C88120286A0B1A0B6B3AA34BA3
310
632A9BA3220480A02810
340
251E
360
2B40
360
2B41
360
2B42
360
2B43
360
2B44
360
2B45
360
2B46
360
2B47
360
2B48
360
2B49
360
2B4A
360
2B4B
360
2B4C
360
2B4D
 94
        0
1001
ACAD
1000
AcadProxyRoundTripData
1071
      544
1071
   393239
1070
     0
  0
ACAD_PROXY_OBJECT
  5
283A
102
{ACAD_REACTORS
330
2475
102
}
330
2475
100
AcDbProxyObject
 90
      499
 91
      608
 93
     2211
310
5700000000000000C40D0349534F405901409020000000000000310322287A1682DAC8E88AC8CECAA6E8C8812028720B1B6A9BAB9332A32BC3A29BA3220480A1282C6DA8C868CA6E8C88120286A0B1B6ABB2B63234B733A9BA3220480A1082C6DA92C8A6E8C88120285A0B1B6A230BA3AB6A9BA3220480A1282C6DA849E9AA
310
6E8C8812028820B6B23A2232BA30B4B629BCB6A9BA3220480A2282DAC8E8A6CAC6E8D2DEDCA6F2DAA6E8C88120288A0B6B23A21B2B73A32B92634B732A9BA3220480A1682DAC8E89CDEE8CAA6E8C88120285A0B1A0B6B3A630BCA9BA3220480A1682C682DACE88D2DAA6E8C88120288A0B1A0B6B3A437B632A1B430B93A29B
310
A3220480A1A82C682DACEA8D2E8D8CAA6E8C8812032050
340
2481
360
283C
360
283D
360
283E
360
283F
360
2840
360
2841
360
2842
360
2843
360
2844
360
2845
360
2846
360
2847
360
2848
360
2849
360
284A
 94
        0
1001
ACAD
1000
AcadProxyRoundTripData
1071
      526
1071
   393239
1070
     0
  0
ACAD_PROXY_OBJECT
  5
29A1
102
{ACAD_REACTORS
330
2456
102
}
330
2456
100
AcDbProxyObject
 90
      499
 91
      608
 93
      429
310
40506426568696E642229ADEC8D2CCD2C6C2E8D2DEDC98CAECCAD8940EA2E4555FB202080883DA22BA3A9A2AA2A24A723A9A2A7223EA
 94
        0
1001
ACAD
1000
AcadProxyRoundTripData
1071
      506
1071
   393239
1070
     0
  0
ACAD_PROXY_OBJECT
  5
2823
102
{ACAD_REACTORS
330
2456
102
}
330
2456
100
AcDbProxyObject
 90
      499
 91
      608
 93
     2396
310
4050B44574753455454494E4753A1286829C8E82A4A482B282A106660F8686AF86C608321A2A720A723A0A849A1ABE1C983E18999AA0C868A9C889282940000000000000488083A1A2A72224A0A9A0A8418983E19183E199820E868A9C8892A6A894000000000000010808321A2A72622A7250000000000000122020C868A9
310
C9E8C8C940000000000000488084A1A624A720A92920ACA0A8418983E19183E19982108698929C8AA8B2A082A0AB098929C8A84A22BA3AAA9A1A0A622A50A0E9882A6A89E849482A02608426A0A5A2AB24A2ABA7E8120CA0A68682988A0C00800010652455649534941501304154D0D0531150540CC4E8C50954494D455354
310
414D504A0A01F9E82B31C734141D5915494D253D3905414C4D4B8C0C1107B44574753455454494E4753454E447D0
 94
        0
1001
ACAD
1000
AcadProxyRoundTripData
1071
      506
1071
   393239
1070
     0
  0
ACAD_PROXY_OBJECT
  5
2CE6
102
{ACAD_REACTORS
330
2456
102
}
330
2456
100
AcDbProxyObject
 90
      499
 91
      608
 93
      411
310
4050346454D21092DCC6E486DECACC942842630BCA3B937BAB820A8320A6AFA322A0A20F688AE8EA68AA8A8929C8EA68A9C88FA0
 94
        0
1001
ACAD
1000
AcadProxyRoundTripData
1071
      506
1071
   393239
1070
     0
  0
ACAD_PROXY_OBJECT
  5
2CE5
102
{ACAD_REACTORS
330
2456
102
}
330
2456
100
AcDbProxyObject
 90
      499
 91
      608
 93
      513
310
40505536861667421292DCE8CAE4E4EAE0E89FC84A634B3B43A2634B732A7F21A98D2CED0E898D2DCCAACD2CAEE9FC883DA22BA3A9A2AA2A24A723A9A2A7223EA0
 94
        0
1001
ACAD
1000
AcadProxyRoundTripData
1071
      506
1071
   393239
1070
     0
  0
ACAD_PROXY_OBJECT
  5
2824
102
{ACAD_REACTORS
330
2456
102
}
330
2456
100
AcDbProxyObject
 90
      499
 91
      608
 93
      852
310
4050D5452414E5353455454494E4753A2488A482AE929C8EA8A4829CA69882A8929E9C0C00800050D4F524947494E414C4C595F4F4E0600400008529A7AAA921A2A620A723A0A81A4AA20A12AAA0A48AA68AA4AC8A0C0080001107B44574753455454494E4753454E447D0
 94
        0
1001
ACAD
1000
AcadProxyRoundTripData
1071
      506
1071
   393239
1070
     0
  0
IDBUFFER
  5
305B
330
0
100
AcDbIdBuffer
330
466F
330
467B
  0
IDBUFFER
  5
305C
330
0
100
AcDbIdBuffer
330
31EF
330
31F0
330
31F2
330
31F3
330
31F4
330
31F5
330
31F8
330
31F9
330
31FA
330
31FB
330
31FC
330
31FD
330
31FE
330
31FF
330
3200
330
3201
330
3202
330
3203
330
3205
330
3206
330
3207
330
3208
330
3209
330
320A
330
320B
330
320C
330
320D
330
320E
330
320F
330
3210
330
3212
330
3213
330
3214
330
3217
330
3218
330
3219
330
321A
330
321B
330
321C
330
321D
330
321E
330
321F
330
3221
330
3222
330
3223
330
3224
330
3225
330
3229
330
322A
330
322B
330
322D
330
322E
330
322F
330
3230
330
3231
330
3232
330
3233
330
3237
330
3239
330
323A
330
323C
330
323E
330
323F
330
3241
330
3242
330
3243
330
3244
330
3246
330
3247
330
3248
330
3249
330
324A
330
324B
330
324C
330
324D
330
324E
330
324F
330
3250
330
3251
330
3252
330
3254
330
3255
330
3256
330
3258
330
325C
330
3262
330
3263
330
3264
330
3265
330
3266
330
3267
330
3268
330
3269
330
326A
330
326F
330
3279
330
327E
330
3280
330
3284
330
3285
330
3288
330
3289
330
328A
330
328B
330
328C
330
328D
330
328F
330
3290
330
3292
330
3294
330
3295
330
3296
330
3297
330
3298
330
3299
330
329A
330
329B
330
329D
330
329E
330
329F
330
32A0
330
32A1
330
32A2
330
32A3
330
32A4
330
32A5
330
32A6
330
32A7
330
32A8
330
32A9
330
32AA
330
32AB
330
32AD
330
32AE
330
32AF
330
32B0
330
32B1
330
32B2
330
32B3
330
32B4
330
32B5
330
32B6
330
32B7
330
32B8
330
32B9
330
32BA
330
32BB
330
32BC
330
32BD
330
32BE
330
32BF
330
32C0
330
32C1
330
32C2
330
32C3
330
32C4
330
32C5
330
32C6
330
32C7
330
32C8
330
32C9
330
32CA
330
32CB
330
32CD
330
32CE
330
32CF
330
32D4
330
32D5
330
32D6
330
32D7
330
32D9
330
32DA
330
32DB
330
32DC
330
32DD
330
32DE
330
32DF
330
32E0
330
32E2
330
32E3
330
32E4
330
32E7
330
32E8
330
32E9
330
32EA
330
32EB
330
32EC
330
32ED
330
32EE
330
32EF
330
32F1
330
32F3
330
32F5
330
32F6
330
32F7
330
32F8
330
32F9
330
32FA
330
32FB
330
32FC
330
32FD
330
32FE
330
32FF
330
3300
330
3302
330
3304
330
3305
330
3306
330
3309
330
330A
330
330B
330
330D
330
330E
330
330F
330
3310
330
3311
330
3312
330
3313
330
3314
330
3315
330
3316
330
3317
330
42CC
330
42CF
330
42D0
330
42D1
330
42D2
330
42D6
330
42D8
330
42DE
330
430C
330
430F
330
4314
330
4337
330
433A
330
433B
330
433C
330
433D
330
433F
330
4341
330
4343
330
4344
330
4345
330
4346
330
4347
330
434B
330
434C
330
434D
330
434E
330
434F
330
4351
330
4352
330
4353
330
4354
330
4355
330
4356
330
4357
330
4358
330
4359
330
435A
330
435B
330
435C
330
435D
330
435F
330
4360
330
4361
330
4362
330
4363
330
4364
330
4365
330
4366
330
4367
330
4369
330
436A
330
436B
330
436C
330
436D
330
436E
330
436F
330
4370
330
4371
330
437B
330
437C
330
437D
330
437E
330
4380
330
4381
330
4382
330
4383
330
4384
330
4385
330
4386
330
4387
330
4389
330
438A
330
438B
330
438C
330
4397
330
439A
330
439B
330
439E
330
439F
330
43A6
330
43A9
330
43AB
330
43AD
330
43C9
330
43CA
330
43CC
330
43CE
330
43CF
330
43D0
330
43D1
330
43D3
330
43D4
330
43D5
330
43D6
330
43D8
330
43D9
330
43DA
330
43DB
330
43DC
330
43DD
330
43DE
330
43DF
330
43E0
330
43E1
330
43E2
330
43E3
330
43E4
330
43E5
330
43E9
330
43EA
330
43EB
330
43EC
330
43ED
330
43EE
330
43EF
330
43F0
330
43F1
330
43F3
330
43F4
330
43F5
330
43F6
330
43F7
330
43F8
330
43F9
330
43FA
330
43FB
330
43FC
330
43FE
330
43FF
330
4400
330
4407
330
440A
330
440C
330
440E
330
440F
330
442A
330
442B
330
442C
330
4431
330
4432
330
4433
330
4434
330
44A9
330
44C6
330
44C7
330
44C8
330
44C9
330
44CB
330
44CC
330
44CD
330
44CE
330
4510
330
4511
330
4513
330
4514
330
4515
330
4516
330
4517
330
4519
330
451A
330
451B
330
451C
330
451D
330
451E
330
4520
330
4521
330
4522
330
4523
330
4543
330
4579
330
457A
330
457F
330
45B2
330
45B3
330
45B4
330
45B6
330
45B7
330
45B8
330
45B9
330
45BA
330
45DC
330
45E0
330
45E1
330
4624
330
4625
330
4665
330
4666
330
466A
330
466C
330
466D
330
4670
330
4675
330
4676
330
470F
330
4710
330
4711
330
4712
330
4713
330
4714
330
4715
330
4716
  0
IDBUFFER
  5
305D
330
0
100
AcDbIdBuffer
330
31EB
330
3204
330
3245
330
329C
330
32AC
330
35EC
330
42CD
330
42CE
330
4338
330
4339
330
4348
330
4349
330
434A
330
4350
330
435E
330
4368
330
437F
330
4388
330
43D2
330
43D7
330
43E6
330
43E7
330
43E8
330
43F2
330
442F
330
4430
330
44A4
330
44CA
330
4512
330
4518
330
451F
330
4583
330
45B5
330
45DF
330
4629
330
462A
330
4633
330
463E
330
463F
330
466B
330
4677
330
4717
  0
IDBUFFER
  5
305E
330
0
100
AcDbIdBuffer
330
3240
330
3253
330
3257
330
3278
330
327A
330
327D
330
327F
330
3286
330
328E
330
3293
330
3381
  0
IDBUFFER
  5
305F
330
0
100
AcDbIdBuffer
330
3211
330
3215
330
3216
330
323B
330
323D
330
325A
330
325B
330
325D
330
325E
330
325F
330
3260
330
3261
330
326B
330
326C
330
3270
330
3271
330
3272
330
3273
330
3277
330
3281
330
3282
330
3283
330
32D1
330
32D2
330
32D3
330
32E6
330
32F0
330
32F2
330
3303
330
3307
330
45D7
330
45DD
330
4646
330
4651
  0
IDBUFFER
  5
3060
330
0
100
AcDbIdBuffer
330
442D
330
442E
330
44CF
330
44D0
330
44D1
330
44D2
330
45D8
330
45D9
330
45DA
330
45DB
  0
IDBUFFER
  5
3061
330
0
100
AcDbIdBuffer
330
42D5
330
42D7
330
42D9
330
42DA
330
42DB
330
42DC
330
42DD
330
42DF
330
42E0
330
42E1
330
42E2
330
42E3
330
42E4
330
42E5
330
42E6
330
42E7
330
42E8
330
42E9
330
430D
330
430E
330
4310
330
4311
330
4312
330
4313
  0
IDBUFFER
  5
3062
330
0
100
AcDbIdBuffer
330
42D3
330
42D4
330
42EA
330
42EB
330
42EC
330
42ED
330
42EE
330
42EF
330
42F0
330
430B
330
4315
330
4316
330
4317
330
4318
330
4319
330
4334
330
4335
330
4336
  0
IDBUFFER
  5
3064
330
0
100
AcDbIdBuffer
330
42BA
330
42BB
330
42BC
330
42BD
330
42BE
330
42BF
330
42C0
330
42C1
330
42C2
330
42C3
330
42C4
330
42C5
330
42C6
330
42C7
330
42C8
330
42C9
330
42CA
330
42CB
330
433E
330
4398
330
4399
330
439C
330
439D
330
43AE
330
43AF
330
43B0
330
43B1
330
43B2
330
43B3
330
43B4
330
43B5
330
43B6
330
43B7
330
43B8
330
43B9
330
43BA
330
43BB
330
43BC
330
43BD
330
43BE
330
43BF
330
43C0
330
43C1
330
43C2
330
43C3
330
43C4
330
43C5
330
43C6
330
43C7
330
43C8
330
4410
330
4411
330
4412
330
4413
330
4414
330
4415
330
4416
330
4417
330
4418
330
4419
330
441A
330
441B
330
441C
330
441D
330
441E
330
441F
330
4420
330
4421
330
4422
330
4423
330
4424
330
4425
330
4426
330
4427
330
4428
330
4429
330
45DE
330
45E2
330
45E3
330
45E4
330
45E5
330
45E6
330
45E7
330
45E8
330
45E9
330
45EA
330
4605
330
4606
330
4621
330
4622
330
4623
330
4640
330
4641
330
4642
330
4643
330
4644
330
4645
330
4647
330
4648
330
4649
330
464A
330
464B
330
464C
330
464D
330
464E
330
464F
330
4650
330
4652
330
4653
330
4654
330
4655
330
4656
330
4657
330
4658
330
4659
330
465A
330
465B
330
465C
330
465D
330
465E
330
465F
330
4660
330
4661
330
4662
330
4663
330
4664
330
4667
330
4668
330
4669
330
466E
330
4671
330
4672
330
4673
330
4674
330
4678
330
467C
330
467D
330
467E
330
467F
330
4680
330
4681
330
4682
330
4683
330
4684
330
4685
330
4686
330
4687
  0
IDBUFFER
  5
3065
330
0
100
AcDbIdBuffer
330
4626
330
4627
330
4628
330
462B
330
462C
330
462D
330
462E
330
462F
330
4630
330
4631
330
4632
330
4634
330
4635
330
4636
330
4637
330
4638
330
4639
330
463A
330
463B
330
463C
330
463D
330
4679
330
467A
330
4688
330
4689
330
468A
330
468B
330
468C
330
468D
330
468E
330
468F
330
4690
330
4691
330
4692
330
4693
330
4694
330
4695
330
4696
330
4697
330
4698
330
4699
330
469A
330
469B
330
469C
  0
IDBUFFER
  5
4718
330
0
100
AcDbIdBuffer
330
4786
330
479A
  0
ACAD_PROXY_OBJECT
  5
2B40
330
2B3F
100
AcDbProxyObject
 90
      499
 91
      608
 93
       96
310
57020E80A0280A0280A02808C4
 94
        0
1001
ACAD
1000
AcadProxyRoundTripData
1071
      545
1071
   393239
1070
     0
  0
ACAD_PROXY_OBJECT
  5
2B41
330
2B3F
100
AcDbProxyObject
 90
      499
 91
      608
 93
      332
310
5710E4050140501405014050140501405014050142501405014050140501405012000000000000000404
340
251F
 94
        0
1001
ACAD
1000
AcadProxyRoundTripData
1071
      546
1071
   393239
1070
     0
  0
ACAD_PROXY_OBJECT
  5
2B42
330
2B3F
100
AcDbProxyObject
 90
      499
 91
      608
 93
      402
310
570C199999999999E99F91F4050140501405014050140501405014050140501405014050140501405014050140501405014044
340
0
 94
        0
1001
ACAD
1000
AcadProxyRoundTripData
1071
      547
1071
   393239
1070
     0
  0
ACAD_PROXY_OBJECT
  5
2B43
330
2B3F
100
AcDbProxyObject
 90
      499
 91
      608
 93
       10
310
5703
 94
        0
1001
ACAD
1000
AcadProxyRoundTripData
1071
      548
1071
   393239
1070
     0
  0
ACAD_PROXY_OBJECT
  5
2B44
330
2B3F
100
AcDbProxyObject
 90
      499
 91
      608
 93
      223
310
572290EA22A7D90F49F9353333333333727F44D4CCCCCCCCCDC9FA04
340
2519
340
251A
 94
        0
1001
ACAD
1000
AcadProxyRoundTripData
1071
      549
1071
   393239
1070
     0
  0
ACAD_PROXY_OBJECT
  5
2B45
330
2B3F
100
AcDbProxyObject
 90
      499
 91
      608
 93
    12881
310
5710E4112551153501411413D4CB901405014069011349A4F2590CB64FD3347454E545241434F2C4954412C302C504F532E2C47454E54524154582C25732C2847454E4D53472067656E647767203232322940690120281A8AA2CA0281A8AA602028120280A03202269349E4B2196C9FA648E8A9CA8A482869E5892A8825860
310
58A2A980588E8A9CA8A482A8B0584AE658508E8A9C9AA68E40CECADCC8EECE406464665280D202405044E414D45405044E4F4D454051C40640A8BA5C2E97CBE502404CD1D15395149050D3CB1255104B0C0B1393D3514B11D15395149055160B095CCB0A11D1539354D1C819D95B991DD9C80C8C8D8A50190B3D424C4F434B
310
3A4E414D4540480A0A888AA686A480A16888AA686A492B4929E9C8A80A3A80C81D10782C06030180C809D23A2A72A2920A1A79624AA209618162222A9A1A924AD24A7A7229623A2A72A2920AA2C1612B9961423A2A726A9A39033B2B7323BB39019189B94A024809014214D51053911054911014214D510539110549110147
310
501904A383BFDFEFF5FBFCFD3747454E545241434F2C4954412C302C5354414E444152442C47454E54524154582C25732C2847454E4D53472067656E64776720323138294049012028426A0AA22A924A0A620284A6A0AA22A924A0A622A028EA0320B41416D838E9017D9FA708E8A9CA8A482869E5892A8825860589A82A88
310
AA49282988A588E8A9CA8A482A8B0584AE658508E8A9C9AA68E40CECADCC8EECE406464625280D202405044E4F5445405044E4F54414051D40641A8BA5C2E97CBE5F23F4CD1D15395149050D3CB1255104B0C0B1393D5104B11D15395149055160B095CCB0A11D1539354D1C819D95B991DD9C80C8C8D4A501A40480A0CAC8
310
A9C889EA480A128C9EA49C92A89EA48A80A3A80C83D174B85D2F97CBE47E9C23A2A72A2920A1A79624AA209618162327A92724AA27A9229623A2A72A2920AA2C1612B9961423A2A726A9A39033B2B7323BB39019191A14A0348090141911154D0D48C90143511154D0D492569253D391480C90147501908A20F0580C060301
310
9013B47454E545241434F2C4954412C302C4445534352495A494F4E4520322C47454E54524154582C25732C2847454E4D53472067656E6477672033362940490120284A9AA20A72220A922192028529AA20A72220A92210192028EA0321347077FBFDFEBF7F9FA728E8A9CA8A482869E5892A882586058A6A8829C8882A488
310
4064588E8A9CA8A482A8B0584AE658508E8A9C9AA68E40CECADCC8EECE4064646052809202405094D4154455249414C324050B4D4154455249414C4520324051D40642A8282DB071D202FB3F4E51D15395149050D3CB1255104B0C0B135055115492505311480C8B11D15395149055160B095CCB0A11D1539354D1C819D95B
310
991DD9C80D0C0A501240480A089A82A6A680A0A9A82A6A68280A3A80A0485A0681174B85D2F97CBE47E99A3A2A72A2920A1A79624AA2096181626A0A9A9A09623A2A72A2920AA2C1612B9961423A2A726A9A39033B2B7323BB3901A1914A024809014154149250D150141941491569693D01475014090C409022E970BA5F2F
310
97C8FD3447454E545241434F2C4954412C302C5052455A5A4F2C47454E54524154582C25732C2847454E4D53472067656E6477672034332940490120281A224A6A028326A4A9AAA920A028EA028121A81A045D2E174BE5F2F91FA688E8A9CA8A482869E5892A8825860589A92A6AAA482588E8A9CA8A482A8B0584AE658508
310
E8A9C9AA68E40CECADCC8EECE406868528092024050E441022E07A17AD46E338FD1E004062B355AAD56AB7D8FCACD56AB55AADF63F41CF4F125511534F9014062B355AAD56AB7D8FCACD56AB55AADF63F41CF4F125511534F9014062431F8FC5E0F3B8FC90C7E3F1783CEE3F41CF4F125511534F9014062431F8FC5E0F3B8F
310
C90C7E3F1783CEE3F41CF4F125511534F90140A404ACD56AB55AADF63F2B355AAD56AB7D8FD073D3C4954454D3E405063D3C5154593E405018ACD56AB55AADF63F2B355AAD56AB7D8FD073D3C4954454D3E40640400ACD56AB55AADF63F2B355AAD56AB7D8FE8800000000000002081A0881A068120480A032208521122080
310
D21480D211480A1485214852050000000000003C2FC000000000000F0BF4050241C3BDF4F8D976EA23F0EF7D3E365DBA88FCB81E85EB51B8BE3FC80D069014090541D06901A5C0F42F5A8DC5F1FA0483A048098A028081
340
0
340
0
 94
        0
1001
ACAD
1000
AcadProxyRoundTripData
1071
      550
1071
   393239
1070
     0
  0
ACAD_PROXY_OBJECT
  5
2B46
330
2B3F
100
AcDbProxyObject
 90
      499
 91
      608
 93
      960
310
5700B81E85EB51B8CE3F4BCF511155105253080F11115510525317D3105091530F971414D0D05311480F11115510525317D05094D4D0D053114F92341C9A9999999999B93F26A666666666724FC000000000000E03F40000000000000040000000000000051000000000000002440478B81E85EB51B8CE3F00
340
2515
340
251E
 94
        0
1001
ACAD
1000
AcadProxyRoundTripData
1071
      551
1071
   393239
1070
     0
  0
ACAD_PROXY_OBJECT
  5
2B47
330
2B3F
100
AcDbProxyObject
 90
      499
 91
      608
 93
      745
310
570031703D0BD6A3719C7E999EA9A2A1AA24A7A7101E29A2A1AA24A7A72FA620A122A62FA324A929AA1F169E29A2A1AA24A7A72FA620A122A62FA620A9AA1F1353333333333B27EFF41C8823C4D4CCCCCCCCCEC9FC5C0F42F5A8DC671FC2
340
2515
340
251E
 94
        0
1001
ACAD
1000
AcadProxyRoundTripData
1071
      552
1071
   393239
1070
     0
  0
ACAD_PROXY_OBJECT
  5
2B48
330
2B3F
100
AcDbProxyObject
 90
      499
 91
      608
 93
      279
310
5702B8716D9CEF7C33F0A5723F0BD4A2F0FC295C8FC2F528BC3FA199999999999F99FC
 94
        0
1001
ACAD
1000
AcadProxyRoundTripData
1071
      553
1071
   393239
1070
     0
  0
ACAD_PROXY_OBJECT
  5
2B49
330
2B3F
100
AcDbProxyObject
 90
      499
 91
      608
 93
     5890
310
571084050B90142A40502405094D6F64656C6C6F2031405EA3D3C696628657175616C28486F6C653A7461707065642C223022292C222525632220486F6C653A6469612C20486F6C653A6E6F6D696E616C2022202220696628657175616C28486F6C653A756E6974732C223122292C2278222C222D22292022202220486F6C6
310
53A706974636864657363293E207B5C46414D4744543B787D203C696628657175616C28486F6C653A7465726D696E6174696F6E2C223022292C486F6C653A64657074682C225448525522293E5C507B5C46414D4744543B767D2525633C486F6C653A63746469613E207B5C46414D4744543B787D203C486F6C653A6374646
310
57074683E40640503405094D6F64656C6C6F2031405E33D3C696628657175616C28486F6C653A7461707065642C223022292C222525632220486F6C653A6469612C20486F6C653A6E6F6D696E616C2022202220696628657175616C28486F6C653A756E6974732C223122292C2278222C222D22292022202220486F6C653A7
310
06974636864657363293E207B5C46414D4744543B787D203C696628657175616C28486F6C653A7465726D696E6174696F6E2C223022292C486F6C653A64657074682C225448525522293E5C507B5C46414D4744543B777D2525633C486F6C653A63746469613E2058203C486F6C653A6374616E676C653E252564406405014
310
05094D6F64656C6C6F2031405B43D3C696628657175616C28486F6C653A7461707065642C223022292C222525632220486F6C653A6469612C20486F6C653A6E6F6D696E616C2022202220696628657175616C28486F6C653A756E6974732C223122292C2278222C222D22292022202220486F6C653A7069746368646573632
310
93E5C507B5C46414D4744543B787D203C696628657175616C28486F6C653A7465726D696E6174696F6E2C223022292C486F6C653A64657074682C225448525522293E4064051E405094D6F64656C6C6F20314050C3D3C535444503A444553433E40640515A88
 94
        0
1001
ACAD
1000
AcadProxyRoundTripData
1071
      554
1071
   393239
1070
     0
  0
ACAD_PROXY_OBJECT
  5
2B4A
330
2B3F
100
AcDbProxyObject
 90
      499
 91
      608
 93
       20
310
571018
340
0
 94
        0
1001
ACAD
1000
AcadProxyRoundTripData
1071
      539
1071
   393239
1070
     0
  0
ACAD_PROXY_OBJECT
  5
2B4B
330
2B3F
100
AcDbProxyObject
 90
      499
 91
      608
 93
      258
310
57102000000000000380FC000000000000E03F408F0F9023C3E40DB18CCCFFFFB8
340
2521
340
0
340
0
340
2522
340
2523
340
0
340
2524
340
2525
340
2526
340
0
 94
        0
1001
ACAD
1000
AcadProxyRoundTripData
1071
      540
1071
   393239
1070
     0
  0
ACAD_PROXY_OBJECT
  5
2B4C
330
2B3F
100
AcDbProxyObject
 90
      499
 91
      608
 93
    13409
310
5711A023FFFFFFFD010300002E07A17AD46E2F8FC09010300002E07A17AD46E2F8FC080511454C454E434F20434F4F5244494E415445015011D15395149050D3CB1255104B0C0B1153115390D3C810D3D3D49112539055114B11D15395149055160B095CCB0A11D1539354D1C819D95B991A5B5E880CCC0A78000C00000000
310
0000000000000000000000007B14AE47E17AA43F2E07A17AD46E2F8FD021EC52B91F85EA90FCB81E85EB51B8BE3F40A014315105091531310481193D4924053B47454E545241434F2C4954412C302C544142454C4C4120464F52492C47454E54524154582C25732C2847454E4D53472067656E64696D7A20333129E0003000
310
000000000000000000000000000001EC52B91F85EA90FCB81E85EB51B8BE3F4087B14AE47E17AA43F2E07A17AD46E2F8FD0290B4410F4450240D04415014391244D05449074510C4350F000141D3D49251D253914053547454E545241434F2C4954412C302C4F524947494E452C47454E54524154582C25732C2847454E4D5
310
3472067656E64696D7A20312900010105002214000283A7A924A3A4A72280A6A8E8A9CA8A482869E5892A8825860589EA4928E929C8A588E8A9CA8A482A8B0584AE658508E8A9C9AA68E40CECADCC8D2DAF4406252000202080043E8000504464F524F014C91D15395149050D3CB1255104B0C0B1193D493CB11D153951490
310
55160B095CCB0A11D1539354D1C819D95B991A5B5E880C8A405163D3C486F6C654974656D3E3C486F6C65496E6465783E010104002234000280AC00A5E8E8A9CA8A482869E5892A882586058B0588E8A9CA8A482A8B0584AE658508E8A9C9AA68E40CECADCC8D2DAF4406652000202000040A800050159014BD1D153951490
310
50D3CB1255104B0C0B164B11D15395149055160B095CCB0A11D1539354D1C819D95B991A5B5E880D0A4000404000081D0000A02A40297A3A2A72A2920A1A79624AA20961816291623A2A72A2920AA2C1612B9961423A2A726A9A39033B2B73234B6BD101B148000808000104A000141954ACC0D0D0D0053447454E54524143
310
4F2C4954412C302C552B303434342C47454E54524154582C25732C2847454E4D53472067656E64696D7A203729000101030020B40002822827A99700A668E8A9CA8A482869E5892A882586058A09EA65C588E8A9CA8A482A8B0584AE658508E8A9C9AA68E40CECADCC8D2DAF4406268520002020A004068000506494E44494
310
345014D51D15395149050D3CB1255104B0C0B1253911250D14B11D15395149055160B095CCB0A11D1539354D1C819D95B991A5B5E880C4D4A400040414008750000A088C9EA49E0299A3A2A72A2920A1A79624AA209618162327A9279623A2A72A2920AA2C1612B9961423A2A726A9A39033B2B73234B6BD10189B14800080
310
8200112A000142D253911250D1481193D493C053A47454E545241434F2C4954412C302C494E4449434520464F524F2C47454E54524154582C25732C2847454E4D53472067656E64696D7A20313729000101050022740002819292A180A628E8A9CA8A482869E5892A8825860584A4A86588E8A9CA8A482A8B0584AE658508E
310
8A9C9AA68E40CECADCC8D2DAF4407052000202020041E80005035154C0014C91D15395149050D3CB1255104B0C0B1455300B11D15395149055160B095CCB0A11D1539354D1C819D95B991A5B5E880C4E4A400040418008A50000A16888AA686A492B4929E9C8A029D23A2A72A2920A1A79624AA209618162222A9A1A924AD2
310
4A7A7229623A2A72A2920AA2C1612B9961423A2A726A9A39033B2B73234B6BD10191814800080020010CA00014214D51053911054910053747454E545241434F2C4954412C302C5354414E444152442C47454E54524154582C25732C2847454E4D53472067656E64696D7A20323129000100040021B4878030026A66666666
310
67A4FE064D4CCCCCCCCCF49FC049A9999999999E93F809353333333333D27F0226A6666666667A4FE044D4CCCCCCCCCF49FC009A9999999999D93F801353333333333D27F0026A6666666667A4FE004D4CCCCCCCCCF49FC0D819703D0BD6A371BC7F03000000000000001020633B333333333032050F006004D4CCCCCCCCCF
310
49FC0C9A9999999999E93F819353333333333D27F0326A6666666667A4FE064D4CCCCCCCCCF49FC0C9A9999999999E93F801353333333333B27F0026A6666666667A4FE064D4CCCCCCCCCF49FC009A9999999999E93F81B032E07A17AD46E378FE06000000000000002040C6766666666660640A088800000021E000000890
310
000002260000008220E000200890000002060002008100008040
340
0
340
0
340
0
340
0
 94
        0
1001
ACAD
1000
AcadProxyRoundTripData
1071
      555
1071
   393239
1070
     0
  0
ACAD_PROXY_OBJECT
  5
2B4D
330
2B3F
100
AcDbProxyObject
 90
      499
 91
      608
 93
     5766
310
5719741105394D2506414E53495F4342905394D257D512551554D15414E53495F54525F5265766973696F6E6C697374614191243202831372E307832322E30706F6C6C2E2941905394D257D0D1246202832382E307834302E30706F6C6C2E2941905394D257D1911412028382E357831312E30706F6C6C2E2941905394D257
310
D051242202831312E307831372E30706F6C6C2E2941905394D257D091244202832322E307833342E30706F6C6C2E2941905394D257D111245202833342E307834342E30706F6C6C2E2941905394D257D150544505394D24810D85C9D1A59DB1A5BC81050D0C414E53495F5449544C4541434310D85C9D1A59DB1A5BC81554D
310
0A414E53495F544954555344105394D24810D85C9D1A59DB1A5BC81050B414E53495F5449544C454144105394D24810D85C9D1A59DB1A5BC81110B414E53495F5449544C454444505394D24810D85C9D1A59DB1A5BC81110D0C414E53495F5449544C45444342116456C656E636F207265766973696F6E6920445F54525F45
310
505394D257D51497D4995D9A5CDA5BDB9B1A5CDD19116456C656E636F207265766973696F6E6920415F424C5F45505394D257D09317D4995D9A5CDA5BDB9B1A5CDD18516456C656E636F207265766973696F6E6920415F544C5F45505394D257D51317D4995D9A5CDA5BDB9B1A5CDD18516456C656E636F207265766973696
310
F6E6920445F424C5F45505394D257D09317D4995D9A5CDA5BDB9B1A5CDD19116456C656E636F207265766973696F6E6920445F544C5F45505394D257D51317D4995D9A5CDA5BDB9B1A5CDD19116456C656E636F207265766973696F6E6920415F42525F45505394D257D09497D4995D9A5CDA5BDB9B1A5CDD18516456C656E
310
636F207265766973696F6E6920415F54525F45505394D257D51497D4995D9A5CDA5BDB9B1A5CDD18516456C656E636F207265766973696F6E6920445F42525F45505394D257D09497D4995D9A5CDA5BDB9B1A5CDD190
 94
        0
1001
ACAD
1000
AcadProxyRoundTripData
1071
      542
1071
   393239
1070
     0
  0
ACAD_PROXY_OBJECT
  5
283C
330
283A
100
AcDbProxyObject
 90
      499
 91
      608
 93
       12
310
5713
 94
        0
1001
ACAD
1000
AcadProxyRoundTripData
1071
      528
1071
   393239
1070
     0
  0
ACAD_PROXY_OBJECT
  5
283D
330
283A
100
AcDbProxyObject
 90
      499
 91
      608
 93
       96
310
572A0E80A0280A0280A0280F00
 94
        0
1001
ACAD
1000
AcadProxyRoundTripData
1071
      529
1071
   393239
1070
     0
  0
ACAD_PROXY_OBJECT
  5
283E
330
283A
100
AcDbProxyObject
 90
      499
 91
      608
 93
      272
310
5710E4050140501405014050140501405014050140D01405012C000000000000004012
340
248D
 94
        0
1001
ACAD
1000
AcadProxyRoundTripData
1071
      530
1071
   393239
1070
     0
  0
ACAD_PROXY_OBJECT
  5
283F
330
283A
100
AcDbProxyObject
 90
      499
 91
      608
 93
      496
310
5728666666666667A67E199999999999E99FD22405014050140501405014050140501405014050140501405014050140501405014050140501405014050103
340
248E
 94
        0
1001
ACAD
1000
AcadProxyRoundTripData
1071
      531
1071
   393239
1070
     0
  0
ACAD_PROXY_OBJECT
  5
2840
330
283A
100
AcDbProxyObject
 90
      499
 91
      608
 93
       10
310
5703
 94
        0
1001
ACAD
1000
AcadProxyRoundTripData
1071
      532
1071
   393239
1070
     0
  0
ACAD_PROXY_OBJECT
  5
2841
330
283A
100
AcDbProxyObject
 90
      499
 91
      608
 93
      223
310
572290EA22A7D90F49F8000000000000108140000000000000420205
340
248F
340
2490
 94
        0
1001
ACAD
1000
AcadProxyRoundTripData
1071
      533
1071
   393239
1070
     0
  0
ACAD_PROXY_OBJECT
  5
2842
330
283A
100
AcDbProxyObject
 90
      499
 91
      608
 93
    12879
310
5710E411255115350141141BDCCB90140501406901000000000000091013347454E545241434F2C4954412C302C506F732E2C47454E54524154582C25732C2847454E4D53472067656E647767203232322940690120281A8AA2CA0281A8BA702028120280A0320200000000000012202648E8A9CA8A482869E5892A8825860
310
58A2E9C0588E8A9CA8A482A8B0584AE658508E8A9C9AA68E40CECADCC8EECE406464665280D202405044E414D45405044E6F6D654051C40640A80000000000004E404CD1D15395149050D3CB1255104B0C0B139BDB594B11D15395149055160B095CCB0A11D1539354D1C819D95B991DD9C80C8C8D8A50190B3D424C4F434B
310
3A4E414D4540480A0A888AA686A480A1688CAE6C6E4D2F4D2DEDCCA80A3A80C81D0000000000100A2809D23A2A72A2920A1A79624AA209618162232B9B1B934BD34B7B7329623A2A72A2920AA2C1612B9961423A2A726A9A39033B2B7323BB39019189B94A034809014214D51053911054911014214DD185B99185C9910147
310
501904A000000000000125013747454E545241434F2C4954412C302C5374616E646172642C47454E54524154582C25732C2847454E4D53472067656E64776720323138294069012028426A0AA22A924A0A620284A6B0BA32B934B0B632A028EA0320B40000000000001CA02708E8A9CA8A482869E5892A8825860589AC2E8C
310
AE4D2C2D8CA588E8A9CA8A482A8B0584AE658508E8A9C9AA68E40CECADCC8EECE406464625280D202405044E4F5445405044E6F74614051D40641A80000000000003E404CD1D15395149050D3CB1255104B0C0B139BDD184B11D15395149055160B095CCB0A11D1539354D1C819D95B991DD9C80C8C8D4A501240480A0CAC8
310
A9C889EA480A128CDEE4DCD2E8DEE4CA80A3A80C83D00000000000007C809C23A2A72A2920A1A79624AA209618162337B93734BA37B9329623A2A72A2920AA2C1612B9961423A2A726A9A39033B2B7323BB39019191A14A0248090141911154D0D48C9014351195CD8DC9A5E9A5BDB99480C90147501908A00000000002014
310
5013B47454E545241434F2C4954412C302C4465736372697A696F6E6520322C47454E54524154582C25732C2847454E4D53472067656E6477672033362940490120284A9AA20A72220A922192028529BA30B73230B93210192028EA03213400000000000024A02728E8A9CA8A482869E5892A882586058A6E8C2DCC8C2E4C8
310
4064588E8A9CA8A482A8B0584AE658508E8A9C9AA68E40CECADCC8EECE4064646052809202405094D4154455249414C324050B4D6174657269616C6520324051D40642A8713D0AD7A37045404E51D15395149050D3CB1255104B0C0B13585D195C9A585B19480C8B11D15395149055160B095CCB0A11D1539354D1C819D95B
310
991DD9C80D0C0A501240480A089A82A6A680A0A9AC2E6E6C280A3A80A0485A068100000000000007C8099A3A2A72A2920A1A79624AA2096181626B0B9B9B09623A2A72A2920AA2C1612B9961423A2A726A9A39033B2B7323BB3901A1914A024809014154149250D150141941C995E9E9BD01475014090C4090200000000000
310
00F9013447454E545241434F2C4954412C302C5072657A7A6F2C47454E54524154582C25732C2847454E4D53472067656E6477672034332940490120281A224A6A028326B4B9BAB930A028EA028121A81A040000000000001F202688E8A9CA8A482869E5892A8825860589AD2E6EAE4C2588E8A9CA8A482A8B0584AE658508
310
E8A9C9AA68E40CECADCC8EECE406868528092024050E445020000000000000510107004060000000000000F9000000000000003E4041CF4F125511534F9014060000000000000F9000000000000003E4041CF4F125511534F9014060000000000000D100000000000000344041CF4F125511534F9014060000000000000D10
310
0000000000000344041CF4F125511534F90140A4040000000000003E400000000000000F901073D3C4954454D3E405063D3C5154593E4050180000000000003E400000000000000F901073D3C4954454D3E406404000000000000003E400000000000000F902888000000000000208081A0881A068120480A0322085211220
310
80D21480D211480A1485214852050000000000003C2FC000000000000F0BF4050241CCDCCCCCCCCCCEC3F3373333333333B0FC0000000000000C40480D0590140D04416406800000000000018808120480A026280A02
340
0
340
0
 94
        0
1001
ACAD
1000
AcadProxyRoundTripData
1071
      534
1071
   393239
1070
     0
  0
ACAD_PROXY_OBJECT
  5
2843
330
283A
100
AcDbProxyObject
 90
      499
 91
      608
 93
      864
310
5704000000000000144048CF4F11115510525317D3105091530F880A0F11115510525317D05094D4D0D053114F8A51141C9A9999999999B93F26A666666666724FC000000000000E03F4000000000000004000000000000005100000000000000244041C000000000000144000
340
14
340
2481
 94
        0
1001
ACAD
1000
AcadProxyRoundTripData
1071
      535
1071
   393239
1070
     0
  0
ACAD_PROXY_OBJECT
  5
2844
330
283A
100
AcDbProxyObject
 90
      499
 91
      608
 93
      745
310
5700B00000000000002880959E9E29A2A1AA24A7A72FA620A122A62FA324A929AA1F169E29A2A1AA24A7A72FA620A122A62FA620A9AA1F00000000000004880FF41C88A0E0000000000001220000000000000028800000000000000A2022
340
B9
340
2481
 94
        0
1001
ACAD
1000
AcadProxyRoundTripData
1071
      536
1071
   393239
1070
     0
  0
ACAD_PROXY_OBJECT
  5
2845
330
283A
100
AcDbProxyObject
 90
      499
 91
      608
 93
      151
310
57280000000000000840A3D0A5723F0BD1F200
 94
        0
1001
ACAD
1000
AcadProxyRoundTripData
1071
      537
1071
   393239
1070
     0
  0
ACAD_PROXY_OBJECT
  5
2846
330
283A
100
AcDbProxyObject
 90
      499
 91
      608
 93
     5762
310
571084050B90142A40502405094D6F64656C6C6F2031405DC3D2525633C486F6C653A63746469613E2078203C486F6C653A637464657074683E20555C503C696628657175616C28486F6C653A7461707065642C223022292C222525632220486F6C653A6469612C20486F6C653A6E6F6D696E616C20222078202220486F6C6
310
53A70697463686465736320696628657175616C28486F6C653A7461707065642C223122292C222078202220486F6C653A74617064657074682C222229293E203C696628657175616C28486F6C653A7465726D696E6174696F6E2C223022292C22202F202220486F6C653A64657074682C222022293E40640503405094D6F64
310
656C6C6F2031405DD3D2525633C486F6C653A63746469613E2078203C486F6C653A6374616E676C653E2525645C503C696628657175616C28486F6C653A7461707065642C223022292C222525632220486F6C653A6469612C20486F6C653A6E6F6D696E616C20222078202220486F6C653A706974636864657363206966286
310
57175616C28486F6C653A7461707065642C223122292C222078202220486F6C653A74617064657074682C222229293E203C696628657175616C28486F6C653A7465726D696E6174696F6E2C223022292C22202F202220486F6C653A64657074682C222022293E40640501405094D6F64656C6C6F2031405B83D3C696628657
310
175616C28486F6C653A7461707065642C223022292C222525632220486F6C653A6469612C20486F6C653A6E6F6D696E616C20222078202220486F6C653A70697463686465736320696628657175616C28486F6C653A7461707065642C223122292C222078202220486F6C653A74617064657074682C222229293E203C69662
310
8657175616C28486F6C653A7465726D696E6174696F6E2C223022292C22202F202220486F6C653A64657074682C222022293E4064051E405094D6F64656C6C6F20314050C3D3C535444503A444553433E40640515AA2
 94
        0
1001
ACAD
1000
AcadProxyRoundTripData
1071
      538
1071
   393239
1070
     0
  0
ACAD_PROXY_OBJECT
  5
2847
330
283A
100
AcDbProxyObject
 90
      499
 91
      608
 93
       20
310
571018
340
283B
 94
        0
1001
ACAD
1000
AcadProxyRoundTripData
1071
      539
1071
   393239
1070
     0
  0
ACAD_PROXY_OBJECT
  5
2848
330
283A
100
AcDbProxyObject
 90
      499
 91
      608
 93
      250
310
571020000000000000A1000000000000002440408F0F9023C3E409A0DCFFFF80
340
2494
340
0
340
0
340
2495
340
2496
340
2497
340
2498
340
2499
340
249E
340
0
 94
        0
1001
ACAD
1000
AcadProxyRoundTripData
1071
      540
1071
   393239
1070
     0
  0
ACAD_PROXY_OBJECT
  5
2849
330
283A
100
AcDbProxyObject
 90
      499
 91
      608
 93
    13755
310
5711A003FFFFFFFD0303000300000000000003100090303000300000000000003100080511456C656E636F20636F6F7264696E617465015011D15395149050D3CB1255104B0C0B115B195B98DBC818DBDBDC991A5B985D194B11D15395149055160B095CCB0A11D1539354D1C819D95B991A5B5E880CCC0A78000C00000000
310
000000000000000000000001000000000000031010240000000000000C4040A0143151858995B1B1848199BDC9A4053B47454E545241434F2C4954412C302C546162656C6C6120666F72692C47454E54524154582C25732C2847454E4D53472067656E64696D7A20333129E000300000000000000000000000000000000400
310
00000000000C40409000000000000031010290D44111409034110541D0C4350F4050E44D03449074510F000141D3DC9A59DA5B994053547454E545241434F2C4954412C302C4F726967696E652C47454E54524154582C25732C2847454E4D53472067656E64696D7A203129000101050022140002822337B93780A648E8A9C
310
A8A482869E5892A8825860588CDEE4DE588E8A9CA8A482A8B0584AE658508E8A9C9AA68E40CECADCC8D2DAF4406452029F9E9E27B934B3B4B71F1E24A31427A91424A9A12620A7259427B934B3B4B7149624A9A12620A7259424B73232BC149496111116111711149F1E24B73232BC1F00808200111A000140560052F47454
310
E545241434F2C4954412C302C582C47454E54524154582C25732C2847454E4D53472067656E64696D7A20332900010100002054000280AC80A5E8E8A9CA8A482869E5892A882586058B2588E8A9CA8A482A8B0584AE658508E8A9C9AA68E40CECADCC8D2DAF4406852000202000040E800050172014BD1D15395149050D3CB
310
1255104B0C0B1C8B11D15395149055160B095CCB0A11D1539354D1C819D95B991A5B5E880D8A400040400008250000A0CAA5660686868029A23A2A72A2920A1A79624AA209618162A95981A1A1A1623A2A72A2920AA2C1612B9961423A2A726A9A39033B2B73234B6BD101B948000808180105A000140C94958C053147454E
310
545241434F2C4954412C302C2525632C47454E54524154582C25732C2847454E4D53472067656E64696D7A203829000101010020F4000285A232B9B1B934BD34B7B73280A748E8A9CA8A482869E5892A88258605888CAE6C6E4D2F4D2DEDCCA588E8A9CA8A482A8B0584AE658508E8A9C9AA68E40CECADCC8D2DAF44064605
310
2000200080043280005085374616E64617264014DD1D15395149050D3CB1255104B0C0B14DD185B99185C990B11D15395149055160B095CCB0A11D1539354D1C819D95B991A5B5E880C8C4A4000400100086D0000A0E9EE4D2CED2DCCA029AA3A2A72A2920A1A79624AA2096181627B934B3B4B7329623A2A72A2920AA2C16
310
12B9961423A2A726A9A39033B2B73234B6BD10189480A026202020A0043E8000504506F732E014CD1D15395149050D3CB1255104B0C0B141BDCCB8B11D15395149055160B095CCB0A11D1539354D1C819D95B991A5B5E880C4D0A4000404140080D0000A0C92DCC8D2C6CA029AA3A2A72A2920A1A79624AA2096181624B732
310
34B1B29623A2A72A2920AA2C1612B9961423A2A726A9A39033B2B73234B6BD10189A94800080828010EA000142D25B991A58D948199BDC9BC053A47454E545241434F2C4954412C302C496E6469636520666F726F2C47454E54524154582C25732C2847454E4D53472067656E64696D7A20313729000101050022740002822
310
337B93780A668E8A9CA8A482869E5892A8825860588CDEE4DE588E8A9CA8A482A8B0584AE658508E8A9C9AA68E40CECADCC8D2DAF440626C52000202080044A80005035174E0014C91D15395149050D3CB1255104B0C0B145D380B11D15395149055160B095CCB0A11D1539354D1C819D95B991A5B5E880C4E4A4000404180
310
08A521E000000000000001CA040C00000000000034408080000000000006881010000000000000D102040000000000001A204080000000000003440818000000000000728103000000000000125020600000000004028A040000000000000034408000000000000004881000000000000000D102000000000000001A204000
310
000000000003440818000000000000508143C0000000000000039408180000000000006881030000000000000D102060000000000001A2040C00000000000034408180000000000006881030000000000000E5020600000000000024A040C00000000008051408000000000000006881000000000000000910200000000000
310
0001A2040000000000000034408180000000000006881030000000000000A10283A2000000087800000204000000818000002080000008280000020E00000080A240000001
340
0
340
0
340
0
340
0
 94
        0
1001
ACAD
1000
AcadProxyRoundTripData
1071
      541
1071
   393239
1070
     0
  0
ACAD_PROXY_OBJECT
  5
284A
330
283A
100
AcDbProxyObject
 90
      499
 91
      608
 93
     7258
310
5719740D254D3D0649534F5F4133429254D3D7D5125513115051349534F5F42525F5265766973696F6E6C69737446111413478342028323937783834316D6D2920421254D3D7D04D1E0D11141327835202835393478323130326D6D29421254D3D7D04C9E0D51141347839202832393778313839326D6D29421254D3D7D04D
310
1E0E51141337837202834323078323038306D6D29421254D3D7D04CDE0DD1141347838202832393778313638326D6D29421254D3D7D04D1E0E11141327834202835393478313638326D6D29421254D3D7D04C9E0D10E41312028353934783834316D6D29419254D3D7D04C51141347837202832393778313437316D6D29421
310
254D3D7D04D1E0DD1141347836202832393778313236316D6D29421254D3D7D04D1E0D91141347835202832393778313035316D6D29421254D3D7D04D1E0D5104130202838343078313138396D6D2920419254D3D7D04C10E41332028323937783432306D6D29419254D3D7D04CD1141327833202835393478313236316D6D
310
29421254D3D7D04C9E0CD10413478332028323937783633306D6D29421254D3D7D04D1E0CD1141337834202834323078313138396D6D29421254D3D7D04CDE0D11141337836202834323078313738336D6D29421254D3D7D04CDE0D91141337835202834323078313438366D6D29421254D3D7D04CDE0D50E4132202834323
310
0783539346D6D29419254D3D7D04C910413378332028343230783839316D6D29421254D3D7D04CDE0CD0E41342028323937783231306D6D29419254D3D7D04D1124130783220283131383978313638326D6D29421254D3D7D04C1E0C9124130783320283131383978323532336D6D29421254D3D7D04C1E0CD114131783420
310
2838343178323337386D6D29421254D3D7D04C5E0D11141317833202838343178313738336D6D29421254D3D7D04C5E0CD0243D254D3C810D85C9D1A59DB1A5BC81050A49534F5F5449544C454143D254D3C810D85C9D1A59DB1A5BC81090A49534F5F5449544C454241114456C656E636F207265766973696F6E695F54525
310
F44D254D3D7D51497D4995D9A5CDA5BDB9B1A5CDD114456C656E636F207265766973696F6E695F424C5F44D254D3D7D09317D4995D9A5CDA5BDB9B1A5CDD114456C656E636F207265766973696F6E695F544C5F44D254D3D7D51317D4995D9A5CDA5BDB9B1A5CDD114456C656E636F207265766973696F6E695F42525F44D2
310
54D3D7D09497D4995D9A5CDA5BDB9B1A5CDD1C
 94
        0
1001
ACAD
1000
AcadProxyRoundTripData
1071
      542
1071
   393239
1070
     0
  0
ENDSEC
  0
EOF
