  0
SECTION
  2
HEADER
  9
$ACADVER
  1
AC1018
  9
$ACADMAINTVER
 70
   104
  9
$DWGCODEPAGE
  3
ANSI_1252
  9
$LASTSAVEDBY
  1
Achim
  9
$CUSTOMPROPERTYTAG
  1
AmdtFileType
  9
$CUSTOMPROPERTY
  1
84
  9
$INSBASE
 10
0.0
 20
0.0
 30
0.0
  9
$EXTMIN
 10
-1584.210732068188
 20
-52.4856427883459
 30
0.0
  9
$EXTMAX
 10
-324.9501277781742
 20
304.8903400895689
 30
0.0
  9
$LIMMIN
 10
0.0
 20
0.0
  9
$LIMMAX
 10
420.0
 20
297.0
  9
$ORTHOMODE
 70
     1
  9
$REGENMODE
 70
     1
  9
$FILLMODE
 70
     1
  9
$QTEXTMODE
 70
     0
  9
$MIRRTEXT
 70
     1
  9
$LTSCALE
 40
10.0
  9
$ATTMODE
 70
     1
  9
$TEXTSIZE
 40
2.5
  9
$TRACEWID
 40
1.0
  9
$TEXTSTYLE
  7
STANDARD
  9
$CLAYER
  8
NORMALI
  9
$CELTYPE
  6
BYLAYER
  9
$CECOLOR
 62
   256
  9
$CELTSCALE
 40
1.0
  9
$DISPSILH
 70
     0
  9
$DIMSCALE
 40
2.5
  9
$DIMASZ
 40
3.0
  9
$DIMEXO
 40
1.0
  9
$DIMDLI
 40
1.0
  9
$DIMRND
 40
0.0
  9
$DIMDLE
 40
0.0
  9
$DIMEXE
 40
1.0
  9
$DIMTP
 40
0.0
  9
$DIMTM
 40
0.0
  9
$DIMTXT
 40
3.0
  9
$DIMCEN
 40
0.09
  9
$DIMTSZ
 40
0.0
  9
$DIMTOL
 70
     0
  9
$DIMLIM
 70
     0
  9
$DIMTIH
 70
     0
  9
$DIMTOH
 70
     0
  9
$DIMSE1
 70
     0
  9
$DIMSE2
 70
     0
  9
$DIMTAD
 70
     1
  9
$DIMZIN
 70
    12
  9
$DIMBLK
  1

  9
$DIMASO
 70
     1
  9
$DIMSHO
 70
     1
  9
$DIMPOST
  1

  9
$DIMAPOST
  1

  9
$DIMALT
 70
     0
  9
$DIMALTD
 70
     2
  9
$DIMALTF
 40
25.4
  9
$DIMLFAC
 40
1.0
  9
$DIMTOFL
 70
     1
  9
$DIMTVP
 40
0.0
  9
$DIMTIX
 70
     0
  9
$DIMSOXD
 70
     0
  9
$DIMSAH
 70
     0
  9
$DIMBLK1
  1

  9
$DIMBLK2
  1

  9
$DIMSTYLE
  2
SCALA2_5
  9
$DIMCLRD
 70
     1
  9
$DIMCLRE
 70
     1
  9
$DIMCLRT
 70
     7
  9
$DIMTFAC
 40
0.2
  9
$DIMGAP
 40
1.0
  9
$DIMJUST
 70
     0
  9
$DIMSD1
 70
     0
  9
$DIMSD2
 70
     0
  9
$DIMTOLJ
 70
     1
  9
$DIMTZIN
 70
     0
  9
$DIMALTZ
 70
     0
  9
$DIMALTTZ
 70
     0
  9
$DIMUPT
 70
     0
  9
$DIMDEC
 70
     2
  9
$DIMTDEC
 70
     4
  9
$DIMALTU
 70
     2
  9
$DIMALTTD
 70
     2
  9
$DIMTXSTY
  7
SIMPLEX
  9
$DIMAUNIT
 70
     0
  9
$DIMADEC
 70
     0
  9
$DIMALTRND
 40
0.0
  9
$DIMAZIN
 70
     0
  9
$DIMDSEP
 70
    46
  9
$DIMATFIT
 70
     3
  9
$DIMFRAC
 70
     0
  9
$DIMLDRBLK
  1

  9
$DIMLUNIT
 70
     2
  9
$DIMLWD
 70
    -2
  9
$DIMLWE
 70
    -2
  9
$DIMTMOVE
 70
     0
  9
$LUNITS
 70
     2
  9
$LUPREC
 70
     4
  9
$SKETCHINC
 40
1.0
  9
$FILLETRAD
 40
10.0
  9
$AUNITS
 70
     0
  9
$AUPREC
 70
     0
  9
$MENU
  1
.
  9
$ELEVATION
 40
0.0
  9
$PELEVATION
 40
0.0
  9
$THICKNESS
 40
0.0
  9
$LIMCHECK
 70
     0
  9
$CHAMFERA
 40
10.0
  9
$CHAMFERB
 40
10.0
  9
$CHAMFERC
 40
20.0
  9
$CHAMFERD
 40
0.0
  9
$SKPOLY
 70
     0
  9
$TDCREATE
 40
2452088.634692014
  9
$TDUCREATE
 40
2452088.551358681
  9
$TDUPDATE
 40
2455402.410587801
  9
$TDUUPDATE
 40
2455402.327254468
  9
$TDINDWG
 40
0.2763486111
  9
$TDUSRTIMER
 40
0.2763486111
  9
$USRTIMER
 70
     1
  9
$ANGBASE
 50
0.0
  9
$ANGDIR
 70
     0
  9
$PDMODE
 70
     0
  9
$PDSIZE
 40
0.0
  9
$PLINEWID
 40
0.0
  9
$SPLFRAME
 70
     0
  9
$SPLINETYPE
 70
     6
  9
$SPLINESEGS
 70
     8
  9
$HANDSEED
  5
3E7B
  9
$SURFTAB1
 70
     6
  9
$SURFTAB2
 70
     6
  9
$SURFTYPE
 70
     6
  9
$SURFU
 70
     6
  9
$SURFV
 70
     6
  9
$UCSBASE
  2

  9
$UCSNAME
  2

  9
$UCSORG
 10
0.0
 20
0.0
 30
0.0
  9
$UCSXDIR
 10
1.0
 20
0.0
 30
0.0
  9
$UCSYDIR
 10
0.0
 20
1.0
 30
0.0
  9
$UCSORTHOREF
  2

  9
$UCSORTHOVIEW
 70
     0
  9
$UCSORGTOP
 10
0.0
 20
0.0
 30
0.0
  9
$UCSORGBOTTOM
 10
0.0
 20
0.0
 30
0.0
  9
$UCSORGLEFT
 10
0.0
 20
0.0
 30
0.0
  9
$UCSORGRIGHT
 10
0.0
 20
0.0
 30
0.0
  9
$UCSORGFRONT
 10
0.0
 20
0.0
 30
0.0
  9
$UCSORGBACK
 10
0.0
 20
0.0
 30
0.0
  9
$PUCSBASE
  2

  9
$PUCSNAME
  2

  9
$PUCSORG
 10
0.0
 20
0.0
 30
0.0
  9
$PUCSXDIR
 10
1.0
 20
0.0
 30
0.0
  9
$PUCSYDIR
 10
0.0
 20
1.0
 30
0.0
  9
$PUCSORTHOREF
  2

  9
$PUCSORTHOVIEW
 70
     0
  9
$PUCSORGTOP
 10
0.0
 20
0.0
 30
0.0
  9
$PUCSORGBOTTOM
 10
0.0
 20
0.0
 30
0.0
  9
$PUCSORGLEFT
 10
0.0
 20
0.0
 30
0.0
  9
$PUCSORGRIGHT
 10
0.0
 20
0.0
 30
0.0
  9
$PUCSORGFRONT
 10
0.0
 20
0.0
 30
0.0
  9
$PUCSORGBACK
 10
0.0
 20
0.0
 30
0.0
  9
$USERI1
 70
     0
  9
$USERI2
 70
     0
  9
$USERI3
 70
     0
  9
$USERI4
 70
     0
  9
$USERI5
 70
     0
  9
$USERR1
 40
0.0
  9
$USERR2
 40
0.0
  9
$USERR3
 40
0.0
  9
$USERR4
 40
0.0
  9
$USERR5
 40
0.0
  9
$WORLDVIEW
 70
     1
  9
$SHADEDGE
 70
     3
  9
$SHADEDIF
 70
    70
  9
$TILEMODE
 70
     1
  9
$MAXACTVP
 70
    48
  9
$PINSBASE
 10
0.0
 20
0.0
 30
0.0
  9
$PLIMCHECK
 70
     0
  9
$PEXTMIN
 10
1.000000000000000E+20
 20
1.000000000000000E+20
 30
1.000000000000000E+20
  9
$PEXTMAX
 10
-1.000000000000000E+20
 20
-1.000000000000000E+20
 30
-1.000000000000000E+20
  9
$PLIMMIN
 10
0.0
 20
0.0
  9
$PLIMMAX
 10
420.0
 20
297.0
  9
$UNITMODE
 70
     0
  9
$VISRETAIN
 70
     1
  9
$PLINEGEN
 70
     0
  9
$PSLTSCALE
 70
     1
  9
$TREEDEPTH
 70
  3020
  9
$CMLSTYLE
  2
STANDARD
  9
$CMLJUST
 70
     0
  9
$CMLSCALE
 40
20.0
  9
$PROXYGRAPHICS
 70
     1
  9
$MEASUREMENT
 70
     1
  9
$CELWEIGHT
370
    -1
  9
$ENDCAPS
280
     0
  9
$JOINSTYLE
280
     0
  9
$LWDISPLAY
290
     0
  9
$INSUNITS
 70
     0
  9
$HYPERLINKBASE
  1

  9
$STYLESHEET
  1

  9
$XEDIT
290
     1
  9
$CEPSNTYPE
380
     0
  9
$PSTYLEMODE
290
     1
  9
$FINGERPRINTGUID
  2
{B1CDB5D4-46F3-11D6-99F9-000102212E7C}
  9
$VERSIONGUID
  2
{0DDA055E-DE71-4075-9E7A-AED452D9CCE1}
  9
$EXTNAMES
290
     1
  9
$PSVPSCALE
 40
0.0
  9
$OLESTARTUP
290
     0
  9
$SORTENTS
280
   127
  9
$INDEXCTL
280
     1
  9
$HIDETEXT
280
     0
  9
$XCLIPFRAME
290
     0
  9
$HALOGAP
280
     0
  9
$OBSCOLOR
 70
   257
  9
$OBSLTYPE
280
     0
  9
$INTERSECTIONDISPLAY
280
     0
  9
$INTERSECTIONCOLOR
 70
   257
  9
$DIMASSOC
280
     1
  9
$PROJECTNAME
  1

  0
ENDSEC
  0
SECTION
  2
CLASSES
  0
CLASS
  1
LWPOLYLINE
  2
AcDbPolyline
  3
ObjectDBX Classes
 90
        0
 91
        0
280
     0
281
     1
  0
CLASS
  1
HATCH
  2
AcDbHatch
  3
ObjectDBX Classes
 90
        0
 91
        0
280
     0
281
     1
  0
CLASS
  1
ACDBDICTIONARYWDFLT
  2
AcDbDictionaryWithDefault
  3
ObjectDBX Classes
 90
        0
 91
        1
280
     0
281
     0
  0
CLASS
  1
ACDBPLACEHOLDER
  2
AcDbPlaceHolder
  3
ObjectDBX Classes
 90
        0
 91
        1
280
     0
281
     0
  0
CLASS
  1
LAYOUT
  2
AcDbLayout
  3
ObjectDBX Classes
 90
        0
 91
        2
280
     0
281
     0
  0
CLASS
  1
ACME_DOCUMENT
  2
AcMeDbDoc
  3
AcMeServices
 90
        0
 91
        0
280
     0
281
     0
  0
CLASS
  1
AMGSETTINGSOBJ
  2
AmgSettingsObj
  3
"AcadM|Product Description: AutoCAD Mechanical 2000|Company: Autodesk"
 90
        0
 91
        5
280
     0
281
     0
  0
CLASS
  1
ACMESCOPE
  2
AcMeScope
  3
AcMeServices
 90
        0
 91
        1
280
     0
281
     0
  0
CLASS
  1
ACMECOMMANDHISTORY
  2
AcMeCommandHistory
  3
AcMeServices
 90
        0
 91
        1
280
     0
281
     0
  0
CLASS
  1
ACIMSYSVARMAN
  2
AcImSysVarManager
  3
AcMeServices
 90
        0
 91
        2
280
     0
281
     0
  0
CLASS
  1
ACIMREALSYSVAR
  2
AcImRealSysVar
  3
AcMeServices
 90
        0
 91
        2
280
     0
281
     0
  0
CLASS
  1
ACIMINTSYSVAR
  2
AcImIntSysVar
  3
AcMeServices
 90
        0
 91
        1
280
     0
281
     0
  0
CLASS
  1
ACMEDRAWINGMAN
  2
AcMeDrawingMan
  3
AcMeServices
 90
        0
 91
        1
280
     0
281
     0
  0
CLASS
  1
ACMEVIEW
  2
AcMeView
  3
AcMeServices
 90
        0
 91
        1
280
     0
281
     0
  0
CLASS
  1
ACDBENTITYCACHE
  2
AcMeEntityCache
  3
AcMeServices
 90
        0
 91
        0
280
     0
281
     0
  0
CLASS
  1
GSMANAGER
  2
AcMeGSManager
  3
AcMeServices
 90
        0
 91
        0
280
     0
281
     0
  0
CLASS
  1
AMDTINTERNALREACTOR
  2
AmdtInternalReactor
  3
AcMeServices
 90
        0
 91
        0
280
     0
281
     0
  0
CLASS
  1
ACMESTATEMGR
  2
AcMeStateMgr
  3
AcMeServices
 90
        0
 91
        1
280
     0
281
     0
  0
CLASS
  1
ACGREFMASTER
  2
AcGrefMaster
  3
AcAttribServices
 90
        0
 91
        1
280
     0
281
     0
  0
CLASS
  1
ACME_DATABASE
  2
AcMeDbDatabase
  3
AcMeServices
 90
        0
 91
        0
280
     0
281
     0
  0
CLASS
  1
ACRFINSADJUSTERMGR
  2
AcRfInsAdjusterMgr
  3
AcMeServices
 90
        0
 91
        0
280
     0
281
     0
  0
CLASS
  1
ACGREFACADMASTER
  2
AcGrefacadMaster
  3
AcGrefServices
 90
        0
 91
        1
280
     0
281
     0
  0
CLASS
  1
AMIMASTER
  2
AmiMaster
  3
AmiServices
 90
        0
 91
        1
280
     0
281
     0
  0
CLASS
  1
ACMDATADICTIONARY
  2
AcmDataDictionary
  3
"AcmSymBB|Product Description: AutoCAD Mechanical 2000|Company: Autodesk"
 90
        0
 91
        1
280
     0
281
     0
  0
CLASS
  1
ACMDATAENTRYBLOCK
  2
AcmDataEntryBlock
  3
"AcmSymBB|Product Description: AutoCAD Mechanical 2000|Company: Autodesk"
 90
        0
 91
        1
280
     0
281
     0
  0
CLASS
  1
ACIMSTRSYSVAR
  2
AcImStrSysVar
  3
AcMeServices
 90
        0
 91
        1
280
     0
281
     0
  0
CLASS
  1
ACMSTANDARDISO
  2
AcmStandardISO
  3
"Amdt_StdImp|Product Description: AutoCAD Mechanical 2000|Company: Autodesk"
 90
        0
 91
        1
280
     0
281
     0
  0
CLASS
  1
AMGOBJPROPCFG
  2
AmgObjPropCfg
  3
"AmgLay|Product Description: AutoCAD Mechanical 2000|Company: Autodesk"
 90
        1
 91
        1
280
     0
281
     0
  0
CLASS
  1
AMDTEDGESTANDARDISO
  2
AmdtEdgeStdISO
  3
"Amdt_StdImp|Product Description: AutoCAD Mechanical 2000|Company: Autodesk"
 90
        0
 91
        1
280
     0
281
     0
  0
CLASS
  1
ACMSURFSTANDARDISO
  2
AcmSurfTextStdISO
  3
"Amdt_StdImp|Product Description: AutoCAD Mechanical 2000|Company: Autodesk"
 90
        0
 91
        1
280
     0
281
     0
  0
CLASS
  1
ACMFCFSTANDARDISO
  2
AcmFCFStdISO
  3
"Amdt_StdImp|Product Description: AutoCAD Mechanical 2000|Company: Autodesk"
 90
        0
 91
        1
280
     0
281
     0
  0
CLASS
  1
ACMWELDSTANDARDISO
  2
AcmWeldingStdISO
  3
"Amdt_StdImp|Product Description: AutoCAD Mechanical 2000|Company: Autodesk"
 90
        0
 91
        1
280
     0
281
     0
  0
CLASS
  1
ACMIDSTANDARDISO
  2
AcmIdStdISO
  3
"Amdt_StdImp|Product Description: AutoCAD Mechanical 2000|Company: Autodesk"
 90
        0
 91
        1
280
     0
281
     0
  0
CLASS
  1
ACMDATUMSTANDARDISO
  2
AcmDatumStdISO
  3
"Amdt_StdImp|Product Description: AutoCAD Mechanical 2000|Company: Autodesk"
 90
        0
 91
        1
280
     0
281
     0
  0
CLASS
  1
ACMBOMSTANDARDISO
  2
AcmBOMStdISO
  3
"Amdt_StdImp|Product Description: AutoCAD Mechanical 2000|Company: Autodesk"
 90
        0
 91
        1
280
     0
281
     0
  0
CLASS
  1
ACMDETAILSTANDARDISO
  2
AmdtDetailSymStdISO
  3
"Amdt_StdImp|Product Description: AutoCAD Mechanical 2000|Company: Autodesk"
 90
        0
 91
        1
280
     0
281
     0
  0
CLASS
  1
ACMSECTIONSTANDARDISO
  2
AmdtSectionSymStdISO
  3
"Amdt_StdImp|Product Description: AutoCAD Mechanical 2000|Company: Autodesk"
 90
        0
 91
        1
280
     0
281
     0
  0
CLASS
  1
ACMCENTERLINESTANDARDISO
  2
AmdtCenterLineStdISO
  3
"Amdt_StdImp|Product Description: AutoCAD Mechanical 2000|Company: Autodesk"
 90
        0
 91
        1
280
     0
281
     0
  0
CLASS
  1
ACMNOTESTANDARDISO
  2
AmdtNoteStdISO
  3
"Amdt_StdImp|Product Description: AutoCAD Mechanical 2000|Company: Autodesk"
 90
        0
 91
        1
280
     0
281
     0
  0
CLASS
  1
ACAMGLAYSTD
  2
AcAmgLayStd
  3
"AcAmgLayStd|Product Description: AutoCAD Mechanical 2000|Company: Autodesk"
 90
        0
 91
        2
280
     0
281
     0
  0
CLASS
  1
ACAMGDIMSTD
  2
AcAmgDimStd
  3
"AcAmgDimStd|Product Description: AutoCAD Mechanical 2000|Company: Autodesk"
 90
        0
 91
        2
280
     0
281
     0
  0
CLASS
  1
ACAMGHOLECHARTSTDISO
  2
AcAmgHoleChartStdISO
  3
ACMSYMBB_MODULE_NAME
 90
        0
 91
        1
280
     0
281
     0
  0
CLASS
  1
ACAMGTITLESTD
  2
AcAmgTitleStd
  3
"TITLEAPP"
 90
        0
 91
        2
280
     0
281
     0
  0
CLASS
  1
ACAMGFILTERDAT
  2
AcAmgFilterDat
  3
"AcadM|Product Description: AutoCAD Mechanical 2000|Company: Autodesk"
 90
        0
 91
        0
280
     0
281
     0
  0
CLASS
  1
ACMSTANDARDANSI
  2
AcmStandardANSI
  3
"Amdt_StdImp|Product Description: AutoCAD Mechanical 2000|Company: Autodesk"
 90
        0
 91
        1
280
     0
281
     0
  0
CLASS
  1
ACMSURFSTANDARDANSI
  2
AcmSurfTextStdANSI
  3
"Amdt_StdImp|Product Description: AutoCAD Mechanical 2000|Company: Autodesk"
 90
        0
 91
        1
280
     0
281
     0
  0
CLASS
  1
ACMFCFSTANDARDANSI
  2
AcmFCFStdANSI
  3
"Amdt_StdImp|Product Description: AutoCAD Mechanical 2000|Company: Autodesk"
 90
        0
 91
        1
280
     0
281
     0
  0
CLASS
  1
ACMWELDSTANDARDANSI
  2
AcmWeldingStdANSI
  3
"Amdt_StdImp|Product Description: AutoCAD Mechanical 2000|Company: Autodesk"
 90
        0
 91
        1
280
     0
281
     0
  0
CLASS
  1
ACMIDSTANDARDANSI
  2
AcmIdStdANSI
  3
"Amdt_StdImp|Product Description: AutoCAD Mechanical 2000|Company: Autodesk"
 90
        0
 91
        1
280
     0
281
     0
  0
CLASS
  1
ACMDATUMSTANDARDANSI
  2
AcmDatumStdANSI
  3
"Amdt_StdImp|Product Description: AutoCAD Mechanical 2000|Company: Autodesk"
 90
        0
 91
        1
280
     0
281
     0
  0
CLASS
  1
ACMBOMSTANDARDANSI
  2
AcmBOMStdANSI
  3
"Amdt_StdImp|Product Description: AutoCAD Mechanical 2000|Company: Autodesk"
 90
        0
 91
        1
280
     0
281
     0
  0
CLASS
  1
ACMDETAILSTANDARDANSI
  2
AmdtDetailSymStdANSI
  3
"Amdt_StdImp|Product Description: AutoCAD Mechanical 2000|Company: Autodesk"
 90
        0
 91
        1
280
     0
281
     0
  0
CLASS
  1
ACMSECTIONSTANDARDANSI
  2
AmdtSectionSymStdANSI
  3
"Amdt_StdImp|Product Description: AutoCAD Mechanical 2000|Company: Autodesk"
 90
        0
 91
        1
280
     0
281
     0
  0
CLASS
  1
ACMCENTERLINESTANDARDANSI
  2
AmdtCenterLineStdANSI
  3
"Amdt_StdImp|Product Description: AutoCAD Mechanical 2000|Company: Autodesk"
 90
        0
 91
        1
280
     0
281
     0
  0
CLASS
  1
ACMNOTESTANDARDANSI
  2
AmdtNoteStdANSI
  3
"Amdt_StdImp|Product Description: AutoCAD Mechanical 2000|Company: Autodesk"
 90
        0
 91
        1
280
     0
281
     0
  0
CLASS
  1
ACAMGHOLECHARTSTDANSI
  2
AcAmgHoleChartStdANSI
  3
ACMSYMBB_MODULE_NAME
 90
        0
 91
        1
280
     0
281
     0
  0
CLASS
  1
AMDTFORMULAUPDATEDISPATCHER
  2
AmdtFormulaUpdateDispatcher
  3
AcMeServices
 90
        0
 91
        1
280
     0
281
     0
  0
CLASS
  1
LAYER_INDEX
  2
AcDbLayerIndex
  3
ObjectDBX Classes
 90
        0
 91
        1
280
     0
281
     0
  0
CLASS
  1
IDBUFFER
  2
AcDbIdBuffer
  3
ObjectDBX Classes
 90
        0
 91
       13
280
     0
281
     0
  0
CLASS
  1
DICTIONARYVAR
  2
AcDbDictionaryVar
  3
ObjectDBX Classes
 90
        0
 91
        5
280
     0
281
     0
  0
CLASS
  1
LONG_TRANSACTION
  2
AcDbLongTransaction
  3
ObjectDBX Classes
 90
        0
 91
        0
280
     0
281
     0
  0
CLASS
  1
LWPOLYLINE
  2
AcDbPolyline
  3
ObjectDBX Classes
 90
        0
 91
        0
280
     0
281
     1
  0
CLASS
  1
HATCH
  2
AcDbHatch
  3
ObjectDBX Classes
 90
        0
 91
        0
280
     0
281
     1
  0
CLASS
  1
XRECORD
  2
AcDbXrecord
  3
ObjectDBX Classes
 90
        0
 91
      104
280
     0
281
     0
  0
CLASS
  1
LONG_TRANSACTION
  2
AcDbLongTransaction
  3
ObjectDBX Classes
 90
        0
 91
        0
280
     0
281
     0
  0
CLASS
  1
LWPOLYLINE
  2
AcDbPolyline
  3
ObjectDBX Classes
 90
        0
 91
        0
280
     0
281
     1
  0
CLASS
  1
HATCH
  2
AcDbHatch
  3
ObjectDBX Classes
 90
        0
 91
        0
280
     0
281
     1
  0
CLASS
  1
XRECORD
  2
AcDbXrecord
  3
ObjectDBX Classes
 90
        0
 91
      104
280
     0
281
     0
  0
CLASS
  1
STDPART2D
  2
AmgStdPart
  3
"AmgStdPart|Product Description: AutoCAD Mechanical 2000|Company: Autodesk"
 90
     1023
 91
        0
280
     0
281
     1
  0
CLASS
  1
ACMPARTREF
  2
AcmPartRef
  3
"AcmSymBB|Product Description: AutoCAD Mechanical 2000|Company: Autodesk"
 90
     1023
 91
        0
280
     0
281
     1
  0
CLASS
  1
ACMDATAENTRYPART
  2
AcmDataEntryPart
  3
"AcmSymBB|Product Description: AutoCAD Mechanical 2000|Company: Autodesk"
 90
        0
 91
        0
280
     0
281
     0
  0
CLASS
  1
MATERIAL
  2
AcDbMaterial
  3
ObjectDBX Classes
 90
     1153
 91
        3
280
     0
281
     0
  0
CLASS
  1
VISUALSTYLE
  2
AcDbVisualStyle
  3
ObjectDBX Classes
 90
     4095
 91
       16
280
     0
281
     0
  0
CLASS
  1
TABLESTYLE
  2
AcDbTableStyle
  3
ObjectDBX Classes
 90
     4095
 91
        1
280
     0
281
     0
  0
CLASS
  1
SCALE
  2
AcDbScale
  3
ObjectDBX Classes
 90
     1153
 91
       33
280
     0
281
     0
  0
CLASS
  1
MLEADERSTYLE
  2
AcDbMLeaderStyle
  3
ACDB_MLEADERSTYLE_CLASS
 90
     4095
 91
        1
280
     0
281
     0
  0
CLASS
  1
CELLSTYLEMAP
  2
AcDbCellStyleMap
  3
ObjectDBX Classes
 90
     1152
 91
        1
280
     0
281
     0
  0
ENDSEC
  0
SECTION
  2
TABLES
  0
TABLE
  2
VPORT
  5
8
330
0
100
AcDbSymbolTable
 70
     1
  0
VPORT
  5
3E16
330
8
100
AcDbSymbolTableRecord
100
AcDbViewportTableRecord
  2
*Active
 70
     0
 10
0.0
 20
0.0
 11
1.0
 21
1.0
 12
-912.4567069819947
 22
125.9979988400747
 13
0.0
 23
0.0
 14
10.0
 24
10.0
 15
10.0
 25
10.0
 16
0.0
 26
0.0
 36
1.0
 17
0.0
 27
0.0
 37
0.0
 40
776.2085680721326
 41
1.739910313901345
 42
50.0
 43
0.0
 44
0.0
 50
0.0
 51
0.0
 71
     0
 72
  1234
 73
     1
 74
     0
 75
     0
 76
     0
 77
     0
 78
     0
281
     0
 65
     1
110
0.0
120
0.0
130
0.0
111
1.0
121
0.0
131
0.0
112
0.0
122
1.0
132
0.0
 79
     0
146
0.0
  0
ENDTAB
  0
TABLE
  2
LTYPE
  5
5
330
0
100
AcDbSymbolTable
 70
    18
  0
LTYPE
  5
12
330
5
100
AcDbSymbolTableRecord
100
AcDbLinetypeTableRecord
  2
BYBLOCK
 70
     0
  3

 72
    65
 73
     0
 40
0.0
  0
LTYPE
  5
13
330
5
100
AcDbSymbolTableRecord
100
AcDbLinetypeTableRecord
  2
BYLAYER
 70
     0
  3

 72
    65
 73
     0
 40
0.0
  0
LTYPE
  5
14
330
5
100
AcDbSymbolTableRecord
100
AcDbLinetypeTableRecord
  2
CONTINUOUS
 70
     0
  3
Solid line
 72
    65
 73
     0
 40
0.0
  0
LTYPE
  5
B9
330
5
100
AcDbSymbolTableRecord
100
AcDbLinetypeTableRecord
  2
CENTER
 70
     0
  3

 72
    65
 73
     4
 40
2.0
 49
1.25
 74
     0
 49
-0.25
 74
     0
 49
0.25
 74
     0
 49
-0.25
 74
     0
  0
LTYPE
  5
BA
330
5
100
AcDbSymbolTableRecord
100
AcDbLinetypeTableRecord
  2
HIDDEN
 70
     0
  3
Hidden __ __ __ __ __ __ __ __ __ __ __ __ __ _
 72
    65
 73
     2
 40
0.375
 49
0.25
 74
     0
 49
-0.125
 74
     0
  0
LTYPE
  5
1BE0
330
5
100
AcDbSymbolTableRecord
100
AcDbLinetypeTableRecord
  2
DASHED
 70
     0
  3
__ __ __ __ __ __ __ __ __ __ __ __ __ __ __ __
 72
    65
 73
     2
 40
0.75
 49
0.5
 74
     0
 49
-0.25
 74
     0
  0
LTYPE
  5
2478
330
5
100
AcDbSymbolTableRecord
100
AcDbLinetypeTableRecord
  2
AM_ISO02W050
 70
     0
  3
__ __ __ __ __ __ __ __ __ __ __ __ __ __ __
 72
    65
 73
     2
 40
7.5
 49
6.0
 74
     0
 49
-1.5
 74
     0
  0
LTYPE
  5
2479
330
5
100
AcDbSymbolTableRecord
100
AcDbLinetypeTableRecord
  2
AM_ISO08W050
 70
     0
  3
____ . ____ . ____ . ____ . ____ . ____ . ____
 72
    65
 73
     4
 40
18.0
 49
12.0
 74
     0
 49
-1.5
 74
     0
 49
3.0
 74
     0
 49
-1.5
 74
     0
  0
LTYPE
  5
247A
330
5
100
AcDbSymbolTableRecord
100
AcDbLinetypeTableRecord
  2
AM_ISO09W050
 70
     0
  3
_____ . . _____ . . _____ . . ____ .. ____
 72
    65
 73
     6
 40
22.5
 49
12.0
 74
     0
 49
-1.5
 74
     0
 49
3.0
 74
     0
 49
-1.5
 74
     0
 49
3.0
 74
     0
 49
-1.5
 74
     0
  0
LTYPE
  5
247B
330
5
100
AcDbSymbolTableRecord
100
AcDbLinetypeTableRecord
  2
Amconstr
 70
     0
  3
_______________________
 72
    65
 73
     2
 40
9999.0
 49
9999.0
 74
     0
 49
0.0
 74
     0
  0
LTYPE
  5
247C
330
5
100
AcDbSymbolTableRecord
100
AcDbLinetypeTableRecord
  2
AM_ISO08W050x2
 70
     0
  3
__ . __ . __ . __ . __ . __
 72
    65
 73
     4
 40
9.0
 49
6.0
 74
     0
 49
-0.75
 74
     0
 49
1.5
 74
     0
 49
-0.75
 74
     0
  0
LTYPE
  5
247D
330
5
100
AcDbSymbolTableRecord
100
AcDbLinetypeTableRecord
  2
AM_ISO02W050x2
 70
     0
  3
 _ _ _ _ _ _ _ _ _ _ _ _
 72
    65
 73
     2
 40
3.75
 49
3.0
 74
     0
 49
-0.75
 74
     0
  0
LTYPE
  5
2480
330
5
100
AcDbSymbolTableRecord
100
AcDbLinetypeTableRecord
  2
Amzigzag
 70
     0
  3
/\/-/\/-/\/-/\/-/\/-/\/
 72
    65
 73
     2
 40
11.0001
 49
0.0001
 74
     4
 75
   135
340
247F
 46
0.04
 50
0.0
 44
0.0
 45
0.0
 49
-11.0
 74
     0
  0
LTYPE
  5
248E
330
5
100
AcDbSymbolTableRecord
100
AcDbLinetypeTableRecord
  2
ACISOWELD
 70
     0
  3
_ _ _ _ _
 72
    65
 73
     2
 40
2.0
 49
2.0
 74
     0
 49
-1.0
 74
     0
  0
LTYPE
  5
248F
330
5
100
AcDbSymbolTableRecord
100
AcDbLinetypeTableRecord
  2
ACISOTGB
 70
     0
  3
__ . . __ . .
 72
    65
 73
     6
 40
9.0
 49
4.0
 74
     0
 49
-1.0
 74
     0
 49
1.0
 74
     0
 49
-1.0
 74
     0
 49
1.0
 74
     0
 49
-1.0
 74
     0
  0
LTYPE
  5
2490
330
5
100
AcDbSymbolTableRecord
100
AcDbLinetypeTableRecord
  2
ACISOTGL
 70
     0
  3
_ _ _ _ _
 72
    65
 73
     2
 40
3.0
 49
2.0
 74
     0
 49
-1.0
 74
     0
  0
LTYPE
  5
2515
330
5
100
AcDbSymbolTableRecord
100
AcDbLinetypeTableRecord
  2
PHANTOM2
 70
     0
  3
Phantom (.5x) ___ _ _ ___ _ _ ___ _ _ ___ _ _
 72
    65
 73
     6
 40
1.25
 49
0.625
 74
     0
 49
-0.125
 74
     0
 49
0.125
 74
     0
 49
-0.125
 74
     0
 49
0.125
 74
     0
 49
-0.125
 74
     0
  0
LTYPE
  5
2519
330
5
100
AcDbSymbolTableRecord
100
AcDbLinetypeTableRecord
  2
ACANSTGB
 70
     0
  3
__ . . __ . .
 72
    65
 73
     6
 40
0.35433070866
 49
0.15748031496
 74
     0
 49
-0.03937007874
 74
     0
 49
0.03937007874
 74
     0
 49
-0.03937007874
 74
     0
 49
0.03937007874
 74
     0
 49
-0.03937007874
 74
     0
  0
LTYPE
  5
251A
330
5
100
AcDbSymbolTableRecord
100
AcDbLinetypeTableRecord
  2
ACANSTGL
 70
     0
  3
_ _ _ _ _
 72
    65
 73
     2
 40
0.11811023622
 49
0.07874015748
 74
     0
 49
-0.03937007874
 74
     0
  0
LTYPE
  5
29D7
330
5
100
AcDbSymbolTableRecord
100
AcDbLinetypeTableRecord
  2
PHANTOM
 70
     0
  3
______  __  __  ______  __  __  ______  __  __ 
 72
    65
 73
     6
 40
2.5
 49
1.25
 74
     0
 49
-0.25
 74
     0
 49
0.25
 74
     0
 49
-0.25
 74
     0
 49
0.25
 74
     0
 49
-0.25
 74
     0
  0
ENDTAB
  0
TABLE
  2
LAYER
  5
2
102
{ACAD_XDICTIONARY
360
3479
102
}
330
0
100
AcDbSymbolTable
 70
    13
  0
LAYER
  5
E
330
2
100
AcDbSymbolTableRecord
100
AcDbLayerTableRecord
  2
0
 70
     0
 62
     7
  6
CONTINUOUS
370
    -3
390
244D
  0
LAYER
  5
BC
330
2
100
AcDbSymbolTableRecord
100
AcDbLayerTableRecord
  2
DISEGNO
 70
     0
 62
     7
  6
CONTINUOUS
370
    -3
390
244D
  0
LAYER
  5
BD
330
2
100
AcDbSymbolTableRecord
100
AcDbLayerTableRecord
  2
QUOTE
 70
     0
 62
     1
  6
CONTINUOUS
370
    -3
390
244D
  0
LAYER
  5
BE
330
2
100
AcDbSymbolTableRecord
100
AcDbLayerTableRecord
  2
NASCOSTE
 70
     0
 62
     8
  6
HIDDEN
370
    -3
390
244D
  0
LAYER
  5
BF
330
2
100
AcDbSymbolTableRecord
100
AcDbLayerTableRecord
  2
ASSI
 70
     0
 62
     2
  6
CENTER
370
    -3
390
244D
  0
LAYER
  5
C1
330
2
100
AcDbSymbolTableRecord
100
AcDbLayerTableRecord
  2
NORMALI
 70
     0
 62
     6
  6
CONTINUOUS
370
    -3
390
244D
  0
LAYER
  5
1BE1
330
2
100
AcDbSymbolTableRecord
100
AcDbLayerTableRecord
  2
TRATTEGGI
 70
     0
 62
     8
  6
DASHED
370
    -3
390
244D
  0
LAYER
  5
24AA
330
2
100
AcDbSymbolTableRecord
100
AcDbLayerTableRecord
  2
Defpoints
 70
     0
 62
     7
  6
CONTINUOUS
290
     0
370
    -3
390
244D
  0
LAYER
  5
29DD
330
2
100
AcDbSymbolTableRecord
100
AcDbLayerTableRecord
  2
INGOMBRI
 70
     0
 62
     4
  6
PHANTOM
370
    -3
390
244D
  0
LAYER
  5
34CA
330
2
100
AcDbSymbolTableRecord
100
AcDbLayerTableRecord
  2
4150007_A-Piastra di collegamento.ipt.1-Spigoli visibili
 70
     0
 62
     7
  6
CONTINUOUS
370
    30
390
244D
  0
LAYER
  5
34CB
330
2
100
AcDbSymbolTableRecord
100
AcDbLayerTableRecord
  2
4360009_C_DX-TLM MCR_S 105 ø25 ø19 Destra.iam.1-Spigoli visibili
 70
     0
 62
     7
  6
CONTINUOUS
370
    30
390
244D
  0
LAYER
  5
34CC
330
2
100
AcDbSymbolTableRecord
100
AcDbLayerTableRecord
  2
4130002-Raschiatore TLM MCR_S 105.ipt.1-Spigoli visibili
 70
     0
 62
     7
  6
CONTINUOUS
370
    30
390
244D
  0
LAYER
  5
362F
330
2
100
AcDbSymbolTableRecord
100
AcDbLayerTableRecord
  2
4360048-TLF MCR_S 105.iam.1-Spigoli visibili
 70
     0
 62
     7
  6
CONTINUOUS
370
    30
390
244D
  0
ENDTAB
  0
TABLE
  2
STYLE
  5
3
330
0
100
AcDbSymbolTable
 70
     7
  0
STYLE
  5
F
330
3
100
AcDbSymbolTableRecord
100
AcDbTextStyleTableRecord
  2
STANDARD
 70
     0
 40
0.0
 41
1.0
 50
0.0
 71
     0
 42
2.5
  3
txt
  4

  0
STYLE
  5
247F
330
3
100
AcDbSymbolTableRecord
100
AcDbTextStyleTableRecord
  2

 70
     1
 40
0.0
 41
1.0
 50
0.0
 71
     0
 42
2.5
  3
ltypeshp.shx
  4

  0
STYLE
  5
2481
330
3
100
AcDbSymbolTableRecord
100
AcDbTextStyleTableRecord
  2
ACISOTS
 70
     0
 40
1.0
 41
1.0
 50
0.0
 71
     0
 42
2.5
  3
isocp.shx
  4

  0
STYLE
  5
248D
330
3
100
AcDbSymbolTableRecord
100
AcDbTextStyleTableRecord
  2
ACISOGDT
 70
     0
 40
0.0
 41
1.0
 50
0.0
 71
     0
 42
2.5
  3
amgdt.shx
  4

  0
STYLE
  5
251E
330
3
100
AcDbSymbolTableRecord
100
AcDbTextStyleTableRecord
  2
ACANSTS
 70
     0
 40
1.0
 41
1.0
 50
0.0
 71
     0
 42
3.0
  3
romans.shx
  4

  0
STYLE
  5
251F
330
3
100
AcDbSymbolTableRecord
100
AcDbTextStyleTableRecord
  2
ACANSGDT
 70
     0
 40
0.0
 41
1.0
 50
0.0
 71
     0
 42
3.0
  3
amgdtans.shx
  4

  0
STYLE
  5
2D17
330
3
100
AcDbSymbolTableRecord
100
AcDbTextStyleTableRecord
  2
SIMPLEX
 70
     0
 40
0.0
 41
1.0
 50
0.0
 71
     0
 42
3.0
  3
SIMPLEX.shx
  4

  0
ENDTAB
  0
TABLE
  2
VIEW
  5
6
330
0
100
AcDbSymbolTable
 70
     0
  0
ENDTAB
  0
TABLE
  2
UCS
  5
7
330
0
100
AcDbSymbolTable
 70
     0
  0
ENDTAB
  0
TABLE
  2
APPID
  5
9
330
0
100
AcDbSymbolTable
 70
    19
  0
APPID
  5
10
330
9
100
AcDbSymbolTableRecord
100
AcDbRegAppTableRecord
  2
ACAD
 70
     0
  0
APPID
  5
20
330
9
100
AcDbSymbolTableRecord
100
AcDbRegAppTableRecord
  2
ZIMM
 70
     0
  0
APPID
  5
C8
330
9
100
AcDbSymbolTableRecord
100
AcDbRegAppTableRecord
  2
COMAU_ACADLIB
 70
     0
  0
APPID
  5
C9
330
9
100
AcDbSymbolTableRecord
100
AcDbRegAppTableRecord
  2
PHOENIX7010
 70
     0
  0
APPID
  5
245A
330
9
100
AcDbSymbolTableRecord
100
AcDbRegAppTableRecord
  2
MCAD_NO_VIS
 70
     0
  0
APPID
  5
245B
330
9
100
AcDbSymbolTableRecord
100
AcDbRegAppTableRecord
  2
ACAD_TEMP_GRAPHIC
 70
     0
  0
APPID
  5
246C
330
9
100
AcDbSymbolTableRecord
100
AcDbRegAppTableRecord
  2
ACATTRIBSERVICES
 70
     0
  0
APPID
  5
299E
330
9
100
AcDbSymbolTableRecord
100
AcDbRegAppTableRecord
  2
GEVID1024383628
 70
     0
  0
APPID
  5
299F
330
9
100
AcDbSymbolTableRecord
100
AcDbRegAppTableRecord
  2
GEVDC
 70
     0
  0
APPID
  5
29A2
330
9
100
AcDbSymbolTableRecord
100
AcDbRegAppTableRecord
  2
GENIUS_GENBH_13
 70
     0
  0
APPID
  5
29A5
330
9
100
AcDbSymbolTableRecord
100
AcDbRegAppTableRecord
  2
GENIUS_GENODEF_13
 70
     0
  0
APPID
  5
29A6
330
9
100
AcDbSymbolTableRecord
100
AcDbRegAppTableRecord
  2
GENIUS_GENOLIS_13
 70
     0
  0
APPID
  5
29A7
330
9
100
AcDbSymbolTableRecord
100
AcDbRegAppTableRecord
  2
GENIUS_GENOENT_13
 70
     0
  0
APPID
  5
29A8
330
9
100
AcDbSymbolTableRecord
100
AcDbRegAppTableRecord
  2
GENIUS_GENOBJ-NBEHI-BHF_13
 70
     0
  0
APPID
  5
29A9
330
9
100
AcDbSymbolTableRecord
100
AcDbRegAppTableRecord
  2
GENIUS_GENOREF_13
 70
     0
  0
APPID
  5
29AB
330
9
100
AcDbSymbolTableRecord
100
AcDbRegAppTableRecord
  2
GENIUS_GENOBJ-NBEHI-BHB_13
 70
     0
  0
APPID
  5
2E72
330
9
100
AcDbSymbolTableRecord
100
AcDbRegAppTableRecord
  2
GENIUS_GENOBJ-N-CRS_13
 70
     0
  0
APPID
  5
3E14
330
9
100
AcDbSymbolTableRecord
100
AcDbRegAppTableRecord
  2
DCO15
 70
     0
  0
APPID
  5
3E69
330
9
100
AcDbSymbolTableRecord
100
AcDbRegAppTableRecord
  2
ACAD_MLEADERVER
 70
     0
  0
ENDTAB
  0
TABLE
  2
DIMSTYLE
  5
A
330
0
100
AcDbSymbolTable
 70
    15
100
AcDbDimStyleTable
 71
     2
340
2D18
340
1D
  0
DIMSTYLE
105
1D
330
A
100
AcDbSymbolTableRecord
100
AcDbDimStyleTableRecord
  2
STANDARD
 70
     0
340
F
  0
DIMSTYLE
105
2494
330
A
100
AcDbSymbolTableRecord
100
AcDbDimStyleTableRecord
  2
AM_ISO
 70
     0
  4
"
 41
2.5
 42
1.0
 43
10.0
 44
1.0
 47
0.1
 48
0.1
 73
     0
 74
     0
 77
     1
 78
     8
 79
     2
140
3.5
141
0.0
143
0.0393701
146
0.71
147
1.5
172
     1
176
   256
177
   256
178
     2
271
     2
272
     3
274
     4
283
     0
284
     8
340
F
371
    -1
372
    -1
  0
DIMSTYLE
105
2495
330
A
100
AcDbSymbolTableRecord
100
AcDbDimStyleTableRecord
  2
AM_ISO$3
 70
     0
  4
"
 41
2.5
 42
1.0
 43
10.0
 44
1.0
 47
0.1
 48
0.1
 73
     0
 77
     1
 78
     8
 79
     2
140
3.5
141
0.0
143
0.0393701
146
0.71
147
1.5
176
   256
177
   256
178
     2
271
     2
272
     3
274
     4
283
     0
284
     8
288
     1
289
     0
340
F
371
    -1
372
    -1
  0
DIMSTYLE
105
2496
330
A
100
AcDbSymbolTableRecord
100
AcDbDimStyleTableRecord
  2
AM_ISO$4
 70
     0
  4
"
 41
2.5
 42
1.0
 43
10.0
 44
1.0
 47
0.1
 48
0.1
 73
     0
 77
     1
 78
     8
 79
     2
140
3.5
141
0.0
143
0.0393701
146
0.71
147
1.5
176
   256
177
   256
178
     2
271
     2
272
     3
274
     4
283
     0
284
     8
288
     1
289
     0
340
F
371
    -1
372
    -1
  0
DIMSTYLE
105
2497
330
A
100
AcDbSymbolTableRecord
100
AcDbDimStyleTableRecord
  2
AM_ISO$6
 70
     0
  4
"
 41
2.5
 42
1.0
 43
10.0
 44
1.0
 47
0.1
 48
0.1
 73
     0
 74
     0
 78
     8
 79
     2
140
3.5
141
0.0
143
0.0393701
146
0.71
147
1.5
172
     1
176
   256
177
   256
178
     2
271
     2
272
     3
274
     4
283
     0
284
     8
340
F
371
    -1
372
    -1
  0
DIMSTYLE
105
2498
330
A
100
AcDbSymbolTableRecord
100
AcDbDimStyleTableRecord
  2
AM_ISO$7
 70
     0
  4
"
 41
2.5
 42
1.0
 43
10.0
 44
1.0
 47
0.1
 48
0.1
 73
     0
 74
     0
 77
     1
 78
     8
 79
     2
140
5.0
141
0.0
143
0.0393701
146
0.71
147
1.5
172
     1
176
   256
177
   256
178
     2
271
     2
272
     3
274
     4
283
     0
284
     8
340
F
371
    -1
372
    -1
  0
DIMSTYLE
105
2499
330
A
100
AcDbSymbolTableRecord
100
AcDbDimStyleTableRecord
  2
AM_ISO$SF
 70
     0
  4
"
 41
2.5
 42
1.0
 43
10.0
 44
1.0
 47
0.1
 48
0.1
 73
     0
 74
     0
 75
     1
 76
     1
 77
     1
 78
     8
 79
     2
140
3.5
141
0.0
143
0.0393701
146
0.71
147
1.5
172
     1
176
   256
177
   256
178
     2
271
     2
272
     3
274
     4
283
     0
284
     8
340
F
371
    -1
372
    -1
  0
DIMSTYLE
105
249E
330
A
100
AcDbSymbolTableRecord
100
AcDbDimStyleTableRecord
  2
AM_ISO$SH
 70
     0
  4
"
 41
2.5
 42
1.0
 43
10.0
 44
1.0
 47
0.1
 48
0.1
 73
     0
 74
     0
 75
     1
 76
     1
 77
     1
 78
     8
 79
     2
140
3.5
141
0.0
143
0.0393701
144
2.0
146
0.71
147
1.5
172
     1
173
     1
176
   256
177
   256
178
     2
271
     2
272
     3
274
     4
283
     0
284
     8
340
F
341
249A
343
249A
371
    -1
372
    -1
  0
DIMSTYLE
105
2521
330
A
100
AcDbSymbolTableRecord
100
AcDbDimStyleTableRecord
  2
AM_ANSI
 70
     0
  4
mm
 41
0.1
 42
0.05
 43
0.5
 44
0.1
 47
0.1
 48
0.1
 78
     7
 79
     2
140
0.12
141
0.0
146
0.71
147
0.06
176
   256
177
   256
178
     2
274
     4
284
     7
340
F
371
    -1
372
    -1
  0
DIMSTYLE
105
2522
330
A
100
AcDbSymbolTableRecord
100
AcDbDimStyleTableRecord
  2
AM_ANSI$3
 70
     0
  4
mm
 41
0.1
 42
0.05
 43
0.5
 44
0.1
 47
0.1
 48
0.1
 78
     7
 79
     2
140
0.12
141
0.0
146
0.71
147
0.06
176
   256
177
   256
178
     2
274
     4
284
     7
288
     1
289
     0
340
F
371
    -1
372
    -1
  0
DIMSTYLE
105
2523
330
A
100
AcDbSymbolTableRecord
100
AcDbDimStyleTableRecord
  2
AM_ANSI$4
 70
     0
  4
mm
 41
0.1
 42
0.05
 43
0.5
 44
0.1
 47
0.1
 48
0.1
 78
     7
 79
     2
140
0.12
141
0.0
146
0.71
147
0.06
176
   256
177
   256
178
     2
274
     4
284
     7
288
     1
289
     0
340
F
371
    -1
372
    -1
  0
DIMSTYLE
105
2524
330
A
100
AcDbSymbolTableRecord
100
AcDbDimStyleTableRecord
  2
AM_ANSI$7
 70
     0
  4
mm
 41
0.1
 42
0.05
 43
0.5
 44
0.1
 47
0.1
 48
0.1
 78
     7
 79
     2
140
0.24
141
0.0
146
0.71
147
0.06
176
   256
177
   256
178
     2
274
     4
284
     7
340
F
371
    -1
372
    -1
  0
DIMSTYLE
105
2525
330
A
100
AcDbSymbolTableRecord
100
AcDbDimStyleTableRecord
  2
AM_ANSI$SF
 70
     0
  4
mm
 41
0.1
 42
0.05
 43
0.5
 44
0.1
 47
0.1
 48
0.1
 75
     1
 76
     1
 78
     7
 79
     2
140
0.12
141
0.0
146
0.71
147
0.06
176
   256
177
   256
178
     2
274
     4
284
     7
340
F
371
    -1
372
    -1
  0
DIMSTYLE
105
2526
330
A
100
AcDbSymbolTableRecord
100
AcDbDimStyleTableRecord
  2
AM_ANSI$SH
 70
     0
  4
mm
 41
0.1
 42
0.05
 43
0.5
 44
0.1
 47
0.1
 48
0.1
 75
     1
 76
     1
 78
     7
 79
     2
140
0.12
141
0.0
146
0.71
147
0.06
173
     1
176
   256
177
   256
178
     2
274
     4
284
     7
340
F
341
249A
343
249A
371
    -1
372
    -1
  0
DIMSTYLE
105
2D18
330
A
100
AcDbSymbolTableRecord
100
AcDbDimStyleTableRecord
  2
SCALA2_5
 70
     0
 40
2.5
 41
3.0
 42
1.0
 43
1.0
 44
1.0
 73
     0
 74
     0
 77
     1
 78
    12
140
3.0
146
0.2
147
1.0
172
     1
176
     1
177
     1
178
     7
271
     2
340
2D17
  0
ENDTAB
  0
TABLE
  2
BLOCK_RECORD
  5
1
330
0
100
AcDbSymbolTable
 70
     4
  0
BLOCK_RECORD
  5
18
102
{ACAD_XDICTIONARY
360
2691
102
}
330
1
100
AcDbSymbolTableRecord
100
AcDbBlockTableRecord
  2
*MODEL_SPACE
340
2450
  0
BLOCK_RECORD
  5
15
102
{ACAD_XDICTIONARY
360
2703
102
}
330
1
100
AcDbSymbolTableRecord
100
AcDbBlockTableRecord
  2
*PAPER_SPACE
340
2451
  0
BLOCK_RECORD
  5
19A9
330
1
100
AcDbSymbolTableRecord
100
AcDbBlockTableRecord
  2
A$C57F5612F
340
0
102
{BLKREFS
331
3DAC
102
}
  0
BLOCK_RECORD
  5
19B0
330
1
100
AcDbSymbolTableRecord
100
AcDbBlockTableRecord
  2
A$C0CB75D9B
340
0
102
{BLKREFS
331
3CA7
102
}
  0
BLOCK_RECORD
  5
19B7
330
1
100
AcDbSymbolTableRecord
100
AcDbBlockTableRecord
  2
A$C41262553
340
0
102
{BLKREFS
331
3CAE
331
3CB0
331
3CF2
331
3CF3
102
}
  0
BLOCK_RECORD
  5
249A
330
1
100
AcDbSymbolTableRecord
100
AcDbBlockTableRecord
  2
GENAXEH
340
0
  0
ENDTAB
  0
ENDSEC
  0
SECTION
  2
BLOCKS
  0
BLOCK
  5
19
330
18
100
AcDbEntity
  8
0
100
AcDbBlockBegin
  2
*MODEL_SPACE
 70
     0
 10
0.0
 20
0.0
 30
0.0
  3
*MODEL_SPACE
  1

  0
ENDBLK
  5
1A
330
18
100
AcDbEntity
  8
0
100
AcDbBlockEnd
  0
BLOCK
  5
16
330
15
100
AcDbEntity
 67
     1
  8
0
100
AcDbBlockBegin
  2
*PAPER_SPACE
 70
     0
 10
0.0
 20
0.0
 30
0.0
  3
*PAPER_SPACE
  1

  0
ENDBLK
  5
17
330
15
100
AcDbEntity
 67
     1
  8
0
100
AcDbBlockEnd
  0
BLOCK
  5
19AE
330
19A9
100
AcDbEntity
  8
0
100
AcDbBlockBegin
  2
A$C57F5612F
 70
     0
 10
0.0
 20
0.0
 30
0.0
  3
A$C57F5612F
  1

  0
ARC
  5
19AA
330
19A9
100
AcDbEntity
  8
DISEGNO
100
AcDbCircle
 10
2.999998912191472
 20
2.999999129037007
 30
0.0
 40
3.0
100
AcDbArc
 50
0.0
 51
270.0
  0
CIRCLE
  5
19AB
330
19A9
100
AcDbEntity
  8
DISEGNO
100
AcDbCircle
 10
2.999998912191472
 20
2.999999129037007
 30
0.0
 40
2.386565338986022
  0
ARC
  5
19AC
330
19A9
100
AcDbEntity
  8
DISEGNO
100
AcDbCircle
 10
22.99999891219153
 20
2.999999129039679
 30
0.0
 40
3.0
100
AcDbArc
 50
0.0
 51
270.0
  0
CIRCLE
  5
19AD
330
19A9
100
AcDbEntity
  8
DISEGNO
100
AcDbCircle
 10
22.99999891219153
 20
2.999999129039679
 30
0.0
 40
2.386565338986022
  0
ENDBLK
  5
19AF
330
19A9
100
AcDbEntity
  8
0
100
AcDbBlockEnd
  0
BLOCK
  5
19B5
330
19B0
100
AcDbEntity
  8
0
100
AcDbBlockBegin
  2
A$C0CB75D9B
 70
     0
 10
0.0
 20
0.0
 30
0.0
  3
A$C0CB75D9B
  1

  0
LINE
  5
19B1
330
19B0
100
AcDbEntity
  8
ASSI
100
AcDbLine
 10
19.9999976692452
 20
21.33379229806995
 30
0.0
 11
19.99999766924702
 21
0.0000000697146021
 31
0.0
  0
LINE
  5
19B2
330
19B0
100
AcDbEntity
  8
ASSI
100
AcDbLine
 10
-0.0000023307475203
 20
21.33379229806995
 30
0.0
 11
-0.0000023307566153
 21
0.0000000697146021
 31
0.0
  0
LINE
  5
19B3
330
19B0
100
AcDbEntity
  8
ASSI
100
AcDbLine
 10
-0.0000023307475203
 20
72.10370463674554
 30
0.0
 11
-0.0000023307566153
 21
93.4374968651009
 31
0.0
  0
LINE
  5
19B4
330
19B0
100
AcDbEntity
  8
ASSI
100
AcDbLine
 10
19.9999976692452
 20
72.10370463674554
 30
0.0
 11
19.99999766924702
 21
93.4374968651009
 31
0.0
  0
ENDBLK
  5
19B6
330
19B0
100
AcDbEntity
  8
0
100
AcDbBlockEnd
  0
BLOCK
  5
19C2
330
19B7
100
AcDbEntity
  8
0
100
AcDbBlockBegin
  2
A$C41262553
 70
     0
 10
0.0
 20
0.0
 30
0.0
  3
A$C41262553
  1

  0
LINE
  5
19B8
330
19B7
100
AcDbEntity
  8
NASCOSTE
100
AcDbLine
 10
-0.0000013137505448
 20
6.97788283613498
 30
0.0
 11
0.6134333472637082
 21
5.177882836134969
 31
0.0
  0
LINE
  5
19B9
330
19B7
100
AcDbEntity
  8
NASCOSTE
100
AcDbLine
 10
5.386564025235202
 20
5.177882836134969
 30
0.0
 11
5.999998686249455
 21
6.97788283613498
 31
0.0
  0
LINE
  5
19BA
330
19B7
100
AcDbEntity
  8
NASCOSTE
100
AcDbLine
 10
0.6134333472637082
 20
16.97788283613498
 30
0.0
 11
0.6134333472637082
 21
1.377882836134986
 31
0.0
  0
LINE
  5
19BB
330
19B7
100
AcDbEntity
  8
NASCOSTE
100
AcDbLine
 10
5.386564025235202
 20
1.377882836134986
 30
0.0
 11
5.386564025235202
 21
16.97788283613498
 31
0.0
  0
LINE
  5
19BC
330
19B7
100
AcDbEntity
  8
NASCOSTE
100
AcDbLine
 10
0.6134333472637082
 20
1.377882836134986
 30
0.0
 11
2.999998686249455
 21
-0.000001304767224
 31
0.0
  0
LINE
  5
19BD
330
19B7
100
AcDbEntity
  8
NASCOSTE
100
AcDbLine
 10
2.999998686249455
 20
-0.000001304767224
 30
0.0
 11
5.386564025235202
 21
1.377882836134986
 31
0.0
  0
LINE
  5
19BE
330
19B7
100
AcDbEntity
  8
NASCOSTE
100
AcDbLine
 10
0.6134333472637082
 20
1.377882836134986
 30
0.0
 11
5.386564025235202
 21
1.377882836134986
 31
0.0
  0
LINE
  5
19BF
330
19B7
100
AcDbEntity
  8
NASCOSTE
100
AcDbLine
 10
5.999998686249455
 20
6.97788283613498
 30
0.0
 11
5.999998686249455
 21
16.97788283613498
 31
0.0
  0
LINE
  5
19C0
330
19B7
100
AcDbEntity
  8
NASCOSTE
100
AcDbLine
 10
-0.0000013137505448
 20
16.97788283613498
 30
0.0
 11
-0.0000013137505448
 21
6.97788283613498
 31
0.0
  0
LINE
  5
19C1
330
19B7
100
AcDbEntity
  8
NASCOSTE
100
AcDbLine
 10
-0.0000013137505448
 20
6.97788283613498
 30
0.0
 11
5.999998686249455
 21
6.97788283613498
 31
0.0
  0
ENDBLK
  5
19C3
330
19B7
100
AcDbEntity
  8
0
100
AcDbBlockEnd
  0
BLOCK
  5
249C
330
249A
100
AcDbEntity
  8
0
100
AcDbBlockBegin
  2
GENAXEH
 70
     0
 10
0.0
 20
0.0
 30
0.0
  3
GENAXEH
  1

  0
LINE
  5
249B
330
249A
100
AcDbEntity
  8
0
100
AcDbLine
 10
-1.0
 20
0.0
 30
0.0
 11
1.0
 21
0.0
 31
0.0
  0
ENDBLK
  5
249D
330
249A
100
AcDbEntity
  8
0
100
AcDbBlockEnd
  0
ENDSEC
  0
SECTION
  2
ENTITIES
  0
LINE
  5
31EB
330
18
100
AcDbEntity
  8
ASSI
100
AcDbLine
 10
-1527.59716416608
 20
150.6648619132214
 30
0.0
 11
-1527.59716416608
 21
300.7105387435538
 31
0.0
  0
LINE
  5
31ED
330
18
100
AcDbEntity
  8
DISEGNO
100
AcDbLine
 10
-1571.597164166081
 20
269.7821626984149
 30
0.0
 11
-1552.097164166079
 21
269.7821626984149
 31
0.0
  0
ARC
  5
31EF
330
18
100
AcDbEntity
  8
DISEGNO
100
AcDbCircle
 10
-1561.297164166082
 20
257.5821626984144
 30
0.0
 40
5.0
100
AcDbArc
 50
342.5423968762768
 51
197.4576031237232
  0
LINE
  5
31F0
330
18
100
AcDbEntity
  8
DISEGNO
100
AcDbLine
 10
-1578.097164166081
 20
267.2821626984151
 30
0.0
 11
-1553.597164166081
 21
267.2821626984151
 31
0.0
  0
LINE
  5
31F2
330
18
100
AcDbEntity
  8
DISEGNO
100
AcDbLine
 10
-1561.797164166082
 20
202.0011626984143
 30
0.0
 11
-1572.497164166079
 21
210.9411626984147
 31
0.0
  0
ARC
  5
31F3
330
18
100
AcDbEntity
  8
DISEGNO
100
AcDbCircle
 10
-1561.297164166082
 20
215.2821626984151
 30
0.0
 40
5.0
100
AcDbArc
 50
162.5423968762767
 51
17.45760312372323
  0
ARC
  5
31F4
330
18
100
AcDbEntity
  8
DISEGNO
100
AcDbCircle
 10
-1563.597164166081
 20
166.782162698415
 30
0.0
 40
6.5
100
AcDbArc
 50
90.0
 51
179.9999892283999
  0
ARC
  5
31F5
330
18
100
AcDbEntity
  8
DISEGNO
100
AcDbCircle
 10
-1575.597164166081
 20
191.3861626984144
 30
0.0
 40
12.0
100
AcDbArc
 50
0.0000000048429924
 51
49.99999999999741
  0
LINE
  5
31F6
330
18
100
AcDbEntity
  8
DISEGNO
100
AcDbLine
 10
-1571.597164166081
 20
292.2821626984149
 30
0.0
 11
-1483.597164166081
 21
292.2821626984151
 31
0.0
  0
LINE
  5
31F8
330
18
100
AcDbEntity
  8
DISEGNO
100
AcDbLine
 10
-1571.097164166081
 20
253.4481626984144
 30
0.0
 11
-1572.097164166081
 21
244.987162698415
 31
0.0
  0
LINE
  5
31F9
330
18
100
AcDbEntity
  8
DISEGNO
100
AcDbLine
 10
-1579.797164166082
 20
248.7821626984151
 30
0.0
 11
-1579.797164166082
 21
245.7821626984151
 31
0.0
  0
LINE
  5
31FA
330
18
100
AcDbEntity
  8
DISEGNO
100
AcDbLine
 10
-1580.097164166081
 20
212.7821626984151
 30
0.0
 11
-1580.097164166081
 21
194.7821626984151
 31
0.0
  0
LINE
  5
31FB
330
18
100
AcDbEntity
  8
DISEGNO
100
AcDbLine
 10
-1567.897164166081
 20
200.5791626984156
 30
0.0
 11
-1573.097164166081
 21
204.8931626984159
 31
0.0
  0
LINE
  5
31FC
330
18
100
AcDbEntity
  8
DISEGNO
100
AcDbLine
 10
-1580.097164166081
 20
185.782162698415
 30
0.0
 11
-1580.097164166081
 21
164.282162698415
 31
0.0
  0
ARC
  5
31FD
330
18
100
AcDbEntity
  8
DISEGNO
100
AcDbCircle
 10
-1567.097164166081
 20
165.782162698415
 30
0.0
 40
0.5
100
AcDbArc
 50
0.0
 51
90.0
  0
LINE
  5
31FE
330
18
100
AcDbEntity
  8
DISEGNO
100
AcDbLine
 10
-1578.097164166081
 20
162.282162698415
 30
0.0
 11
-1567.097164166081
 21
162.282162698415
 31
0.0
  0
ARC
  5
31FF
330
18
100
AcDbEntity
  8
DISEGNO
100
AcDbCircle
 10
-1578.097164166081
 20
164.282162698415
 30
0.0
 40
2.0
100
AcDbArc
 50
179.999999995157
 51
270.0
  0
ARC
  5
3200
330
18
100
AcDbEntity
  8
DISEGNO
100
AcDbCircle
 10
-1567.097164166081
 20
162.782162698415
 30
0.0
 40
0.5
100
AcDbArc
 50
270.0
 51
0.0
  0
LINE
  5
3201
330
18
100
AcDbEntity
  8
DISEGNO
100
AcDbLine
 10
-1566.597164166081
 20
165.782162698415
 30
0.0
 11
-1566.597164166081
 21
162.782162698415
 31
0.0
  0
LINE
  5
3202
330
18
100
AcDbEntity
  8
DISEGNO
100
AcDbLine
 10
-1567.097164166081
 20
166.282162698415
 30
0.0
 11
-1569.597164166081
 21
166.282162698415
 31
0.0
  0
ARC
  5
3203
330
18
100
AcDbEntity
  8
DISEGNO
100
AcDbCircle
 10
-1569.597164166081
 20
166.782162698415
 30
0.0
 40
0.5
100
AcDbArc
 50
180.0
 51
270.0
  0
LINE
  5
3204
330
18
100
AcDbEntity
  8
ASSI
100
AcDbLine
 10
-1584.210732068188
 20
190.282162698415
 30
0.0
 11
-1565.863807345542
 21
190.282162698415
 31
0.0
  0
ARC
  5
3205
330
18
100
AcDbEntity
  8
DISEGNO
100
AcDbCircle
 10
-1575.597164166081
 20
189.282162698415
 30
0.0
 40
6.5
100
AcDbArc
 50
270.0
 51
0.0
  0
LINE
  5
3206
330
18
100
AcDbEntity
  8
DISEGNO
100
AcDbLine
 10
-1576.097164166081
 20
183.282162698415
 30
0.0
 11
-1576.097164166081
 21
185.782162698415
 31
0.0
  0
ARC
  5
3207
330
18
100
AcDbEntity
  8
DISEGNO
100
AcDbCircle
 10
-1575.597164166081
 20
183.282162698415
 30
0.0
 40
0.5
100
AcDbArc
 50
180.0
 51
270.0
  0
ARC
  5
3208
330
18
100
AcDbEntity
  8
DISEGNO
100
AcDbCircle
 10
-1576.597164166081
 20
185.782162698415
 30
0.0
 40
0.5
100
AcDbArc
 50
0.0
 51
90.0
  0
ARC
  5
3209
330
18
100
AcDbEntity
  8
DISEGNO
100
AcDbCircle
 10
-1579.597164166081
 20
185.782162698415
 30
0.0
 40
0.5
100
AcDbArc
 50
90.0
 51
180.0
  0
LINE
  5
320A
330
18
100
AcDbEntity
  8
DISEGNO
100
AcDbLine
 10
-1576.597164166081
 20
186.282162698415
 30
0.0
 11
-1579.597164166081
 21
186.282162698415
 31
0.0
  0
ARC
  5
320B
330
18
100
AcDbEntity
  8
DISEGNO
100
AcDbCircle
 10
-1575.597164166081
 20
191.2811626984148
 30
0.0
 40
6.5
100
AcDbArc
 50
0.0
 51
90.0
  0
LINE
  5
320C
330
18
100
AcDbEntity
  8
DISEGNO
100
AcDbLine
 10
-1576.097164166081
 20
194.7821626984151
 30
0.0
 11
-1576.097164166081
 21
197.2821626984151
 31
0.0
  0
ARC
  5
320D
330
18
100
AcDbEntity
  8
DISEGNO
100
AcDbCircle
 10
-1576.597164166081
 20
194.7821626984151
 30
0.0
 40
0.5
100
AcDbArc
 50
270.0
 51
0.0
  0
ARC
  5
320E
330
18
100
AcDbEntity
  8
DISEGNO
100
AcDbCircle
 10
-1575.597164166081
 20
197.2821626984151
 30
0.0
 40
0.5
100
AcDbArc
 50
90.0
 51
180.0
  0
ARC
  5
320F
330
18
100
AcDbEntity
  8
DISEGNO
100
AcDbCircle
 10
-1579.597164166081
 20
194.7821626984151
 30
0.0
 40
0.5
100
AcDbArc
 50
180.0
 51
270.0
  0
LINE
  5
3210
330
18
100
AcDbEntity
  8
DISEGNO
100
AcDbLine
 10
-1576.597164166081
 20
194.2821626984151
 30
0.0
 11
-1579.597164166081
 21
194.2821626984151
 31
0.0
  0
LINE
  5
3211
330
18
100
AcDbEntity
  8
INGOMBRI
100
AcDbLine
 10
-1569.097164166081
 20
189.282162698415
 30
0.0
 11
-1569.097164166081
 21
191.2811626984148
 31
0.0
  0
LINE
  5
3212
330
18
100
AcDbEntity
  8
DISEGNO
100
AcDbLine
 10
-1580.097164166081
 20
245.7821626984151
 30
0.0
 11
-1580.097164166081
 21
215.7821626984151
 31
0.0
  0
LINE
  5
3213
330
18
100
AcDbEntity
  8
DISEGNO
100
AcDbLine
 10
-1571.097164166081
 20
219.4161626984151
 30
0.0
 11
-1572.097164166081
 21
227.8771626984144
 31
0.0
  0
ARC
  5
3214
330
18
100
AcDbEntity
  8
DISEGNO
100
AcDbCircle
 10
-1571.097164166081
 20
207.1911626984148
 30
0.0
 40
3.0
100
AcDbArc
 50
180.0
 51
229.9999999999974
  0
ARC
  5
3215
330
18
100
AcDbEntity
  8
INGOMBRI
100
AcDbCircle
 10
-1573.097164166081
 20
210.1751626984151
 30
0.0
 40
1.0
100
AcDbArc
 50
49.99999999999741
 51
180.0
  0
LINE
  5
3216
330
18
100
AcDbEntity
  8
INGOMBRI
100
AcDbLine
 10
-1574.097164166081
 20
210.1751626984151
 30
0.0
 11
-1574.097164166081
 21
207.1911626984148
 31
0.0
  0
LINE
  5
3217
330
18
100
AcDbEntity
  8
DISEGNO
100
AcDbLine
 10
-1579.797164166082
 20
215.7821626984151
 30
0.0
 11
-1580.097164166081
 21
215.7821626984151
 31
0.0
  0
LINE
  5
3218
330
18
100
AcDbEntity
  8
DISEGNO
100
AcDbLine
 10
-1579.797164166082
 20
212.7821626984151
 30
0.0
 11
-1580.097164166081
 21
212.7821626984151
 31
0.0
  0
LINE
  5
3219
330
18
100
AcDbEntity
  8
DISEGNO
100
AcDbLine
 10
-1579.797164166082
 20
215.7821626984151
 30
0.0
 11
-1579.797164166082
 21
212.7821626984151
 31
0.0
  0
LINE
  5
321A
330
18
100
AcDbEntity
  8
DISEGNO
100
AcDbLine
 10
-1568.097164166081
 20
216.7821626984151
 30
0.0
 11
-1566.066860173166
 21
216.7821626984151
 31
0.0
  0
ARC
  5
321B
330
18
100
AcDbEntity
  8
DISEGNO
100
AcDbCircle
 10
-1568.097164166081
 20
219.7821626984151
 30
0.0
 40
3.0
100
AcDbArc
 50
186.9999999999991
 51
270.0
  0
LINE
  5
321C
330
18
100
AcDbEntity
  8
DISEGNO
100
AcDbLine
 10
-1572.097164166081
 20
244.3761626984143
 30
0.0
 11
-1572.097164166081
 21
228.4881626984152
 31
0.0
  0
ARC
  5
321D
330
18
100
AcDbEntity
  8
DISEGNO
100
AcDbCircle
 10
-1567.097164166081
 20
228.4881626984152
 30
0.0
 40
5.0
100
AcDbArc
 50
180.0
 51
187.0130000000004
  0
LINE
  5
321E
330
18
100
AcDbEntity
  8
DISEGNO
100
AcDbLine
 10
-1579.797164166082
 20
245.7821626984151
 30
0.0
 11
-1580.097164166081
 21
245.7821626984151
 31
0.0
  0
ARC
  5
321F
330
18
100
AcDbEntity
  8
DISEGNO
100
AcDbCircle
 10
-1567.097164166081
 20
244.3761626984143
 30
0.0
 40
5.0
100
AcDbArc
 50
172.9869999999995
 51
180.0
  0
LINE
  5
3220
330
18
100
AcDbEntity
  8
DISEGNO
100
AcDbLine
 10
-1571.597164166081
 20
292.2821626984149
 30
0.0
 11
-1571.597164166079
 21
269.7821626984149
 31
0.0
  0
LINE
  5
3221
330
18
100
AcDbEntity
  8
DISEGNO
100
AcDbLine
 10
-1580.097164166081
 20
265.2821626984151
 30
0.0
 11
-1580.097164166081
 21
248.7821626984151
 31
0.0
  0
LINE
  5
3222
330
18
100
AcDbEntity
  8
DISEGNO
100
AcDbLine
 10
-1579.797164166082
 20
248.7821626984151
 30
0.0
 11
-1580.097164166081
 21
248.7821626984151
 31
0.0
  0
ARC
  5
3223
330
18
100
AcDbEntity
  8
DISEGNO
100
AcDbCircle
 10
-1568.097164166081
 20
253.0821626984144
 30
0.0
 40
3.0
100
AcDbArc
 50
90.0
 51
172.9869999999995
  0
LINE
  5
3224
330
18
100
AcDbEntity
  8
DISEGNO
100
AcDbLine
 10
-1566.066860173166
 20
256.0821626984144
 30
0.0
 11
-1568.097164166081
 21
256.0821626984144
 31
0.0
  0
ARC
  5
3225
330
18
100
AcDbEntity
  8
DISEGNO
100
AcDbCircle
 10
-1578.097164166081
 20
265.2821626984151
 30
0.0
 40
2.0
100
AcDbArc
 50
90.0
 51
179.999999995157
  0
LINE
  5
3229
330
18
100
AcDbEntity
  8
DISEGNO
100
AcDbLine
 10
-1503.597164166078
 20
253.0821626984151
 30
0.0
 11
-1503.59716416608
 21
208.2821626984151
 31
0.0
  0
LINE
  5
322A
330
18
100
AcDbEntity
  8
DISEGNO
100
AcDbLine
 10
-1475.297164166082
 20
248.7821626984151
 30
0.0
 11
-1475.297164166082
 21
245.7821626984151
 31
0.0
  0
ARC
  5
322B
330
18
100
AcDbEntity
  8
DISEGNO
100
AcDbCircle
 10
-1488.097164166081
 20
246.4451626984156
 30
0.0
 40
5.0
100
AcDbArc
 50
0.0000000048429924
 51
10.49999999999962
  0
LINE
  5
322D
330
18
100
AcDbEntity
  8
DISEGNO
100
AcDbLine
 10
-1551.59716416608
 20
253.0821626984151
 30
0.0
 11
-1551.59716416608
 21
208.7821626984151
 31
0.0
  0
ARC
  5
322E
330
18
100
AcDbEntity
  8
DISEGNO
100
AcDbCircle
 10
-1499.297164166082
 20
216.8321626984144
 30
0.0
 40
0.4
100
AcDbArc
 50
134.9999999999954
 51
270.0
  0
LINE
  5
322F
330
18
100
AcDbEntity
  8
DISEGNO
100
AcDbLine
 10
-1499.928025789067
 20
218.4321626984147
 30
0.0
 11
-1498.997164166079
 21
218.4321626984147
 31
0.0
  0
ARC
  5
3230
330
18
100
AcDbEntity
  8
DISEGNO
100
AcDbCircle
 10
-1495.69716416608
 20
183.8631626984152
 30
0.0
 40
4.08101
100
AcDbArc
 50
168.0000000000002
 51
0.0
  0
ARC
  5
3231
330
18
100
AcDbEntity
  8
DISEGNO
100
AcDbCircle
 10
-1499.597164166081
 20
166.782162698415
 30
0.0
 40
0.5
100
AcDbArc
 50
180.0
 51
270.0
  0
ARC
  5
3232
330
18
100
AcDbEntity
  8
DISEGNO
100
AcDbCircle
 10
-1493.597164166081
 20
166.782162698415
 30
0.0
 40
6.5
100
AcDbArc
 50
90.0
 51
179.9999892283999
  0
LINE
  5
3233
330
18
100
AcDbEntity
  8
DISEGNO
100
AcDbLine
 10
-1510.097164166081
 20
162.282162698415
 30
0.0
 11
-1497.097164166081
 21
162.282162698415
 31
0.0
  0
LINE
  5
3237
330
18
100
AcDbEntity
  8
DISEGNO
100
AcDbLine
 10
-1505.097164166081
 20
185.6581626984152
 30
0.0
 11
-1500.897164166081
 21
205.7751626984155
 31
0.0
  0
LINE
  5
3239
330
18
100
AcDbEntity
  8
DISEGNO
100
AcDbLine
 10
-1550.097164166081
 20
185.6581626984152
 30
0.0
 11
-1554.39716416608
 21
205.7751626984155
 31
0.0
  0
ARC
  5
323A
330
18
100
AcDbEntity
  8
DISEGNO
100
AcDbCircle
 10
-1569.497164166079
 20
192.8081626984149
 30
0.0
 40
12.0
100
AcDbArc
 50
11.99999999999979
 51
49.99999999999741
  0
LINE
  5
323B
330
18
100
AcDbEntity
  8
INGOMBRI
100
AcDbLine
 10
-1536.597164166072
 20
198.2821626984151
 30
0.0
 11
-1518.597164166081
 21
198.2821626984151
 31
0.0
  0
LINE
  5
323C
330
18
100
AcDbEntity
  8
DISEGNO
100
AcDbLine
 10
-1533.097164166081
 20
178.782162698415
 30
0.0
 11
-1522.097164166081
 21
178.782162698415
 31
0.0
  0
LINE
  5
323D
330
18
100
AcDbEntity
  8
INGOMBRI
100
AcDbLine
 10
-1517.997164166079
 20
181.782162698415
 30
0.0
 11
-1537.19716416608
 21
181.782162698415
 31
0.0
  0
LINE
  5
323E
330
18
100
AcDbEntity
  8
DISEGNO
100
AcDbLine
 10
-1542.097164166081
 20
162.282162698415
 30
0.0
 11
-1513.097164166081
 21
162.282162698415
 31
0.0
  0
LINE
  5
323F
330
18
100
AcDbEntity
  8
DISEGNO
100
AcDbLine
 10
-1548.097164166081
 20
167.5821626984143
 30
0.0
 11
-1507.097164166081
 21
167.5821626984143
 31
0.0
  0
LINE
  5
3240
330
18
100
AcDbEntity
  8
NORMALI
100
AcDbLine
 10
-1548.59716416608
 20
186.382162698415
 30
0.0
 11
-1537.597164166079
 21
186.3821626984149
 31
0.0
  0
LINE
  5
3241
330
18
100
AcDbEntity
  8
DISEGNO
100
AcDbLine
 10
-1534.097164166081
 20
177.782162698415
 30
0.0
 11
-1534.097164166081
 21
174.782162698415
 31
0.0
  0
ARC
  5
3242
330
18
100
AcDbEntity
  8
DISEGNO
100
AcDbCircle
 10
-1548.097164166081
 20
168.5821626984143
 30
0.0
 40
1.0
100
AcDbArc
 50
179.999999995157
 51
270.0
  0
ARC
  5
3243
330
18
100
AcDbEntity
  8
DISEGNO
100
AcDbCircle
 10
-1548.097164166081
 20
172.782162698415
 30
0.0
 40
1.0
100
AcDbArc
 50
90.0
 51
179.9999946522192
  0
LINE
  5
3244
330
18
100
AcDbEntity
  8
DISEGNO
100
AcDbLine
 10
-1558.097164166081
 20
162.282162698415
 30
0.0
 11
-1545.097164166081
 21
162.282162698415
 31
0.0
  0
LINE
  5
3245
330
18
100
AcDbEntity
  8
ASSI
100
AcDbLine
 10
-1562.597164166081
 20
159.657162698415
 30
0.0
 11
-1562.597164166081
 21
175.9231626984147
 31
0.0
  0
ARC
  5
3246
330
18
100
AcDbEntity
  8
DISEGNO
100
AcDbCircle
 10
-1558.097164166081
 20
165.782162698415
 30
0.0
 40
0.5
100
AcDbArc
 50
90.0
 51
180.0
  0
ARC
  5
3247
330
18
100
AcDbEntity
  8
DISEGNO
100
AcDbCircle
 10
-1558.097164166081
 20
162.782162698415
 30
0.0
 40
0.5
100
AcDbArc
 50
180.0
 51
270.0
  0
LINE
  5
3248
330
18
100
AcDbEntity
  8
DISEGNO
100
AcDbLine
 10
-1558.597164166081
 20
165.782162698415
 30
0.0
 11
-1558.597164166081
 21
162.782162698415
 31
0.0
  0
LINE
  5
3249
330
18
100
AcDbEntity
  8
DISEGNO
100
AcDbLine
 10
-1555.597164166081
 20
166.282162698415
 30
0.0
 11
-1558.097164166081
 21
166.282162698415
 31
0.0
  0
ARC
  5
324A
330
18
100
AcDbEntity
  8
DISEGNO
100
AcDbCircle
 10
-1561.597164166081
 20
166.782162698415
 30
0.0
 40
6.5
100
AcDbArc
 50
0.0
 51
90.0
  0
LINE
  5
324B
330
18
100
AcDbEntity
  8
DISEGNO
100
AcDbLine
 10
-1561.597164166081
 20
173.282162698415
 30
0.0
 11
-1563.597164166081
 21
173.282162698415
 31
0.0
  0
ARC
  5
324C
330
18
100
AcDbEntity
  8
DISEGNO
100
AcDbCircle
 10
-1555.597164166081
 20
166.782162698415
 30
0.0
 40
0.5
100
AcDbArc
 50
270.0
 51
0.0
  0
LINE
  5
324D
330
18
100
AcDbEntity
  8
DISEGNO
100
AcDbLine
 10
-1549.097164166081
 20
172.782162698415
 30
0.0
 11
-1549.097164166081
 21
168.5821626984143
 31
0.0
  0
LINE
  5
324E
330
18
100
AcDbEntity
  8
DISEGNO
100
AcDbLine
 10
-1542.097164166081
 20
162.532162698415
 30
0.0
 11
-1542.097164166081
 21
162.282162698415
 31
0.0
  0
LINE
  5
324F
330
18
100
AcDbEntity
  8
DISEGNO
100
AcDbLine
 10
-1545.097164166081
 20
162.532162698415
 30
0.0
 11
-1545.097164166081
 21
162.282162698415
 31
0.0
  0
LINE
  5
3250
330
18
100
AcDbEntity
  8
DISEGNO
100
AcDbLine
 10
-1542.097164166081
 20
162.532162698415
 30
0.0
 11
-1545.097164166081
 21
162.532162698415
 31
0.0
  0
LINE
  5
3251
330
18
100
AcDbEntity
  8
DISEGNO
100
AcDbLine
 10
-1548.097164166081
 20
173.782162698415
 30
0.0
 11
-1535.097164166081
 21
173.782162698415
 31
0.0
  0
ARC
  5
3252
330
18
100
AcDbEntity
  8
DISEGNO
100
AcDbCircle
 10
-1535.097164166081
 20
174.782162698415
 30
0.0
 40
1.0
100
AcDbArc
 50
270.0
 51
0.0
  0
LINE
  5
3253
330
18
100
AcDbEntity
  8
NORMALI
100
AcDbLine
 10
-1549.597164166079
 20
187.382162698415
 30
0.0
 11
-1548.59716416608
 21
186.382162698415
 31
0.0
  0
ARC
  5
3254
330
18
100
AcDbEntity
  8
DISEGNO
100
AcDbCircle
 10
-1547.19716416608
 20
186.282162698415
 30
0.0
 40
3.0
100
AcDbArc
 50
191.9999999999998
 51
270.0
  0
LINE
  5
3255
330
18
100
AcDbEntity
  8
DISEGNO
100
AcDbLine
 10
-1555.597164166081
 20
184.7111626984151
 30
0.0
 11
-1557.797164166082
 21
195.3031626984157
 31
0.0
  0
LINE
  5
3256
330
18
100
AcDbEntity
  8
DISEGNO
100
AcDbLine
 10
-1563.597164166081
 20
191.3861626984144
 30
0.0
 11
-1563.597164166081
 21
183.8631626984152
 31
0.0
  0
LINE
  5
3257
330
18
100
AcDbEntity
  8
NORMALI
100
AcDbLine
 10
-1549.597164166078
 20
203.7821626984151
 30
0.0
 11
-1549.597164166079
 21
187.382162698415
 31
0.0
  0
ARC
  5
3258
330
18
100
AcDbEntity
  8
DISEGNO
100
AcDbCircle
 10
-1559.597164166081
 20
183.8631626984152
 30
0.0
 40
4.08101
100
AcDbArc
 50
180.0
 51
11.99999999999979
  0
LINE
  5
325A
330
18
100
AcDbEntity
  8
INGOMBRI
100
AcDbLine
 10
-1537.597164166072
 20
197.2821626984151
 30
0.0
 11
-1537.597164166081
 21
182.782162698415
 31
0.0
  0
LINE
  5
325B
330
18
100
AcDbEntity
  8
INGOMBRI
100
AcDbLine
 10
-1547.19716416608
 20
183.282162698415
 30
0.0
 11
-1538.19716416608
 21
183.282162698415
 31
0.0
  0
ARC
  5
325C
330
18
100
AcDbEntity
  8
DISEGNO
100
AcDbCircle
 10
-1533.097164166081
 20
177.782162698415
 30
0.0
 40
1.0
100
AcDbArc
 50
90.0
 51
179.999999995157
  0
LINE
  5
325D
330
18
100
AcDbEntity
  8
INGOMBRI
100
AcDbLine
 10
-1537.597164166081
 20
182.782162698415
 30
0.0
 11
-1536.597164166081
 21
181.782162698415
 31
0.0
  0
LINE
  5
325E
330
18
100
AcDbEntity
  8
INGOMBRI
100
AcDbLine
 10
-1537.69716416608
 20
182.282162698415
 30
0.0
 11
-1537.69716416608
 21
182.782162698415
 31
0.0
  0
ARC
  5
325F
330
18
100
AcDbEntity
  8
INGOMBRI
100
AcDbCircle
 10
-1538.19716416608
 20
182.782162698415
 30
0.0
 40
0.5
100
AcDbArc
 50
0.0000107390996264
 51
90.0
  0
ARC
  5
3260
330
18
100
AcDbEntity
  8
INGOMBRI
100
AcDbCircle
 10
-1537.19716416608
 20
182.282162698415
 30
0.0
 40
0.5
100
AcDbArc
 50
180.0
 51
270.0
  0
LINE
  5
3261
330
18
100
AcDbEntity
  8
INGOMBRI
100
AcDbLine
 10
-1537.597164166072
 20
197.2821626984151
 30
0.0
 11
-1536.597164166072
 21
198.2821626984151
 31
0.0
  0
LINE
  5
3262
330
18
100
AcDbEntity
  8
DISEGNO
100
AcDbLine
 10
-1521.097164166081
 20
177.782162698415
 30
0.0
 11
-1521.097164166081
 21
174.782162698415
 31
0.0
  0
LINE
  5
3263
330
18
100
AcDbEntity
  8
DISEGNO
100
AcDbLine
 10
-1507.097164166081
 20
173.782162698415
 30
0.0
 11
-1520.097164166081
 21
173.782162698415
 31
0.0
  0
ARC
  5
3264
330
18
100
AcDbEntity
  8
DISEGNO
100
AcDbCircle
 10
-1520.097164166081
 20
174.782162698415
 30
0.0
 40
1.0
100
AcDbArc
 50
179.999999995157
 51
270.0
  0
LINE
  5
3265
330
18
100
AcDbEntity
  8
DISEGNO
100
AcDbLine
 10
-1510.097164166081
 20
162.532162698415
 30
0.0
 11
-1510.097164166081
 21
162.282162698415
 31
0.0
  0
LINE
  5
3266
330
18
100
AcDbEntity
  8
DISEGNO
100
AcDbLine
 10
-1513.097164166081
 20
162.532162698415
 30
0.0
 11
-1513.097164166081
 21
162.282162698415
 31
0.0
  0
LINE
  5
3267
330
18
100
AcDbEntity
  8
DISEGNO
100
AcDbLine
 10
-1513.097164166081
 20
162.532162698415
 30
0.0
 11
-1510.097164166081
 21
162.532162698415
 31
0.0
  0
ARC
  5
3268
330
18
100
AcDbEntity
  8
DISEGNO
100
AcDbCircle
 10
-1507.097164166081
 20
168.5821626984143
 30
0.0
 40
1.0
100
AcDbArc
 50
270.0
 51
0.0
  0
ARC
  5
3269
330
18
100
AcDbEntity
  8
DISEGNO
100
AcDbCircle
 10
-1507.097164166081
 20
172.782162698415
 30
0.0
 40
1.0
100
AcDbArc
 50
0.0
 51
90.0
  0
LINE
  5
326A
330
18
100
AcDbEntity
  8
DISEGNO
100
AcDbLine
 10
-1506.097164166081
 20
172.782162698415
 30
0.0
 11
-1506.097164166081
 21
168.5821626984143
 31
0.0
  0
LINE
  5
326B
330
18
100
AcDbEntity
  8
INGOMBRI
100
AcDbLine
 10
-1508.097164166081
 20
183.282162698415
 30
0.0
 11
-1516.997164166079
 21
183.282162698415
 31
0.0
  0
LINE
  5
326C
330
18
100
AcDbEntity
  8
INGOMBRI
100
AcDbLine
 10
-1517.597164166081
 20
197.2821626984151
 30
0.0
 11
-1517.597164166081
 21
182.782162698415
 31
0.0
  0
ARC
  5
326F
330
18
100
AcDbEntity
  8
DISEGNO
100
AcDbCircle
 10
-1522.097164166081
 20
177.782162698415
 30
0.0
 40
1.0
100
AcDbArc
 50
0.0
 51
90.0
  0
LINE
  5
3270
330
18
100
AcDbEntity
  8
INGOMBRI
100
AcDbLine
 10
-1518.597164166081
 20
181.782162698415
 30
0.0
 11
-1517.597164166081
 21
182.782162698415
 31
0.0
  0
LINE
  5
3271
330
18
100
AcDbEntity
  8
INGOMBRI
100
AcDbLine
 10
-1517.497164166079
 20
182.282162698415
 30
0.0
 11
-1517.497164166079
 21
182.782162698415
 31
0.0
  0
ARC
  5
3272
330
18
100
AcDbEntity
  8
INGOMBRI
100
AcDbCircle
 10
-1516.997164166079
 20
182.782162698415
 30
0.0
 40
0.5
100
AcDbArc
 50
90.0
 51
180.0
  0
ARC
  5
3273
330
18
100
AcDbEntity
  8
INGOMBRI
100
AcDbCircle
 10
-1517.997164166079
 20
182.282162698415
 30
0.0
 40
0.5
100
AcDbArc
 50
270.0
 51
0.0
  0
LINE
  5
3277
330
18
100
AcDbEntity
  8
INGOMBRI
100
AcDbLine
 10
-1518.597164166081
 20
198.2821626984151
 30
0.0
 11
-1517.597164166081
 21
197.2821626984151
 31
0.0
  0
LINE
  5
3278
330
18
100
AcDbEntity
  8
NORMALI
100
AcDbLine
 10
-1505.597164166079
 20
203.7821626984151
 30
0.0
 11
-1505.597164166079
 21
187.3821626984151
 31
0.0
  0
ARC
  5
3279
330
18
100
AcDbEntity
  8
DISEGNO
100
AcDbCircle
 10
-1508.097164166081
 20
186.282162698415
 30
0.0
 40
3.0
100
AcDbArc
 50
270.0
 51
348.0000000000002
  0
LINE
  5
327A
330
18
100
AcDbEntity
  8
NORMALI
100
AcDbLine
 10
-1506.59716416608
 20
186.3821626984151
 30
0.0
 11
-1505.597164166079
 21
187.3821626984151
 31
0.0
  0
CIRCLE
  5
327D
330
18
100
AcDbEntity
  8
NORMALI
100
AcDbCircle
 10
-1527.59716416608
 20
224.7821626984151
 30
0.0
 40
12.5
  0
LINE
  5
327E
330
18
100
AcDbEntity
  8
DISEGNO
100
AcDbLine
 10
-1549.597164166081
 20
211.7821626984151
 30
0.0
 11
-1503.59716416608
 21
211.7821626984151
 31
0.0
  0
LINE
  5
327F
330
18
100
AcDbEntity
  8
NORMALI
100
AcDbLine
 10
-1548.59716416608
 20
211.7821626984151
 30
0.0
 11
-1549.597164166079
 21
210.7821626984151
 31
0.0
  0
LINE
  5
3280
330
18
100
AcDbEntity
  8
DISEGNO
100
AcDbLine
 10
-1554.597164166081
 20
211.6291626984148
 30
0.0
 11
-1554.19716416608
 21
215.6771626984156
 31
0.0
  0
ARC
  5
3281
330
18
100
AcDbEntity
  8
INGOMBRI
100
AcDbCircle
 10
-1560.097164166081
 20
210.1821626984147
 30
0.0
 40
0.25
100
AcDbArc
 50
103.7340000000018
 51
175.4169999999994
  0
ARC
  5
3282
330
18
100
AcDbEntity
  8
INGOMBRI
100
AcDbCircle
 10
-1562.597164166081
 20
210.1821626984147
 30
0.0
 40
0.25
100
AcDbArc
 50
4.592839999998723
 51
76.2755999999922
  0
ARC
  5
3283
330
18
100
AcDbEntity
  8
INGOMBRI
100
AcDbCircle
 10
-1561.297164166082
 20
210.2821626984151
 30
0.0
 40
1.0
100
AcDbArc
 50
184.5930000000006
 51
355.4169999999994
  0
LINE
  5
3284
330
18
100
AcDbEntity
  8
DISEGNO
100
AcDbLine
 10
-1549.597164166081
 20
211.7821626984151
 30
0.0
 11
-1549.597164166079
 21
208.7821626984151
 31
0.0
  0
LINE
  5
3285
330
18
100
AcDbEntity
  8
DISEGNO
100
AcDbLine
 10
-1554.597164166081
 20
211.6291626984148
 30
0.0
 11
-1554.597164166081
 21
207.8541626984152
 31
0.0
  0
LINE
  5
3286
330
18
100
AcDbEntity
  8
NORMALI
100
AcDbLine
 10
-1549.597164166079
 20
208.7821626984151
 30
0.0
 11
-1549.597164166078
 21
203.7821626984151
 31
0.0
  0
ARC
  5
3288
330
18
100
AcDbEntity
  8
DISEGNO
100
AcDbCircle
 10
-1544.597164166081
 20
207.8541626984152
 30
0.0
 40
10.0
100
AcDbArc
 50
180.0
 51
191.9999999999998
  0
LINE
  5
3289
330
18
100
AcDbEntity
  8
DISEGNO
100
AcDbLine
 10
-1551.59716416608
 20
208.7821626984151
 30
0.0
 11
-1549.597164166078
 21
208.7821626984151
 31
0.0
  0
ARC
  5
328A
330
18
100
AcDbEntity
  8
DISEGNO
100
AcDbCircle
 10
-1549.597164166081
 20
211.3671626984142
 30
0.0
 40
5.0
100
AcDbArc
 50
174.0000000000015
 51
180.0
  0
LINE
  5
328B
330
18
100
AcDbEntity
  8
DISEGNO
100
AcDbLine
 10
-1556.527468158998
 20
216.7821626984151
 30
0.0
 11
-1555.19716416608
 21
216.7821626984151
 31
0.0
  0
ARC
  5
328C
330
18
100
AcDbEntity
  8
DISEGNO
100
AcDbCircle
 10
-1555.19716416608
 20
215.7821626984151
 30
0.0
 40
1.0
100
AcDbArc
 50
354.0000000000016
 51
90.0
  0
LINE
  5
328D
330
18
100
AcDbEntity
  8
DISEGNO
100
AcDbLine
 10
-1501.411564636251
 20
216.7105493213476
 30
0.0
 11
-1500.69716416608
 21
211.9281626984157
 31
0.0
  0
LINE
  5
328E
330
18
100
AcDbEntity
  8
NORMALI
100
AcDbLine
 10
-1505.597164166081
 20
210.7821626984151
 30
0.0
 11
-1505.597164166079
 21
203.7821626984151
 31
0.0
  0
LINE
  5
328F
330
18
100
AcDbEntity
  8
DISEGNO
100
AcDbLine
 10
-1500.597164166081
 20
211.3051626984143
 30
0.0
 11
-1500.597164166081
 21
207.8541626984152
 31
0.0
  0
LINE
  5
3290
330
18
100
AcDbEntity
  8
DISEGNO
100
AcDbLine
 10
-1505.597164166081
 20
208.2821626984133
 30
0.0
 11
-1503.59716416608
 21
208.2821626984133
 31
0.0
  0
ARC
  5
3292
330
18
100
AcDbEntity
  8
DISEGNO
100
AcDbCircle
 10
-1510.597164166081
 20
207.8541626984152
 30
0.0
 40
10.0
100
AcDbArc
 50
348.0000000000002
 51
0.0000000048429924
  0
LINE
  5
3293
330
18
100
AcDbEntity
  8
NORMALI
100
AcDbLine
 10
-1505.597164166081
 20
210.7821626984151
 30
0.0
 11
-1506.597164166081
 21
211.7821626984151
 31
0.0
  0
ARC
  5
3294
330
18
100
AcDbEntity
  8
DISEGNO
100
AcDbCircle
 10
-1503.597164166081
 20
211.3051626984143
 30
0.0
 40
3.0
100
AcDbArc
 50
0.0000000048429924
 51
11.99999999999979
  0
ARC
  5
3295
330
18
100
AcDbEntity
  8
DISEGNO
100
AcDbCircle
 10
-1499.928025789067
 20
216.9321626984147
 30
0.0
 40
1.5
100
AcDbArc
 50
90.0
 51
188.4961093133692
  0
LINE
  5
3296
330
18
100
AcDbEntity
  8
DISEGNO
100
AcDbLine
 10
-1475.097164166081
 20
212.7821626984151
 30
0.0
 11
-1475.097164166081
 21
194.7821626984151
 31
0.0
  0
ARC
  5
3297
330
18
100
AcDbEntity
  8
DISEGNO
100
AcDbCircle
 10
-1479.597164166081
 20
191.3861626984144
 30
0.0
 40
12.0
100
AcDbArc
 50
130.0000000000026
 51
180.0
  0
LINE
  5
3298
330
18
100
AcDbEntity
  8
DISEGNO
100
AcDbLine
 10
-1499.69716416608
 20
184.7111626984151
 30
0.0
 11
-1495.497164166079
 21
204.5951626984152
 31
0.0
  0
LINE
  5
3299
330
18
100
AcDbEntity
  8
DISEGNO
100
AcDbLine
 10
-1487.297164166082
 20
200.5791626984156
 30
0.0
 11
-1482.19716416608
 21
204.8931626984159
 31
0.0
  0
LINE
  5
329A
330
18
100
AcDbEntity
  8
DISEGNO
100
AcDbLine
 10
-1475.097164166081
 20
185.782162698415
 30
0.0
 11
-1475.097164166081
 21
164.282162698415
 31
0.0
  0
LINE
  5
329B
330
18
100
AcDbEntity
  8
DISEGNO
100
AcDbLine
 10
-1477.097164166081
 20
162.282162698415
 30
0.0
 11
-1488.097164166081
 21
162.282162698415
 31
0.0
  0
LINE
  5
329C
330
18
100
AcDbEntity
  8
ASSI
100
AcDbLine
 10
-1492.597164166081
 20
159.657162698415
 30
0.0
 11
-1492.597164166081
 21
175.9231626984147
 31
0.0
  0
ARC
  5
329D
330
18
100
AcDbEntity
  8
DISEGNO
100
AcDbCircle
 10
-1488.097164166081
 20
165.782162698415
 30
0.0
 40
0.5
100
AcDbArc
 50
90.0
 51
180.0
  0
ARC
  5
329E
330
18
100
AcDbEntity
  8
DISEGNO
100
AcDbCircle
 10
-1497.097164166081
 20
165.782162698415
 30
0.0
 40
0.5
100
AcDbArc
 50
0.0
 51
90.0
  0
ARC
  5
329F
330
18
100
AcDbEntity
  8
DISEGNO
100
AcDbCircle
 10
-1497.097164166081
 20
162.782162698415
 30
0.0
 40
0.5
100
AcDbArc
 50
270.0
 51
0.0
  0
LINE
  5
32A0
330
18
100
AcDbEntity
  8
DISEGNO
100
AcDbLine
 10
-1496.597164166081
 20
165.782162698415
 30
0.0
 11
-1496.597164166081
 21
162.782162698415
 31
0.0
  0
ARC
  5
32A1
330
18
100
AcDbEntity
  8
DISEGNO
100
AcDbCircle
 10
-1488.097164166081
 20
162.782162698415
 30
0.0
 40
0.5
100
AcDbArc
 50
180.0
 51
270.0
  0
LINE
  5
32A2
330
18
100
AcDbEntity
  8
DISEGNO
100
AcDbLine
 10
-1488.597164166081
 20
165.782162698415
 30
0.0
 11
-1488.597164166081
 21
162.782162698415
 31
0.0
  0
ARC
  5
32A3
330
18
100
AcDbEntity
  8
DISEGNO
100
AcDbCircle
 10
-1491.597164166081
 20
166.782162698415
 30
0.0
 40
6.5
100
AcDbArc
 50
0.0
 51
90.0
  0
LINE
  5
32A4
330
18
100
AcDbEntity
  8
DISEGNO
100
AcDbLine
 10
-1491.597164166081
 20
173.282162698415
 30
0.0
 11
-1493.597164166081
 21
173.282162698415
 31
0.0
  0
LINE
  5
32A5
330
18
100
AcDbEntity
  8
DISEGNO
100
AcDbLine
 10
-1497.097164166081
 20
166.282162698415
 30
0.0
 11
-1499.597164166081
 21
166.282162698415
 31
0.0
  0
LINE
  5
32A6
330
18
100
AcDbEntity
  8
DISEGNO
100
AcDbLine
 10
-1485.597164166081
 20
166.282162698415
 30
0.0
 11
-1488.097164166081
 21
166.282162698415
 31
0.0
  0
ARC
  5
32A7
330
18
100
AcDbEntity
  8
DISEGNO
100
AcDbCircle
 10
-1485.597164166081
 20
166.782162698415
 30
0.0
 40
0.5
100
AcDbArc
 50
270.0
 51
0.0
  0
ARC
  5
32A8
330
18
100
AcDbEntity
  8
DISEGNO
100
AcDbCircle
 10
-1477.097164166081
 20
164.282162698415
 30
0.0
 40
2.0
100
AcDbArc
 50
270.0
 51
0.0
  0
POINT
  5
32A9
330
18
100
AcDbEntity
  8
DISEGNO
100
AcDbPoint
 10
-1475.097164166081
 20
164.282162698415
 30
0.0
  0
ARC
  5
32AA
330
18
100
AcDbEntity
  8
DISEGNO
100
AcDbCircle
 10
-1479.597164166081
 20
191.2811626984148
 30
0.0
 40
6.5
100
AcDbArc
 50
90.0
 51
179.999997356169
  0
ARC
  5
32AB
330
18
100
AcDbEntity
  8
DISEGNO
100
AcDbCircle
 10
-1479.597164166081
 20
189.282162698415
 30
0.0
 40
6.5
100
AcDbArc
 50
179.9999892235992
 51
270.0
  0
LINE
  5
32AC
330
18
100
AcDbEntity
  8
ASSI
100
AcDbLine
 10
-1470.983596263979
 20
190.282162698415
 30
0.0
 11
-1489.330520986625
 21
190.282162698415
 31
0.0
  0
LINE
  5
32AD
330
18
100
AcDbEntity
  8
DISEGNO
100
AcDbLine
 10
-1491.597164166081
 20
191.3861626984144
 30
0.0
 11
-1491.597164166081
 21
183.8631626984152
 31
0.0
  0
LINE
  5
32AE
330
18
100
AcDbEntity
  8
DISEGNO
100
AcDbLine
 10
-1486.097164166081
 20
189.282162698415
 30
0.0
 11
-1486.097164166081
 21
191.2811626984148
 31
0.0
  0
ARC
  5
32AF
330
18
100
AcDbEntity
  8
DISEGNO
100
AcDbCircle
 10
-1475.597164166081
 20
185.782162698415
 30
0.0
 40
0.5
100
AcDbArc
 50
0.0
 51
90.0
  0
LINE
  5
32B0
330
18
100
AcDbEntity
  8
DISEGNO
100
AcDbLine
 10
-1479.097164166081
 20
185.782162698415
 30
0.0
 11
-1479.097164166081
 21
183.282162698415
 31
0.0
  0
ARC
  5
32B1
330
18
100
AcDbEntity
  8
DISEGNO
100
AcDbCircle
 10
-1479.597164166081
 20
183.282162698415
 30
0.0
 40
0.5
100
AcDbArc
 50
270.0
 51
0.0
  0
ARC
  5
32B2
330
18
100
AcDbEntity
  8
DISEGNO
100
AcDbCircle
 10
-1478.597164166081
 20
185.782162698415
 30
0.0
 40
0.5
100
AcDbArc
 50
90.0
 51
179.999999995157
  0
LINE
  5
32B3
330
18
100
AcDbEntity
  8
DISEGNO
100
AcDbLine
 10
-1478.597164166081
 20
186.282162698415
 30
0.0
 11
-1475.597164166081
 21
186.282162698415
 31
0.0
  0
ARC
  5
32B4
330
18
100
AcDbEntity
  8
DISEGNO
100
AcDbCircle
 10
-1475.597164166081
 20
194.7821626984151
 30
0.0
 40
0.5
100
AcDbArc
 50
270.0
 51
0.0
  0
LINE
  5
32B5
330
18
100
AcDbEntity
  8
DISEGNO
100
AcDbLine
 10
-1479.097164166081
 20
197.2821626984151
 30
0.0
 11
-1479.097164166081
 21
194.7821626984151
 31
0.0
  0
ARC
  5
32B6
330
18
100
AcDbEntity
  8
DISEGNO
100
AcDbCircle
 10
-1478.597164166081
 20
194.7821626984151
 30
0.0
 40
0.5
100
AcDbArc
 50
179.999999995157
 51
270.0
  0
ARC
  5
32B7
330
18
100
AcDbEntity
  8
DISEGNO
100
AcDbCircle
 10
-1479.597164166081
 20
197.2821626984151
 30
0.0
 40
0.5
100
AcDbArc
 50
0.0
 51
90.0
  0
LINE
  5
32B8
330
18
100
AcDbEntity
  8
DISEGNO
100
AcDbLine
 10
-1478.597164166081
 20
194.2821626984151
 30
0.0
 11
-1475.597164166081
 21
194.2821626984151
 31
0.0
  0
LINE
  5
32B9
330
18
100
AcDbEntity
  8
DISEGNO
100
AcDbLine
 10
-1475.097164166081
 20
245.7821626984151
 30
0.0
 11
-1475.097164166081
 21
215.7821626984151
 31
0.0
  0
LINE
  5
32BA
330
18
100
AcDbEntity
  8
DISEGNO
100
AcDbLine
 10
-1484.597164166081
 20
218.1761626984153
 30
0.0
 11
-1483.19716416608
 21
225.6021626984148
 31
0.0
  0
LINE
  5
32BB
330
18
100
AcDbEntity
  8
DISEGNO
100
AcDbLine
 10
-1482.097164166081
 20
210.9321626984147
 30
0.0
 11
-1487.69716416608
 21
210.9321626984147
 31
0.0
  0
ARC
  5
32BC
330
18
100
AcDbEntity
  8
DISEGNO
100
AcDbCircle
 10
-1487.69716416608
 20
202.9321626984148
 30
0.0
 40
8.0
100
AcDbArc
 50
90.0
 51
168.0000000000002
  0
LINE
  5
32BD
330
18
100
AcDbEntity
  8
DISEGNO
100
AcDbLine
 10
-1483.997164166079
 20
216.4321626984147
 30
0.0
 11
-1499.297164166082
 21
216.4321626984147
 31
0.0
  0
LINE
  5
32BE
330
18
100
AcDbEntity
  8
DISEGNO
100
AcDbLine
 10
-1499.585032131724
 20
217.1140306640591
 30
0.0
 11
-1498.785032131725
 21
217.9200306640597
 31
0.0
  0
ARC
  5
32BF
330
18
100
AcDbEntity
  8
DISEGNO
100
AcDbCircle
 10
-1498.997164166079
 20
218.1321626984155
 30
0.0
 40
0.3
100
AcDbArc
 50
314.9999999999954
 51
90.0
  0
ARC
  5
32C0
330
18
100
AcDbEntity
  8
DISEGNO
100
AcDbCircle
 10
-1484.297164166082
 20
218.1221626984152
 30
0.0
 40
0.3
100
AcDbArc
 50
169.5000000000004
 51
225.0000000000046
  0
LINE
  5
32C1
330
18
100
AcDbEntity
  8
DISEGNO
100
AcDbLine
 10
-1483.69716416608
 20
217.1141626984154
 30
0.0
 11
-1484.497164166079
 21
217.9091626984155
 31
0.0
  0
ARC
  5
32C2
330
18
100
AcDbEntity
  8
DISEGNO
100
AcDbCircle
 10
-1483.997164166079
 20
216.8321626984144
 30
0.0
 40
0.4
100
AcDbArc
 50
270.0
 51
45.0000000000046
  0
LINE
  5
32C3
330
18
100
AcDbEntity
  8
DISEGNO
100
AcDbLine
 10
-1481.097164166081
 20
209.9321626984147
 30
0.0
 11
-1481.097164166081
 21
207.192162698415
 31
0.0
  0
ARC
  5
32C4
330
18
100
AcDbEntity
  8
DISEGNO
100
AcDbCircle
 10
-1484.097164166081
 20
207.192162698415
 30
0.0
 40
3.0
100
AcDbArc
 50
310.0000000000026
 51
0.0000000048429924
  0
ARC
  5
32C5
330
18
100
AcDbEntity
  8
DISEGNO
100
AcDbCircle
 10
-1482.097164166081
 20
209.9321626984147
 30
0.0
 40
1.0
100
AcDbArc
 50
0.0000000048429924
 51
90.0
  0
LINE
  5
32C6
330
18
100
AcDbEntity
  8
DISEGNO
100
AcDbLine
 10
-1475.297164166082
 20
215.7821626984151
 30
0.0
 11
-1475.097164166081
 21
215.7821626984151
 31
0.0
  0
LINE
  5
32C7
330
18
100
AcDbEntity
  8
DISEGNO
100
AcDbLine
 10
-1475.297164166082
 20
212.7821626984151
 30
0.0
 11
-1475.097164166081
 21
212.7821626984151
 31
0.0
  0
LINE
  5
32C8
330
18
100
AcDbEntity
  8
DISEGNO
100
AcDbLine
 10
-1475.297164166082
 20
215.7821626984151
 30
0.0
 11
-1475.297164166082
 21
212.7821626984151
 31
0.0
  0
LINE
  5
32C9
330
18
100
AcDbEntity
  8
DISEGNO
100
AcDbLine
 10
-1483.097164166081
 20
246.4451626984156
 30
0.0
 11
-1483.097164166081
 21
226.5141626984151
 31
0.0
  0
ARC
  5
32CA
330
18
100
AcDbEntity
  8
DISEGNO
100
AcDbCircle
 10
-1488.097164166081
 20
226.5141626984151
 30
0.0
 40
5.0
100
AcDbArc
 50
349.5000000000004
 51
0.0000000048429924
  0
LINE
  5
32CB
330
18
100
AcDbEntity
  8
DISEGNO
100
AcDbLine
 10
-1475.297164166082
 20
245.7821626984151
 30
0.0
 11
-1475.097164166081
 21
245.7821626984151
 31
0.0
  0
LINE
  5
32CC
330
18
100
AcDbEntity
  8
DISEGNO
100
AcDbLine
 10
-1503.097164166081
 20
269.7821626984149
 30
0.0
 11
-1483.597164166081
 21
269.7821626984149
 31
0.0
  0
LINE
  5
32CD
330
18
100
AcDbEntity
  8
DISEGNO
100
AcDbLine
 10
-1500.097164166081
 20
254.433162698415
 30
0.0
 11
-1498.997164166079
 21
254.4311626984145
 31
0.0
  0
LINE
  5
32CE
330
18
100
AcDbEntity
  8
DISEGNO
100
AcDbLine
 10
-1501.597164166081
 20
267.2821626984151
 30
0.0
 11
-1477.097164166081
 21
267.2821626984151
 31
0.0
  0
LINE
  5
32CF
330
18
100
AcDbEntity
  8
DISEGNO
100
AcDbLine
 10
-1541.597164166079
 20
257.7821626984151
 30
0.0
 11
-1513.597164166079
 21
257.7821626984151
 31
0.0
  0
LINE
  5
32D1
330
18
100
AcDbEntity
  8
INGOMBRI
100
AcDbLine
 10
-1507.597164166081
 20
263.1821626984152
 30
0.0
 11
-1547.597164166081
 21
263.1821626984152
 31
0.0
  0
LINE
  5
32D2
330
18
100
AcDbEntity
  8
INGOMBRI
100
AcDbLine
 10
-1507.597164166083
 20
260.8821626984152
 30
0.0
 11
-1547.597164166081
 21
260.8821626984152
 31
0.0
  0
LINE
  5
32D3
330
18
100
AcDbEntity
  8
INGOMBRI
100
AcDbLine
 10
-1508.267037147161
 20
258.3821626984152
 30
0.0
 11
-1546.927291185
 21
258.3821626984152
 31
0.0
  0
LINE
  5
32D4
330
18
100
AcDbEntity
  8
DISEGNO
100
AcDbLine
 10
-1551.59716416608
 20
253.0821626984151
 30
0.0
 11
-1503.59716416608
 21
253.0821626984151
 31
0.0
  0
ARC
  5
32D5
330
18
100
AcDbEntity
  8
DISEGNO
100
AcDbCircle
 10
-1548.597164166081
 20
263.2821626984151
 30
0.0
 40
0.5
100
AcDbArc
 50
90.0
 51
180.0
  0
ARC
  5
32D6
330
18
100
AcDbEntity
  8
DISEGNO
100
AcDbCircle
 10
-1548.597164166081
 20
258.2821626984151
 30
0.0
 40
0.5
100
AcDbArc
 50
180.0
 51
270.0
  0
LINE
  5
32D7
330
18
100
AcDbEntity
  8
DISEGNO
100
AcDbLine
 10
-1543.597164166081
 20
256.0821626984144
 30
0.0
 11
-1550.69716416608
 21
256.0821626984144
 31
0.0
  0
LINE
  5
32D8
330
18
100
AcDbEntity
  8
DISEGNO
100
AcDbLine
 10
-1552.097164166079
 20
267.7821626984151
 30
0.0
 11
-1541.597164166079
 21
267.7821626984151
 31
0.0
  0
LINE
  5
32D9
330
18
100
AcDbEntity
  8
DISEGNO
100
AcDbLine
 10
-1543.597164166081
 20
265.7821626984151
 30
0.0
 11
-1552.597164166081
 21
265.7821626984151
 31
0.0
  0
LINE
  5
32DA
330
18
100
AcDbEntity
  8
DISEGNO
100
AcDbLine
 10
-1549.097164166081
 20
258.2821626984151
 30
0.0
 11
-1549.097164166081
 21
263.2821626984151
 31
0.0
  0
ARC
  5
32DB
330
18
100
AcDbEntity
  8
DISEGNO
100
AcDbCircle
 10
-1552.997164166079
 20
258.0821626984144
 30
0.0
 40
1.5
100
AcDbArc
 50
13.00000000000027
 51
166.9999999999997
  0
LINE
  5
32DC
330
18
100
AcDbEntity
  8
DISEGNO
100
AcDbLine
 10
-1555.19716416608
 20
256.0821626984144
 30
0.0
 11
-1556.527468158998
 21
256.0821626984144
 31
0.0
  0
ARC
  5
32DD
330
18
100
AcDbEntity
  8
DISEGNO
100
AcDbCircle
 10
-1555.19716416608
 20
256.3821626984155
 30
0.0
 40
0.3
100
AcDbArc
 50
270.0
 51
346.9999999999997
  0
LINE
  5
32DE
330
18
100
AcDbEntity
  8
DISEGNO
100
AcDbLine
 10
-1554.897164166081
 20
256.3141626984144
 30
0.0
 11
-1554.39716416608
 21
258.4191626984157
 31
0.0
  0
ARC
  5
32DF
330
18
100
AcDbEntity
  8
DISEGNO
100
AcDbCircle
 10
-1550.69716416608
 20
256.3821626984155
 30
0.0
 40
0.3
100
AcDbArc
 50
193.0000000000003
 51
270.0
  0
LINE
  5
32E0
330
18
100
AcDbEntity
  8
DISEGNO
100
AcDbLine
 10
-1550.997164166079
 20
256.3141626984144
 30
0.0
 11
-1551.497164166079
 21
258.4191626984157
 31
0.0
  0
LINE
  5
32E1
330
18
100
AcDbEntity
  8
DISEGNO
100
AcDbLine
 10
-1552.097164166079
 20
269.7821626984149
 30
0.0
 11
-1552.097164166079
 21
267.7821626984151
 31
0.0
  0
ARC
  5
32E2
330
18
100
AcDbEntity
  8
DISEGNO
100
AcDbCircle
 10
-1553.597164166081
 20
266.7821626984151
 30
0.0
 40
0.5
100
AcDbArc
 50
0.0
 51
90.0
  0
ARC
  5
32E3
330
18
100
AcDbEntity
  8
DISEGNO
100
AcDbCircle
 10
-1552.597164166081
 20
266.2821626984151
 30
0.0
 40
0.5
100
AcDbArc
 50
179.9999946522192
 51
270.0
  0
LINE
  5
32E4
330
18
100
AcDbEntity
  8
DISEGNO
100
AcDbLine
 10
-1553.097164166081
 20
266.7821626984151
 30
0.0
 11
-1553.097164166081
 21
266.2821626984151
 31
0.0
  0
LINE
  5
32E5
330
18
100
AcDbEntity
  8
DISEGNO
100
AcDbLine
 10
-1541.597164166079
 20
256.0821626984151
 30
0.0
 11
-1541.597164166079
 21
267.7821626984151
 31
0.0
  0
LINE
  5
32E6
330
18
100
AcDbEntity
  8
INGOMBRI
100
AcDbLine
 10
-1547.597164166078
 20
260.8821626984152
 30
0.0
 11
-1546.927291185
 21
258.3821626984152
 31
0.0
  0
LINE
  5
32E7
330
18
100
AcDbEntity
  8
DISEGNO
100
AcDbLine
 10
-1543.097164166081
 20
256.5821626984144
 30
0.0
 11
-1543.097164166081
 21
257.2821626984151
 31
0.0
  0
ARC
  5
32E8
330
18
100
AcDbEntity
  8
DISEGNO
100
AcDbCircle
 10
-1543.597164166081
 20
256.5821626984144
 30
0.0
 40
0.5
100
AcDbArc
 50
270.0
 51
0.0
  0
ARC
  5
32E9
330
18
100
AcDbEntity
  8
DISEGNO
100
AcDbCircle
 10
-1543.597164166081
 20
257.2821626984151
 30
0.0
 40
0.5
100
AcDbArc
 50
0.0
 51
90.0
  0
LINE
  5
32EA
330
18
100
AcDbEntity
  8
DISEGNO
100
AcDbLine
 10
-1543.097164166081
 20
256.5821626984144
 30
0.0
 11
-1543.097164166081
 21
257.2821626984151
 31
0.0
  0
LINE
  5
32EB
330
18
100
AcDbEntity
  8
DISEGNO
100
AcDbLine
 10
-1543.597164166081
 20
257.7821626984151
 30
0.0
 11
-1548.597164166081
 21
257.7821626984151
 31
0.0
  0
ARC
  5
32EC
330
18
100
AcDbEntity
  8
DISEGNO
100
AcDbCircle
 10
-1544.59716416608
 20
256.0821626984151
 30
0.0
 40
3.0
100
AcDbArc
 50
270.0
 51
0.0
  0
ARC
  5
32ED
330
18
100
AcDbEntity
  8
DISEGNO
100
AcDbCircle
 10
-1543.597164166081
 20
264.2821626984151
 30
0.0
 40
0.5
100
AcDbArc
 50
270.0
 51
0.0
  0
LINE
  5
32EE
330
18
100
AcDbEntity
  8
DISEGNO
100
AcDbLine
 10
-1543.097164166081
 20
264.2821626984151
 30
0.0
 11
-1543.097164166081
 21
265.2821626984151
 31
0.0
  0
ARC
  5
32EF
330
18
100
AcDbEntity
  8
DISEGNO
100
AcDbCircle
 10
-1543.597164166081
 20
265.2821626984151
 30
0.0
 40
0.5
100
AcDbArc
 50
0.0
 51
90.0
  0
LINE
  5
32F0
330
18
100
AcDbEntity
  8
INGOMBRI
100
AcDbLine
 10
-1547.597164166081
 20
263.1821626984152
 30
0.0
 11
-1547.597164166079
 21
260.8821626984152
 31
0.0
  0
LINE
  5
32F1
330
18
100
AcDbEntity
  8
DISEGNO
100
AcDbLine
 10
-1543.597164166081
 20
263.7821626984151
 30
0.0
 11
-1548.597164166081
 21
263.7821626984151
 31
0.0
  0
LINE
  5
32F2
330
18
100
AcDbEntity
  8
INGOMBRI
100
AcDbLine
 10
-1507.597164166085
 20
260.8821626984152
 30
0.0
 11
-1508.267037147163
 21
258.3821626984152
 31
0.0
  0
LINE
  5
32F3
330
18
100
AcDbEntity
  8
DISEGNO
100
AcDbLine
 10
-1506.097164166081
 20
258.2821626984151
 30
0.0
 11
-1506.097164166081
 21
263.2821626984151
 31
0.0
  0
LINE
  5
32F4
330
18
100
AcDbEntity
  8
DISEGNO
100
AcDbLine
 10
-1513.597164166079
 20
256.0821626984151
 30
0.0
 11
-1513.597164166079
 21
267.7821626984151
 31
0.0
  0
LINE
  5
32F5
330
18
100
AcDbEntity
  8
DISEGNO
100
AcDbLine
 10
-1511.597164166081
 20
257.7821626984151
 30
0.0
 11
-1506.597164166081
 21
257.7821626984151
 31
0.0
  0
LINE
  5
32F6
330
18
100
AcDbEntity
  8
DISEGNO
100
AcDbLine
 10
-1502.597164166081
 20
256.0821626984144
 30
0.0
 11
-1511.597164166081
 21
256.0821626984144
 31
0.0
  0
LINE
  5
32F7
330
18
100
AcDbEntity
  8
DISEGNO
100
AcDbLine
 10
-1512.097164166081
 20
256.5821626984144
 30
0.0
 11
-1512.097164166081
 21
257.2821626984151
 31
0.0
  0
ARC
  5
32F8
330
18
100
AcDbEntity
  8
DISEGNO
100
AcDbCircle
 10
-1511.597164166081
 20
257.2821626984151
 30
0.0
 40
0.5
100
AcDbArc
 50
90.0
 51
180.0
  0
ARC
  5
32F9
330
18
100
AcDbEntity
  8
DISEGNO
100
AcDbCircle
 10
-1511.597164166081
 20
256.5821626984144
 30
0.0
 40
0.5
100
AcDbArc
 50
180.0
 51
270.0
  0
LINE
  5
32FA
330
18
100
AcDbEntity
  8
DISEGNO
100
AcDbLine
 10
-1512.097164166081
 20
256.5821626984144
 30
0.0
 11
-1512.097164166081
 21
257.2821626984151
 31
0.0
  0
ARC
  5
32FB
330
18
100
AcDbEntity
  8
DISEGNO
100
AcDbCircle
 10
-1510.59716416608
 20
256.0821626984151
 30
0.0
 40
3.0
100
AcDbArc
 50
180.0
 51
270.0
  0
ARC
  5
32FC
330
18
100
AcDbEntity
  8
DISEGNO
100
AcDbCircle
 10
-1506.597164166081
 20
258.2821626984151
 30
0.0
 40
0.5
100
AcDbArc
 50
270.0
 51
0.0
  0
ARC
  5
32FD
330
18
100
AcDbEntity
  8
DISEGNO
100
AcDbCircle
 10
-1500.097164166081
 20
255.4331626984149
 30
0.0
 40
1.0
100
AcDbArc
 50
225.0000000000046
 51
269.9179999999972
  0
ARC
  5
32FE
330
18
100
AcDbEntity
  8
DISEGNO
100
AcDbCircle
 10
-1502.597164166081
 20
255.0821626984144
 30
0.0
 40
1.0
100
AcDbArc
 50
45.0000000000046
 51
90.0
  0
LINE
  5
32FF
330
18
100
AcDbEntity
  8
DISEGNO
100
AcDbLine
 10
-1500.797164166082
 20
254.7251626984144
 30
0.0
 11
-1501.897164166081
 21
255.7891626984147
 31
0.0
  0
LINE
  5
3300
330
18
100
AcDbEntity
  8
DISEGNO
100
AcDbLine
 10
-1511.597164166081
 20
263.7821626984151
 30
0.0
 11
-1506.597164166081
 21
263.7821626984151
 31
0.0
  0
LINE
  5
3301
330
18
100
AcDbEntity
  8
DISEGNO
100
AcDbLine
 10
-1513.597164166081
 20
267.7821626984151
 30
0.0
 11
-1503.097164166081
 21
267.7821626984151
 31
0.0
  0
LINE
  5
3302
330
18
100
AcDbEntity
  8
DISEGNO
100
AcDbLine
 10
-1511.597164166081
 20
265.7821626984151
 30
0.0
 11
-1502.597164166081
 21
265.7821626984151
 31
0.0
  0
ARC
  5
3303
330
18
100
AcDbEntity
  8
INGOMBRI
100
AcDbCircle
 10
-1511.597164166081
 20
264.2821626984151
 30
0.0
 40
0.5
100
AcDbArc
 50
180.0
 51
270.0
  0
LINE
  5
3304
330
18
100
AcDbEntity
  8
DISEGNO
100
AcDbLine
 10
-1512.097164166081
 20
264.2821626984151
 30
0.0
 11
-1512.097164166081
 21
265.2821626984151
 31
0.0
  0
ARC
  5
3305
330
18
100
AcDbEntity
  8
DISEGNO
100
AcDbCircle
 10
-1511.597164166081
 20
265.2821626984151
 30
0.0
 40
0.5
100
AcDbArc
 50
90.0
 51
180.0
  0
ARC
  5
3306
330
18
100
AcDbEntity
  8
DISEGNO
100
AcDbCircle
 10
-1506.597164166081
 20
263.2821626984151
 30
0.0
 40
0.5
100
AcDbArc
 50
0.0
 51
90.0
  0
LINE
  5
3307
330
18
100
AcDbEntity
  8
INGOMBRI
100
AcDbLine
 10
-1507.597164166081
 20
263.1821626984152
 30
0.0
 11
-1507.597164166079
 21
260.8821626984152
 31
0.0
  0
LINE
  5
3308
330
18
100
AcDbEntity
  8
DISEGNO
100
AcDbLine
 10
-1503.097164166081
 20
269.7821626984149
 30
0.0
 11
-1503.097164166081
 21
267.7821626984151
 31
0.0
  0
ARC
  5
3309
330
18
100
AcDbEntity
  8
DISEGNO
100
AcDbCircle
 10
-1501.597164166081
 20
266.7821626984151
 30
0.0
 40
0.5
100
AcDbArc
 50
90.0
 51
179.9999999951602
  0
ARC
  5
330A
330
18
100
AcDbEntity
  8
DISEGNO
100
AcDbCircle
 10
-1502.597164166081
 20
266.2821626984151
 30
0.0
 40
0.5
100
AcDbArc
 50
270.0
 51
0.0
  0
LINE
  5
330B
330
18
100
AcDbEntity
  8
DISEGNO
100
AcDbLine
 10
-1502.097164166081
 20
266.7821626984151
 30
0.0
 11
-1502.097164166081
 21
266.2821626984151
 31
0.0
  0
LINE
  5
330C
330
18
100
AcDbEntity
  8
DISEGNO
100
AcDbLine
 10
-1483.597164166081
 20
292.2821626984149
 30
0.0
 11
-1483.597164166081
 21
269.7821626984149
 31
0.0
  0
LINE
  5
330D
330
18
100
AcDbEntity
  8
DISEGNO
100
AcDbLine
 10
-1484.597164166081
 20
254.6871626984158
 30
0.0
 11
-1483.19716416608
 21
247.353162698415
 31
0.0
  0
LINE
  5
330E
330
18
100
AcDbEntity
  8
DISEGNO
100
AcDbLine
 10
-1483.997164166079
 20
256.4321626984147
 30
0.0
 11
-1498.997164166079
 21
256.4321626984147
 31
0.0
  0
ARC
  5
330F
330
18
100
AcDbEntity
  8
DISEGNO
100
AcDbCircle
 10
-1498.997164166079
 20
255.9321626984147
 30
0.0
 40
0.5
100
AcDbArc
 50
90.00080000000238
 51
225.0009999999995
  0
ARC
  5
3310
330
18
100
AcDbEntity
  8
DISEGNO
100
AcDbCircle
 10
-1498.997164166079
 20
254.7321626984158
 30
0.0
 40
0.3
100
AcDbArc
 50
269.9179999999972
 51
45.0000000000046
  0
LINE
  5
3311
330
18
100
AcDbEntity
  8
DISEGNO
100
AcDbLine
 10
-1499.39716416608
 20
255.5781626984154
 30
0.0
 11
-1498.69716416608
 21
254.9441626984154
 31
0.0
  0
ARC
  5
3312
330
18
100
AcDbEntity
  8
DISEGNO
100
AcDbCircle
 10
-1484.297164166082
 20
254.7421626984142
 30
0.0
 40
0.3
100
AcDbArc
 50
134.9999999999954
 51
190.4999999999996
  0
LINE
  5
3313
330
18
100
AcDbEntity
  8
DISEGNO
100
AcDbLine
 10
-1483.69716416608
 20
255.7491626984157
 30
0.0
 11
-1484.497164166079
 21
254.9541626984156
 31
0.0
  0
ARC
  5
3314
330
18
100
AcDbEntity
  8
DISEGNO
100
AcDbCircle
 10
-1483.997164166079
 20
256.0321626984151
 30
0.0
 40
0.4
100
AcDbArc
 50
314.9999999999954
 51
90.0
  0
LINE
  5
3315
330
18
100
AcDbEntity
  8
DISEGNO
100
AcDbLine
 10
-1475.097164166081
 20
265.2821626984151
 30
0.0
 11
-1475.097164166081
 21
248.7821626984151
 31
0.0
  0
LINE
  5
3316
330
18
100
AcDbEntity
  8
DISEGNO
100
AcDbLine
 10
-1475.297164166082
 20
248.7821626984151
 30
0.0
 11
-1475.097164166081
 21
248.7821626984151
 31
0.0
  0
ARC
  5
3317
330
18
100
AcDbEntity
  8
DISEGNO
100
AcDbCircle
 10
-1477.097164166081
 20
265.2821626984151
 30
0.0
 40
2.0
100
AcDbArc
 50
0.0
 51
90.0
  0
LINE
  5
3381
330
18
100
AcDbEntity
  8
NORMALI
100
AcDbLine
 10
-1517.597164166081
 20
186.382162698415
 30
0.0
 11
-1506.59716416608
 21
186.3821626984151
 31
0.0
  0
LINE
  5
35D8
330
18
100
AcDbEntity
  8
ASSI
100
AcDbLine
 10
-1313.670890630014
 20
148.8648430176426
 30
0.0
 11
-1313.670890630014
 21
278.6376719865757
 31
0.0
  0
LINE
  5
35EC
330
18
100
AcDbEntity
  8
ASSI
100
AcDbLine
 10
-1227.397299908305
 20
215.6821626984152
 30
0.0
 11
-1382.222649864845
 21
215.6821626984152
 31
0.0
  0
LINE
  5
3C24
330
18
100
AcDbEntity
  8
4360048-TLF MCR_S 105.iam.1-Spigoli visibili
  6
Continuous
 62
     7
 48
0.0
370
    30
100
AcDbLine
 10
-581.6697359786903
 20
273.0821626984154
 30
0.0
 11
-571.6697359786904
 21
273.0821626984154
 31
0.0
  0
LINE
  5
3C25
330
18
100
AcDbEntity
  8
4360048-TLF MCR_S 105.iam.1-Spigoli visibili
  6
Continuous
 62
     7
 48
0.0
370
    30
100
AcDbLine
 10
-572.1697359786904
 20
273.5821626984153
 30
0.0
 11
-581.1697359786903
 21
273.5821626984153
 31
0.0
  0
LINE
  5
3C26
330
18
100
AcDbEntity
  8
4360048-TLF MCR_S 105.iam.1-Spigoli visibili
  6
Continuous
 62
     7
 48
0.0
370
    30
100
AcDbLine
 10
-570.7697359786889
 20
269.0821626984154
 30
0.0
 11
-582.5697359786899
 21
269.0821626984154
 31
0.0
  0
LINE
  5
3C27
330
18
100
AcDbEntity
  8
4360048-TLF MCR_S 105.iam.1-Spigoli visibili
  6
Continuous
 62
     7
 48
0.0
370
    30
100
AcDbLine
 10
-679.6697359786939
 20
267.7821626984151
 30
0.0
 11
-553.6697359786939
 21
267.7821626984151
 31
0.0
  0
LINE
  5
3C28
330
18
100
AcDbEntity
  8
4360048-TLF MCR_S 105.iam.1-Spigoli visibili
  6
Continuous
 62
     7
 48
0.0
370
    30
100
AcDbLine
 10
-554.6697359786939
 20
267.2821626984152
 30
0.0
 11
-681.6697359786949
 21
267.2821626984152
 31
0.0
  0
LINE
  5
3C29
330
18
100
AcDbEntity
  8
4360048-TLF MCR_S 105.iam.1-Spigoli visibili
  6
Continuous
 62
     7
 48
0.0
370
    30
100
AcDbLine
 10
-554.6697359786958
 20
186.2821626984151
 30
0.0
 11
-656.1697359786958
 21
186.2821626984151
 31
0.0
  0
LINE
  5
3C2A
330
18
100
AcDbEntity
  8
4360048-TLF MCR_S 105.iam.1-Spigoli visibili
  6
Continuous
 62
     7
 48
0.0
370
    30
100
AcDbLine
 10
-554.6697359786958
 20
194.2821626984151
 30
0.0
 11
-656.1697359786958
 21
194.2821626984151
 31
0.0
  0
LINE
  5
3C2B
330
18
100
AcDbEntity
  8
4360048-TLF MCR_S 105.iam.1-Spigoli visibili
  6
Continuous
 62
     7
 48
0.0
370
    30
100
AcDbLine
 10
-554.6697359786939
 20
162.2821626984151
 30
0.0
 11
-681.6697359786949
 21
162.2821626984151
 31
0.0
  0
LINE
  5
3C2C
330
18
100
AcDbEntity
  8
4360048-TLF MCR_S 105.iam.1-Spigoli visibili
  6
Continuous
 62
     7
370
    30
100
AcDbLine
 10
-554.6697359787341
 20
-52.48564278832862
 30
0.0
 11
-681.6697359787341
 21
-52.48564278829087
 31
0.0
  0
LINE
  5
3C2D
330
18
100
AcDbEntity
  8
4360048-TLF MCR_S 105.iam.1-Spigoli visibili
  6
Continuous
 62
     7
370
    30
100
AcDbLine
 10
-554.6697359787032
 20
52.51435721166956
 30
0.0
 11
-681.6697359787032
 21
52.51435721170685
 31
0.0
  0
LINE
  5
3C2E
330
18
100
AcDbEntity
  8
4360048-TLF MCR_S 105.iam.1-Spigoli visibili
  6
Continuous
 62
     7
370
    30
100
AcDbLine
 10
-679.669735978705
 20
47.51435721170958
 30
0.0
 11
-553.669735978705
 21
47.51435721167228
 31
0.0
  0
LINE
  5
3C2F
330
18
100
AcDbEntity
  8
4360048-TLF MCR_S 105.iam.1-Spigoli visibili
  6
Continuous
 62
     7
370
    30
100
AcDbLine
 10
-679.6697359787323
 20
-47.48564278829087
 30
0.0
 11
-553.6697359787323
 21
-47.48564278832816
 31
0.0
  0
ARC
  5
3C30
330
18
100
AcDbEntity
  8
4360048-TLF MCR_S 105.iam.1-Spigoli visibili
  6
Continuous
 62
     7
370
    30
100
AcDbCircle
 10
-576.6697359787286
 20
-32.48564278832044
 30
0.0
 40
5.899999999999999
100
AcDbArc
 50
9.862282315343446
 51
4.769362101282041
  0
ARC
  5
3C31
330
18
100
AcDbEntity
  8
4360048-TLF MCR_S 105.iam.1-Spigoli visibili
  6
Continuous
 62
     7
370
    30
100
AcDbCircle
 10
-576.6697359787104
 20
32.51435721167866
 30
0.0
 40
5.9
100
AcDbArc
 50
2.525716686397963
 51
357.474283313576
  0
LINE
  5
3C32
330
18
100
AcDbEntity
  8
4360048-TLF MCR_S 105.iam.1-Spigoli visibili
  6
Continuous
 62
     7
370
    30
100
AcDbLine
 10
-573.806341387277
 20
-32.11916666770037
 30
0.0
 11
-575.5554163133402
 21
-29.82263227075498
 31
0.0
  0
LINE
  5
3C33
330
18
100
AcDbEntity
  8
4360048-TLF MCR_S 105.iam.1-Spigoli visibili
  6
Continuous
 62
     7
370
    30
100
AcDbLine
 10
-574.9206610526672
 20
-34.78217718526491
 30
0.0
 11
-573.806341387277
 21
-32.11916666770037
 31
0.0
  0
LINE
  5
3C34
330
18
100
AcDbEntity
  8
4360048-TLF MCR_S 105.iam.1-Spigoli visibili
  6
Continuous
 62
     7
370
    30
100
AcDbLine
 10
-573.7829846327623
 20
32.51435721167957
 30
0.0
 11
-575.2263603057346
 21
35.01435721167957
 31
0.0
  0
LINE
  5
3C35
330
18
100
AcDbEntity
  8
4360048-TLF MCR_S 105.iam.1-Spigoli visibili
  6
Continuous
 62
     7
370
    30
100
AcDbLine
 10
-575.2263603057364
 20
30.01435721167957
 30
0.0
 11
-573.7829846327623
 21
32.51435721167957
 31
0.0
  0
LINE
  5
3C36
330
18
100
AcDbEntity
  8
DISEGNO
100
AcDbLine
 10
-1215.907889789431
 20
267.2821626984145
 30
0.0
 11
-548.669735978694
 21
267.2821626984152
 31
0.0
  0
LINE
  5
3C37
330
18
100
AcDbEntity
  8
ASSI
100
AcDbLine
 10
-535.4425700205034
 20
190.2821626984008
 30
0.0
 11
-1235.259268587497
 21
190.2821626984004
 31
0.0
  0
LINE
  5
3C38
330
18
100
AcDbEntity
  8
ASSI
100
AcDbLine
 10
-535.4425700205034
 20
0.0143572117063968
 30
0.0
 11
-1404.403597216478
 21
0.0143572117063968
 31
0.0
  0
LINE
  5
3C39
330
18
100
AcDbEntity
  8
DISEGNO
100
AcDbLine
 10
-1231.670890630015
 20
52.51435721170662
 30
0.0
 11
-1193.131959350437
 21
52.51435721170662
 31
0.0
  0
LINE
  5
3C3A
330
18
100
AcDbEntity
  8
DISEGNO
100
AcDbLine
 10
-1228.749390494541
 20
15.51435721170662
 30
0.0
 11
-1153.184047409073
 21
15.51435721170662
 31
0.0
  0
LINE
  5
3C3B
330
18
100
AcDbEntity
  8
DISEGNO
100
AcDbLine
 10
-1118.616134534164
 20
-15.4856427882936
 30
0.0
 11
-1228.749390494543
 21
-15.48564278829337
 31
0.0
  0
LINE
  5
3C3C
330
18
100
AcDbEntity
  8
DISEGNO
100
AcDbLine
 10
-1118.528813833298
 20
-52.4856427882936
 30
0.0
 11
-1231.670890630014
 21
-52.48564278829338
 31
0.0
  0
LINE
  5
3C3D
330
18
100
AcDbEntity
  8
4130002-Raschiatore TLM MCR_S 105.ipt.1-Spigoli visibili
  6
Continuous
 62
     7
370
    30
100
AcDbLine
 10
-1220.663827426745
 20
15.01435721170776
 30
0.0
 11
-1220.663827426745
 21
-14.98564278829224
 31
0.0
  0
ARC
  5
3C3E
330
18
100
AcDbEntity
  8
4130002-Raschiatore TLM MCR_S 105.ipt.1-Spigoli visibili
  6
Continuous
 62
     7
370
    30
100
AcDbCircle
 10
-1226.569941022771
 20
20.01435721170719
 30
0.0
 40
4.999999999999999
100
AcDbArc
 50
213.8032724269514
 51
270.0
  0
LINE
  5
3C3F
330
18
100
AcDbEntity
  8
4130002-Raschiatore TLM MCR_S 105.ipt.1-Spigoli visibili
  6
Continuous
 62
     7
370
    30
100
AcDbLine
 10
-1241.170890630014
 20
-29.48564278829361
 30
0.0
 11
-1241.170890630014
 21
29.5143572117064
 31
0.0
  0
LINE
  5
3C40
330
18
100
AcDbEntity
  8
4360009_C_DX-TLM MCR_S 105 ø25 ø19 Destra.iam.1-Spigoli visibili
  6
Continuous
 62
     7
 48
0.0
370
    30
100
AcDbLine
 10
-1376.670890630013
 20
38.5143572117089
 30
0.0
 11
-1376.670890630013
 21
0.0143572117088979
 31
0.0
  0
LINE
  5
3C41
330
18
100
AcDbEntity
  8
DISEGNO
100
AcDbLine
 10
-1241.670890630015
 20
52.51435721170662
 30
0.0
 11
-1241.670890630014
 21
-52.4856427882936
 31
0.0
  0
LINE
  5
3C42
330
18
100
AcDbEntity
  8
4360009_C_DX-TLM MCR_S 105 ø25 ø19 Destra.iam.1-Spigoli visibili
  6
Continuous
 62
     7
 48
0.0
370
    30
100
AcDbLine
 10
-1241.670890630013
 20
38.51435721170594
 30
0.0
 11
-1241.670890630013
 21
0.0143572117059421
 31
0.0
  0
LINE
  5
3C43
330
18
100
AcDbEntity
  8
DISEGNO
100
AcDbLine
 10
-1231.670890630014
 20
-29.58659239553572
 30
0.0
 11
-1231.670890630014
 21
-52.48564278829338
 31
0.0
  0
LINE
  5
3C44
330
18
100
AcDbEntity
  8
4360009_C_DX-TLM MCR_S 105 ø25 ø19 Destra.iam.1-Spigoli visibili
  6
Continuous
 62
     7
 48
0.0
370
    30
100
AcDbLine
 10
-1241.670890630013
 20
-50.48564278829428
 30
0.0
 11
-1241.670890630013
 21
-38.48564278829428
 31
0.0
  0
LINE
  5
3C45
330
18
100
AcDbEntity
  8
4360009_C_DX-TLM MCR_S 105 ø25 ø19 Destra.iam.1-Spigoli visibili
  6
Continuous
 62
     7
 48
0.0
370
    30
100
AcDbLine
 10
-1376.670890630014
 20
-50.4856427882911
 30
0.0
 11
-1376.670890630014
 21
-38.4856427882911
 31
0.0
  0
LINE
  5
3C46
330
18
100
AcDbEntity
  8
4360009_C_DX-TLM MCR_S 105 ø25 ø19 Destra.iam.1-Spigoli visibili
  6
Continuous
 62
     7
 48
0.0
370
    30
100
AcDbLine
 10
-1366.670890630014
 20
-52.48564278829338
 30
0.0
 11
-1241.670890630013
 21
-52.4856427882936
 31
0.0
  0
LINE
  5
3C47
330
18
100
AcDbEntity
  8
4360009_C_DX-TLM MCR_S 105 ø25 ø19 Destra.iam.1-Spigoli visibili
  6
Continuous
 62
     7
 48
0.0
370
    30
100
AcDbLine
 10
-1366.670890630014
 20
-52.48564278829338
 30
0.0
 11
-1374.670890630014
 21
-52.4856427882911
 31
0.0
  0
ARC
  5
3C48
330
18
100
AcDbEntity
  8
4360009_C_DX-TLM MCR_S 105 ø25 ø19 Destra.iam.1-Spigoli visibili
  6
Continuous
 62
     7
 48
0.0
370
    30
100
AcDbCircle
 10
-1374.670890630014
 20
-50.48564278829087
 30
0.0
 40
1.999999999999993
100
AcDbArc
 50
180.0
 51
270.0
  0
LINE
  5
3C49
330
18
100
AcDbEntity
  8
DISEGNO
100
AcDbLine
 10
-1231.670890630014
 20
-52.48564278829338
 30
0.0
 11
-1241.670890630013
 21
-52.4856427882936
 31
0.0
  0
LINE
  5
3C4A
330
18
100
AcDbEntity
  8
4360009_C_DX-TLM MCR_S 105 ø25 ø19 Destra.iam.1-Spigoli visibili
  6
Continuous
 62
     7
 48
0.0
370
    30
100
AcDbLine
 10
-1241.670890630014
 20
-50.48564278829428
 30
0.0
 11
-1241.670890630014
 21
-52.4856427882936
 31
0.0
  0
LINE
  5
3C4B
330
18
100
AcDbEntity
  8
4360009_C_DX-TLM MCR_S 105 ø25 ø19 Destra.iam.1-Spigoli visibili
  6
Continuous
 62
     7
 48
0.0
370
    30
100
AcDbLine
 10
-1366.670890630013
 20
0.0143572117059421
 30
0.0
 11
-1241.670890630013
 21
0.0143572117059421
 31
0.0
  0
LINE
  5
3C4C
330
18
100
AcDbEntity
  8
4360009_C_DX-TLM MCR_S 105 ø25 ø19 Destra.iam.1-Spigoli visibili
  6
Continuous
 62
     7
 48
0.0
370
    30
100
AcDbLine
 10
-1241.670890630014
 20
0.0143572117059421
 30
0.0
 11
-1366.670890630013
 21
0.0143572117059421
 31
0.0
  0
LINE
  5
3C4D
330
18
100
AcDbEntity
  8
4360009_C_DX-TLM MCR_S 105 ø25 ø19 Destra.iam.1-Spigoli visibili
  6
Continuous
 62
     7
 48
0.0
370
    30
100
AcDbLine
 10
-1366.670890630013
 20
-38.48564278829406
 30
0.0
 11
-1241.670890630014
 21
-38.48564278829428
 31
0.0
  0
LINE
  5
3C4E
330
18
100
AcDbEntity
  8
4360009_C_DX-TLM MCR_S 105 ø25 ø19 Destra.iam.1-Spigoli visibili
  6
Continuous
 62
     7
 48
0.0
370
    30
100
AcDbLine
 10
-1241.670890630013
 20
-38.48564278829428
 30
0.0
 11
-1366.670890630014
 21
-38.48564278829406
 31
0.0
  0
LINE
  5
3C4F
330
18
100
AcDbEntity
  8
4360009_C_DX-TLM MCR_S 105 ø25 ø19 Destra.iam.1-Spigoli visibili
  6
Continuous
 62
     7
 48
0.0
370
    30
100
AcDbLine
 10
-1376.670890630013
 20
-38.4856427882911
 30
0.0
 11
-1376.670890630013
 21
0.0143572117091253
 31
0.0
  0
LINE
  5
3C50
330
18
100
AcDbEntity
  8
4360009_C_DX-TLM MCR_S 105 ø25 ø19 Destra.iam.1-Spigoli visibili
  6
Continuous
 62
     7
 48
0.0
370
    30
100
AcDbLine
 10
-1366.670890630013
 20
-38.48564278829406
 30
0.0
 11
-1376.670890630013
 21
-38.4856427882911
 31
0.0
  0
LINE
  5
3C51
330
18
100
AcDbEntity
  8
4360009_C_DX-TLM MCR_S 105 ø25 ø19 Destra.iam.1-Spigoli visibili
  6
Continuous
 62
     7
 48
0.0
370
    30
100
AcDbLine
 10
-1376.670890630014
 20
-38.4856427882911
 30
0.0
 11
-1366.670890630014
 21
-38.48564278829406
 31
0.0
  0
LINE
  5
3C52
330
18
100
AcDbEntity
  8
4360009_C_DX-TLM MCR_S 105 ø25 ø19 Destra.iam.1-Spigoli visibili
  6
Continuous
 62
     7
 48
0.0
370
    30
100
AcDbLine
 10
-1366.670890630013
 20
0.0143572117059421
 30
0.0
 11
-1376.670890630013
 21
0.0143572117088979
 31
0.0
  0
LINE
  5
3C53
330
18
100
AcDbEntity
  8
4360009_C_DX-TLM MCR_S 105 ø25 ø19 Destra.iam.1-Spigoli visibili
  6
Continuous
 62
     7
 48
0.0
370
    30
100
AcDbLine
 10
-1376.670890630013
 20
0.0143572117091253
 30
0.0
 11
-1366.670890630013
 21
0.0143572117059421
 31
0.0
  0
LINE
  5
3C54
330
18
100
AcDbEntity
  8
4360009_C_DX-TLM MCR_S 105 ø25 ø19 Destra.iam.1-Spigoli visibili
  6
Continuous
 62
     7
 48
0.0
370
    30
100
AcDbLine
 10
-1241.670890630014
 20
-38.48564278829428
 30
0.0
 11
-1241.670890630014
 21
0.0143572117059421
 31
0.0
  0
LINE
  5
3C55
330
18
100
AcDbEntity
  8
4130002-Raschiatore TLM MCR_S 105.ipt.1-Spigoli visibili
  6
Continuous
 62
     7
370
    30
100
AcDbLine
 10
-1231.569941022772
 20
-19.9856427882936
 30
0.0
 11
-1231.569941022772
 21
-29.48564278829361
 31
0.0
  0
CIRCLE
  5
3C56
330
18
100
AcDbEntity
  8
4130002-Raschiatore TLM MCR_S 105.ipt.1-Spigoli visibili
  6
Continuous
 62
     7
370
    30
100
AcDbCircle
 10
-1236.670890630014
 20
-25.98564278829349
 30
0.0
 40
2.5
  0
LINE
  5
3C57
330
18
100
AcDbEntity
  8
4130002-Raschiatore TLM MCR_S 105.ipt.1-Spigoli visibili
  6
Continuous
 62
     7
370
    30
100
AcDbLine
 10
-1232.069941022772
 20
-29.98564278829361
 30
0.0
 11
-1240.670890630015
 21
-29.98564278829361
 31
0.0
  0
LINE
  5
3C58
330
18
100
AcDbEntity
  8
4130002-Raschiatore TLM MCR_S 105.ipt.1-Spigoli visibili
  6
Continuous
 62
     7
370
    30
100
AcDbLine
 10
-1240.670890630015
 20
-29.98564278829361
 30
0.0
 11
-1241.170890630014
 21
-29.48564278829361
 31
0.0
  0
LINE
  5
3C59
330
18
100
AcDbEntity
  8
4130002-Raschiatore TLM MCR_S 105.ipt.1-Spigoli visibili
  6
Continuous
 62
     7
370
    30
100
AcDbLine
 10
-1231.569941022772
 20
-29.48564278829361
 30
0.0
 11
-1232.069941022772
 21
-29.98564278829361
 31
0.0
  0
LINE
  5
3C5A
330
18
100
AcDbEntity
  8
4130002-Raschiatore TLM MCR_S 105.ipt.1-Spigoli visibili
  6
Continuous
 62
     7
370
    30
100
AcDbLine
 10
-1226.569941022772
 20
-14.98564278829292
 30
0.0
 11
-1220.663827426745
 21
-14.98564278829224
 31
0.0
  0
POLYLINE
  5
3C5B
330
18
100
AcDbEntity
  8
4130002-Raschiatore TLM MCR_S 105.ipt.1-Spigoli visibili
  6
Continuous
 62
     7
370
    30
100
AcDb2dPolyline
 66
     1
 10
0.0
 20
0.0
 30
0.0
  0
VERTEX
  5
3C5C
330
3C5B
100
AcDbEntity
  8
4130002-Raschiatore TLM MCR_S 105.ipt.1-Spigoli visibili
  6
Continuous
 62
     7
370
    30
100
AcDbVertex
100
AcDb2dVertex
 10
-1230.723891357563
 20
-17.2049596951656
 30
0.0
  0
VERTEX
  5
3C5D
330
3C5B
100
AcDbEntity
  8
4130002-Raschiatore TLM MCR_S 105.ipt.1-Spigoli visibili
  6
Continuous
 62
     7
370
    30
100
AcDbVertex
100
AcDb2dVertex
 10
-1230.790484050892
 20
-17.30584174854107
 30
0.0
  0
VERTEX
  5
3C5E
330
3C5B
100
AcDbEntity
  8
4130002-Raschiatore TLM MCR_S 105.ipt.1-Spigoli visibili
  6
Continuous
 62
     7
370
    30
100
AcDbVertex
100
AcDb2dVertex
 10
-1230.853279928349
 20
-17.40642101032085
 30
0.0
  0
VERTEX
  5
3C5F
330
3C5B
100
AcDbEntity
  8
4130002-Raschiatore TLM MCR_S 105.ipt.1-Spigoli visibili
  6
Continuous
 62
     7
370
    30
100
AcDbVertex
100
AcDb2dVertex
 10
-1230.912053684376
 20
-17.50657588702984
 30
0.0
  0
VERTEX
  5
3C60
330
3C5B
100
AcDbEntity
  8
4130002-Raschiatore TLM MCR_S 105.ipt.1-Spigoli visibili
  6
Continuous
 62
     7
370
    30
100
AcDbVertex
100
AcDb2dVertex
 10
-1230.969016651295
 20
-17.60942250949688
 30
0.0
  0
VERTEX
  5
3C61
330
3C5B
100
AcDbEntity
  8
4130002-Raschiatore TLM MCR_S 105.ipt.1-Spigoli visibili
  6
Continuous
 62
     7
370
    30
100
AcDbVertex
100
AcDb2dVertex
 10
-1231.024296383046
 20
-17.71516114932842
 30
0.0
  0
VERTEX
  5
3C62
330
3C5B
100
AcDbEntity
  8
4130002-Raschiatore TLM MCR_S 105.ipt.1-Spigoli visibili
  6
Continuous
 62
     7
370
    30
100
AcDbVertex
100
AcDb2dVertex
 10
-1231.077723602436
 20
-17.82357961398907
 30
0.0
  0
VERTEX
  5
3C63
330
3C5B
100
AcDbEntity
  8
4130002-Raschiatore TLM MCR_S 105.ipt.1-Spigoli visibili
  6
Continuous
 62
     7
370
    30
100
AcDbVertex
100
AcDb2dVertex
 10
-1231.129126648091
 20
-17.93447524768658
 30
0.0
  0
VERTEX
  5
3C64
330
3C5B
100
AcDbEntity
  8
4130002-Raschiatore TLM MCR_S 105.ipt.1-Spigoli visibili
  6
Continuous
 62
     7
370
    30
100
AcDbVertex
100
AcDb2dVertex
 10
-1231.178336242817
 20
-18.04763824207134
 30
0.0
  0
VERTEX
  5
3C65
330
3C5B
100
AcDbEntity
  8
4130002-Raschiatore TLM MCR_S 105.ipt.1-Spigoli visibili
  6
Continuous
 62
     7
370
    30
100
AcDbVertex
100
AcDb2dVertex
 10
-1231.225181917332
 20
-18.16286117297955
 30
0.0
  0
VERTEX
  5
3C66
330
3C5B
100
AcDbEntity
  8
4130002-Raschiatore TLM MCR_S 105.ipt.1-Spigoli visibili
  6
Continuous
 62
     7
370
    30
100
AcDbVertex
100
AcDb2dVertex
 10
-1231.269492010258
 20
-18.27993423206158
 30
0.0
  0
VERTEX
  5
3C67
330
3C5B
100
AcDbEntity
  8
4130002-Raschiatore TLM MCR_S 105.ipt.1-Spigoli visibili
  6
Continuous
 62
     7
370
    30
100
AcDbVertex
100
AcDb2dVertex
 10
-1231.311096052311
 20
-18.39864999515362
 30
0.0
  0
VERTEX
  5
3C68
330
3C5B
100
AcDbEntity
  8
4130002-Raschiatore TLM MCR_S 105.ipt.1-Spigoli visibili
  6
Continuous
 62
     7
370
    30
100
AcDbVertex
100
AcDb2dVertex
 10
-1231.349824766301
 20
-18.51879865390606
 30
0.0
  0
VERTEX
  5
3C69
330
3C5B
100
AcDbEntity
  8
4130002-Raschiatore TLM MCR_S 105.ipt.1-Spigoli visibili
  6
Continuous
 62
     7
370
    30
100
AcDbVertex
100
AcDb2dVertex
 10
-1231.385507682942
 20
-18.64017755252666
 30
0.0
  0
VERTEX
  5
3C6A
330
3C5B
100
AcDbEntity
  8
4130002-Raschiatore TLM MCR_S 105.ipt.1-Spigoli visibili
  6
Continuous
 62
     7
370
    30
100
AcDbVertex
100
AcDb2dVertex
 10
-1231.417991022252
 20
-18.76256973010845
 30
0.0
  0
VERTEX
  5
3C6B
330
3C5B
100
AcDbEntity
  8
4130002-Raschiatore TLM MCR_S 105.ipt.1-Spigoli visibili
  6
Continuous
 62
     7
370
    30
100
AcDbVertex
100
AcDb2dVertex
 10
-1231.447244981907
 20
-18.88572484714336
 30
0.0
  0
VERTEX
  5
3C6C
330
3C5B
100
AcDbEntity
  8
4130002-Raschiatore TLM MCR_S 105.ipt.1-Spigoli visibili
  6
Continuous
 62
     7
370
    30
100
AcDbVertex
100
AcDb2dVertex
 10
-1231.473299364232
 20
-19.00938779575176
 30
0.0
  0
VERTEX
  5
3C6D
330
3C5B
100
AcDbEntity
  8
4130002-Raschiatore TLM MCR_S 105.ipt.1-Spigoli visibili
  6
Continuous
 62
     7
370
    30
100
AcDbVertex
100
AcDb2dVertex
 10
-1231.496181587361
 20
-19.13329393131084
 30
0.0
  0
VERTEX
  5
3C6E
330
3C5B
100
AcDbEntity
  8
4130002-Raschiatore TLM MCR_S 105.ipt.1-Spigoli visibili
  6
Continuous
 62
     7
370
    30
100
AcDbVertex
100
AcDb2dVertex
 10
-1231.515921453617
 20
-19.25718576175518
 30
0.0
  0
VERTEX
  5
3C6F
330
3C5B
100
AcDbEntity
  8
4130002-Raschiatore TLM MCR_S 105.ipt.1-Spigoli visibili
  6
Continuous
 62
     7
370
    30
100
AcDbVertex
100
AcDb2dVertex
 10
-1231.532546381138
 20
-19.38080341083355
 30
0.0
  0
VERTEX
  5
3C70
330
3C5B
100
AcDbEntity
  8
4130002-Raschiatore TLM MCR_S 105.ipt.1-Spigoli visibili
  6
Continuous
 62
     7
370
    30
100
AcDbVertex
100
AcDb2dVertex
 10
-1231.54608378806
 20
-19.50388461810894
 30
0.0
  0
VERTEX
  5
3C71
330
3C5B
100
AcDbEntity
  8
4130002-Raschiatore TLM MCR_S 105.ipt.1-Spigoli visibili
  6
Continuous
 62
     7
370
    30
100
AcDbVertex
100
AcDb2dVertex
 10
-1231.556564668797
 20
-19.62616950733013
 30
0.0
  0
VERTEX
  5
3C72
330
3C5B
100
AcDbEntity
  8
4130002-Raschiatore TLM MCR_S 105.ipt.1-Spigoli visibili
  6
Continuous
 62
     7
370
    30
100
AcDbVertex
100
AcDb2dVertex
 10
-1231.564015249394
 20
-19.74739581806011
 30
0.0
  0
VERTEX
  5
3C73
330
3C5B
100
AcDbEntity
  8
4130002-Raschiatore TLM MCR_S 105.ipt.1-Spigoli visibili
  6
Continuous
 62
     7
370
    30
100
AcDbVertex
100
AcDb2dVertex
 10
-1231.56846414008
 20
-19.86730844241924
 30
0.0
  0
VERTEX
  5
3C74
330
3C5B
100
AcDbEntity
  8
4130002-Raschiatore TLM MCR_S 105.ipt.1-Spigoli visibili
  6
Continuous
 62
     7
370
    30
100
AcDbVertex
100
AcDb2dVertex
 10
-1231.569941143177
 20
-19.98564273578472
 30
0.0
  0
SEQEND
  5
3C75
330
3C5B
100
AcDbEntity
  8
4130002-Raschiatore TLM MCR_S 105.ipt.1-Spigoli visibili
  6
Continuous
 62
     7
370
    30
  0
ARC
  5
3C76
330
18
100
AcDbEntity
  8
4130002-Raschiatore TLM MCR_S 105.ipt.1-Spigoli visibili
  6
Continuous
 62
     7
370
    30
100
AcDbCircle
 10
-1226.569941022771
 20
-19.98564278829281
 30
0.0
 40
4.999999999999999
100
AcDbArc
 50
90.0
 51
146.1967275730811
  0
LINE
  5
3C77
330
18
100
AcDbEntity
  8
DISEGNO
100
AcDbLine
 10
-1358.672230588725
 20
52.5143572117114
 30
0.0
 11
-1253.672230588725
 21
52.5143572117114
 31
0.0
  0
LINE
  5
3C78
330
18
100
AcDbEntity
  8
4360009_C_DX-TLM MCR_S 105 ø25 ø19 Destra.iam.1-Spigoli visibili
  6
Continuous
 62
     7
 48
0.0
370
    30
100
AcDbLine
 10
-1366.670890630014
 20
52.51435721171117
 30
0.0
 11
-1241.670890630013
 21
52.5143572117114
 31
0.0
  0
LINE
  5
3C79
330
18
100
AcDbEntity
  8
4360009_C_DX-TLM MCR_S 105 ø25 ø19 Destra.iam.1-Spigoli visibili
  6
Continuous
 62
     7
 48
0.0
370
    30
100
AcDbLine
 10
-1241.670890630013
 20
38.51435721170594
 30
0.0
 11
-1366.670890630013
 21
38.51435721170594
 31
0.0
  0
LINE
  5
3C7A
330
18
100
AcDbEntity
  8
DISEGNO
100
AcDbLine
 10
-1246.670890630013
 20
52.5143572117114
 30
0.0
 11
-1376.670890630015
 21
52.5143572117114
 31
0.0
  0
LINE
  5
3C7B
330
18
100
AcDbEntity
  8
4360009_C_DX-TLM MCR_S 105 ø25 ø19 Destra.iam.1-Spigoli visibili
  6
Continuous
 62
     7
 48
0.0
370
    30
100
AcDbLine
 10
-1376.670890630014
 20
50.51435721170889
 30
0.0
 11
-1376.670890630014
 21
38.5143572117089
 31
0.0
  0
LINE
  5
3C7C
330
18
100
AcDbEntity
  8
4360009_C_DX-TLM MCR_S 105 ø25 ø19 Destra.iam.1-Spigoli visibili
  6
Continuous
 62
     7
 48
0.0
370
    30
100
AcDbLine
 10
-1376.670890630013
 20
38.5143572117089
 30
0.0
 11
-1366.670890630013
 21
38.51435721170594
 31
0.0
  0
LINE
  5
3C7D
330
18
100
AcDbEntity
  8
4360009_C_DX-TLM MCR_S 105 ø25 ø19 Destra.iam.1-Spigoli visibili
  6
Continuous
 62
     7
 48
0.0
370
    30
100
AcDbLine
 10
-1366.670890630014
 20
52.51435721171117
 30
0.0
 11
-1374.670890630014
 21
52.51435721170889
 31
0.0
  0
ARC
  5
3C7E
330
18
100
AcDbEntity
  8
4360009_C_DX-TLM MCR_S 105 ø25 ø19 Destra.iam.1-Spigoli visibili
  6
Continuous
 62
     7
 48
0.0
370
    30
100
AcDbCircle
 10
-1374.670890630014
 20
50.51435721170867
 30
0.0
 40
1.999999999999993
100
AcDbArc
 50
90.0
 51
180.0
  0
LINE
  5
3C7F
330
18
100
AcDbEntity
  8
DISEGNO
100
AcDbLine
 10
-1231.670890630015
 20
52.51435721170685
 30
0.0
 11
-1231.670890630015
 21
29.61530681894954
 31
0.0
  0
LINE
  5
3C80
330
18
100
AcDbEntity
  8
4130002-Raschiatore TLM MCR_S 105.ipt.1-Spigoli visibili
  6
Continuous
 62
     7
370
    30
100
AcDbLine
 10
-1231.569941022772
 20
29.5143572117064
 30
0.0
 11
-1231.569941022772
 21
20.0143572117064
 31
0.0
  0
CIRCLE
  5
3C81
330
18
100
AcDbEntity
  8
4130002-Raschiatore TLM MCR_S 105.ipt.1-Spigoli visibili
  6
Continuous
 62
     7
370
    30
100
AcDbCircle
 10
-1236.670890630014
 20
26.01435721170651
 30
0.0
 40
2.5
  0
LINE
  5
3C82
330
18
100
AcDbEntity
  8
4130002-Raschiatore TLM MCR_S 105.ipt.1-Spigoli visibili
  6
Continuous
 62
     7
370
    30
100
AcDbLine
 10
-1220.663827426745
 20
15.01435721170776
 30
0.0
 11
-1226.569941022772
 21
15.01435721170708
 31
0.0
  0
POLYLINE
  5
3C83
330
18
100
AcDbEntity
  8
4130002-Raschiatore TLM MCR_S 105.ipt.1-Spigoli visibili
  6
Continuous
 62
     7
370
    30
100
AcDb2dPolyline
 66
     1
 10
0.0
 20
0.0
 30
0.0
  0
VERTEX
  5
3C84
330
3C83
100
AcDbEntity
  8
4130002-Raschiatore TLM MCR_S 105.ipt.1-Spigoli visibili
  6
Continuous
 62
     7
370
    30
100
AcDbVertex
100
AcDb2dVertex
 10
-1231.569941143177
 20
20.01435726421528
 30
0.0
  0
VERTEX
  5
3C85
330
3C83
100
AcDbEntity
  8
4130002-Raschiatore TLM MCR_S 105.ipt.1-Spigoli visibili
  6
Continuous
 62
     7
370
    30
100
AcDbVertex
100
AcDb2dVertex
 10
-1231.56846414008
 20
19.8960229708498
 30
0.0
  0
VERTEX
  5
3C86
330
3C83
100
AcDbEntity
  8
4130002-Raschiatore TLM MCR_S 105.ipt.1-Spigoli visibili
  6
Continuous
 62
     7
370
    30
100
AcDbVertex
100
AcDb2dVertex
 10
-1231.564015249394
 20
19.77611153858356
 30
0.0
  0
VERTEX
  5
3C87
330
3C83
100
AcDbEntity
  8
4130002-Raschiatore TLM MCR_S 105.ipt.1-Spigoli visibili
  6
Continuous
 62
     7
370
    30
100
AcDbVertex
100
AcDb2dVertex
 10
-1231.556564668797
 20
19.65488284366779
 30
0.0
  0
VERTEX
  5
3C88
330
3C83
100
AcDbEntity
  8
4130002-Raschiatore TLM MCR_S 105.ipt.1-Spigoli visibili
  6
Continuous
 62
     7
370
    30
100
AcDbVertex
100
AcDb2dVertex
 10
-1231.54608378806
 20
19.5325979544466
 30
0.0
  0
VERTEX
  5
3C89
330
3C83
100
AcDbEntity
  8
4130002-Raschiatore TLM MCR_S 105.ipt.1-Spigoli visibili
  6
Continuous
 62
     7
370
    30
100
AcDbVertex
100
AcDb2dVertex
 10
-1231.532546381138
 20
19.4095179392641
 30
0.0
  0
VERTEX
  5
3C8A
330
3C83
100
AcDbEntity
  8
4130002-Raschiatore TLM MCR_S 105.ipt.1-Spigoli visibili
  6
Continuous
 62
     7
370
    30
100
AcDbVertex
100
AcDb2dVertex
 10
-1231.515921453617
 20
19.28590148227863
 30
0.0
  0
VERTEX
  5
3C8B
330
3C83
100
AcDbEntity
  8
4130002-Raschiatore TLM MCR_S 105.ipt.1-Spigoli visibili
  6
Continuous
 62
     7
370
    30
100
AcDbVertex
100
AcDb2dVertex
 10
-1231.496181587361
 20
19.16200965183429
 30
0.0
  0
VERTEX
  5
3C8C
330
3C83
100
AcDbEntity
  8
4130002-Raschiatore TLM MCR_S 105.ipt.1-Spigoli visibili
  6
Continuous
 62
     7
370
    30
100
AcDbVertex
100
AcDb2dVertex
 10
-1231.473299364232
 20
19.03810232418232
 30
0.0
  0
VERTEX
  5
3C8D
330
3C83
100
AcDbEntity
  8
4130002-Raschiatore TLM MCR_S 105.ipt.1-Spigoli visibili
  6
Continuous
 62
     7
370
    30
100
AcDbVertex
100
AcDb2dVertex
 10
-1231.447244981907
 20
18.91443937557392
 30
0.0
  0
VERTEX
  5
3C8E
330
3C83
100
AcDbEntity
  8
4130002-Raschiatore TLM MCR_S 105.ipt.1-Spigoli visibili
  6
Continuous
 62
     7
370
    30
100
AcDbVertex
100
AcDb2dVertex
 10
-1231.417991022252
 20
18.79128306644611
 30
0.0
  0
VERTEX
  5
3C8F
330
3C83
100
AcDbEntity
  8
4130002-Raschiatore TLM MCR_S 105.ipt.1-Spigoli visibili
  6
Continuous
 62
     7
370
    30
100
AcDbVertex
100
AcDb2dVertex
 10
-1231.385507682942
 20
18.66889208095722
 30
0.0
  0
VERTEX
  5
3C90
330
3C83
100
AcDbEntity
  8
4130002-Raschiatore TLM MCR_S 105.ipt.1-Spigoli visibili
  6
Continuous
 62
     7
370
    30
100
AcDbVertex
100
AcDb2dVertex
 10
-1231.349824766301
 20
18.54751437442951
 30
0.0
  0
VERTEX
  5
3C91
330
3C83
100
AcDbEntity
  8
4130002-Raschiatore TLM MCR_S 105.ipt.1-Spigoli visibili
  6
Continuous
 62
     7
370
    30
100
AcDbVertex
100
AcDb2dVertex
 10
-1231.311096052311
 20
18.42736333149128
 30
0.0
  0
VERTEX
  5
3C92
330
3C83
100
AcDbEntity
  8
4130002-Raschiatore TLM MCR_S 105.ipt.1-Spigoli visibili
  6
Continuous
 62
     7
370
    30
100
AcDbVertex
100
AcDb2dVertex
 10
-1231.269492010258
 20
18.30864756839924
 30
0.0
  0
VERTEX
  5
3C93
330
3C83
100
AcDbEntity
  8
4130002-Raschiatore TLM MCR_S 105.ipt.1-Spigoli visibili
  6
Continuous
 62
     7
370
    30
100
AcDbVertex
100
AcDb2dVertex
 10
-1231.225181917332
 20
18.1915745093172
 30
0.0
  0
VERTEX
  5
3C94
330
3C83
100
AcDbEntity
  8
4130002-Raschiatore TLM MCR_S 105.ipt.1-Spigoli visibili
  6
Continuous
 62
     7
370
    30
100
AcDbVertex
100
AcDb2dVertex
 10
-1231.178336242817
 20
18.0763527705019
 30
0.0
  0
VERTEX
  5
3C95
330
3C83
100
AcDbEntity
  8
4130002-Raschiatore TLM MCR_S 105.ipt.1-Spigoli visibili
  6
Continuous
 62
     7
370
    30
100
AcDbVertex
100
AcDb2dVertex
 10
-1231.129126648091
 20
17.96319096821003
 30
0.0
  0
VERTEX
  5
3C96
330
3C83
100
AcDbEntity
  8
4130002-Raschiatore TLM MCR_S 105.ipt.1-Spigoli visibili
  6
Continuous
 62
     7
370
    30
100
AcDbVertex
100
AcDb2dVertex
 10
-1231.077723602436
 20
17.85229533451252
 30
0.0
  0
VERTEX
  5
3C97
330
3C83
100
AcDbEntity
  8
4130002-Raschiatore TLM MCR_S 105.ipt.1-Spigoli visibili
  6
Continuous
 62
     7
370
    30
100
AcDbVertex
100
AcDb2dVertex
 10
-1231.024296383046
 20
17.74387448566608
 30
0.0
  0
VERTEX
  5
3C98
330
3C83
100
AcDbEntity
  8
4130002-Raschiatore TLM MCR_S 105.ipt.1-Spigoli visibili
  6
Continuous
 62
     7
370
    30
100
AcDbVertex
100
AcDb2dVertex
 10
-1230.969016651295
 20
17.63813703792743
 30
0.0
  0
VERTEX
  5
3C99
330
3C83
100
AcDbEntity
  8
4130002-Raschiatore TLM MCR_S 105.ipt.1-Spigoli visibili
  6
Continuous
 62
     7
370
    30
100
AcDbVertex
100
AcDb2dVertex
 10
-1230.912053684376
 20
17.53529041546039
 30
0.0
  0
VERTEX
  5
3C9A
330
3C83
100
AcDbEntity
  8
4130002-Raschiatore TLM MCR_S 105.ipt.1-Spigoli visibili
  6
Continuous
 62
     7
370
    30
100
AcDbVertex
100
AcDb2dVertex
 10
-1230.853279928349
 20
17.43513553875141
 30
0.0
  0
VERTEX
  5
3C9B
330
3C83
100
AcDbEntity
  8
4130002-Raschiatore TLM MCR_S 105.ipt.1-Spigoli visibili
  6
Continuous
 62
     7
370
    30
100
AcDbVertex
100
AcDb2dVertex
 10
-1230.790484050892
 20
17.33455627697185
 30
0.0
  0
VERTEX
  5
3C9C
330
3C83
100
AcDbEntity
  8
4130002-Raschiatore TLM MCR_S 105.ipt.1-Spigoli visibili
  6
Continuous
 62
     7
370
    30
100
AcDbVertex
100
AcDb2dVertex
 10
-1230.723891357563
 20
17.23367303150371
 30
0.0
  0
SEQEND
  5
3C9D
330
3C83
100
AcDbEntity
  8
4130002-Raschiatore TLM MCR_S 105.ipt.1-Spigoli visibili
  6
Continuous
 62
     7
370
    30
  0
LINE
  5
3C9E
330
18
100
AcDbEntity
  8
4130002-Raschiatore TLM MCR_S 105.ipt.1-Spigoli visibili
  6
Continuous
 62
     7
370
    30
100
AcDbLine
 10
-1240.670890630015
 20
30.0143572117064
 30
0.0
 11
-1232.069941022772
 21
30.0143572117064
 31
0.0
  0
LINE
  5
3C9F
330
18
100
AcDbEntity
  8
4130002-Raschiatore TLM MCR_S 105.ipt.1-Spigoli visibili
  6
Continuous
 62
     7
370
    30
100
AcDbLine
 10
-1241.170890630014
 20
29.5143572117064
 30
0.0
 11
-1240.670890630015
 21
30.0143572117064
 31
0.0
  0
LINE
  5
3CA0
330
18
100
AcDbEntity
  8
4130002-Raschiatore TLM MCR_S 105.ipt.1-Spigoli visibili
  6
Continuous
 62
     7
370
    30
100
AcDbLine
 10
-1232.069941022772
 20
30.0143572117064
 30
0.0
 11
-1231.569941022772
 21
29.5143572117064
 31
0.0
  0
LINE
  5
3CA1
330
18
100
AcDbEntity
  8
DISEGNO
100
AcDbLine
 10
-1231.670890630015
 20
52.51435721170685
 30
0.0
 11
-1241.670890630013
 21
52.5143572117114
 31
0.0
  0
ELLIPSE
  5
3CA2
330
18
100
AcDbEntity
  8
4360048-TLF MCR_S 105.iam.1-Spigoli visibili
  6
Continuous
 62
     7
370
    30
100
AcDbEllipse
 10
-685.9567245930803
 20
15.01435721171049
 30
0.0
 11
0.5958767962971033
 21
-0.000000000000028
 31
0.0
210
0.0
220
0.0
230
-1.0
 40
0.8390996311772823
 41
0.0
 42
1.570796326794797
  0
LINE
  5
3CA3
330
18
100
AcDbEntity
  8
ASSI
100
AcDbLine
 10
-883.6532373691566
 20
17.28491993913656
 30
0.0
 11
-883.6532373691566
 21
0.7437944842766911
 31
0.0
  0
LINE
  5
3CA4
330
18
100
AcDbEntity
  8
ASSI
100
AcDbLine
 10
-1013.653237369155
 20
-26.71508006086322
 30
0.0
 11
-1013.653237369155
 21
42.46380043654233
 31
0.0
  0
LINE
  5
3CA5
330
18
100
AcDbEntity
  8
ASSI
100
AcDbLine
 10
-913.6532373691547
 20
-26.71508006086344
 30
0.0
 11
-913.6532373691547
 21
42.46380043654255
 31
0.0
  0
LINE
  5
3CA6
330
18
100
AcDbEntity
  8
DISEGNO
100
AcDbLine
 10
-1113.653237369158
 20
42.01435721170662
 30
0.0
 11
-1113.653237369158
 21
-41.98564278829315
 31
0.0
  0
INSERT
  5
3CA7
330
18
100
AcDbEntity
  8
0
100
AcDbBlockReference
  2
A$C0CB75D9B
 10
-953.6532396999104
 20
-46.70439125570135
 30
0.0
 41
-1.0
  0
LINE
  5
3CA8
330
18
100
AcDbEntity
  8
DISEGNO
100
AcDbLine
 10
-813.6532373691547
 20
-41.98564278829315
 30
0.0
 11
-813.6532373691546
 21
42.01435721170684
 31
0.0
  0
LINE
  5
3CA9
330
18
100
AcDbEntity
  8
ASSI
100
AcDbLine
 10
-875.3826746417267
 20
9.014357211706624
 30
0.0
 11
-891.9238000965865
 21
9.014357211706624
 31
0.0
  0
LINE
  5
3CAA
330
18
100
AcDbEntity
  8
DISEGNO
100
AcDbLine
 10
-681.6697359787032
 20
-52.48564278829315
 30
0.0
 11
-1118.528813833298
 21
-52.4856427882936
 31
0.0
  0
LINE
  5
3CAB
330
18
100
AcDbEntity
  8
DISEGNO
100
AcDbLine
 10
-1110.653237369158
 20
-44.98564278829315
 30
0.0
 11
-816.6532373691547
 21
-44.98564278829315
 31
0.0
  0
LINE
  5
3CAC
330
18
100
AcDbEntity
  8
ASSI
100
AcDbLine
 10
-1093.653237369155
 20
-43.25620551572308
 30
0.0
 11
-1093.653237369155
 21
-26.71508006086322
 31
0.0
  0
LINE
  5
3CAD
330
18
100
AcDbEntity
  8
ASSI
100
AcDbLine
 10
-1013.653237369155
 20
-43.25620551572308
 30
0.0
 11
-1013.653237369155
 21
-26.71508006086322
 31
0.0
  0
INSERT
  5
3CAE
330
18
100
AcDbEntity
  8
0
100
AcDbBlockReference
  2
A$C41262553
 10
-950.6532386829125
 20
-26.00775995215895
 30
0.0
 50
180.0
  0
LINE
  5
3CAF
330
18
100
AcDbEntity
  8
ASSI
100
AcDbLine
 10
-913.6532373691547
 20
-43.25620551572308
 30
0.0
 11
-913.6532373691547
 21
-26.71508006086344
 31
0.0
  0
INSERT
  5
3CB0
330
18
100
AcDbEntity
  8
0
100
AcDbBlockReference
  2
A$C41262553
 10
-970.6532386829062
 20
-26.00775995215895
 30
0.0
 50
180.0
  0
LINE
  5
3CB1
330
18
100
AcDbEntity
  8
DISEGNO
100
AcDbLine
 10
-1113.653237369158
 20
-41.98564278829315
 30
0.0
 11
-1110.653237369158
 21
-44.98564278829315
 31
0.0
  0
LINE
  5
3CB2
330
18
100
AcDbEntity
  8
ASSI
100
AcDbLine
 10
-1035.38267464173
 20
-6.985642788293375
 30
0.0
 11
-1051.92380009659
 21
-6.985642788293375
 31
0.0
  0
LINE
  5
3CB3
330
18
100
AcDbEntity
  8
ASSI
100
AcDbLine
 10
-1043.65323736916
 20
1.284919939136557
 30
0.0
 11
-1043.65323736916
 21
-15.25620551572331
 31
0.0
  0
LINE
  5
3CB4
330
18
100
AcDbEntity
  8
DISEGNO
100
AcDbLine
 10
-1113.653237369158
 20
-15.48564278829337
 30
0.0
 11
-1118.616134534164
 21
-15.4856427882936
 31
0.0
  0
CIRCLE
  5
3CB5
330
18
100
AcDbEntity
  8
DISEGNO
100
AcDbCircle
 10
-1093.653237369155
 20
-34.98564278829315
 30
0.0
 40
3.2
  0
ARC
  5
3CB6
330
18
100
AcDbEntity
  8
DISEGNO
100
AcDbCircle
 10
-1093.653237369155
 20
-34.98564278829315
 30
0.0
 40
4.0
100
AcDbArc
 50
270.0
 51
180.0
  0
LINE
  5
3CB7
330
18
100
AcDbEntity
  8
ASSI
100
AcDbLine
 10
-1085.382674641725
 20
-34.98564278829315
 30
0.0
 11
-1101.923800096584
 21
-34.98564278829315
 31
0.0
  0
CIRCLE
  5
3CB8
330
18
100
AcDbEntity
  8
DISEGNO
100
AcDbCircle
 10
-1013.653237369155
 20
-34.98564278829315
 30
0.0
 40
3.2
  0
ARC
  5
3CB9
330
18
100
AcDbEntity
  8
DISEGNO
100
AcDbCircle
 10
-1013.653237369155
 20
-34.98564278829315
 30
0.0
 40
4.0
100
AcDbArc
 50
270.0
 51
180.0
  0
LINE
  5
3CBA
330
18
100
AcDbEntity
  8
ASSI
100
AcDbLine
 10
-1005.382674641725
 20
-34.98564278829315
 30
0.0
 11
-1021.923800096584
 21
-34.98564278829315
 31
0.0
  0
CIRCLE
  5
3CBB
330
18
100
AcDbEntity
  8
DISEGNO
100
AcDbCircle
 10
-913.6532373691551
 20
-34.98564278829315
 30
0.0
 40
3.2
  0
ARC
  5
3CBC
330
18
100
AcDbEntity
  8
DISEGNO
100
AcDbCircle
 10
-913.6532373691551
 20
-34.98564278829315
 30
0.0
 40
4.0
100
AcDbArc
 50
270.0
 51
180.0
  0
LINE
  5
3CBD
330
18
100
AcDbEntity
  8
ASSI
100
AcDbLine
 10
-905.3826746417247
 20
-34.98564278829315
 30
0.0
 11
-921.9238000965846
 21
-34.98564278829315
 31
0.0
  0
LINE
  5
3CBE
330
18
100
AcDbEntity
  8
ASSI
100
AcDbLine
 10
-1005.382674641728
 20
9.014357211706624
 30
0.0
 11
-1021.923800096588
 21
9.014357211706624
 31
0.0
  0
LINE
  5
3CBF
330
18
100
AcDbEntity
  8
ASSI
100
AcDbLine
 10
-921.9238000965884
 20
-6.985642788293375
 30
0.0
 11
-905.3826746417284
 21
-6.985642788293375
 31
0.0
  0
LINE
  5
3CC0
330
18
100
AcDbEntity
  8
4360048-TLF MCR_S 105.iam.1-Spigoli visibili
  6
Continuous
 62
     7
370
    30
100
AcDbLine
 10
-681.6697359787332
 20
-50.48564278829042
 30
0.0
 11
-681.6697359787259
 21
-25.98564278829224
 31
0.0
  0
LINE
  5
3CC1
330
18
100
AcDbEntity
  8
4360048-TLF MCR_S 105.iam.1-Spigoli visibili
  6
Continuous
 62
     7
370
    30
100
AcDbLine
 10
-681.6697359787268
 20
-26.48564278829042
 30
0.0
 11
-681.6697359787323
 21
-45.48564278828997
 31
0.0
  0
LINE
  5
3CC2
330
18
100
AcDbEntity
  8
ASSI
100
AcDbLine
 10
-833.6532373691547
 20
-43.25620551572308
 30
0.0
 11
-833.6532373691547
 21
-26.71508006086322
 31
0.0
  0
LINE
  5
3CC3
330
18
100
AcDbEntity
  8
DISEGNO
100
AcDbLine
 10
-816.6532373691547
 20
-44.98564278829315
 30
0.0
 11
-813.6532373691547
 21
-41.98564278829315
 31
0.0
  0
LINE
  5
3CC4
330
18
100
AcDbEntity
  8
4360048-TLF MCR_S 105.iam.1-Spigoli visibili
  6
Continuous
 62
     7
370
    30
100
AcDbLine
 10
-681.6697359787332
 20
-50.48564278829042
 30
0.0
 11
-681.6697359787341
 21
-52.48564278829087
 31
0.0
  0
ARC
  5
3CC5
330
18
100
AcDbEntity
  8
4360048-TLF MCR_S 105.iam.1-Spigoli visibili
  6
Continuous
 62
     7
370
    30
100
AcDbCircle
 10
-679.6697359787323
 20
-45.48564278829087
 30
0.0
 40
1.999999999999998
100
AcDbArc
 50
180.0
 51
270.0
  0
LINE
  5
3CC6
330
18
100
AcDbEntity
  8
DISEGNO
100
AcDbLine
 10
-813.6532373691547
 20
-15.48564278829315
 30
0.0
 11
-685.360847796792
 21
-15.48564278829315
 31
0.0
  0
CIRCLE
  5
3CC7
330
18
100
AcDbEntity
  8
DISEGNO
100
AcDbCircle
 10
-833.6532373691547
 20
-34.98564278829315
 30
0.0
 40
3.2
  0
ARC
  5
3CC8
330
18
100
AcDbEntity
  8
DISEGNO
100
AcDbCircle
 10
-833.6532373691547
 20
-34.98564278829315
 30
0.0
 40
4.0
100
AcDbArc
 50
270.0
 51
180.0
  0
LINE
  5
3CC9
330
18
100
AcDbEntity
  8
ASSI
100
AcDbLine
 10
-825.3826746417248
 20
-34.98564278829315
 30
0.0
 11
-841.9238000965846
 21
-34.98564278829315
 31
0.0
  0
LINE
  5
3CCA
330
18
100
AcDbEntity
  8
4360048-TLF MCR_S 105.iam.1-Spigoli visibili
  6
Continuous
 62
     7
370
    30
100
AcDbLine
 10
-690.2907569252967
 20
-13.9856427882886
 30
0.0
 11
-690.2907569252885
 21
14.0143572117114
 31
0.0
  0
ARC
  5
3CCB
330
18
100
AcDbEntity
  8
4360048-TLF MCR_S 105.iam.1-Spigoli visibili
  6
Continuous
 62
     7
370
    30
100
AcDbCircle
 10
-656.6697359787286
 20
-32.4856427882977
 30
0.0
 40
5.900000000000003
100
AcDbArc
 50
2.52805976295973
 51
341.3465426024091
  0
LINE
  5
3CCC
330
18
100
AcDbEntity
  8
4360048-TLF MCR_S 105.iam.1-Spigoli visibili
  6
Continuous
 62
     7
370
    30
100
AcDbLine
 10
-656.6697359787286
 20
-35.37239413424402
 30
0.0
 11
-654.1697359787287
 21
-33.92901846127086
 31
0.0
  0
LINE
  5
3CCD
330
18
100
AcDbEntity
  8
4360048-TLF MCR_S 105.iam.1-Spigoli visibili
  6
Continuous
 62
     7
370
    30
100
AcDbLine
 10
-659.1697359787286
 20
-33.92901846126904
 30
0.0
 11
-656.6697359787286
 21
-35.37239413424402
 31
0.0
  0
LINE
  5
3CCE
330
18
100
AcDbEntity
  8
4360048-TLF MCR_S 105.iam.1-Spigoli visibili
  6
Continuous
 62
     7
370
    30
100
AcDbLine
 10
-659.1697359787278
 20
-31.0422671153209
 30
0.0
 11
-659.1697359787286
 21
-33.92901846126904
 31
0.0
  0
LINE
  5
3CCF
330
18
100
AcDbEntity
  8
4360048-TLF MCR_S 105.iam.1-Spigoli visibili
  6
Continuous
 62
     7
370
    30
100
AcDbLine
 10
-656.6697359787277
 20
-29.59889144234774
 30
0.0
 11
-659.1697359787278
 21
-31.0422671153209
 31
0.0
  0
LINE
  5
3CD0
330
18
100
AcDbEntity
  8
4360048-TLF MCR_S 105.iam.1-Spigoli visibili
  6
Continuous
 62
     7
370
    30
100
AcDbLine
 10
-654.1697359787287
 20
-31.04226711532272
 30
0.0
 11
-656.6697359787277
 21
-29.59889144234774
 31
0.0
  0
LINE
  5
3CD1
330
18
100
AcDbEntity
  8
4360048-TLF MCR_S 105.iam.1-Spigoli visibili
  6
Continuous
 62
     7
370
    30
100
AcDbLine
 10
-654.1697359787287
 20
-33.92901846127086
 30
0.0
 11
-654.1697359787287
 21
-31.04226711532272
 31
0.0
  0
LINE
  5
3CD2
330
18
100
AcDbEntity
  8
4360048-TLF MCR_S 105.iam.1-Spigoli visibili
  6
Continuous
 62
     7
370
    30
100
AcDbLine
 10
-685.3608477967947
 20
-24.98564278828951
 30
0.0
 11
-685.3608477967919
 21
-14.98564278828951
 31
0.0
  0
ELLIPSE
  5
3CD3
330
18
100
AcDbEntity
  8
4360048-TLF MCR_S 105.iam.1-Spigoli visibili
  6
Continuous
 62
     7
370
    30
100
AcDbEllipse
 10
-684.7649710004981
 20
-24.98564278828951
 30
0.0
 11
-0.5958767962971033
 21
0.000000000000028
 31
0.0
210
0.0
220
0.0
230
-1.0
 40
0.8390996311772827
 41
4.71238898038459
 42
6.283185307178984
  0
LINE
  5
3CD4
330
18
100
AcDbEntity
  8
4360048-TLF MCR_S 105.iam.1-Spigoli visibili
  6
Continuous
 62
     7
370
    30
100
AcDbLine
 10
-684.7649710004981
 20
-25.48564278828951
 30
0.0
 11
-683.9871090870675
 21
-25.48564278828951
 31
0.0
  0
LINE
  5
3CD5
330
18
100
AcDbEntity
  8
4360048-TLF MCR_S 105.iam.1-Spigoli visibili
  6
Continuous
 62
     7
370
    30
100
AcDbLine
 10
-683.6339173932557
 20
-25.48564278828951
 30
0.0
 11
-684.7649710004981
 21
-25.48564278828951
 31
0.0
  0
LINE
  5
3CD6
330
18
100
AcDbEntity
  8
4360048-TLF MCR_S 105.iam.1-Spigoli visibili
  6
Continuous
 62
     7
370
    30
100
AcDbLine
 10
-683.6339173932557
 20
-25.48564278828951
 30
0.0
 11
-682.6697359787259
 21
-25.48564278828951
 31
0.0
  0
ARC
  5
3CD7
330
18
100
AcDbEntity
  8
4360048-TLF MCR_S 105.iam.1-Spigoli visibili
  6
Continuous
 62
     7
370
    30
100
AcDbCircle
 10
-682.6697359787268
 20
-26.48564278828951
 30
0.0
 40
1.000000000000001
100
AcDbArc
 50
0.0
 51
90.0
  0
ELLIPSE
  5
3CD8
330
18
100
AcDbEntity
  8
4360048-TLF MCR_S 105.iam.1-Spigoli visibili
  6
Continuous
 62
     7
370
    30
100
AcDbEllipse
 10
-689.79835304879
 20
-13.9856427882886
 30
0.0
 11
-0.0000000000001522
 21
-0.4999999999999972
 31
0.0
210
0.0
220
0.0
230
-1.0
 40
0.9848077530122125
 41
0.0
 42
1.570796326794791
  0
LINE
  5
3CD9
330
18
100
AcDbEntity
  8
4360048-TLF MCR_S 105.iam.1-Spigoli visibili
  6
Continuous
 62
     7
370
    30
100
AcDbLine
 10
-689.79835304879
 20
-14.4856427882886
 30
0.0
 11
-689.711528959957
 21
-14.48564278828951
 31
0.0
  0
ELLIPSE
  5
3CDA
330
18
100
AcDbEntity
  8
4360048-TLF MCR_S 105.iam.1-Spigoli visibili
  6
Continuous
 62
     7
370
    30
100
AcDbEllipse
 10
-685.9567245930894
 20
-14.98564278828951
 30
0.0
 11
0.5958767962971033
 21
-0.000000000000028
 31
0.0
210
0.0
220
0.0
230
-1.0
 40
0.8390996311772827
 41
4.71238898038459
 42
6.283185307178984
  0
LINE
  5
3CDB
330
18
100
AcDbEntity
  8
4360048-TLF MCR_S 105.iam.1-Spigoli visibili
  6
Continuous
 62
     7
370
    30
100
AcDbLine
 10
-688.0778667287987
 20
-14.48564278828951
 30
0.0
 11
-689.79835304879
 21
-14.4856427882886
 31
0.0
  0
LINE
  5
3CDC
330
18
100
AcDbEntity
  8
4360048-TLF MCR_S 105.iam.1-Spigoli visibili
  6
Continuous
 62
     7
370
    30
100
AcDbLine
 10
-687.8432970127889
 20
-14.48564278828951
 30
0.0
 11
-688.0778667287987
 21
-14.48564278828951
 31
0.0
  0
LINE
  5
3CDD
330
18
100
AcDbEntity
  8
4360048-TLF MCR_S 105.iam.1-Spigoli visibili
  6
Continuous
 62
     7
370
    30
100
AcDbLine
 10
-685.9567245930885
 20
-14.48564278828951
 30
0.0
 11
-687.8432970127889
 21
-14.48564278828951
 31
0.0
  0
ARC
  5
3CDE
330
18
100
AcDbEntity
  8
4360048-TLF MCR_S 105.iam.1-Spigoli visibili
  6
Continuous
 62
     7
370
    30
100
AcDbCircle
 10
-656.6697359787286
 20
-32.4856427882977
 30
0.0
 40
5.900000000003037
100
AcDbArc
 50
2.525716686397963
 51
9.862282315370233
  0
ARC
  5
3CDF
330
18
100
AcDbEntity
  8
4360048-TLF MCR_S 105.iam.1-Spigoli visibili
  6
Continuous
 62
     7
370
    30
100
AcDbCircle
 10
-656.6697359787286
 20
-32.4856427882977
 30
0.0
 40
5.900000000003036
100
AcDbArc
 50
357.474283313576
 51
4.769362101282041
  0
ARC
  5
3CE0
330
18
100
AcDbEntity
  8
4360048-TLF MCR_S 105.iam.1-Spigoli visibili
  6
Continuous
 62
     7
370
    30
100
AcDbCircle
 10
-656.6697359787286
 20
-32.4856427882977
 30
0.0
 40
5.900000000000011
100
AcDbArc
 50
342.4245017340695
 51
357.4776648248517
  0
LINE
  5
3CE1
330
18
100
AcDbEntity
  8
4360048-TLF MCR_S 105.iam.1-Spigoli visibili
  6
Continuous
 62
     7
370
    30
100
AcDbLine
 10
-579.5331305701803
 20
-32.85211890893868
 30
0.0
 11
-577.784055644117
 21
-35.14865330588498
 31
0.0
  0
LINE
  5
3CE2
330
18
100
AcDbEntity
  8
4360048-TLF MCR_S 105.iam.1-Spigoli visibili
  6
Continuous
 62
     7
370
    30
100
AcDbLine
 10
-577.784055644117
 20
-35.14865330588498
 30
0.0
 11
-574.9206610526672
 21
-34.78217718526491
 31
0.0
  0
LINE
  5
3CE3
330
18
100
AcDbEntity
  8
4360048-TLF MCR_S 105.iam.1-Spigoli visibili
  6
Continuous
 62
     7
370
    30
100
AcDbLine
 10
-578.4188109047901
 20
-30.18910839137414
 30
0.0
 11
-579.5331305701803
 21
-32.85211890893868
 31
0.0
  0
LINE
  5
3CE4
330
18
100
AcDbEntity
  8
4360048-TLF MCR_S 105.iam.1-Spigoli visibili
  6
Continuous
 62
     7
370
    30
100
AcDbLine
 10
-575.5554163133402
 20
-29.82263227075498
 30
0.0
 11
-578.4188109047901
 21
-30.18910839137414
 31
0.0
  0
ELLIPSE
  5
3CE5
330
18
100
AcDbEntity
  8
4360048-TLF MCR_S 105.iam.1-Spigoli visibili
  6
Continuous
 62
     7
370
    30
100
AcDbEllipse
 10
-689.7983530487818
 20
14.0143572117114
 30
0.0
 11
0.0000000000001458
 21
0.5000000000000071
 31
0.0
210
0.0
220
0.0
230
-1.0
 40
0.9848077530122136
 41
4.712388980384723
 42
6.283185307179699
  0
LINE
  5
3CE6
330
18
100
AcDbEntity
  8
4360048-TLF MCR_S 105.iam.1-Spigoli visibili
  6
Continuous
 62
     7
370
    30
100
AcDbLine
 10
-685.9562594772033
 20
14.51435721171049
 30
0.0
 11
-685.2757418984448
 21
14.51435721171049
 31
0.0
  0
LINE
  5
3CE7
330
18
100
AcDbEntity
  8
4360048-TLF MCR_S 105.iam.1-Spigoli visibili
  6
Continuous
 62
     7
370
    30
100
AcDbLine
 10
-687.8432970127806
 20
14.51435721171049
 30
0.0
 11
-685.9567245930803
 21
14.51435721171049
 31
0.0
  0
LINE
  5
3CE8
330
18
100
AcDbEntity
  8
4360048-TLF MCR_S 105.iam.1-Spigoli visibili
  6
Continuous
 62
     7
370
    30
100
AcDbLine
 10
-688.0778667287906
 20
14.51435721171049
 30
0.0
 11
-687.8432970127806
 21
14.51435721171049
 31
0.0
  0
LINE
  5
3CE9
330
18
100
AcDbEntity
  8
4360048-TLF MCR_S 105.iam.1-Spigoli visibili
  6
Continuous
 62
     7
370
    30
100
AcDbLine
 10
-689.7983530487818
 20
14.5143572117114
 30
0.0
 11
-688.0778667287906
 21
14.51435721171049
 31
0.0
  0
LINE
  5
3CEA
330
18
100
AcDbEntity
  8
DISEGNO
100
AcDbLine
 10
-816.6532373691547
 20
45.01435721170685
 30
0.0
 11
-1110.653237369158
 21
45.01435721170662
 31
0.0
  0
LINE
  5
3CEB
330
18
100
AcDbEntity
  8
DISEGNO
100
AcDbLine
 10
-1193.131959350437
 20
52.51435721170662
 30
0.0
 11
-681.6697359787032
 21
52.51435721170685
 31
0.0
  0
LINE
  5
3CEC
330
18
100
AcDbEntity
  8
DISEGNO
100
AcDbLine
 10
-1110.653237369158
 20
45.01435721170662
 30
0.0
 11
-1113.653237369158
 21
42.01435721170662
 31
0.0
  0
LINE
  5
3CED
330
18
100
AcDbEntity
  8
ASSI
100
AcDbLine
 10
-1093.653237369155
 20
43.28491993913655
 30
0.0
 11
-1093.653237369155
 21
26.74379448427669
 31
0.0
  0
LINE
  5
3CEE
330
18
100
AcDbEntity
  8
DISEGNO
100
AcDbLine
 10
-1153.184047409073
 20
15.51435721170662
 30
0.0
 11
-1113.653237369158
 21
15.51435721170662
 31
0.0
  0
CIRCLE
  5
3CEF
330
18
100
AcDbEntity
  8
DISEGNO
100
AcDbCircle
 10
-1093.653237369155
 20
35.01435721170685
 30
0.0
 40
3.2
  0
ARC
  5
3CF0
330
18
100
AcDbEntity
  8
DISEGNO
100
AcDbCircle
 10
-1093.653237369155
 20
35.01435721170685
 30
0.0
 40
4.0
100
AcDbArc
 50
270.0
 51
180.0
  0
LINE
  5
3CF1
330
18
100
AcDbEntity
  8
ASSI
100
AcDbLine
 10
-1085.382674641725
 20
35.01435721170663
 30
0.0
 11
-1101.923800096584
 21
35.01435721170663
 31
0.0
  0
INSERT
  5
3CF2
330
18
100
AcDbEntity
  8
0
100
AcDbBlockReference
  2
A$C41262553
 10
-950.6532386829125
 20
26.03647437557174
 30
0.0
 41
-1.0
  0
INSERT
  5
3CF3
330
18
100
AcDbEntity
  8
0
100
AcDbBlockReference
  2
A$C41262553
 10
-970.6532386829062
 20
26.03647437557174
 30
0.0
 41
-1.0
  0
CIRCLE
  5
3CF4
330
18
100
AcDbEntity
  8
DISEGNO
100
AcDbCircle
 10
-1013.653237369155
 20
35.01435721170685
 30
0.0
 40
3.2
  0
ARC
  5
3CF5
330
18
100
AcDbEntity
  8
DISEGNO
100
AcDbCircle
 10
-1013.653237369155
 20
35.01435721170685
 30
0.0
 40
4.0
100
AcDbArc
 50
270.0
 51
180.0
  0
LINE
  5
3CF6
330
18
100
AcDbEntity
  8
ASSI
100
AcDbLine
 10
-1005.382674641725
 20
35.01435721170663
 30
0.0
 11
-1021.923800096584
 21
35.01435721170663
 31
0.0
  0
ARC
  5
3CF7
330
18
100
AcDbEntity
  8
DISEGNO
100
AcDbCircle
 10
-913.6532373691551
 20
35.01435721170685
 30
0.0
 40
4.0
100
AcDbArc
 50
270.0
 51
180.0
  0
CIRCLE
  5
3CF8
330
18
100
AcDbEntity
  8
DISEGNO
100
AcDbCircle
 10
-913.6532373691551
 20
35.01435721170685
 30
0.0
 40
3.2
  0
LINE
  5
3CF9
330
18
100
AcDbEntity
  8
ASSI
100
AcDbLine
 10
-905.3826746417247
 20
35.01435721170685
 30
0.0
 11
-921.9238000965846
 21
35.01435721170685
 31
0.0
  0
LINE
  5
3CFA
330
18
100
AcDbEntity
  8
DISEGNO
100
AcDbLine
 10
-685.3608477967827
 20
15.51435721170685
 30
0.0
 11
-813.6532373691547
 21
15.51435721170685
 31
0.0
  0
LINE
  5
3CFB
330
18
100
AcDbEntity
  8
ASSI
100
AcDbLine
 10
-833.6532373691547
 20
43.28491993913679
 30
0.0
 11
-833.6532373691547
 21
26.74379448427692
 31
0.0
  0
LINE
  5
3CFC
330
18
100
AcDbEntity
  8
DISEGNO
100
AcDbLine
 10
-813.6532373691547
 20
42.01435721170684
 30
0.0
 11
-816.6532373691547
 21
45.01435721170685
 31
0.0
  0
CIRCLE
  5
3CFD
330
18
100
AcDbEntity
  8
DISEGNO
100
AcDbCircle
 10
-833.6532373691547
 20
35.01435721170685
 30
0.0
 40
3.2
  0
ARC
  5
3CFE
330
18
100
AcDbEntity
  8
DISEGNO
100
AcDbCircle
 10
-833.6532373691547
 20
35.01435721170685
 30
0.0
 40
4.0
100
AcDbArc
 50
270.0
 51
180.0
  0
LINE
  5
3CFF
330
18
100
AcDbEntity
  8
ASSI
100
AcDbLine
 10
-825.3826746417248
 20
35.01435721170685
 30
0.0
 11
-841.9238000965846
 21
35.01435721170685
 31
0.0
  0
LINE
  5
3D00
330
18
100
AcDbEntity
  8
4360048-TLF MCR_S 105.iam.1-Spigoli visibili
  6
Continuous
 62
     7
370
    30
100
AcDbLine
 10
-681.6697359787105
 20
26.01435721170413
 30
0.0
 11
-681.6697359787032
 21
50.51435721170776
 31
0.0
  0
LINE
  5
3D01
330
18
100
AcDbEntity
  8
4360048-TLF MCR_S 105.iam.1-Spigoli visibili
  6
Continuous
 62
     7
370
    30
100
AcDbLine
 10
-681.669735978705
 20
45.51435721170958
 30
0.0
 11
-681.6697359787105
 21
26.51435721170958
 31
0.0
  0
ARC
  5
3D02
330
18
100
AcDbEntity
  8
4360048-TLF MCR_S 105.iam.1-Spigoli visibili
  6
Continuous
 62
     7
370
    30
100
AcDbCircle
 10
-656.6697359787086
 20
32.5143572117023
 30
0.0
 40
5.899999999999999
100
AcDbArc
 50
2.522335174574449
 51
341.3451714503891
  0
LINE
  5
3D03
330
18
100
AcDbEntity
  8
4360048-TLF MCR_S 105.iam.1-Spigoli visibili
  6
Continuous
 62
     7
370
    30
100
AcDbLine
 10
-685.3608477967829
 20
15.01435721171049
 30
0.0
 11
-685.3608477967801
 21
25.01435721171049
 31
0.0
  0
ELLIPSE
  5
3D04
330
18
100
AcDbEntity
  8
4360048-TLF MCR_S 105.iam.1-Spigoli visibili
  6
Continuous
 62
     7
370
    30
100
AcDbEllipse
 10
-684.7649710004827
 20
25.01435721171049
 30
0.0
 11
-0.5958767962971033
 21
0.000000000000028
 31
0.0
210
0.0
220
0.0
230
-1.0
 40
0.8390996311772827
 41
0.0
 42
1.570796326794797
  0
LINE
  5
3D05
330
18
100
AcDbEntity
  8
4360048-TLF MCR_S 105.iam.1-Spigoli visibili
  6
Continuous
 62
     7
370
    30
100
AcDbLine
 10
-682.6697359787114
 20
25.51435721171049
 30
0.0
 11
-683.6339173932412
 21
25.51435721171049
 31
0.0
  0
LINE
  5
3D06
330
18
100
AcDbEntity
  8
4360048-TLF MCR_S 105.iam.1-Spigoli visibili
  6
Continuous
 62
     7
370
    30
100
AcDbLine
 10
-684.7649710004827
 20
25.51435721171049
 30
0.0
 11
-683.6339173932412
 21
25.51435721171049
 31
0.0
  0
ARC
  5
3D07
330
18
100
AcDbEntity
  8
4360048-TLF MCR_S 105.iam.1-Spigoli visibili
  6
Continuous
 62
     7
370
    30
100
AcDbCircle
 10
-682.6697359787105
 20
26.51435721171049
 30
0.0
 40
1.000000000000001
100
AcDbArc
 50
270.0
 51
0.0
  0
LINE
  5
3D08
330
18
100
AcDbEntity
  8
4360048-TLF MCR_S 105.iam.1-Spigoli visibili
  6
Continuous
 62
     7
370
    30
100
AcDbLine
 10
-658.1131116516836
 20
30.01435721170413
 30
0.0
 11
-655.2263603057363
 21
30.01435721170413
 31
0.0
  0
LINE
  5
3D09
330
18
100
AcDbEntity
  8
4360048-TLF MCR_S 105.iam.1-Spigoli visibili
  6
Continuous
 62
     7
370
    30
100
AcDbLine
 10
-659.5564873246567
 20
32.51435721170504
 30
0.0
 11
-658.1131116516836
 21
30.01435721170413
 31
0.0
  0
LINE
  5
3D0A
330
18
100
AcDbEntity
  8
4360048-TLF MCR_S 105.iam.1-Spigoli visibili
  6
Continuous
 62
     7
370
    30
100
AcDbLine
 10
-658.1131116516827
 20
35.01435721170413
 30
0.0
 11
-659.5564873246567
 21
32.51435721170504
 31
0.0
  0
LINE
  5
3D0B
330
18
100
AcDbEntity
  8
4360048-TLF MCR_S 105.iam.1-Spigoli visibili
  6
Continuous
 62
     7
370
    30
100
AcDbLine
 10
-655.2263603057346
 20
35.01435721170413
 30
0.0
 11
-658.1131116516827
 21
35.01435721170413
 31
0.0
  0
LINE
  5
3D0C
330
18
100
AcDbEntity
  8
4360048-TLF MCR_S 105.iam.1-Spigoli visibili
  6
Continuous
 62
     7
370
    30
100
AcDbLine
 10
-653.7829846327605
 20
32.51435721170321
 30
0.0
 11
-655.2263603057346
 21
35.01435721170413
 31
0.0
  0
LINE
  5
3D0D
330
18
100
AcDbEntity
  8
4360048-TLF MCR_S 105.iam.1-Spigoli visibili
  6
Continuous
 62
     7
370
    30
100
AcDbLine
 10
-655.2263603057363
 20
30.01435721170413
 30
0.0
 11
-653.7829846327605
 21
32.51435721170321
 31
0.0
  0
ARC
  5
3D0E
330
18
100
AcDbEntity
  8
4360048-TLF MCR_S 105.iam.1-Spigoli visibili
  6
Continuous
 62
     7
370
    30
100
AcDbCircle
 10
-656.6697359787086
 20
32.5143572117023
 30
0.0
 40
5.900000000000039
100
AcDbArc
 50
342.4231387141071
 51
357.4719402364664
  0
LINE
  5
3D0F
330
18
100
AcDbEntity
  8
4360048-TLF MCR_S 105.iam.1-Spigoli visibili
  6
Continuous
 62
     7
370
    30
100
AcDbLine
 10
-578.1131116516845
 20
30.01435721168048
 30
0.0
 11
-575.2263603057364
 21
30.01435721167957
 31
0.0
  0
LINE
  5
3D10
330
18
100
AcDbEntity
  8
4360048-TLF MCR_S 105.iam.1-Spigoli visibili
  6
Continuous
 62
     7
370
    30
100
AcDbLine
 10
-579.5564873246568
 20
32.51435721168139
 30
0.0
 11
-578.1131116516845
 21
30.01435721168048
 31
0.0
  0
LINE
  5
3D11
330
18
100
AcDbEntity
  8
4360048-TLF MCR_S 105.iam.1-Spigoli visibili
  6
Continuous
 62
     7
370
    30
100
AcDbLine
 10
-578.1131116516827
 20
35.01435721168048
 30
0.0
 11
-579.5564873246568
 21
32.51435721168139
 31
0.0
  0
LINE
  5
3D12
330
18
100
AcDbEntity
  8
4360048-TLF MCR_S 105.iam.1-Spigoli visibili
  6
Continuous
 62
     7
370
    30
100
AcDbLine
 10
-575.2263603057346
 20
35.01435721167957
 30
0.0
 11
-578.1131116516827
 21
35.01435721168048
 31
0.0
  0
ARC
  5
3D13
330
18
100
AcDbEntity
  8
4360048-TLF MCR_S 105.iam.1-Spigoli visibili
  6
Continuous
 62
     7
370
    30
100
AcDbCircle
 10
-679.669735978705
 20
45.51435721170958
 30
0.0
 40
2.000000000000011
100
AcDbArc
 50
90.0
 51
180.0
  0
LINE
  5
3D14
330
18
100
AcDbEntity
  8
4360048-TLF MCR_S 105.iam.1-Spigoli visibili
  6
Continuous
 62
     7
370
    30
100
AcDbLine
 10
-681.6697359787032
 20
52.51435721170685
 30
0.0
 11
-681.6697359787032
 21
50.51435721170776
 31
0.0
  0
LINE
  5
3D15
330
18
100
AcDbEntity
  8
DISEGNO
100
AcDbLine
 10
-1231.670890630014
 20
162.2821626984151
 30
0.0
 11
-1187.781625877759
 21
162.2821626984142
 31
0.0
  0
LINE
  5
3D16
330
18
100
AcDbEntity
  8
DISEGNO
100
AcDbLine
 10
-1194.210486200423
 20
186.2821626984006
 30
0.0
 11
-1231.670890630014
 21
186.2821626984006
 31
0.0
  0
LINE
  5
3D17
330
18
100
AcDbEntity
  8
DISEGNO
100
AcDbLine
 10
-681.6697359786941
 20
194.2821626984008
 30
0.0
 11
-1196.353439641312
 21
194.2821626984005
 31
0.0
  0
LINE
  5
3D18
330
18
100
AcDbEntity
  8
4150007_A-Piastra di collegamento.ipt.1-Spigoli visibili
  6
Continuous
 62
     7
 48
0.0
370
    30
100
AcDbLine
 10
-1231.670890630014
 20
164.2821626984151
 30
0.0
 11
-1231.670890630014
 21
266.1821626984153
 31
0.0
  0
LINE
  5
3D19
330
18
100
AcDbEntity
  8
4150007_A-Piastra di collegamento.ipt.1-Spigoli visibili
  6
Continuous
 62
     7
 48
0.0
370
    30
100
AcDbLine
 10
-1241.670890630014
 20
266.1821626984153
 30
0.0
 11
-1241.670890630014
 21
164.2821626984151
 31
0.0
  0
LINE
  5
3D1A
330
18
100
AcDbEntity
  8
ASSI
100
AcDbLine
 10
-1251.670890630014
 20
221.9607632775634
 30
0.0
 11
-1251.670890630014
 21
243.6066105541137
 31
0.0
  0
CIRCLE
  5
3D1C
330
18
100
AcDbEntity
  8
DISEGNO
100
AcDbCircle
 10
-1313.670890630014
 20
215.6821626984152
 30
0.0
 40
30.0
  0
CIRCLE
  5
3D1D
330
18
100
AcDbEntity
  8
DISEGNO
100
AcDbCircle
 10
-1251.670890630014
 20
233.1821626984151
 30
0.0
 40
6.499999999999963
  0
LINE
  5
3D1E
330
18
100
AcDbEntity
  8
DISEGNO
100
AcDbLine
 10
-1376.670890630014
 20
173.1821626984152
 30
0.0
 11
-1376.670890630014
 21
258.1821626984153
 31
0.0
  0
LINE
  5
3D1F
330
18
100
AcDbEntity
  8
DISEGNO
100
AcDbLine
 10
-1241.670890630014
 20
268.182162698415
 30
0.0
 11
-1241.670890630014
 21
163.1821626984152
 31
0.0
  0
LINE
  5
3D20
330
18
100
AcDbEntity
  8
ASSI
100
AcDbLine
 10
-1364.670890630014
 20
163.4607632775634
 30
0.0
 11
-1364.670890630014
 21
185.1066105541138
 31
0.0
  0
LINE
  5
3D21
330
18
100
AcDbEntity
  8
DISEGNO
100
AcDbLine
 10
-1241.670890630014
 20
163.1821626984152
 30
0.0
 11
-1366.670890630014
 21
163.1821626984152
 31
0.0
  0
ARC
  5
3D22
330
18
100
AcDbEntity
  8
DISEGNO
100
AcDbCircle
 10
-1366.670890630014
 20
173.1821626984152
 30
0.0
 40
10.00000000000001
100
AcDbArc
 50
180.0
 51
270.0
  0
LINE
  5
3D23
330
18
100
AcDbEntity
  8
DISEGNO
100
AcDbLine
 10
-1368.133590281641
 20
174.780707726806
 30
0.0
 11
-1366.316897957825
 21
177.7302210765953
 31
0.0
  0
LINE
  5
3D24
330
18
100
AcDbEntity
  8
DISEGNO
100
AcDbLine
 10
-1362.854198306197
 20
177.6316760482045
 30
0.0
 11
-1361.208190978387
 21
174.5836176700244
 31
0.0
  0
CIRCLE
  5
3D25
330
18
100
AcDbEntity
  8
DISEGNO
100
AcDbCircle
 10
-1364.670890630014
 20
174.6821626984152
 30
0.0
 40
6.499999999999973
  0
LINE
  5
3D26
330
18
100
AcDbEntity
  8
ASSI
100
AcDbLine
 10
-1374.994807874211
 20
174.6821626984152
 30
0.0
 11
-1355.221523534933
 21
174.6821626984152
 31
0.0
  0
LINE
  5
3D27
330
18
100
AcDbEntity
  8
DISEGNO
100
AcDbLine
 10
-1366.48758295383
 20
171.732649348626
 30
0.0
 11
-1368.133590281641
 21
174.780707726806
 31
0.0
  0
LINE
  5
3D28
330
18
100
AcDbEntity
  8
DISEGNO
100
AcDbLine
 10
-1363.024883302203
 20
171.6341043202352
 30
0.0
 11
-1366.48758295383
 21
171.732649348626
 31
0.0
  0
LINE
  5
3D29
330
18
100
AcDbEntity
  8
DISEGNO
100
AcDbLine
 10
-1361.208190978387
 20
174.5836176700244
 30
0.0
 11
-1363.024883302203
 21
171.6341043202352
 31
0.0
  0
LINE
  5
3D2A
330
18
100
AcDbEntity
  8
DISEGNO
100
AcDbLine
 10
-1366.316897957825
 20
177.7302210765953
 30
0.0
 11
-1362.854198306197
 21
177.6316760482045
 31
0.0
  0
LINE
  5
3D2B
330
18
100
AcDbEntity
  8
4150007_A-Piastra di collegamento.ipt.1-Spigoli visibili
  6
Continuous
 62
     7
 48
0.0
370
    30
100
AcDbLine
 10
-1239.740834401555
 20
162.2821626984151
 30
0.0
 11
-1231.670890630014
 21
162.2821626984151
 31
0.0
  0
LINE
  5
3D2C
330
18
100
AcDbEntity
  8
4150007_A-Piastra di collegamento.ipt.1-Spigoli visibili
  6
Continuous
 62
     7
 48
0.0
370
    30
100
AcDbLine
 10
-1239.740834401555
 20
162.2821626984151
 30
0.0
 11
-1241.670890630014
 21
163.1821626984152
 31
0.0
  0
LINE
  5
3D2D
330
18
100
AcDbEntity
  8
4150007_A-Piastra di collegamento.ipt.1-Spigoli visibili
  6
Continuous
 62
     7
 48
0.0
370
    30
100
AcDbLine
 10
-1241.670890630014
 20
163.1821626984152
 30
0.0
 11
-1241.670890630014
 21
164.2821626984151
 31
0.0
  0
LINE
  5
3D2E
330
18
100
AcDbEntity
  8
4150007_A-Piastra di collegamento.ipt.1-Spigoli visibili
  6
Continuous
 62
     7
 48
0.0
370
    30
100
AcDbLine
 10
-1231.670890630014
 20
164.2821626984151
 30
0.0
 11
-1231.670890630014
 21
162.2821626984151
 31
0.0
  0
CIRCLE
  5
3D30
330
18
100
AcDbEntity
  8
DISEGNO
100
AcDbCircle
 10
-1313.670890630014
 20
215.6821626984152
 30
0.0
 40
9.499999999999994
  0
CIRCLE
  5
3D31
330
18
100
AcDbEntity
  8
DISEGNO
100
AcDbCircle
 10
-1313.670890630014
 20
215.6821626984152
 30
0.0
 40
13.49999999999995
  0
LINE
  5
3D32
330
18
100
AcDbEntity
  8
ASSI
100
AcDbLine
 10
-1251.670890630014
 20
186.9607632775634
 30
0.0
 11
-1251.670890630014
 21
208.6066105541138
 31
0.0
  0
LINE
  5
3D33
330
18
100
AcDbEntity
  8
DISEGNO
100
AcDbLine
 10
-1253.817861955677
 20
195.4636126939492
 30
0.0
 11
-1255.098709658171
 21
198.6822194054028
 31
0.0
  0
LINE
  5
3D34
330
18
100
AcDbEntity
  8
DISEGNO
100
AcDbLine
 10
-1248.243071601857
 20
197.6821059914275
 30
0.0
 11
-1250.390042927519
 21
194.9635559869615
 31
0.0
  0
CIRCLE
  5
3D35
330
18
100
AcDbEntity
  8
DISEGNO
100
AcDbCircle
 10
-1251.670890630014
 20
198.1821626984152
 30
0.0
 40
6.499999999999969
  0
LINE
  5
3D36
330
18
100
AcDbEntity
  8
DISEGNO
100
AcDbLine
 10
-1250.390042927519
 20
194.9635559869615
 30
0.0
 11
-1253.817861955677
 21
195.4636126939492
 31
0.0
  0
LINE
  5
3D37
330
18
100
AcDbEntity
  8
DISEGNO
100
AcDbLine
 10
-1196.353439641312
 20
194.2821626984005
 30
0.0
 11
-1231.670890630014
 21
194.2821626984001
 31
0.0
  0
LINE
  5
3D38
330
18
100
AcDbEntity
  8
ASSI
100
AcDbLine
 10
-1261.994807874211
 20
198.1821626984152
 30
0.0
 11
-1242.221523534933
 21
198.1821626984152
 31
0.0
  0
LINE
  5
3D39
330
18
100
AcDbEntity
  8
DISEGNO
100
AcDbLine
 10
-1255.098709658171
 20
198.6822194054028
 30
0.0
 11
-1252.951738332508
 21
201.4007694098689
 31
0.0
  0
LINE
  5
3D3A
330
18
100
AcDbEntity
  8
DISEGNO
100
AcDbLine
 10
-1249.523919304351
 20
200.9007127028811
 30
0.0
 11
-1248.243071601857
 21
197.6821059914275
 31
0.0
  0
LINE
  5
3D3B
330
18
100
AcDbEntity
  8
DISEGNO
100
AcDbLine
 10
-1252.951738332508
 20
201.4007694098689
 30
0.0
 11
-1249.523919304351
 21
200.9007127028811
 31
0.0
  0
LINE
  5
3D3C
330
18
100
AcDbEntity
  8
DISEGNO
100
AcDbLine
 10
-1248.264757146538
 20
233.8132369355243
 30
0.0
 11
-1249.421297567266
 21
230.5479016915987
 31
0.0
  0
LINE
  5
3D3D
330
18
100
AcDbEntity
  8
DISEGNO
100
AcDbLine
 10
-1252.827431050742
 20
229.9168274544896
 30
0.0
 11
-1255.07702411349
 21
232.5510884613062
 31
0.0
  0
LINE
  5
3D3E
330
18
100
AcDbEntity
  8
DISEGNO
100
AcDbLine
 10
-1249.421297567266
 20
230.5479016915987
 30
0.0
 11
-1252.827431050742
 21
229.9168274544896
 31
0.0
  0
LINE
  5
3D3F
330
18
100
AcDbEntity
  8
ASSI
100
AcDbLine
 10
-1261.994807874211
 20
233.1821626984151
 30
0.0
 11
-1242.221523534933
 21
233.1821626984151
 31
0.0
  0
LINE
  5
3D40
330
18
100
AcDbEntity
  8
DISEGNO
100
AcDbLine
 10
-1253.920483692762
 20
235.8164237052319
 30
0.0
 11
-1250.514350209286
 21
236.4474979423409
 31
0.0
  0
LINE
  5
3D41
330
18
100
AcDbEntity
  8
DISEGNO
100
AcDbLine
 10
-1255.07702411349
 20
232.5510884613062
 30
0.0
 11
-1253.920483692762
 21
235.8164237052319
 31
0.0
  0
LINE
  5
3D42
330
18
100
AcDbEntity
  8
DISEGNO
100
AcDbLine
 10
-1250.514350209286
 20
236.4474979423409
 30
0.0
 11
-1248.264757146538
 21
233.8132369355243
 31
0.0
  0
LINE
  5
3D43
330
18
100
AcDbEntity
  8
DISEGNO
100
AcDbLine
 10
-1366.670890630014
 20
268.182162698415
 30
0.0
 11
-1241.670890630014
 21
268.182162698415
 31
0.0
  0
ARC
  5
3D44
330
18
100
AcDbEntity
  8
DISEGNO
100
AcDbCircle
 10
-1366.670890630014
 20
258.182162698415
 30
0.0
 40
10.0
100
AcDbArc
 50
90.0
 51
180.0
  0
LINE
  5
3D45
330
18
100
AcDbEntity
  8
ASSI
100
AcDbLine
 10
-1364.670890630014
 20
245.4607632775634
 30
0.0
 11
-1364.670890630014
 21
267.1066105541137
 31
0.0
  0
CIRCLE
  5
3D46
330
18
100
AcDbEntity
  8
DISEGNO
100
AcDbCircle
 10
-1364.670890630014
 20
256.6821626984151
 30
0.0
 40
6.499999999999966
  0
LINE
  5
3D47
330
18
100
AcDbEntity
  8
DISEGNO
100
AcDbLine
 10
-1367.935185251085
 20
257.841636987412
 30
0.0
 11
-1365.298903751243
 21
260.0888619101983
 31
0.0
  0
LINE
  5
3D48
330
18
100
AcDbEntity
  8
DISEGNO
100
AcDbLine
 10
-1362.034609130172
 20
258.9293876212013
 30
0.0
 11
-1361.406596008943
 21
255.5226884094182
 31
0.0
  0
LINE
  5
3D49
330
18
100
AcDbEntity
  8
ASSI
100
AcDbLine
 10
-1374.994807874211
 20
256.6821626984151
 30
0.0
 11
-1355.221523534933
 21
256.6821626984151
 31
0.0
  0
LINE
  5
3D4A
330
18
100
AcDbEntity
  8
DISEGNO
100
AcDbLine
 10
-1367.307172129856
 20
254.434937775629
 30
0.0
 11
-1367.935185251085
 21
257.841636987412
 31
0.0
  0
LINE
  5
3D4B
330
18
100
AcDbEntity
  8
DISEGNO
100
AcDbLine
 10
-1364.042877508784
 20
253.275463486632
 30
0.0
 11
-1367.307172129856
 21
254.434937775629
 31
0.0
  0
LINE
  5
3D4C
330
18
100
AcDbEntity
  8
DISEGNO
100
AcDbLine
 10
-1361.406596008943
 20
255.5226884094182
 30
0.0
 11
-1364.042877508784
 21
253.275463486632
 31
0.0
  0
LINE
  5
3D4D
330
18
100
AcDbEntity
  8
DISEGNO
100
AcDbLine
 10
-1365.298903751243
 20
260.0888619101983
 30
0.0
 11
-1362.034609130172
 21
258.9293876212013
 31
0.0
  0
LINE
  5
3D4E
330
18
100
AcDbEntity
  8
INGOMBRI
100
AcDbLine
 10
-1214.170890630015
 20
292.2821626984152
 30
0.0
 11
-1214.170890630013
 21
271.5339335742871
 31
0.0
  0
LINE
  5
3D4F
330
18
100
AcDbEntity
  8
4150007_A-Piastra di collegamento.ipt.1-Spigoli visibili
  6
Continuous
 62
     7
 48
0.0
370
    30
100
AcDbLine
 10
-1233.600946858472
 20
268.1821626984152
 30
0.0
 11
-1241.670890630014
 21
268.1821626984152
 31
0.0
  0
LINE
  5
3D50
330
18
100
AcDbEntity
  8
4150007_A-Piastra di collegamento.ipt.1-Spigoli visibili
  6
Continuous
 62
     7
 48
0.0
370
    30
100
AcDbLine
 10
-1241.670890630014
 20
266.1821626984153
 30
0.0
 11
-1241.670890630014
 21
268.1821626984152
 31
0.0
  0
LINE
  5
3D51
330
18
100
AcDbEntity
  8
4150007_A-Piastra di collegamento.ipt.1-Spigoli visibili
  6
Continuous
 62
     7
 48
0.0
370
    30
100
AcDbLine
 10
-1231.670890630014
 20
267.2821626984152
 30
0.0
 11
-1231.670890630014
 21
266.1821626984153
 31
0.0
  0
LINE
  5
3D52
330
18
100
AcDbEntity
  8
4150007_A-Piastra di collegamento.ipt.1-Spigoli visibili
  6
Continuous
 62
     7
 48
0.0
370
    30
100
AcDbLine
 10
-1233.600946858472
 20
268.1821626984152
 30
0.0
 11
-1231.670890630014
 21
267.2821626984152
 31
0.0
  0
LINE
  5
3D53
330
18
100
AcDbEntity
  8
DISEGNO
100
AcDbLine
 10
-1231.670890630015
 20
267.2821626984147
 30
0.0
 11
-1215.907889789431
 21
267.2821626984145
 31
0.0
  0
LINE
  5
3D54
330
18
100
AcDbEntity
  8
INGOMBRI
100
AcDbLine
 10
-1214.170890630015
 20
292.2821626984152
 30
0.0
 11
-1195.734940262747
 21
292.2821626984152
 31
0.0
  0
LINE
  5
3D55
330
18
100
AcDbEntity
  8
4360048-TLF MCR_S 105.iam.1-Spigoli visibili
  6
Continuous
 62
     7
 48
0.0
370
    30
100
AcDbLine
 10
-681.6697359786958
 20
215.7821626984151
 30
0.0
 11
-681.6697359786958
 21
245.7821626984152
 31
0.0
  0
LINE
  5
3D56
330
18
100
AcDbEntity
  8
ASSI
100
AcDbLine
 10
-621.669735978695
 20
278.6771801617225
 30
0.0
 11
-621.669735978695
 21
141.6202921538657
 31
0.0
  0
LINE
  5
3D57
330
18
100
AcDbEntity
  8
DISEGNO
100
AcDbLine
 10
-1187.781625877759
 20
162.2821626984142
 30
0.0
 11
-681.6697359786949
 21
162.2821626984151
 31
0.0
  0
LINE
  5
3D58
330
18
100
AcDbEntity
  8
DISEGNO
100
AcDbLine
 10
-681.6697359786945
 20
186.2821626984006
 30
0.0
 11
-1194.210486200423
 21
186.2821626984006
 31
0.0
  0
LINE
  5
3D59
330
18
100
AcDbEntity
  8
4360048-TLF MCR_S 105.iam.1-Spigoli visibili
  6
Continuous
 62
     7
 48
0.0
370
    30
100
AcDbLine
 10
-681.6697359786958
 20
164.2821626984151
 30
0.0
 11
-681.6697359786958
 21
182.7821626984151
 31
0.0
  0
LINE
  5
3D5A
330
18
100
AcDbEntity
  8
4360048-TLF MCR_S 105.iam.1-Spigoli visibili
  6
Continuous
 62
     7
 48
0.0
370
    30
100
AcDbLine
 10
-681.6697359786958
 20
164.2821626984151
 30
0.0
 11
-681.6697359786949
 21
162.2821626984151
 31
0.0
  0
LINE
  5
3D5B
330
18
100
AcDbEntity
  8
4360048-TLF MCR_S 105.iam.1-Spigoli visibili
  6
Continuous
 62
     7
 48
0.0
370
    30
100
AcDbLine
 10
-681.6697359786958
 20
197.7821626984152
 30
0.0
 11
-681.6697359786958
 21
212.7821626984152
 31
0.0
  0
LINE
  5
3D5C
330
18
100
AcDbEntity
  8
4360048-TLF MCR_S 105.iam.1-Spigoli visibili
  6
Continuous
 62
     7
 48
0.0
370
    30
100
AcDbLine
 10
-681.6697359786921
 20
191.2821626984151
 30
0.0
 11
-681.6697359786949
 21
197.7821626984152
 31
0.0
  0
ARC
  5
3D5D
330
18
100
AcDbEntity
  8
4360048-TLF MCR_S 105.iam.1-Spigoli visibili
  6
Continuous
 62
     7
 48
0.0
370
    30
100
AcDbCircle
 10
-659.6697359786958
 20
194.2821626984151
 30
0.0
 40
3.500000000000023
100
AcDbArc
 50
8.213210701722832
 51
90.0
  0
LINE
  5
3D5E
330
18
100
AcDbEntity
  8
4360048-TLF MCR_S 105.iam.1-Spigoli visibili
  6
Continuous
 62
     7
 48
0.0
370
    30
100
AcDbLine
 10
-681.6697359786949
 20
182.7821626984151
 30
0.0
 11
-681.6697359786921
 21
189.2821626984151
 31
0.0
  0
LINE
  5
3D5F
330
18
100
AcDbEntity
  8
4360048-TLF MCR_S 105.iam.1-Spigoli visibili
  6
Continuous
 62
     7
 48
0.0
370
    30
100
AcDbLine
 10
-681.6697359786958
 20
182.7821626984151
 30
0.0
 11
-659.6697359786958
 21
182.7821626984151
 31
0.0
  0
ARC
  5
3D60
330
18
100
AcDbEntity
  8
4360048-TLF MCR_S 105.iam.1-Spigoli visibili
  6
Continuous
 62
     7
 48
0.0
370
    30
100
AcDbCircle
 10
-659.6697359786958
 20
186.2821626984151
 30
0.0
 40
3.499999999999985
100
AcDbArc
 50
270.0
 51
351.7867892982504
  0
POLYLINE
  5
3D61
330
18
100
AcDbEntity
  8
4360048-TLF MCR_S 105.iam.1-Spigoli visibili
  6
Continuous
 62
     7
 48
0.0
370
    30
100
AcDb2dPolyline
 66
     1
 10
0.0
 20
0.0
 30
0.0
  0
VERTEX
  5
3D62
330
3D61
100
AcDbEntity
  8
4360048-TLF MCR_S 105.iam.1-Spigoli visibili
  6
Continuous
 62
     7
 48
0.0
370
    30
100
AcDbVertex
100
AcDb2dVertex
 10
-656.2056380020112
 20
185.7821617447408
 30
0.0
  0
VERTEX
  5
3D63
330
3D61
100
AcDbEntity
  8
4360048-TLF MCR_S 105.iam.1-Spigoli visibili
  6
Continuous
 62
     7
 48
0.0
370
    30
100
AcDbVertex
100
AcDb2dVertex
 10
-656.2012511001557
 20
185.8136258446249
 30
0.0
  0
VERTEX
  5
3D64
330
3D61
100
AcDbEntity
  8
4360048-TLF MCR_S 105.iam.1-Spigoli visibili
  6
Continuous
 62
     7
 48
0.0
370
    30
100
AcDbVertex
100
AcDb2dVertex
 10
-656.1971026168794
 20
185.8455596291097
 30
0.0
  0
VERTEX
  5
3D65
330
3D61
100
AcDbEntity
  8
4360048-TLF MCR_S 105.iam.1-Spigoli visibili
  6
Continuous
 62
     7
 48
0.0
370
    30
100
AcDbVertex
100
AcDb2dVertex
 10
-656.1932211624116
 20
185.8777008377584
 30
0.0
  0
VERTEX
  5
3D66
330
3D61
100
AcDbEntity
  8
4360048-TLF MCR_S 105.iam.1-Spigoli visibili
  6
Continuous
 62
     7
 48
0.0
370
    30
100
AcDbVertex
100
AcDb2dVertex
 10
-656.1896258102388
 20
185.9097776733907
 30
0.0
  0
VERTEX
  5
3D67
330
3D61
100
AcDbEntity
  8
4360048-TLF MCR_S 105.iam.1-Spigoli visibili
  6
Continuous
 62
     7
 48
0.0
370
    30
100
AcDbVertex
100
AcDb2dVertex
 10
-656.1863642440767
 20
185.9415302597555
 30
0.0
  0
VERTEX
  5
3D68
330
3D61
100
AcDbEntity
  8
4360048-TLF MCR_S 105.iam.1-Spigoli visibili
  6
Continuous
 62
     7
 48
0.0
370
    30
100
AcDbVertex
100
AcDb2dVertex
 10
-656.1834460006685
 20
185.9726867996725
 30
0.0
  0
VERTEX
  5
3D69
330
3D61
100
AcDbEntity
  8
4360048-TLF MCR_S 105.iam.1-Spigoli visibili
  6
Continuous
 62
     7
 48
0.0
370
    30
100
AcDbVertex
100
AcDb2dVertex
 10
-656.1808901535004
 20
186.0029945694479
 30
0.0
  0
VERTEX
  5
3D6A
330
3D61
100
AcDbEntity
  8
4360048-TLF MCR_S 105.iam.1-Spigoli visibili
  6
Continuous
 62
     7
 48
0.0
370
    30
100
AcDbVertex
100
AcDb2dVertex
 10
-656.1786776290865
 20
186.032255681661
 30
0.0
  0
VERTEX
  5
3D6B
330
3D61
100
AcDbEntity
  8
4360048-TLF MCR_S 105.iam.1-Spigoli visibili
  6
Continuous
 62
     7
 48
0.0
370
    30
100
AcDbVertex
100
AcDb2dVertex
 10
-656.1767893539399
 20
186.060286554006
 30
0.0
  0
VERTEX
  5
3D6C
330
3D61
100
AcDbEntity
  8
4360048-TLF MCR_S 105.iam.1-Spigoli visibili
  6
Continuous
 62
     7
 48
0.0
370
    30
100
AcDbVertex
100
AcDb2dVertex
 10
-656.1751967178316
 20
186.0869036041768
 30
0.0
  0
VERTEX
  5
3D6D
330
3D61
100
AcDbEntity
  8
4360048-TLF MCR_S 105.iam.1-Spigoli visibili
  6
Continuous
 62
     7
 48
0.0
370
    30
100
AcDbVertex
100
AcDb2dVertex
 10
-656.1738806472749
 20
186.111920865682
 30
0.0
  0
VERTEX
  5
3D6E
330
3D61
100
AcDbEntity
  8
4360048-TLF MCR_S 105.iam.1-Spigoli visibili
  6
Continuous
 62
     7
 48
0.0
370
    30
100
AcDbVertex
100
AcDb2dVertex
 10
-656.1728220687837
 20
186.135159524587
 30
0.0
  0
VERTEX
  5
3D6F
330
3D61
100
AcDbEntity
  8
4360048-TLF MCR_S 105.iam.1-Spigoli visibili
  6
Continuous
 62
     7
 48
0.0
370
    30
100
AcDbVertex
100
AcDb2dVertex
 10
-656.1719828353853
 20
186.1568961464437
 30
0.0
  0
VERTEX
  5
3D70
330
3D61
100
AcDbEntity
  8
4360048-TLF MCR_S 105.iam.1-Spigoli visibili
  6
Continuous
 62
     7
 48
0.0
370
    30
100
AcDbVertex
100
AcDb2dVertex
 10
-656.1713057266206
 20
186.1774525963338
 30
0.0
  0
VERTEX
  5
3D71
330
3D61
100
AcDbEntity
  8
4360048-TLF MCR_S 105.iam.1-Spigoli visibili
  6
Continuous
 62
     7
 48
0.0
370
    30
100
AcDbVertex
100
AcDb2dVertex
 10
-656.1707907424898
 20
186.1966333710226
 30
0.0
  0
VERTEX
  5
3D72
330
3D61
100
AcDbEntity
  8
4360048-TLF MCR_S 105.iam.1-Spigoli visibili
  6
Continuous
 62
     7
 48
0.0
370
    30
100
AcDbVertex
100
AcDb2dVertex
 10
-656.17039973602
 20
186.2142381989034
 30
0.0
  0
VERTEX
  5
3D73
330
3D61
100
AcDbEntity
  8
4360048-TLF MCR_S 105.iam.1-Spigoli visibili
  6
Continuous
 62
     7
 48
0.0
370
    30
100
AcDbVertex
100
AcDb2dVertex
 10
-656.1701231704683
 20
186.2300715767416
 30
0.0
  0
VERTEX
  5
3D74
330
3D61
100
AcDbEntity
  8
4360048-TLF MCR_S 105.iam.1-Spigoli visibili
  6
Continuous
 62
     7
 48
0.0
370
    30
100
AcDbVertex
100
AcDb2dVertex
 10
-656.1699419723481
 20
186.2439356171163
 30
0.0
  0
VERTEX
  5
3D75
330
3D61
100
AcDbEntity
  8
4360048-TLF MCR_S 105.iam.1-Spigoli visibili
  6
Continuous
 62
     7
 48
0.0
370
    30
100
AcDbVertex
100
AcDb2dVertex
 10
-656.1698275314301
 20
186.2556634270223
 30
0.0
  0
VERTEX
  5
3D76
330
3D61
100
AcDbEntity
  8
4360048-TLF MCR_S 105.iam.1-Spigoli visibili
  6
Continuous
 62
     7
 48
0.0
370
    30
100
AcDbVertex
100
AcDb2dVertex
 10
-656.1697703109712
 20
186.2652335487874
 30
0.0
  0
VERTEX
  5
3D77
330
3D61
100
AcDbEntity
  8
4360048-TLF MCR_S 105.iam.1-Spigoli visibili
  6
Continuous
 62
     7
 48
0.0
370
    30
100
AcDbVertex
100
AcDb2dVertex
 10
-656.1697321639985
 20
186.2726579033407
 30
0.0
  0
VERTEX
  5
3D78
330
3D61
100
AcDbEntity
  8
4360048-TLF MCR_S 105.iam.1-Spigoli visibili
  6
Continuous
 62
     7
 48
0.0
370
    30
100
AcDbVertex
100
AcDb2dVertex
 10
-656.1697321639985
 20
186.2779460274252
 30
0.0
  0
VERTEX
  5
3D79
330
3D61
100
AcDbEntity
  8
4360048-TLF MCR_S 105.iam.1-Spigoli visibili
  6
Continuous
 62
     7
 48
0.0
370
    30
100
AcDbVertex
100
AcDb2dVertex
 10
-656.1697321639985
 20
186.2811098419698
 30
0.0
  0
VERTEX
  5
3D7A
330
3D61
100
AcDbEntity
  8
4360048-TLF MCR_S 105.iam.1-Spigoli visibili
  6
Continuous
 62
     7
 48
0.0
370
    30
100
AcDbVertex
100
AcDb2dVertex
 10
-656.1697321639985
 20
186.2821636520895
 30
0.0
  0
SEQEND
  5
3D7B
330
3D61
100
AcDbEntity
  8
4360048-TLF MCR_S 105.iam.1-Spigoli visibili
  6
Continuous
 62
     7
 48
0.0
370
    30
  0
LINE
  5
3D7C
330
18
100
AcDbEntity
  8
4360048-TLF MCR_S 105.iam.1-Spigoli visibili
  6
Continuous
 62
     7
 48
0.0
370
    30
100
AcDbLine
 10
-681.6697359786921
 20
189.2821626984151
 30
0.0
 11
-681.6697359786921
 21
191.2821626984151
 31
0.0
  0
POLYLINE
  5
3D7D
330
18
100
AcDbEntity
  8
4360048-TLF MCR_S 105.iam.1-Spigoli visibili
  6
Continuous
 62
     7
 48
0.0
370
    30
100
AcDb2dPolyline
 66
     1
 10
0.0
 20
0.0
 30
0.0
  0
VERTEX
  5
3D7E
330
3D7D
100
AcDbEntity
  8
4360048-TLF MCR_S 105.iam.1-Spigoli visibili
  6
Continuous
 62
     7
 48
0.0
370
    30
100
AcDbVertex
100
AcDb2dVertex
 10
-656.1697321639985
 20
194.2821631752523
 30
0.0
  0
VERTEX
  5
3D7F
330
3D7D
100
AcDbEntity
  8
4360048-TLF MCR_S 105.iam.1-Spigoli visibili
  6
Continuous
 62
     7
 48
0.0
370
    30
100
AcDbVertex
100
AcDb2dVertex
 10
-656.1697321639985
 20
194.2832146011861
 30
0.0
  0
VERTEX
  5
3D80
330
3D7D
100
AcDbEntity
  8
4360048-TLF MCR_S 105.iam.1-Spigoli visibili
  6
Continuous
 62
     7
 48
0.0
370
    30
100
AcDbVertex
100
AcDb2dVertex
 10
-656.1697321639985
 20
194.2863784157308
 30
0.0
  0
VERTEX
  5
3D81
330
3D7D
100
AcDbEntity
  8
4360048-TLF MCR_S 105.iam.1-Spigoli visibili
  6
Continuous
 62
     7
 48
0.0
370
    30
100
AcDbVertex
100
AcDb2dVertex
 10
-656.1697321639985
 20
194.2916665398153
 30
0.0
  0
VERTEX
  5
3D82
330
3D7D
100
AcDbEntity
  8
4360048-TLF MCR_S 105.iam.1-Spigoli visibili
  6
Continuous
 62
     7
 48
0.0
370
    30
100
AcDbVertex
100
AcDb2dVertex
 10
-656.1697703109712
 20
194.2990908943685
 30
0.0
  0
VERTEX
  5
3D83
330
3D7D
100
AcDbEntity
  8
4360048-TLF MCR_S 105.iam.1-Spigoli visibili
  6
Continuous
 62
     7
 48
0.0
370
    30
100
AcDbVertex
100
AcDb2dVertex
 10
-656.1698275314301
 20
194.3086610161336
 30
0.0
  0
VERTEX
  5
3D84
330
3D7D
100
AcDbEntity
  8
4360048-TLF MCR_S 105.iam.1-Spigoli visibili
  6
Continuous
 62
     7
 48
0.0
370
    30
100
AcDbVertex
100
AcDb2dVertex
 10
-656.1699419723481
 20
194.3203912102254
 30
0.0
  0
VERTEX
  5
3D85
330
3D7D
100
AcDbEntity
  8
4360048-TLF MCR_S 105.iam.1-Spigoli visibili
  6
Continuous
 62
     7
 48
0.0
370
    30
100
AcDbVertex
100
AcDb2dVertex
 10
-656.1701231704683
 20
194.3342528664144
 30
0.0
  0
VERTEX
  5
3D86
330
3D7D
100
AcDbEntity
  8
4360048-TLF MCR_S 105.iam.1-Spigoli visibili
  6
Continuous
 62
     7
 48
0.0
370
    30
100
AcDbVertex
100
AcDb2dVertex
 10
-656.17039973602
 20
194.3500862442525
 30
0.0
  0
VERTEX
  5
3D87
330
3D7D
100
AcDbEntity
  8
4360048-TLF MCR_S 105.iam.1-Spigoli visibili
  6
Continuous
 62
     7
 48
0.0
370
    30
100
AcDbVertex
100
AcDb2dVertex
 10
-656.1707907424898
 20
194.3676910721334
 30
0.0
  0
VERTEX
  5
3D88
330
3D7D
100
AcDbEntity
  8
4360048-TLF MCR_S 105.iam.1-Spigoli visibili
  6
Continuous
 62
     7
 48
0.0
370
    30
100
AcDbVertex
100
AcDb2dVertex
 10
-656.1713057266206
 20
194.3868718468221
 30
0.0
  0
VERTEX
  5
3D89
330
3D7D
100
AcDbEntity
  8
4360048-TLF MCR_S 105.iam.1-Spigoli visibili
  6
Continuous
 62
     7
 48
0.0
370
    30
100
AcDbVertex
100
AcDb2dVertex
 10
-656.1719828353853
 20
194.407430680898
 30
0.0
  0
VERTEX
  5
3D8A
330
3D7D
100
AcDbEntity
  8
4360048-TLF MCR_S 105.iam.1-Spigoli visibili
  6
Continuous
 62
     7
 48
0.0
370
    30
100
AcDbVertex
100
AcDb2dVertex
 10
-656.1728220687837
 20
194.4291673027547
 30
0.0
  0
VERTEX
  5
3D8B
330
3D7D
100
AcDbEntity
  8
4360048-TLF MCR_S 105.iam.1-Spigoli visibili
  6
Continuous
 62
     7
 48
0.0
370
    30
100
AcDbVertex
100
AcDb2dVertex
 10
-656.1738806472749
 20
194.452403577474
 30
0.0
  0
VERTEX
  5
3D8C
330
3D7D
100
AcDbEntity
  8
4360048-TLF MCR_S 105.iam.1-Spigoli visibili
  6
Continuous
 62
     7
 48
0.0
370
    30
100
AcDbVertex
100
AcDb2dVertex
 10
-656.1751967178316
 20
194.4774232231649
 30
0.0
  0
VERTEX
  5
3D8D
330
3D7D
100
AcDbEntity
  8
4360048-TLF MCR_S 105.iam.1-Spigoli visibili
  6
Continuous
 62
     7
 48
0.0
370
    30
100
AcDbVertex
100
AcDb2dVertex
 10
-656.1767893539399
 20
194.50403788915
 30
0.0
  0
VERTEX
  5
3D8E
330
3D7D
100
AcDbEntity
  8
4360048-TLF MCR_S 105.iam.1-Spigoli visibili
  6
Continuous
 62
     7
 48
0.0
370
    30
100
AcDbVertex
100
AcDb2dVertex
 10
-656.1786776290865
 20
194.532068761495
 30
0.0
  0
VERTEX
  5
3D8F
330
3D7D
100
AcDbEntity
  8
4360048-TLF MCR_S 105.iam.1-Spigoli visibili
  6
Continuous
 62
     7
 48
0.0
370
    30
100
AcDbVertex
100
AcDb2dVertex
 10
-656.1808901535004
 20
194.5613298737081
 30
0.0
  0
VERTEX
  5
3D90
330
3D7D
100
AcDbEntity
  8
4360048-TLF MCR_S 105.iam.1-Spigoli visibili
  6
Continuous
 62
     7
 48
0.0
370
    30
100
AcDbVertex
100
AcDb2dVertex
 10
-656.1834460006685
 20
194.5916376434835
 30
0.0
  0
VERTEX
  5
3D91
330
3D7D
100
AcDbEntity
  8
4360048-TLF MCR_S 105.iam.1-Spigoli visibili
  6
Continuous
 62
     7
 48
0.0
370
    30
100
AcDbVertex
100
AcDb2dVertex
 10
-656.1863642440767
 20
194.6227965675863
 30
0.0
  0
VERTEX
  5
3D92
330
3D7D
100
AcDbEntity
  8
4360048-TLF MCR_S 105.iam.1-Spigoli visibili
  6
Continuous
 62
     7
 48
0.0
370
    30
100
AcDbVertex
100
AcDb2dVertex
 10
-656.1896258102388
 20
194.6545467697652
 30
0.0
  0
VERTEX
  5
3D93
330
3D7D
100
AcDbEntity
  8
4360048-TLF MCR_S 105.iam.1-Spigoli visibili
  6
Continuous
 62
     7
 48
0.0
370
    30
100
AcDbVertex
100
AcDb2dVertex
 10
-656.1932211624116
 20
194.6866259895833
 30
0.0
  0
VERTEX
  5
3D94
330
3D7D
100
AcDbEntity
  8
4360048-TLF MCR_S 105.iam.1-Spigoli visibili
  6
Continuous
 62
     7
 48
0.0
370
    30
100
AcDbVertex
100
AcDb2dVertex
 10
-656.1971026168794
 20
194.7187648140462
 30
0.0
  0
VERTEX
  5
3D95
330
3D7D
100
AcDbEntity
  8
4360048-TLF MCR_S 105.iam.1-Spigoli visibili
  6
Continuous
 62
     7
 48
0.0
370
    30
100
AcDbVertex
100
AcDb2dVertex
 10
-656.2012511001557
 20
194.7507009827169
 30
0.0
  0
VERTEX
  5
3D96
330
3D7D
100
AcDbEntity
  8
4360048-TLF MCR_S 105.iam.1-Spigoli visibili
  6
Continuous
 62
     7
 48
0.0
370
    30
100
AcDbVertex
100
AcDb2dVertex
 10
-656.2056380020112
 20
194.7821626984151
 30
0.0
  0
SEQEND
  5
3D97
330
3D7D
100
AcDbEntity
  8
4360048-TLF MCR_S 105.iam.1-Spigoli visibili
  6
Continuous
 62
     7
 48
0.0
370
    30
  0
LINE
  5
3D98
330
18
100
AcDbEntity
  8
4360048-TLF MCR_S 105.iam.1-Spigoli visibili
  6
Continuous
 62
     7
 48
0.0
370
    30
100
AcDbLine
 10
-659.6697359786958
 20
197.7821626984152
 30
0.0
 11
-681.6697359786958
 21
197.7821626984152
 31
0.0
  0
LINE
  5
3D99
330
18
100
AcDbEntity
  8
4360048-TLF MCR_S 105.iam.1-Spigoli visibili
  6
Continuous
 62
     7
 48
0.0
370
    30
100
AcDbLine
 10
-671.6697359786958
 20
219.7821626984071
 30
0.0
 11
-671.6697359786958
 21
229.782162698407
 31
0.0
  0
LINE
  5
3D9A
330
18
100
AcDbEntity
  8
4360048-TLF MCR_S 105.iam.1-Spigoli visibili
  6
Continuous
 62
     7
 48
0.0
370
    30
100
AcDbLine
 10
-681.6697359786958
 20
212.7821626984152
 30
0.0
 11
-681.6697359786958
 21
215.7821626984151
 31
0.0
  0
LINE
  5
3D9B
330
18
100
AcDbEntity
  8
DISEGNO
100
AcDbLine
 10
-681.6697359786958
 20
219.782162698407
 30
0.0
 11
-671.6697359786958
 21
219.7821626984071
 31
0.0
  0
LINE
  5
3D9C
330
18
100
AcDbEntity
  8
DISEGNO
100
AcDbLine
 10
-681.6697359786958
 20
229.782162698407
 30
0.0
 11
-671.6697359786958
 21
229.7821626984071
 31
0.0
  0
LINE
  5
3D9D
330
18
100
AcDbEntity
  8
DISEGNO
100
AcDbLine
 10
-1113.653237369155
 20
292.2821626984152
 30
0.0
 11
-813.6532373691547
 21
292.2821626984152
 31
0.0
  0
LINE
  5
3D9E
330
18
100
AcDbEntity
  8
DISEGNO
100
AcDbLine
 10
-813.6532373691547
 20
269.7821626984154
 30
0.0
 11
-1113.653237369155
 21
269.7821626984151
 31
0.0
  0
LINE
  5
3D9F
330
18
100
AcDbEntity
  8
DISEGNO
100
AcDbLine
 10
-813.6532373691547
 20
267.7821626984154
 30
0.0
 11
-1113.653237369155
 21
267.7821626984151
 31
0.0
  0
LINE
  5
3DA0
330
18
100
AcDbEntity
  8
ASSI
100
AcDbLine
 10
-1093.653237369153
 20
294.9410660020977
 30
0.0
 11
-1093.653237369153
 21
263.9367770382702
 31
0.0
  0
LINE
  5
3DA1
330
18
100
AcDbEntity
  8
ASSI
100
AcDbLine
 10
-1013.653237369155
 20
295.7896535002693
 30
0.0
 11
-1013.653237369155
 21
264.7853645364413
 31
0.0
  0
LINE
  5
3DA2
330
18
100
AcDbEntity
  8
ASSI
100
AcDbLine
 10
-913.6532373691542
 20
295.7896535002691
 30
0.0
 11
-913.6532373691547
 21
264.7853645364415
 31
0.0
  0
LINE
  5
3DA3
330
18
100
AcDbEntity
  8
DISEGNO
100
AcDbLine
 10
-1113.653237369155
 20
267.7821626984151
 30
0.0
 11
-1113.653237369155
 21
292.2821626984152
 31
0.0
  0
LINE
  5
3DA4
330
18
100
AcDbEntity
  8
TRATTEGGI
  6
DASHED
100
AcDbLine
 10
-1097.653237369151
 20
292.2821626984152
 30
0.0
 11
-1097.653237369154
 21
269.7821626984151
 31
0.0
  0
LINE
  5
3DA5
330
18
100
AcDbEntity
  8
TRATTEGGI
  6
DASHED
100
AcDbLine
 10
-1096.853237369155
 20
291.482162698415
 30
0.0
 11
-1096.853237369152
 21
269.7821626984151
 31
0.0
  0
LINE
  5
3DA6
330
18
100
AcDbEntity
  8
TRATTEGGI
  6
DASHED
100
AcDbLine
 10
-1090.45323736915
 20
291.482162698415
 30
0.0
 11
-1090.453237369154
 21
269.7821626984151
 31
0.0
  0
LINE
  5
3DA7
330
18
100
AcDbEntity
  8
TRATTEGGI
  6
DASHED
100
AcDbLine
 10
-1089.653237369154
 20
292.2821626984152
 30
0.0
 11
-1089.653237369154
 21
269.7821626984151
 31
0.0
  0
LINE
  5
3DA8
330
18
100
AcDbEntity
  8
TRATTEGGI
  6
DASHED
100
AcDbLine
 10
-1096.853237369155
 20
291.482162698415
 30
0.0
 11
-1097.653237369154
 21
292.2821626984152
 31
0.0
  0
LINE
  5
3DA9
330
18
100
AcDbEntity
  8
TRATTEGGI
  6
DASHED
100
AcDbLine
 10
-1096.853237369155
 20
291.482162698415
 30
0.0
 11
-1090.45323736915
 21
291.482162698415
 31
0.0
  0
LINE
  5
3DAA
330
18
100
AcDbEntity
  8
TRATTEGGI
  6
DASHED
100
AcDbLine
 10
-1090.45323736915
 20
291.482162698415
 30
0.0
 11
-1089.653237369154
 21
292.2821626984152
 31
0.0
  0
LINE
  5
3DAB
330
18
100
AcDbEntity
  8
ASSI
100
AcDbLine
 10
-943.059057262038
 20
281.0321626984153
 30
0.0
 11
-985.5130175890765
 21
281.0321626984152
 31
0.0
  0
INSERT
  5
3DAC
330
18
100
AcDbEntity
  8
QUOTE
100
AcDbBlockReference
  2
A$C57F5612F
 10
-950.6532384569613
 20
278.0321635693782
 30
0.0
 41
-1.0
  0
LINE
  5
3DAD
330
18
100
AcDbEntity
  8
TRATTEGGI
  6
DASHED
100
AcDbLine
 10
-1016.853237369155
 20
291.482162698415
 30
0.0
 11
-1016.853237369155
 21
269.7821626984151
 31
0.0
  0
LINE
  5
3DAE
330
18
100
AcDbEntity
  8
TRATTEGGI
  6
DASHED
100
AcDbLine
 10
-1017.653237369155
 20
292.2821626984152
 30
0.0
 11
-1017.653237369151
 21
269.7821626984151
 31
0.0
  0
LINE
  5
3DAF
330
18
100
AcDbEntity
  8
TRATTEGGI
  6
DASHED
100
AcDbLine
 10
-1010.453237369154
 20
291.482162698415
 30
0.0
 11
-1010.453237369154
 21
269.7821626984151
 31
0.0
  0
LINE
  5
3DB0
330
18
100
AcDbEntity
  8
TRATTEGGI
  6
DASHED
100
AcDbLine
 10
-1009.653237369155
 20
292.2821626984152
 30
0.0
 11
-1009.653237369155
 21
269.7821626984151
 31
0.0
  0
LINE
  5
3DB1
330
18
100
AcDbEntity
  8
ASSI
100
AcDbLine
 10
-973.6532373691529
 20
273.1303556356639
 30
0.0
 11
-973.6532373691547
 21
288.2447461628477
 31
0.0
  0
LINE
  5
3DB2
330
18
100
AcDbEntity
  8
TRATTEGGI
  6
DASHED
100
AcDbLine
 10
-1016.853237369155
 20
291.482162698415
 30
0.0
 11
-1017.653237369155
 21
292.2821626984152
 31
0.0
  0
LINE
  5
3DB3
330
18
100
AcDbEntity
  8
TRATTEGGI
  6
DASHED
100
AcDbLine
 10
-1010.45323736915
 20
291.482162698415
 30
0.0
 11
-1009.653237369155
 21
292.2821626984152
 31
0.0
  0
LINE
  5
3DB4
330
18
100
AcDbEntity
  8
TRATTEGGI
  6
DASHED
100
AcDbLine
 10
-1010.453237369154
 20
291.482162698415
 30
0.0
 11
-1016.853237369155
 21
291.482162698415
 31
0.0
  0
LINE
  5
3DB5
330
18
100
AcDbEntity
  8
TRATTEGGI
  6
DASHED
100
AcDbLine
 10
-916.8532373691554
 20
291.482162698415
 30
0.0
 11
-916.8532373691554
 21
269.7821626984154
 31
0.0
  0
LINE
  5
3DB6
330
18
100
AcDbEntity
  8
TRATTEGGI
  6
DASHED
100
AcDbLine
 10
-917.6532373691546
 20
292.2821626984152
 30
0.0
 11
-917.6532373691511
 21
269.7821626984154
 31
0.0
  0
LINE
  5
3DB7
330
18
100
AcDbEntity
  8
TRATTEGGI
  6
DASHED
100
AcDbLine
 10
-910.4532373691538
 20
291.482162698415
 30
0.0
 11
-910.4532373691538
 21
269.7821626984154
 31
0.0
  0
LINE
  5
3DB8
330
18
100
AcDbEntity
  8
TRATTEGGI
  6
DASHED
100
AcDbLine
 10
-909.6532373691546
 20
292.2821626984152
 30
0.0
 11
-909.6532373691546
 21
269.7821626984154
 31
0.0
  0
LINE
  5
3DB9
330
18
100
AcDbEntity
  8
ASSI
100
AcDbLine
 10
-953.6532373691546
 20
273.1303556356639
 30
0.0
 11
-953.6532373691528
 21
288.2447461628477
 31
0.0
  0
LINE
  5
3DBA
330
18
100
AcDbEntity
  8
TRATTEGGI
  6
DASHED
100
AcDbLine
 10
-916.8532373691554
 20
291.482162698415
 30
0.0
 11
-917.6532373691546
 21
292.2821626984152
 31
0.0
  0
LINE
  5
3DBB
330
18
100
AcDbEntity
  8
TRATTEGGI
  6
DASHED
100
AcDbLine
 10
-910.4532373691503
 20
291.482162698415
 30
0.0
 11
-909.6532373691546
 21
292.2821626984152
 31
0.0
  0
LINE
  5
3DBC
330
18
100
AcDbEntity
  8
TRATTEGGI
  6
DASHED
100
AcDbLine
 10
-910.4532373691538
 20
291.482162698415
 30
0.0
 11
-916.8532373691554
 21
291.482162698415
 31
0.0
  0
LINE
  5
3DBD
330
18
100
AcDbEntity
  8
ASSI
100
AcDbLine
 10
-833.6532373691547
 20
295.7896535002693
 30
0.0
 11
-833.6532373691547
 21
264.7853645364415
 31
0.0
  0
LINE
  5
3DBE
330
18
100
AcDbEntity
  8
DISEGNO
100
AcDbLine
 10
-813.6532373691547
 20
292.2821626984152
 30
0.0
 11
-813.6532373691547
 21
267.7821626984154
 31
0.0
  0
LINE
  5
3DBF
330
18
100
AcDbEntity
  8
TRATTEGGI
  6
DASHED
100
AcDbLine
 10
-829.6532373691546
 20
292.2821626984152
 30
0.0
 11
-829.6532373691546
 21
269.7821626984154
 31
0.0
  0
LINE
  5
3DC0
330
18
100
AcDbEntity
  8
TRATTEGGI
  6
DASHED
100
AcDbLine
 10
-830.4532373691539
 20
291.482162698415
 30
0.0
 11
-830.4532373691539
 21
269.7821626984154
 31
0.0
  0
LINE
  5
3DC1
330
18
100
AcDbEntity
  8
TRATTEGGI
  6
DASHED
100
AcDbLine
 10
-836.8532373691554
 20
291.482162698415
 30
0.0
 11
-836.8532373691554
 21
269.7821626984154
 31
0.0
  0
LINE
  5
3DC2
330
18
100
AcDbEntity
  8
TRATTEGGI
  6
DASHED
100
AcDbLine
 10
-837.6532373691546
 20
292.2821626984152
 30
0.0
 11
-837.653237369151
 21
269.7821626984154
 31
0.0
  0
LINE
  5
3DC3
330
18
100
AcDbEntity
  8
TRATTEGGI
  6
DASHED
100
AcDbLine
 10
-830.4532373691539
 20
291.482162698415
 30
0.0
 11
-836.8532373691554
 21
291.482162698415
 31
0.0
  0
LINE
  5
3DC4
330
18
100
AcDbEntity
  8
TRATTEGGI
  6
DASHED
100
AcDbLine
 10
-836.8532373691554
 20
291.482162698415
 30
0.0
 11
-837.6532373691546
 21
292.2821626984152
 31
0.0
  0
LINE
  5
3DC5
330
18
100
AcDbEntity
  8
TRATTEGGI
  6
DASHED
100
AcDbLine
 10
-830.4532373691502
 20
291.482162698415
 30
0.0
 11
-829.6532373691546
 21
292.2821626984152
 31
0.0
  0
LINE
  5
3DC6
330
18
100
AcDbEntity
  8
ASSI
100
AcDbLine
 10
-576.6697359786904
 20
263.8238318402965
 30
0.0
 11
-576.6697359786904
 21
276.2341175408143
 31
0.0
  0
LINE
  5
3DC7
330
18
100
AcDbEntity
  8
ASSI
100
AcDbLine
 10
-656.6697359786903
 20
263.9253462164867
 30
0.0
 11
-656.6697359786903
 21
277.3481506593185
 31
0.0
  0
LINE
  5
3DC8
330
18
100
AcDbEntity
  8
4360048-TLF MCR_S 105.iam.1-Spigoli visibili
  6
Continuous
 62
     7
 48
0.0
370
    30
100
AcDbLine
 10
-681.6697359786949
 20
267.2821626984152
 30
0.0
 11
-681.6697359786958
 21
265.2821626984152
 31
0.0
  0
LINE
  5
3DC9
330
18
100
AcDbEntity
  8
4360048-TLF MCR_S 105.iam.1-Spigoli visibili
  6
Continuous
 62
     7
 48
0.0
370
    30
100
AcDbLine
 10
-681.6697359786958
 20
248.7821626984151
 30
0.0
 11
-681.6697359786958
 21
265.2821626984152
 31
0.0
  0
LINE
  5
3DCA
330
18
100
AcDbEntity
  8
4360048-TLF MCR_S 105.iam.1-Spigoli visibili
  6
Continuous
 62
     7
 48
0.0
370
    30
100
AcDbLine
 10
-681.6697359786958
 20
245.7821626984152
 30
0.0
 11
-681.6697359786958
 21
248.7821626984151
 31
0.0
  0
LINE
  5
3DCB
330
18
100
AcDbEntity
  8
4360048-TLF MCR_S 105.iam.1-Spigoli visibili
  6
Continuous
 62
     7
 48
0.0
370
    30
100
AcDbLine
 10
-661.6697359786903
 20
273.0821626984154
 30
0.0
 11
-651.6697359786904
 21
273.0821626984154
 31
0.0
  0
LINE
  5
3DCC
330
18
100
AcDbEntity
  8
4360048-TLF MCR_S 105.iam.1-Spigoli visibili
  6
Continuous
 62
     7
 48
0.0
370
    30
100
AcDbLine
 10
-652.1697359786903
 20
273.5821626984153
 30
0.0
 11
-651.6697359786904
 21
273.0821626984154
 31
0.0
  0
LINE
  5
3DCD
330
18
100
AcDbEntity
  8
4360048-TLF MCR_S 105.iam.1-Spigoli visibili
  6
Continuous
 62
     7
 48
0.0
370
    30
100
AcDbLine
 10
-650.7697359786889
 20
269.0821626984154
 30
0.0
 11
-662.56973597869
 21
269.0821626984154
 31
0.0
  0
LINE
  5
3DCE
330
18
100
AcDbEntity
  8
INGOMBRI
100
AcDbLine
 10
-699.1697359786914
 20
292.2821626984154
 30
0.0
 11
-699.1697359786932
 21
271.5339335742873
 31
0.0
  0
LINE
  5
3DCF
330
18
100
AcDbEntity
  8
4360048-TLF MCR_S 105.iam.1-Spigoli visibili
  6
Continuous
 62
     7
 48
0.0
370
    30
100
AcDbLine
 10
-661.6697359786903
 20
269.0821626984154
 30
0.0
 11
-661.6697359786903
 21
273.0821626984154
 31
0.0
  0
LINE
  5
3DD0
330
18
100
AcDbEntity
  8
4360048-TLF MCR_S 105.iam.1-Spigoli visibili
  6
Continuous
 62
     7
 48
0.0
370
    30
100
AcDbLine
 10
-679.6697359786939
 20
267.7821626984151
 30
0.0
 11
-681.669735978694
 21
267.7821626984151
 31
0.0
  0
LINE
  5
3DD1
330
18
100
AcDbEntity
  8
4360048-TLF MCR_S 105.iam.1-Spigoli visibili
  6
Continuous
 62
     7
 48
0.0
370
    30
100
AcDbLine
 10
-681.669735978694
 20
267.2821626984152
 30
0.0
 11
-681.669735978694
 21
267.7821626984151
 31
0.0
  0
LINE
  5
3DD2
330
18
100
AcDbEntity
  8
4360048-TLF MCR_S 105.iam.1-Spigoli visibili
  6
Continuous
 62
     7
 48
0.0
370
    30
100
AcDbLine
 10
-682.6697359786876
 20
267.7821626984151
 30
0.0
 11
-681.6697359786886
 21
267.7821626984151
 31
0.0
  0
LINE
  5
3DD3
330
18
100
AcDbEntity
  8
4360048-TLF MCR_S 105.iam.1-Spigoli visibili
  6
Continuous
 62
     7
 48
0.0
370
    30
100
AcDbLine
 10
-681.6697359786886
 20
267.2821626984152
 30
0.0
 11
-682.6697359786876
 21
267.2821626984152
 31
0.0
  0
ARC
  5
3DD4
330
18
100
AcDbEntity
  8
4360048-TLF MCR_S 105.iam.1-Spigoli visibili
  6
Continuous
 62
     7
 48
0.0
370
    30
100
AcDbCircle
 10
-682.6697359786876
 20
266.2821626984152
 30
0.0
 40
1.500000000000039
100
AcDbArc
 50
90.0
 51
130.0000000000067
  0
LINE
  5
3DD5
330
18
100
AcDbEntity
  8
4360048-TLF MCR_S 105.iam.1-Spigoli visibili
  6
Continuous
 62
     7
 48
0.0
370
    30
100
AcDbLine
 10
-683.6339173932174
 20
267.4312293630939
 30
0.0
 11
-683.8115681263849
 21
267.2821626984148
 31
0.0
  0
LINE
  5
3DD6
330
18
100
AcDbEntity
  8
4360048-TLF MCR_S 105.iam.1-Spigoli visibili
  6
Continuous
 62
     7
 48
0.0
370
    30
100
AcDbLine
 10
-662.56973597869
 20
267.7821626984151
 30
0.0
 11
-662.56973597869
 21
269.0821626984154
 31
0.0
  0
LINE
  5
3DD7
330
18
100
AcDbEntity
  8
4360048-TLF MCR_S 105.iam.1-Spigoli visibili
  6
Continuous
 62
     7
 48
0.0
370
    30
100
AcDbLine
 10
-652.1697359786903
 20
273.5821626984153
 30
0.0
 11
-661.1697359786903
 21
273.5821626984153
 31
0.0
  0
LINE
  5
3DD8
330
18
100
AcDbEntity
  8
4360048-TLF MCR_S 105.iam.1-Spigoli visibili
  6
Continuous
 62
     7
 48
0.0
370
    30
100
AcDbLine
 10
-661.1697359786903
 20
273.5821626984153
 30
0.0
 11
-661.6697359786903
 21
273.0821626984154
 31
0.0
  0
LINE
  5
3DD9
330
18
100
AcDbEntity
  8
INGOMBRI
100
AcDbLine
 10
-699.1697359786914
 20
292.2821626984154
 30
0.0
 11
-717.6056863459599
 21
292.2821626984154
 31
0.0
  0
LINE
  5
3DDA
330
18
100
AcDbEntity
  8
4360048-TLF MCR_S 105.iam.1-Spigoli visibili
  6
Continuous
 62
     7
 48
0.0
370
    30
100
AcDbLine
 10
-651.6697359786904
 20
269.0821626984154
 30
0.0
 11
-651.6697359786904
 21
273.0821626984154
 31
0.0
  0
LINE
  5
3DDB
330
18
100
AcDbEntity
  8
4360048-TLF MCR_S 105.iam.1-Spigoli visibili
  6
Continuous
 62
     7
 48
0.0
370
    30
100
AcDbLine
 10
-650.7697359786889
 20
268.2324959083863
 30
0.0
 11
-650.7697359786889
 21
269.0821626984154
 31
0.0
  0
ELLIPSE
  5
3DDC
330
18
100
AcDbEntity
  8
4360048-TLF MCR_S 105.iam.1-Spigoli visibili
  6
Continuous
 62
     7
 48
0.0
370
    30
100
AcDbEllipse
 10
-656.6697359786903
 20
268.2324959083836
 30
0.0
 11
-0.0000000000017493
 21
-10.21909976465634
 31
0.0
210
0.0
220
0.0
230
-1.0
 40
0.5773502691896273
 41
4.712388980384588
 42
4.756471052535409
  0
LINE
  5
3DDD
330
18
100
AcDbEntity
  8
4360048-TLF MCR_S 105.iam.1-Spigoli visibili
  6
Continuous
 62
     7
 48
0.0
370
    30
100
AcDbLine
 10
-581.6697359786903
 20
269.0821626984154
 30
0.0
 11
-581.6697359786903
 21
273.0821626984154
 31
0.0
  0
LINE
  5
3DDE
330
18
100
AcDbEntity
  8
4360048-TLF MCR_S 105.iam.1-Spigoli visibili
  6
Continuous
 62
     7
 48
0.0
370
    30
100
AcDbLine
 10
-582.5697359786899
 20
267.7821626984151
 30
0.0
 11
-582.5697359786899
 21
269.0821626984154
 31
0.0
  0
LINE
  5
3DDF
330
18
100
AcDbEntity
  8
4360048-TLF MCR_S 105.iam.1-Spigoli visibili
  6
Continuous
 62
     7
 48
0.0
370
    30
100
AcDbLine
 10
-581.1697359786903
 20
273.5821626984153
 30
0.0
 11
-581.6697359786903
 21
273.0821626984154
 31
0.0
  0
LINE
  5
3DE0
330
18
100
AcDbEntity
  8
4360048-TLF MCR_S 105.iam.1-Spigoli visibili
  6
Continuous
 62
     7
370
    30
100
AcDbLine
 10
-546.6697359787032
 20
50.51435721166683
 30
0.0
 11
-546.6697359787323
 21
-50.48564278833271
 31
0.0
  0
LINE
  5
3DE1
330
18
100
AcDbEntity
  8
4360048-TLF MCR_S 105.iam.1-Spigoli visibili
  6
Continuous
 62
     7
370
    30
100
AcDbLine
 10
-551.669735978705
 20
45.51435721167138
 30
0.0
 11
-551.6697359787323
 21
-45.48564278832862
 31
0.0
  0
LINE
  5
3DE2
330
18
100
AcDbEntity
  8
4360048-TLF MCR_S 105.iam.1-Spigoli visibili
  6
Continuous
 62
     7
370
    30
100
AcDbLine
 10
-551.3009723135147
 20
-52.48564278834544
 30
0.0
 11
-551.6697359787341
 21
-52.4856427883459
 31
0.0
  0
LINE
  5
3DE3
330
18
100
AcDbEntity
  8
4360048-TLF MCR_S 105.iam.1-Spigoli visibili
  6
Continuous
 62
     7
370
    30
100
AcDbLine
 10
-554.6697359787341
 20
-52.48564278833043
 30
0.0
 11
-548.6697359787341
 21
-52.4856427883318
 31
0.0
  0
ARC
  5
3DE4
330
18
100
AcDbEntity
  8
4360048-TLF MCR_S 105.iam.1-Spigoli visibili
  6
Continuous
 62
     7
370
    30
100
AcDbCircle
 10
-548.6697359787322
 20
-50.4856427883318
 30
0.0
 40
1.999999999999992
100
AcDbArc
 50
270.0
 51
0.0
  0
ARC
  5
3DE5
330
18
100
AcDbEntity
  8
4360048-TLF MCR_S 105.iam.1-Spigoli visibili
  6
Continuous
 62
     7
370
    30
100
AcDbCircle
 10
-553.6697359787323
 20
-45.48564278832816
 30
0.0
 40
2.000000000000002
100
AcDbArc
 50
270.0
 51
0.0
  0
ARC
  5
3DE6
330
18
100
AcDbEntity
  8
4360048-TLF MCR_S 105.iam.1-Spigoli visibili
  6
Continuous
 62
     7
370
    30
100
AcDbCircle
 10
-553.6697359787323
 20
-45.48564278832816
 30
0.0
 40
1.999999999999993
100
AcDbArc
 50
270.0
 51
0.0
  0
ARC
  5
3DE7
330
18
100
AcDbEntity
  8
4360048-TLF MCR_S 105.iam.1-Spigoli visibili
  6
Continuous
 62
     7
370
    30
100
AcDbCircle
 10
-576.6697359787286
 20
-32.48564278832134
 30
0.0
 40
5.900000000003037
100
AcDbArc
 50
2.525716686397963
 51
9.862282315370233
  0
ARC
  5
3DE8
330
18
100
AcDbEntity
  8
4360048-TLF MCR_S 105.iam.1-Spigoli visibili
  6
Continuous
 62
     7
370
    30
100
AcDbCircle
 10
-576.6697359787286
 20
-32.48564278832134
 30
0.0
 40
5.900000000003036
100
AcDbArc
 50
357.474283313576
 51
4.769362101282041
  0
ARC
  5
3DE9
330
18
100
AcDbEntity
  8
4360048-TLF MCR_S 105.iam.1-Spigoli visibili
  6
Continuous
 62
     7
370
    30
100
AcDbCircle
 10
-553.669735978705
 20
45.51435721167229
 30
0.0
 40
1.999999999999993
100
AcDbArc
 50
0.0
 51
90.0
  0
ARC
  5
3DEA
330
18
100
AcDbEntity
  8
4360048-TLF MCR_S 105.iam.1-Spigoli visibili
  6
Continuous
 62
     7
370
    30
100
AcDbCircle
 10
-553.669735978705
 20
45.51435721167138
 30
0.0
 40
2.000000000000002
100
AcDbArc
 50
0.0
 51
90.0
  0
LINE
  5
3DEB
330
18
100
AcDbEntity
  8
4360048-TLF MCR_S 105.iam.1-Spigoli visibili
  6
Continuous
 62
     7
370
    30
100
AcDbLine
 10
-554.6697359787032
 20
52.51435721166956
 30
0.0
 11
-548.6697359787032
 21
52.51435721166775
 31
0.0
  0
ARC
  5
3DEC
330
18
100
AcDbEntity
  8
4360048-TLF MCR_S 105.iam.1-Spigoli visibili
  6
Continuous
 62
     7
370
    30
100
AcDbCircle
 10
-548.6697359787032
 20
50.51435721166774
 30
0.0
 40
2.000000000000008
100
AcDbArc
 50
0.0
 51
90.0
  0
LINE
  5
3DED
330
18
100
AcDbEntity
  8
DISEGNO
100
AcDbLine
 10
-349.9211799930108
 20
163.1821626984152
 30
0.0
 11
-349.9211799930104
 21
268.182162698415
 31
0.0
  0
LINE
  5
3DEE
330
18
100
AcDbEntity
  8
DISEGNO
100
AcDbLine
 10
-426.8924655695973
 20
163.1821626984152
 30
0.0
 11
-426.8924655695973
 21
268.182162698415
 31
0.0
  0
LINE
  5
3DEF
330
18
100
AcDbEntity
  8
4360048-TLF MCR_S 105.iam.1-Spigoli visibili
  6
Continuous
 62
     7
 48
0.0
370
    30
100
AcDbLine
 10
-554.6697359786958
 20
245.7821626984161
 30
0.0
 11
-554.6697359786958
 21
215.7821626984151
 31
0.0
  0
LINE
  5
3DF0
330
18
100
AcDbEntity
  8
4360048-TLF MCR_S 105.iam.1-Spigoli visibili
  6
Continuous
 62
     7
 48
0.0
370
    30
100
AcDbLine
 10
-554.6697359786958
 20
265.2821626984152
 30
0.0
 11
-554.6697359786958
 21
164.2821626984151
 31
0.0
  0
LINE
  5
3DF1
330
18
100
AcDbEntity
  8
4360048-TLF MCR_S 105.iam.1-Spigoli visibili
  6
Continuous
 62
     7
 48
0.0
370
    30
100
AcDbLine
 10
-546.669735978694
 20
245.2821626984152
 30
0.0
 11
-546.669735978694
 21
164.2821626984151
 31
0.0
  0
LINE
  5
3DF2
330
18
100
AcDbEntity
  8
DISEGNO
100
AcDbLine
 10
-388.4211799930104
 20
162.2821626984156
 30
0.0
 11
-388.4211799930104
 21
271.7821626984165
 31
0.0
  0
LINE
  5
3DF3
330
18
100
AcDbEntity
  8
ASSI
100
AcDbLine
 10
-388.4211799930104
 20
141.9518786591389
 30
0.0
 11
-388.4211799930104
 21
304.8903400895689
 31
0.0
  0
LINE
  5
3DF4
330
18
100
AcDbEntity
  8
DISEGNO
100
AcDbLine
 10
-440.8924655695973
 20
162.2821626984156
 30
0.0
 11
-440.8924655695973
 21
277.282162698417
 31
0.0
  0
LINE
  5
3DF5
330
18
100
AcDbEntity
  8
DISEGNO
100
AcDbLine
 10
-335.9211799930108
 20
162.2821626984156
 30
0.0
 11
-335.9211799930104
 21
277.282162698417
 31
0.0
  0
LINE
  5
3DF6
330
18
100
AcDbEntity
  8
4360048-TLF MCR_S 105.iam.1-Spigoli visibili
  6
Continuous
 62
     7
 48
0.0
370
    30
100
AcDbLine
 10
-554.6697359786958
 20
185.7821626984151
 30
0.0
 11
-554.6697359786958
 21
164.2821626984151
 31
0.0
  0
LINE
  5
3DF7
330
18
100
AcDbEntity
  8
0
100
AcDbLine
 10
-440.8924655695973
 20
163.1821626984152
 30
0.0
 11
-335.9211799930108
 21
163.1821626984152
 31
0.0
  0
LINE
  5
3DF8
330
18
100
AcDbEntity
  8
DISEGNO
100
AcDbLine
 10
-335.9211799930108
 20
162.2821626984156
 30
0.0
 11
-440.8924655695973
 21
162.2821626984156
 31
0.0
  0
LINE
  5
3DF9
330
18
100
AcDbEntity
  8
4360048-TLF MCR_S 105.iam.1-Spigoli visibili
  6
Continuous
 62
     7
 48
0.0
370
    30
100
AcDbLine
 10
-554.6697359786939
 20
162.2821626984151
 30
0.0
 11
-554.6697359786958
 21
164.2821626984151
 31
0.0
  0
LINE
  5
3DFA
330
18
100
AcDbEntity
  8
4360048-TLF MCR_S 105.iam.1-Spigoli visibili
  6
Continuous
 62
     7
 48
0.0
370
    30
100
AcDbLine
 10
-554.6697359786939
 20
162.2821626984151
 30
0.0
 11
-554.6697359786958
 21
164.2821626984151
 31
0.0
  0
LINE
  5
3DFB
330
18
100
AcDbEntity
  8
4360048-TLF MCR_S 105.iam.1-Spigoli visibili
  6
Continuous
 62
     7
 48
0.0
370
    30
100
AcDbLine
 10
-554.6697359786939
 20
162.2821626984151
 30
0.0
 11
-548.669735978694
 21
162.2821626984151
 31
0.0
  0
ARC
  5
3DFC
330
18
100
AcDbEntity
  8
4360048-TLF MCR_S 105.iam.1-Spigoli visibili
  6
Continuous
 62
     7
 48
0.0
370
    30
100
AcDbCircle
 10
-548.669735978694
 20
164.2821626984151
 30
0.0
 40
2.00000000000001
100
AcDbArc
 50
270.0
 51
0.0
  0
LINE
  5
3DFD
330
18
100
AcDbEntity
  8
DISEGNO
100
AcDbLine
 10
-335.9211799930104
 20
164.2821626984156
 30
0.0
 11
-335.9211799930104
 21
162.2821626984151
 31
0.0
  0
LINE
  5
3DFE
330
18
100
AcDbEntity
  8
DISEGNO
100
AcDbLine
 10
-335.9211799930104
 20
162.2821626984156
 30
0.0
 11
-337.9211799930104
 21
162.2821626984156
 31
0.0
  0
LINE
  5
3DFF
330
18
100
AcDbEntity
  8
ASSI
100
AcDbLine
 10
-324.9501277781742
 20
215.6821626984175
 30
0.0
 11
-457.3330694734655
 21
215.6821626984175
 31
0.0
  0
LINE
  5
3E00
330
18
100
AcDbEntity
  8
4360048-TLF MCR_S 105.iam.1-Spigoli visibili
  6
Continuous
 62
     7
 48
0.0
370
    30
100
AcDbLine
 10
-554.6697359786958
 20
212.7821626984152
 30
0.0
 11
-554.6697359786958
 21
194.7821626984151
 31
0.0
  0
LINE
  5
3E01
330
18
100
AcDbEntity
  8
0
100
AcDbLine
 10
-440.8924655695973
 20
268.182162698415
 30
0.0
 11
-335.9211799930104
 21
268.182162698415
 31
0.0
  0
LINE
  5
3E02
330
18
100
AcDbEntity
  8
0
100
AcDbLine
 10
-335.9211799930104
 20
277.282162698417
 30
0.0
 11
-440.8924655695973
 21
277.282162698417
 31
0.0
  0
LINE
  5
3E03
330
18
100
AcDbEntity
  8
DISEGNO
100
AcDbLine
 10
-432.4211799930103
 20
292.2821626984152
 30
0.0
 11
-344.4211799930104
 21
292.2821626984152
 31
0.0
  0
LINE
  5
3E04
330
18
100
AcDbEntity
  8
4360048-TLF MCR_S 105.iam.1-Spigoli visibili
  6
Continuous
 62
     7
 48
0.0
370
    30
100
AcDbLine
 10
-554.6697359786958
 20
265.2821626984152
 30
0.0
 11
-554.6697359786939
 21
267.2821626984152
 31
0.0
  0
LINE
  5
3E05
330
18
100
AcDbEntity
  8
4360048-TLF MCR_S 105.iam.1-Spigoli visibili
  6
Continuous
 62
     7
 48
0.0
370
    30
100
AcDbLine
 10
-554.6697359786958
 20
265.2821626984152
 30
0.0
 11
-554.6697359786939
 21
267.2821626984152
 31
0.0
  0
ARC
  5
3E06
330
18
100
AcDbEntity
  8
4360048-TLF MCR_S 105.iam.1-Spigoli visibili
  6
Continuous
 62
     7
 48
0.0
370
    30
100
AcDbCircle
 10
-548.669735978694
 20
265.2821626984152
 30
0.0
 40
2.0
100
AcDbArc
 50
0.0
 51
90.0
  0
LINE
  5
3E07
330
18
100
AcDbEntity
  8
4360048-TLF MCR_S 105.iam.1-Spigoli visibili
  6
Continuous
 62
     7
 48
0.0
370
    30
100
AcDbLine
 10
-554.6697359786958
 20
265.2821626984152
 30
0.0
 11
-554.6697359786958
 21
248.7821626984161
 31
0.0
  0
LINE
  5
3E08
330
18
100
AcDbEntity
  8
4360048-TLF MCR_S 105.iam.1-Spigoli visibili
  6
Continuous
 62
     7
 48
0.0
370
    30
100
AcDbLine
 10
-546.669735978694
 20
265.2821626984152
 30
0.0
 11
-546.669735978694
 21
245.2821626984152
 31
0.0
  0
LINE
  5
3E09
330
18
100
AcDbEntity
  8
4360048-TLF MCR_S 105.iam.1-Spigoli visibili
  6
Continuous
 62
     7
 48
0.0
370
    30
100
AcDbLine
 10
-571.6697359786904
 20
269.0821626984154
 30
0.0
 11
-571.6697359786904
 21
273.0821626984154
 31
0.0
  0
LINE
  5
3E0A
330
18
100
AcDbEntity
  8
4360048-TLF MCR_S 105.iam.1-Spigoli visibili
  6
Continuous
 62
     7
 48
0.0
370
    30
100
AcDbLine
 10
-570.7697359786889
 20
268.2324959083863
 30
0.0
 11
-570.7697359786889
 21
269.0821626984154
 31
0.0
  0
ELLIPSE
  5
3E0B
330
18
100
AcDbEntity
  8
4360048-TLF MCR_S 105.iam.1-Spigoli visibili
  6
Continuous
 62
     7
 48
0.0
370
    30
100
AcDbEllipse
 10
-576.6697359786904
 20
268.2324959083836
 30
0.0
 11
-0.0000000000017493
 21
-10.21909976465634
 31
0.0
210
0.0
220
0.0
230
-1.0
 40
0.5773502691896273
 41
4.712388980384588
 42
4.756471052535409
  0
LINE
  5
3E0C
330
18
100
AcDbEntity
  8
4360048-TLF MCR_S 105.iam.1-Spigoli visibili
  6
Continuous
 62
     7
 48
0.0
370
    30
100
AcDbLine
 10
-551.669735978694
 20
267.7821626984151
 30
0.0
 11
-551.669735978694
 21
267.2821626984152
 31
0.0
  0
LINE
  5
3E0D
330
18
100
AcDbEntity
  8
4360048-TLF MCR_S 105.iam.1-Spigoli visibili
  6
Continuous
 62
     7
 48
0.0
370
    30
100
AcDbLine
 10
-551.669735978694
 20
267.7821626984151
 30
0.0
 11
-553.6697359786939
 21
267.7821626984151
 31
0.0
  0
LINE
  5
3E0E
330
18
100
AcDbEntity
  8
4360048-TLF MCR_S 105.iam.1-Spigoli visibili
  6
Continuous
 62
     7
 48
0.0
370
    30
100
AcDbLine
 10
-554.6697359786939
 20
267.2821626984152
 30
0.0
 11
-548.669735978694
 21
267.2821626984152
 31
0.0
  0
LINE
  5
3E0F
330
18
100
AcDbEntity
  8
4360048-TLF MCR_S 105.iam.1-Spigoli visibili
  6
Continuous
 62
     7
 48
0.0
370
    30
100
AcDbLine
 10
-572.1697359786904
 20
273.5821626984153
 30
0.0
 11
-571.6697359786904
 21
273.0821626984154
 31
0.0
  0
LINE
  5
3E10
330
18
100
AcDbEntity
  8
DISEGNO
100
AcDbLine
 10
-432.4211799930103
 20
292.2821626984152
 30
0.0
 11
-432.4211799930091
 21
277.282162698417
 31
0.0
  0
LINE
  5
3E11
330
18
100
AcDbEntity
  8
DISEGNO
100
AcDbLine
 10
-344.4211799930104
 20
292.2821626984152
 30
0.0
 11
-344.4211799930104
 21
277.282162698417
 31
0.0
  0
ENDSEC
  0
SECTION
  2
OBJECTS
  0
DICTIONARY
  5
C
330
0
100
AcDbDictionary
281
     1
  3
ACAD_COLOR
350
3E42
  3
ACAD_GROUP
350
D
  3
ACAD_LAYOUT
350
244E
  3
ACAD_MATERIAL
350
3E18
  3
ACAD_MLEADERSTYLE
350
3E67
  3
ACAD_MLINESTYLE
350
1B
  3
ACAD_PLOTSETTINGS
350
244F
  3
ACAD_PLOTSTYLENAME
350
244C
  3
ACAD_SCALELIST
350
3E45
  3
ACAD_TABLESTYLE
350
3E43
  3
ACAD_VISUALSTYLE
350
3E31
  3
ACDB_RECOMPOSE_DATA
350
3E76
  3
AcDbVariableDictionary
350
269F
  3
ACGREF_MASTER
350
2469
  3
ACGREFACAD_MASTER
350
246D
  3
AcmDictionary
350
246F
  3
ACME_BOM_MANAGER_NAME
350
282C
  3
ACME_COMMAND_HISTORY
350
2827
  3
ACME_SCOPE_NAME
350
2826
  3
ACMESTATEMGR
350
2831
  3
AcmeSysVarManager
350
2828
  3
AcmSystemVariableManager
350
2838
  3
AMG
350
2455
  3
AMGSNAPSETTINGS
350
24A2
  3
AMI_MASTER
350
246E
  3
ASE_INDEX_DICTIONARY
350
3E13
  0
DICTIONARY
  5
3479
330
2
100
AcDbDictionary
280
     1
281
     1
  3
ACAD_LAYERFILTERS
360
347A
  0
DICTIONARY
  5
2691
330
18
100
AcDbDictionary
280
     1
281
     1
  3
ACAD_INDEX
360
3059
  3
ACAD_LAYOUTSELFREF
360
27F0
  0
DICTIONARY
  5
2703
330
15
100
AcDbDictionary
280
     1
281
     1
  3
ACAD_LAYOUTSELFREF
360
27EF
  0
DICTIONARY
  5
3E42
102
{ACAD_REACTORS
330
C
102
}
330
C
100
AcDbDictionary
281
     1
  0
DICTIONARY
  5
D
102
{ACAD_REACTORS
330
C
102
}
330
C
100
AcDbDictionary
281
     1
  0
DICTIONARY
  5
244E
102
{ACAD_REACTORS
330
C
102
}
330
C
100
AcDbDictionary
281
     1
  3
Layout1
350
2451
  3
Model
350
2450
  0
DICTIONARY
  5
3E18
102
{ACAD_REACTORS
330
C
102
}
330
C
100
AcDbDictionary
281
     1
  3
ByBlock
350
3E21
  3
ByLayer
350
3E19
  3
Global
350
3E29
  0
DICTIONARY
  5
3E67
102
{ACAD_REACTORS
330
C
102
}
330
C
100
AcDbDictionary
281
     1
  3
Standard
350
3E68
  0
DICTIONARY
  5
1B
102
{ACAD_REACTORS
330
C
102
}
330
C
100
AcDbDictionary
281
     1
  3
STANDARD
350
1C
  0
DICTIONARY
  5
244F
102
{ACAD_REACTORS
330
C
102
}
330
C
100
AcDbDictionary
281
     1
  0
ACDBDICTIONARYWDFLT
  5
244C
102
{ACAD_REACTORS
330
C
102
}
330
C
100
AcDbDictionary
281
     1
  3
Normal
350
244D
100
AcDbDictionaryWithDefault
340
244D
  0
DICTIONARY
  5
3E45
102
{ACAD_REACTORS
330
C
102
}
330
C
100
AcDbDictionary
281
     1
  3
A0
350
3E46
  3
A1
350
3E47
  3
A2
350
3E48
  3
A3
350
3E49
  3
A4
350
3E4A
  3
A5
350
3E4B
  3
A6
350
3E4C
  3
A7
350
3E4D
  3
A8
350
3E4E
  3
A9
350
3E4F
  3
B0
350
3E50
  3
B1
350
3E51
  3
B2
350
3E52
  3
B3
350
3E53
  3
B4
350
3E54
  3
B5
350
3E55
  3
B6
350
3E56
  3
B7
350
3E57
  3
B8
350
3E58
  3
B9
350
3E59
  3
C0
350
3E5A
  3
C1
350
3E5B
  3
C2
350
3E5C
  3
C3
350
3E5D
  3
C4
350
3E5E
  3
C5
350
3E5F
  3
C6
350
3E60
  3
C7
350
3E61
  3
C8
350
3E62
  3
C9
350
3E63
  3
D0
350
3E64
  3
D1
350
3E65
  3
D2
350
3E66
  0
DICTIONARY
  5
3E43
102
{ACAD_REACTORS
330
C
102
}
330
C
100
AcDbDictionary
281
     1
  3
Standard
350
3E44
  0
DICTIONARY
  5
3E31
102
{ACAD_REACTORS
330
C
102
}
330
C
100
AcDbDictionary
281
     1
  3
2dWireframe
350
3E37
  3
3D Hidden
350
3E39
  3
3dWireframe
350
3E38
  3
Basic
350
3E36
  3
Brighten
350
3E3D
  3
ColorChange
350
3E41
  3
Conceptual
350
3E3A
  3
Dim
350
3E3C
  3
Facepattern
350
3E40
  3
Flat
350
3E32
  3
FlatWithEdges
350
3E33
  3
Gouraud
350
3E34
  3
GouraudWithEdges
350
3E35
  3
Linepattern
350
3E3F
  3
Realistic
350
3E3B
  3
Thicken
350
3E3E
  0
XRECORD
  5
3E76
102
{ACAD_REACTORS
330
C
102
}
330
C
100
AcDbXrecord
280
     1
 90
        1
330
3E44
  0
DICTIONARY
  5
269F
102
{ACAD_REACTORS
330
C
102
}
330
C
100
AcDbDictionary
281
     1
  3
CANNOSCALE
350
3E73
  3
CMLEADERSTYLE
350
3E72
  3
CTABLESTYLE
350
3E71
  3
DIMASSOC
350
26A1
  3
INDEXCTL
350
26A0
  0
ACAD_PROXY_OBJECT
  5
2469
102
{ACAD_REACTORS
330
C
102
}
330
C
100
AcDbProxyObject
 90
      499
 91
      518
 95
   851991
 70
     0
 93
       34
310
040000428C
 94
        0
  0
ACAD_PROXY_OBJECT
  5
246D
102
{ACAD_REACTORS
330
C
102
}
330
C
100
AcDbProxyObject
 90
      499
 91
      521
 95
   851991
 70
     0
 93
      114
310
04000041C00000000000000000000C
 94
        0
  0
DICTIONARY
  5
246F
102
{ACAD_REACTORS
330
C
102
}
330
C
100
AcDbDictionary
281
     1
  3
AcmBOMDATA
350
2835
  3
AcmStdDictionary
350
2475
  0
ACAD_PROXY_OBJECT
  5
282C
102
{ACAD_REACTORS
330
C
102
}
330
C
100
AcDbProxyObject
 90
      499
 91
      512
 95
   851991
 70
     0
 93
       50
310
0001004040000C
330
0
330
0
330
282D
 94
        0
  0
ACAD_PROXY_OBJECT
  5
2827
102
{ACAD_REACTORS
330
C
102
}
330
C
100
AcDbProxyObject
 90
      499
 91
      508
 95
   851991
 70
     0
 93
     1786
310
478050350414E8050551534156458050551534156458050551534156458050350414E80505515341564580504554E444F80504554E444F80504554E444F80504554E444F80504554E444F805095041535445434C4950805054552415345805095041535445434C495080505455241534580505455241534580505455241534
310
5805054552415345805054552415345805054552415345805054552415345805054552415345805054552415345805054552415345805044D4F5645805054552415345805054552415345805045A4F4F4D8050550555247458050551534156458C
 94
        0
  0
ACAD_PROXY_OBJECT
  5
2826
102
{ACAD_REACTORS
330
C
102
}
330
C
100
AcDbProxyObject
 90
      499
 91
      507
 95
   851991
 70
     0
 93
      218
310
060000444000000000000000000010641E000000000000AAA406AA8C
360
2829
360
282A
360
282B
360
282D
360
2839
360
2CDA
 94
        0
  0
ACAD_PROXY_OBJECT
  5
2831
102
{ACAD_REACTORS
330
C
102
}
330
C
100
AcDbProxyObject
 90
      499
 91
      517
 95
   851991
 70
     0
 93
       50
310
0600004164128C
 94
        0
  0
ACAD_PROXY_OBJECT
  5
2828
102
{ACAD_REACTORS
330
C
102
}
330
C
100
AcDbProxyObject
 90
      499
 91
      509
 95
   851991
 70
     0
 93
       48
310
903412000000CC
330
2829
330
282A
330
282B
 94
        0
  0
ACAD_PROXY_OBJECT
  5
2838
102
{ACAD_REACTORS
330
C
102
}
330
C
100
AcDbProxyObject
 90
      499
 91
      509
 95
   851991
 70
     0
 93
       32
310
90140A0000
330
2839
 94
        0
  0
DICTIONARY
  5
2455
102
{ACAD_REACTORS
330
C
102
}
330
C
100
AcDbDictionary
281
     1
  3
AcMgSettings
350
2456
  3
AMGLAYCFG
350
283B
  0
DICTIONARY
  5
24A2
102
{ACAD_REACTORS
330
C
102
}
330
C
100
AcDbDictionary
281
     1
  0
ACAD_PROXY_OBJECT
  5
246E
102
{ACAD_REACTORS
330
C
102
}
330
C
100
AcDbProxyObject
 90
      499
 91
      522
 95
   851991
 70
     0
 93
       34
310
050000428C
 94
        0
  0
DICTIONARY
  5
3E13
102
{ACAD_REACTORS
330
C
102
}
330
C
100
AcDbDictionary
281
     1
  3
ASEBlockHierarchyIndexRecord
350
3E15
1001
DCO15
1040
1478519657.837
  0
DICTIONARY
  5
347A
102
{ACAD_REACTORS
330
3479
102
}
330
3479
100
AcDbDictionary
280
     1
281
     1
  3
-1
360
347B
  3
-16
360
347C
  3
-19
360
347D
  3
-2
360
347E
  3
-3
360
347F
  3
-4
360
3480
  3
00013
360
3481
  3
00031
360
3482
  3
00033
360
3483
  3
00041
360
3484
  3
00051
360
3485
  3
00071
360
3486
  3
00081
360
3487
  3
00183
360
3488
  3
00203
360
3489
  3
00213
360
348A
  3
00223
360
348B
  3
00323
360
348C
  3
00333
360
348D
  3
00343
360
348E
  3
00383
360
348F
  3
00413
360
3490
  3
00433
360
3491
  3
00443
360
3492
  3
00450
360
3493
  3
00453
360
3494
  3
00463
360
3495
  3
00483
360
3496
  3
00493
360
3497
  3
00533
360
3498
  3
00543
360
3499
  3
00613
360
349A
  3
00623
360
349B
  3
00633
360
349C
  3
01283
360
349D
  3
01293
360
349E
  3
01323
360
349F
  3
01363
360
34A0
  3
01373
360
34A1
  3
01543
360
34A2
  3
1
360
34A3
  3
12-9
360
34A4
  3
16
360
34A5
  3
19
360
34A6
  3
2
360
34A7
  3
3
360
34A8
  3
4
360
34A9
  3
9
360
34AA
  3
am
360
34AB
  3
am3
360
34AC
  3
BA
360
34AD
  3
BA-SIMUL
360
34AE
  3
CACHE
360
34AF
  3
cacher
360
34B0
  3
Calque
360
34B1
  3
Calque 9
360
34B2
  3
CENTER
360
34B3
  3
cotation
360
34B4
  3
dim
360
34B5
  3
FORT
360
34B6
  3
Geler les plans
360
34B7
  3
geler tout
360
34B8
  3
gelé
360
34B9
  3
hid
360
34BA
  3
HIDDEN
360
34BB
  3
mater
360
34BC
  3
n
360
34BD
  3
nom
360
34BE
  3
Piece
360
34BF
  3
PIPPO
360
34C0
  3
pointillé
360
34C1
  3
TEMP
360
34C2
  3
TRACER-16
360
34C3
  3
TRACER-2
360
34C4
  3
TRACER1
360
34C5
  3
vis
360
34C6
  3
xx
360
34C7
  0
DICTIONARY
  5
3059
102
{ACAD_REACTORS
330
2691
102
}
330
2691
100
AcDbDictionary
281
     1
  3
*A1
350
305A
  0
XRECORD
  5
27F0
102
{ACAD_REACTORS
330
2691
102
}
330
2691
100
AcDbXrecord
280
     1
340
18
  0
XRECORD
  5
27EF
102
{ACAD_REACTORS
330
2703
102
}
330
2703
100
AcDbXrecord
280
     1
340
15
  0
LAYOUT
  5
2451
102
{ACAD_REACTORS
330
244E
102
}
330
244E
100
AcDbPlotSettings
  1

  2
C:\Programmi\Acadm 6\plotters\Cadjet 2.pc3
  4

  6

 40
0.0
 41
0.0
 42
0.0
 43
0.0
 44
0.0
 45
0.0
 46
0.0
 47
0.0
 48
0.0
 49
0.0
140
0.0
141
0.0
142
1.0
143
1.0
 70
   688
 72
     0
 73
     0
 74
     5
  7

 75
    16
147
1.0
 76
     0
 77
     2
 78
   300
148
0.0
149
0.0
100
AcDbLayout
  1
Layout1
 70
     1
 71
     1
 10
0.0
 20
0.0
 11
420.0
 21
297.0
 12
0.0
 22
0.0
 32
0.0
 14
1.000000000000000E+20
 24
1.000000000000000E+20
 34
1.000000000000000E+20
 15
-1.000000000000000E+20
 25
-1.000000000000000E+20
 35
-1.000000000000000E+20
146
0.0
 13
0.0
 23
0.0
 33
0.0
 16
1.0
 26
0.0
 36
0.0
 17
0.0
 27
1.0
 37
0.0
 76
     0
330
15
  0
LAYOUT
  5
2450
102
{ACAD_REACTORS
330
244E
102
}
330
244E
100
AcDbPlotSettings
  1

  2
C:\Programmi\Acadm 6\plotters\Cadjet 2.pc3
  4

  6

 40
0.0
 41
0.0
 42
0.0
 43
0.0
 44
0.0
 45
0.0
 46
0.0
 47
0.0
 48
0.0
 49
0.0
140
0.0
141
0.0
142
1.0
143
1.0
 70
  1712
 72
     0
 73
     0
 74
     0
  7

 75
     0
147
1.0
 76
     0
 77
     2
 78
   300
148
0.0
149
0.0
100
AcDbLayout
  1
Model
 70
     1
 71
     0
 10
0.0
 20
0.0
 11
12.0
 21
9.0
 12
0.0
 22
0.0
 32
0.0
 14
0.0
 24
0.0
 34
0.0
 15
0.0
 25
0.0
 35
0.0
146
0.0
 13
0.0
 23
0.0
 33
0.0
 16
1.0
 26
0.0
 36
0.0
 17
0.0
 27
1.0
 37
0.0
 76
     0
330
18
331
3E16
  0
MATERIAL
  5
3E21
102
{ACAD_XDICTIONARY
360
3E22
102
}
102
{ACAD_REACTORS
330
3E18
102
}
330
3E18
100
AcDbMaterial
  1
ByBlock
 72
     0
 43
0.0208333333333333
 43
0.0
 43
0.0
 43
0.0
 43
0.0
 43
0.0208333333333333
 43
0.0
 43
0.0
 43
0.0
 43
0.0
 43
1.0
 43
0.0
 43
0.0
 43
0.0
 43
0.0
 43
1.0
 77
     0
 47
0.0208333333333333
 47
0.0
 47
0.0
 47
0.0
 47
0.0
 47
0.0208333333333333
 47
0.0
 47
0.0
 47
0.0
 47
0.0
 47
1.0
 47
0.0
 47
0.0
 47
0.0
 47
0.0
 47
1.0
171
     0
 49
0.0208333333333333
 49
0.0
 49
0.0
 49
0.0
 49
0.0
 49
0.0208333333333333
 49
0.0
 49
0.0
 49
0.0
 49
0.0
 49
1.0
 49
0.0
 49
0.0
 49
0.0
 49
0.0
 49
1.0
175
     0
142
0.0208333333333333
142
0.0
142
0.0
142
0.0
142
0.0
142
0.0208333333333333
142
0.0
142
0.0
142
0.0
142
0.0
142
1.0
142
0.0
142
0.0
142
0.0
142
0.0
142
1.0
179
     0
144
0.0208333333333333
144
0.0
144
0.0
144
0.0
144
0.0
144
0.0208333333333333
144
0.0
144
0.0
144
0.0
144
0.0
144
1.0
144
0.0
144
0.0
144
0.0
144
0.0
144
1.0
147
0.0208333333333333
147
0.0
147
0.0
147
0.0
147
0.0
147
0.0208333333333333
147
0.0
147
0.0
147
0.0
147
0.0
147
1.0
147
0.0
147
0.0
147
0.0
147
0.0
147
1.0
  0
MATERIAL
  5
3E19
102
{ACAD_XDICTIONARY
360
3E1A
102
}
102
{ACAD_REACTORS
330
3E18
102
}
330
3E18
100
AcDbMaterial
  1
ByLayer
 72
     0
 43
0.0208333333333333
 43
0.0
 43
0.0
 43
0.0
 43
0.0
 43
0.0208333333333333
 43
0.0
 43
0.0
 43
0.0
 43
0.0
 43
1.0
 43
0.0
 43
0.0
 43
0.0
 43
0.0
 43
1.0
 77
     0
 47
0.0208333333333333
 47
0.0
 47
0.0
 47
0.0
 47
0.0
 47
0.0208333333333333
 47
0.0
 47
0.0
 47
0.0
 47
0.0
 47
1.0
 47
0.0
 47
0.0
 47
0.0
 47
0.0
 47
1.0
171
     0
 49
0.0208333333333333
 49
0.0
 49
0.0
 49
0.0
 49
0.0
 49
0.0208333333333333
 49
0.0
 49
0.0
 49
0.0
 49
0.0
 49
1.0
 49
0.0
 49
0.0
 49
0.0
 49
0.0
 49
1.0
175
     0
142
0.0208333333333333
142
0.0
142
0.0
142
0.0
142
0.0
142
0.0208333333333333
142
0.0
142
0.0
142
0.0
142
0.0
142
1.0
142
0.0
142
0.0
142
0.0
142
0.0
142
1.0
179
     0
144
0.0208333333333333
144
0.0
144
0.0
144
0.0
144
0.0
144
0.0208333333333333
144
0.0
144
0.0
144
0.0
144
0.0
144
1.0
144
0.0
144
0.0
144
0.0
144
0.0
144
1.0
147
0.0208333333333333
147
0.0
147
0.0
147
0.0
147
0.0
147
0.0208333333333333
147
0.0
147
0.0
147
0.0
147
0.0
147
1.0
147
0.0
147
0.0
147
0.0
147
0.0
147
1.0
  0
MATERIAL
  5
3E29
102
{ACAD_XDICTIONARY
360
3E2A
102
}
102
{ACAD_REACTORS
330
3E18
102
}
330
3E18
100
AcDbMaterial
  1
Global
 72
     0
 43
0.0208333333333333
 43
0.0
 43
0.0
 43
0.0
 43
0.0
 43
0.0208333333333333
 43
0.0
 43
0.0
 43
0.0
 43
0.0
 43
1.0
 43
0.0
 43
0.0
 43
0.0
 43
0.0
 43
1.0
 77
     0
 47
0.0208333333333333
 47
0.0
 47
0.0
 47
0.0
 47
0.0
 47
0.0208333333333333
 47
0.0
 47
0.0
 47
0.0
 47
0.0
 47
1.0
 47
0.0
 47
0.0
 47
0.0
 47
0.0
 47
1.0
171
     0
 49
0.0208333333333333
 49
0.0
 49
0.0
 49
0.0
 49
0.0
 49
0.0208333333333333
 49
0.0
 49
0.0
 49
0.0
 49
0.0
 49
1.0
 49
0.0
 49
0.0
 49
0.0
 49
0.0
 49
1.0
175
     0
142
0.0208333333333333
142
0.0
142
0.0
142
0.0
142
0.0
142
0.0208333333333333
142
0.0
142
0.0
142
0.0
142
0.0
142
1.0
142
0.0
142
0.0
142
0.0
142
0.0
142
1.0
179
     0
144
0.0208333333333333
144
0.0
144
0.0
144
0.0
144
0.0
144
0.0208333333333333
144
0.0
144
0.0
144
0.0
144
0.0
144
1.0
144
0.0
144
0.0
144
0.0
144
0.0
144
1.0
147
0.0208333333333333
147
0.0
147
0.0
147
0.0
147
0.0
147
0.0208333333333333
147
0.0
147
0.0
147
0.0
147
0.0
147
1.0
147
0.0
147
0.0
147
0.0
147
0.0
147
1.0
  0
MLEADERSTYLE
  5
3E68
102
{ACAD_REACTORS
330
3E67
102
}
330
3E67
100
AcDbMLeaderStyle
170
     2
171
     1
172
     0
 90
        2
 40
0.0
 41
0.0
173
     1
 91
-1056964608
340
12
 92
       -2
290
     1
 42
2.0
291
     1
 43
0.36
  3
Standard
 44
4.0
300

342
F
174
     1
178
     6
175
     1
176
     0
 93
-1056964608
 45
4.0
292
     0
297
     0
 46
4.0
 94
-1056964608
 47
1.0
 49
1.0
140
1.0
293
     1
141
0.0
294
     1
177
     0
142
1.0
295
     0
296
     0
143
0.125
1001
ACAD_MLEADERVER
1070
     2
  0
MLINESTYLE
  5
1C
102
{ACAD_REACTORS
330
1B
102
}
330
1B
100
AcDbMlineStyle
  2
STANDARD
 70
     0
  3

 62
   256
 51
90.0
 52
90.0
 71
     2
 49
0.5
 62
   256
  6
BYLAYER
 49
-0.5
 62
   256
  6
BYLAYER
  0
ACDBPLACEHOLDER
  5
244D
102
{ACAD_REACTORS
330
244C
102
}
330
244C
  0
SCALE
  5
3E46
102
{ACAD_REACTORS
330
3E45
102
}
330
3E45
100
AcDbScale
 70
     0
300
1:1
140
1.0
141
1.0
290
     1
  0
SCALE
  5
3E47
102
{ACAD_REACTORS
330
3E45
102
}
330
3E45
100
AcDbScale
 70
     0
300
1:2
140
1.0
141
2.0
290
     0
  0
SCALE
  5
3E48
102
{ACAD_REACTORS
330
3E45
102
}
330
3E45
100
AcDbScale
 70
     0
300
1:4
140
1.0
141
4.0
290
     0
  0
SCALE
  5
3E49
102
{ACAD_REACTORS
330
3E45
102
}
330
3E45
100
AcDbScale
 70
     0
300
1:5
140
1.0
141
5.0
290
     0
  0
SCALE
  5
3E4A
102
{ACAD_REACTORS
330
3E45
102
}
330
3E45
100
AcDbScale
 70
     0
300
1:8
140
1.0
141
8.0
290
     0
  0
SCALE
  5
3E4B
102
{ACAD_REACTORS
330
3E45
102
}
330
3E45
100
AcDbScale
 70
     0
300
1:10
140
1.0
141
10.0
290
     0
  0
SCALE
  5
3E4C
102
{ACAD_REACTORS
330
3E45
102
}
330
3E45
100
AcDbScale
 70
     0
300
1:16
140
1.0
141
16.0
290
     0
  0
SCALE
  5
3E4D
102
{ACAD_REACTORS
330
3E45
102
}
330
3E45
100
AcDbScale
 70
     0
300
1:20
140
1.0
141
20.0
290
     0
  0
SCALE
  5
3E4E
102
{ACAD_REACTORS
330
3E45
102
}
330
3E45
100
AcDbScale
 70
     0
300
1:30
140
1.0
141
30.0
290
     0
  0
SCALE
  5
3E4F
102
{ACAD_REACTORS
330
3E45
102
}
330
3E45
100
AcDbScale
 70
     0
300
1:40
140
1.0
141
40.0
290
     0
  0
SCALE
  5
3E50
102
{ACAD_REACTORS
330
3E45
102
}
330
3E45
100
AcDbScale
 70
     0
300
1:50
140
1.0
141
50.0
290
     0
  0
SCALE
  5
3E51
102
{ACAD_REACTORS
330
3E45
102
}
330
3E45
100
AcDbScale
 70
     0
300
1:100
140
1.0
141
100.0
290
     0
  0
SCALE
  5
3E52
102
{ACAD_REACTORS
330
3E45
102
}
330
3E45
100
AcDbScale
 70
     0
300
2:1
140
2.0
141
1.0
290
     0
  0
SCALE
  5
3E53
102
{ACAD_REACTORS
330
3E45
102
}
330
3E45
100
AcDbScale
 70
     0
300
4:1
140
4.0
141
1.0
290
     0
  0
SCALE
  5
3E54
102
{ACAD_REACTORS
330
3E45
102
}
330
3E45
100
AcDbScale
 70
     0
300
8:1
140
8.0
141
1.0
290
     0
  0
SCALE
  5
3E55
102
{ACAD_REACTORS
330
3E45
102
}
330
3E45
100
AcDbScale
 70
     0
300
10:1
140
10.0
141
1.0
290
     0
  0
SCALE
  5
3E56
102
{ACAD_REACTORS
330
3E45
102
}
330
3E45
100
AcDbScale
 70
     0
300
100:1
140
100.0
141
1.0
290
     0
  0
SCALE
  5
3E57
102
{ACAD_REACTORS
330
3E45
102
}
330
3E45
100
AcDbScale
 70
     0
300
1/128" = 1'-0"
140
0.0078125
141
12.0
290
     0
  0
SCALE
  5
3E58
102
{ACAD_REACTORS
330
3E45
102
}
330
3E45
100
AcDbScale
 70
     0
300
1/64" = 1'-0"
140
0.015625
141
12.0
290
     0
  0
SCALE
  5
3E59
102
{ACAD_REACTORS
330
3E45
102
}
330
3E45
100
AcDbScale
 70
     0
300
1/32" = 1'-0"
140
0.03125
141
12.0
290
     0
  0
SCALE
  5
3E5A
102
{ACAD_REACTORS
330
3E45
102
}
330
3E45
100
AcDbScale
 70
     0
300
1/16" = 1'-0"
140
0.0625
141
12.0
290
     0
  0
SCALE
  5
3E5B
102
{ACAD_REACTORS
330
3E45
102
}
330
3E45
100
AcDbScale
 70
     0
300
3/32" = 1'-0"
140
0.09375
141
12.0
290
     0
  0
SCALE
  5
3E5C
102
{ACAD_REACTORS
330
3E45
102
}
330
3E45
100
AcDbScale
 70
     0
300
1/8" = 1'-0"
140
0.125
141
12.0
290
     0
  0
SCALE
  5
3E5D
102
{ACAD_REACTORS
330
3E45
102
}
330
3E45
100
AcDbScale
 70
     0
300
3/16" = 1'-0"
140
0.1875
141
12.0
290
     0
  0
SCALE
  5
3E5E
102
{ACAD_REACTORS
330
3E45
102
}
330
3E45
100
AcDbScale
 70
     0
300
1/4" = 1'-0"
140
0.25
141
12.0
290
     0
  0
SCALE
  5
3E5F
102
{ACAD_REACTORS
330
3E45
102
}
330
3E45
100
AcDbScale
 70
     0
300
3/8" = 1'-0"
140
0.375
141
12.0
290
     0
  0
SCALE
  5
3E60
102
{ACAD_REACTORS
330
3E45
102
}
330
3E45
100
AcDbScale
 70
     0
300
1/2" = 1'-0"
140
0.5
141
12.0
290
     0
  0
SCALE
  5
3E61
102
{ACAD_REACTORS
330
3E45
102
}
330
3E45
100
AcDbScale
 70
     0
300
3/4" = 1'-0"
140
0.75
141
12.0
290
     0
  0
SCALE
  5
3E62
102
{ACAD_REACTORS
330
3E45
102
}
330
3E45
100
AcDbScale
 70
     0
300
1" = 1'-0"
140
1.0
141
12.0
290
     0
  0
SCALE
  5
3E63
102
{ACAD_REACTORS
330
3E45
102
}
330
3E45
100
AcDbScale
 70
     0
300
1-1/2" = 1'-0"
140
1.5
141
12.0
290
     0
  0
SCALE
  5
3E64
102
{ACAD_REACTORS
330
3E45
102
}
330
3E45
100
AcDbScale
 70
     0
300
3" = 1'-0"
140
3.0
141
12.0
290
     0
  0
SCALE
  5
3E65
102
{ACAD_REACTORS
330
3E45
102
}
330
3E45
100
AcDbScale
 70
     0
300
6" = 1'-0"
140
6.0
141
12.0
290
     0
  0
SCALE
  5
3E66
102
{ACAD_REACTORS
330
3E45
102
}
330
3E45
100
AcDbScale
 70
     0
300
1'-0" = 1'-0"
140
12.0
141
12.0
290
     0
  0
TABLESTYLE
  5
3E44
102
{ACAD_XDICTIONARY
360
3E74
102
}
102
{ACAD_REACTORS
330
3E43
102
}
330
3E43
100
AcDbTableStyle
  3
Standard
 70
     0
 71
     0
 40
1.5
 41
1.5
280
     0
281
     0
  7
STANDARD
140
4.5
170
     2
 62
     0
 63
     7
283
     0
274
    -2
284
     1
 64
     0
275
    -2
285
     1
 65
     0
276
    -2
286
     1
 66
     0
277
    -2
287
     1
 67
     0
278
    -2
288
     1
 68
     0
279
    -2
289
     1
 69
     0
  7
STANDARD
140
6.0
170
     5
 62
     0
 63
     7
283
     0
274
    -2
284
     1
 64
     0
275
    -2
285
     1
 65
     0
276
    -2
286
     1
 66
     0
277
    -2
287
     1
 67
     0
278
    -2
288
     1
 68
     0
279
    -2
289
     1
 69
     0
  7
STANDARD
140
4.5
170
     5
 62
     0
 63
     7
283
     0
274
    -2
284
     1
 64
     0
275
    -2
285
     1
 65
     0
276
    -2
286
     1
 66
     0
277
    -2
287
     1
 67
     0
278
    -2
288
     1
 68
     0
279
    -2
289
     1
 69
     0
  0
VISUALSTYLE
  5
3E37
102
{ACAD_REACTORS
330
3E31
102
}
330
3E31
100
AcDbVisualStyle
  2
2dWireframe
 70
     4
 71
     0
 72
     2
 73
     0
 90
        0
 40
-0.6
 41
-30.0
 62
     5
 63
     7
421
 16777215
 74
     1
 91
        4
 64
     7
 65
   257
 75
     1
175
     1
 42
1.0
 92
        0
 66
   257
 43
1.0
 76
     1
 77
     6
 78
     2
 67
     7
 79
     5
170
     0
171
     0
290
     0
174
     0
 93
        1
 44
0.0
173
     0
291
     0
 45
0.0
1001
ACAD
1000
AcDbSavedByObjectVersion
1070
     0
  0
VISUALSTYLE
  5
3E39
102
{ACAD_REACTORS
330
3E31
102
}
330
3E31
100
AcDbVisualStyle
  2
3D Hidden
 70
     6
 71
     1
 72
     2
 73
     2
 90
        0
 40
-0.6
 41
-30.0
 62
     5
 63
     7
421
 16777215
 74
     2
 91
        2
 64
     7
 65
   257
 75
     2
175
     1
 42
40.0
 92
        0
 66
   257
 43
1.0
 76
     1
 77
     6
 78
     2
 67
     7
 79
     3
170
     0
171
     0
290
     0
174
     0
 93
        1
 44
0.0
173
     0
291
     0
 45
0.0
1001
ACAD
1000
AcDbSavedByObjectVersion
1070
     0
  0
VISUALSTYLE
  5
3E38
102
{ACAD_REACTORS
330
3E31
102
}
330
3E31
100
AcDbVisualStyle
  2
3dWireframe
 70
     5
 71
     0
 72
     2
 73
     0
 90
        0
 40
-0.6
 41
-30.0
 62
     5
 63
     7
421
 16777215
 74
     1
 91
        4
 64
     7
 65
   257
 75
     1
175
     1
 42
1.0
 92
        0
 66
   257
 43
1.0
 76
     1
 77
     6
 78
     2
 67
     7
 79
     5
170
     0
171
     0
290
     0
174
     0
 93
        1
 44
0.0
173
     0
291
     0
 45
0.0
1001
ACAD
1000
AcDbSavedByObjectVersion
1070
     0
  0
VISUALSTYLE
  5
3E36
102
{ACAD_REACTORS
330
3E31
102
}
330
3E31
100
AcDbVisualStyle
  2
Basic
 70
     7
 71
     1
 72
     0
 73
     1
 90
        0
 40
-0.6
 41
-30.0
 62
     5
 63
     7
421
 16777215
 74
     0
 91
        4
 64
     7
 65
   257
 75
     1
175
     1
 42
1.0
 92
        8
 66
     7
 43
1.0
 76
     1
 77
     6
 78
     2
 67
     7
 79
     5
170
     0
171
     0
290
     0
174
     0
 93
        1
 44
0.0
173
     0
291
     1
 45
0.0
1001
ACAD
1000
AcDbSavedByObjectVersion
1070
     0
  0
VISUALSTYLE
  5
3E3D
102
{ACAD_REACTORS
330
3E31
102
}
330
3E31
100
AcDbVisualStyle
  2
Brighten
 70
    12
 71
     2
 72
     2
 73
     0
 90
        0
 40
-0.6
 41
-30.0
 62
     5
 63
     7
421
 16777215
 74
     1
 91
        4
 64
     7
 65
   257
 75
     1
175
     1
 42
1.0
 92
        8
 66
     7
 43
1.0
 76
     1
 77
     6
 78
     2
 67
     7
 79
     5
170
     0
171
     0
290
     0
174
     0
 93
        1
 44
50.0
173
     0
291
     1
 45
0.0
1001
ACAD
1000
AcDbSavedByObjectVersion
1070
     0
  0
VISUALSTYLE
  5
3E41
102
{ACAD_REACTORS
330
3E31
102
}
330
3E31
100
AcDbVisualStyle
  2
ColorChange
 70
    16
 71
     2
 72
     2
 73
     3
 90
        0
 40
-0.6
 41
-30.0
 62
     5
 63
     8
421
  8421504
 74
     1
 91
        4
 64
     7
 65
   257
 75
     1
175
     1
 42
1.0
 92
        8
 66
     8
424
  8421504
 43
1.0
 76
     1
 77
     6
 78
     2
 67
     7
 79
     5
170
     0
171
     0
290
     0
174
     0
 93
        1
 44
0.0
173
     0
291
     1
 45
0.0
1001
ACAD
1000
AcDbSavedByObjectVersion
1070
     0
  0
VISUALSTYLE
  5
3E3A
102
{ACAD_REACTORS
330
3E31
102
}
330
3E31
100
AcDbVisualStyle
  2
Conceptual
 70
     9
 71
     3
 72
     2
 73
     0
 90
        0
 40
-0.6
 41
-30.0
 62
     5
 63
     7
421
 16777215
 74
     2
 91
        2
 64
     7
 65
   257
 75
     1
175
     1
 42
40.0
 92
        8
 66
     7
 43
1.0
 76
     1
 77
     6
 78
     2
 67
     7
 79
     3
170
     0
171
     0
290
     0
174
     0
 93
        1
 44
0.0
173
     0
291
     0
 45
0.0
1001
ACAD
1000
AcDbSavedByObjectVersion
1070
     0
  0
VISUALSTYLE
  5
3E3C
102
{ACAD_REACTORS
330
3E31
102
}
330
3E31
100
AcDbVisualStyle
  2
Dim
 70
    11
 71
     2
 72
     2
 73
     0
 90
        0
 40
-0.6
 41
-30.0
 62
     5
 63
     7
421
 16777215
 74
     1
 91
        4
 64
     7
 65
   257
 75
     1
175
     1
 42
1.0
 92
        8
 66
     7
 43
1.0
 76
     1
 77
     6
 78
     2
 67
     7
 79
     5
170
     0
171
     0
290
     0
174
     0
 93
        1
 44
-50.0
173
     0
291
     1
 45
0.0
1001
ACAD
1000
AcDbSavedByObjectVersion
1070
     0
  0
VISUALSTYLE
  5
3E40
102
{ACAD_REACTORS
330
3E31
102
}
330
3E31
100
AcDbVisualStyle
  2
Facepattern
 70
    15
 71
     2
 72
     2
 73
     0
 90
        0
 40
-0.6
 41
-30.0
 62
     5
 63
     7
421
 16777215
 74
     1
 91
        4
 64
     7
 65
   257
 75
     1
175
     1
 42
1.0
 92
        8
 66
     7
 43
1.0
 76
     1
 77
     6
 78
     2
 67
     7
 79
     5
170
     0
171
     0
290
     0
174
     0
 93
        1
 44
0.0
173
     0
291
     1
 45
0.0
1001
ACAD
1000
AcDbSavedByObjectVersion
1070
     0
  0
VISUALSTYLE
  5
3E32
102
{ACAD_REACTORS
330
3E31
102
}
330
3E31
100
AcDbVisualStyle
  2
Flat
 70
     0
 71
     2
 72
     1
 73
     1
 90
        2
 40
-0.6
 41
30.0
 62
     5
 63
     7
421
 16777215
 74
     0
 91
        4
 64
     7
 65
   257
 75
     1
175
     1
 42
1.0
 92
        8
 66
     7
 43
1.0
 76
     1
 77
     6
 78
     2
 67
     7
 79
     5
170
     0
171
     0
290
     0
174
     0
 93
       13
 44
0.0
173
     0
291
     1
 45
0.0
1001
ACAD
1000
AcDbSavedByObjectVersion
1070
     0
  0
VISUALSTYLE
  5
3E33
102
{ACAD_REACTORS
330
3E31
102
}
330
3E31
100
AcDbVisualStyle
  2
FlatWithEdges
 70
     1
 71
     2
 72
     1
 73
     1
 90
        2
 40
-0.6
 41
30.0
 62
     5
 63
     7
421
 16777215
 74
     1
 91
        4
 64
     7
 65
   257
 75
     1
175
     1
 42
1.0
 92
        0
 66
   257
 43
1.0
 76
     1
 77
     6
 78
     2
 67
     7
 79
     5
170
     0
171
     0
290
     0
174
     0
 93
       13
 44
0.0
173
     0
291
     1
 45
0.0
1001
ACAD
1000
AcDbSavedByObjectVersion
1070
     0
  0
VISUALSTYLE
  5
3E34
102
{ACAD_REACTORS
330
3E31
102
}
330
3E31
100
AcDbVisualStyle
  2
Gouraud
 70
     2
 71
     2
 72
     2
 73
     1
 90
        2
 40
-0.6
 41
30.0
 62
     5
 63
     7
421
 16777215
 74
     0
 91
        4
 64
     7
 65
   257
 75
     1
175
     1
 42
1.0
 92
        0
 66
     7
 43
1.0
 76
     1
 77
     6
 78
     2
 67
     7
 79
     5
170
     0
171
     0
290
     0
174
     0
 93
       13
 44
0.0
173
     0
291
     1
 45
0.0
1001
ACAD
1000
AcDbSavedByObjectVersion
1070
     0
  0
VISUALSTYLE
  5
3E35
102
{ACAD_REACTORS
330
3E31
102
}
330
3E31
100
AcDbVisualStyle
  2
GouraudWithEdges
 70
     3
 71
     2
 72
     2
 73
     1
 90
        2
 40
-0.6
 41
30.0
 62
     5
 63
     7
421
 16777215
 74
     1
 91
        4
 64
     7
 65
   257
 75
     1
175
     1
 42
1.0
 92
        0
 66
   257
 43
1.0
 76
     1
 77
     6
 78
     2
 67
     7
 79
     5
170
     0
171
     0
290
     0
174
     0
 93
       13
 44
0.0
173
     0
291
     1
 45
0.0
1001
ACAD
1000
AcDbSavedByObjectVersion
1070
     0
  0
VISUALSTYLE
  5
3E3F
102
{ACAD_REACTORS
330
3E31
102
}
330
3E31
100
AcDbVisualStyle
  2
Linepattern
 70
    14
 71
     2
 72
     2
 73
     0
 90
        0
 40
-0.6
 41
-30.0
 62
     5
 63
     7
421
 16777215
 74
     1
 91
        4
 64
     7
 65
   257
 75
     7
175
     7
 42
1.0
 92
        8
 66
     7
 43
1.0
 76
     1
 77
     6
 78
     2
 67
     7
 79
     5
170
     0
171
     0
290
     0
174
     0
 93
        1
 44
0.0
173
     0
291
     1
 45
0.0
1001
ACAD
1000
AcDbSavedByObjectVersion
1070
     0
  0
VISUALSTYLE
  5
3E3B
102
{ACAD_REACTORS
330
3E31
102
}
330
3E31
100
AcDbVisualStyle
  2
Realistic
 70
     8
 71
     2
 72
     2
 73
     0
 90
        0
 40
-0.6
 41
-30.0
 62
     5
 63
     7
421
 16777215
 74
     1
 91
        0
 64
     7
 65
   257
 75
     1
175
     1
 42
1.0
 92
        8
 66
     8
424
  7895160
 43
1.0
 76
     1
 77
     6
 78
     2
 67
     7
 79
     5
170
     0
171
     0
290
     0
174
     0
 93
       13
 44
0.0
173
     0
291
     0
 45
0.0
1001
ACAD
1000
AcDbSavedByObjectVersion
1070
     0
  0
VISUALSTYLE
  5
3E3E
102
{ACAD_REACTORS
330
3E31
102
}
330
3E31
100
AcDbVisualStyle
  2
Thicken
 70
    13
 71
     2
 72
     2
 73
     0
 90
        0
 40
-0.6
 41
-30.0
 62
     5
 63
     7
421
 16777215
 74
     1
 91
        4
 64
     7
 65
   257
 75
     1
175
     1
 42
1.0
 92
       12
 66
     7
 43
1.0
 76
     1
 77
     6
 78
     2
 67
     7
 79
     5
170
     0
171
     0
290
     0
174
     0
 93
        1
 44
0.0
173
     0
291
     1
 45
0.0
1001
ACAD
1000
AcDbSavedByObjectVersion
1070
     0
  0
DICTIONARYVAR
  5
3E73
102
{ACAD_REACTORS
330
269F
102
}
330
269F
100
DictionaryVariables
280
     0
  1
1:1
  0
DICTIONARYVAR
  5
3E72
102
{ACAD_REACTORS
330
269F
102
}
330
269F
100
DictionaryVariables
280
     0
  1
STANDARD
  0
DICTIONARYVAR
  5
3E71
102
{ACAD_REACTORS
330
269F
102
}
330
269F
100
DictionaryVariables
280
     0
  1
STANDARD
  0
DICTIONARYVAR
  5
26A1
102
{ACAD_REACTORS
330
269F
102
}
330
269F
100
DictionaryVariables
280
     0
  1
1
  0
DICTIONARYVAR
  5
26A0
102
{ACAD_REACTORS
330
269F
102
}
330
269F
100
DictionaryVariables
280
     0
  1
1
  0
ACAD_PROXY_OBJECT
  5
2835
102
{ACAD_REACTORS
330
246F
102
}
330
246F
100
AcDbProxyObject
 90
      499
 91
      523
 95
   851991
 70
     0
 93
      126
310
405010040CA904C415CD5B075710D404
350
2836
330
0
 94
        0
  0
DICTIONARY
  5
2475
102
{ACAD_REACTORS
330
246F
102
}
330
246F
100
AcDbDictionary
281
     1
  3
ANSI
350
2B3F
  3
ISO
350
283A
  0
ACAD_PROXY_OBJECT
  5
2829
330
0
100
AcDbProxyObject
 90
      499
 91
      510
 95
   851991
 70
     0
 93
      156
310
00010143D050D351505391D5531054925390D49C
330
2826
 94
        0
  0
ACAD_PROXY_OBJECT
  5
282A
330
0
100
AcDbProxyObject
 90
      499
 91
      510
 95
   851991
 70
     0
 93
      148
310
000101439050D351531253915054925390D49C
330
2826
 94
        0
  0
ACAD_PROXY_OBJECT
  5
282B
330
0
100
AcDbProxyObject
 90
      499
 91
      511
 95
   851991
 70
     0
 93
      156
310
000101439050D35154D6535093D314D25691508C
330
2826
 94
        0
  0
ACAD_PROXY_OBJECT
  5
282D
330
0
100
AcDbProxyObject
 90
      499
 91
      513
 95
   851991
 70
     0
 93
      216
310
00010145111A5CDD1A5B9D184818DBDB5C1BDB995B9D1A4C402B0000
330
2826
330
0
330
0
 94
        0
  0
ACAD_PROXY_OBJECT
  5
2839
330
0
100
AcDbProxyObject
 90
      499
 91
      525
 95
   851991
 70
     0
 93
      140
310
00010142105350D55494D5110050349534FC
330
2826
 94
        0
  0
ACAD_PROXY_OBJECT
  5
2CDA
330
0
100
AcDbProxyObject
 90
      499
 91
      556
 95
   851991
 70
     0
 93
       28
310
0001406C
330
2826
 94
        0
  0
DICTIONARY
  5
2456
102
{ACAD_REACTORS
330
2455
102
}
330
2455
100
AcDbDictionary
281
     1
  3
Behind
350
29A1
  3
DWGSETTINGS
350
2823
  3
FEM
350
2CE6
  3
Shaft
350
2CE5
  3
TRANSSETTINGS
350
2824
  0
ACAD_PROXY_OBJECT
  5
283B
102
{ACAD_REACTORS
330
2455
102
}
330
2455
100
AcDbProxyObject
 90
      499
 91
      527
 95
   851991
 70
     0
 93
    12938
310
41102491013041105357CC1074CA404C504414D5F31439329013241105357CC9054CA404CD04414D5F33419199013441105357CD103466404D504414D5F3540D199013641105357CD90248E404DD04414D5F37411199013841105357CE101466404E504414D5F397F641102324141505357CC4C1074CA408D10505414D5F31
310
3140D19902495041505357CC4C9074C902408C13905414D5F304E41D32902314E41505357CC5390E4CA408C93905414D5F324E41532902334E41505357CCD3906466408D13905414D5F344E40D19902354E41505357CD53903466408D93905414D5F364E40923902374E41505357CDD3904466408E13905414D5F384E40519
310
902394E41505357CE539FD90440CC9053906414D5F31304E41D3290334414E41905357CC4C5390346640D25413906414D5F31324E41D32409044B4C494E41505357D0D3101465094112539193D08414D5F50415245464111942D055241484D3541905357D093D49074C9094115925155D08414D5F56494557534051942D064
310
24548494E4441905357D253959FD90D415514905253105414D5F545240D194250348494441905357D212511074650940D59254D06414D5F56495341D324250650415244494D42505357D410549112535034650941949151911253509414D5F52454644494D4111942553411092139590139CFFFFFFFF415092139594D06424
310
548494E44CFFFFFFFF411093D48C9055241484D3540519411093D48CD055241484D3540923411093D48D5055241484D35CFFFFFFFF4110D0530C90134CFFFFFFFF4110D0530CD0134409234110D0530D5013441D324110D0530DD0134479464110D1539390137CFFFFFFFF4110D15395D0137CFFFFFFFF4110D312539044B4
310
C494ECFFFFFFFF4110D3D38C50130CFFFFFFFF4110D3D38C90131CFFFFFFFF4110D3D38CD0132CFFFFFFFF4110D3D38D10132CFFFFFFFF411111551050134CFFFFFFFF4111125051D0135CFFFFFFFF411112531250135CFFFFFFFF411112535410650415244494DCFFFFFFFF411112535490652454644494DCFFFFFFFF4111
310
91535390138CFFFFFFFF4151915354139013840CFFFFFFFF4151915354D41023441CFFFFFFFF4151915354D5102344140D1941519153559390132CFFFFFFFF4151915355951013240D194112105510D0138CFFFFFFFF411212511390133CFFFFFFFF4112125115D0133CFFFFFFFF411213125390134CFFFFFFFF411213D0D3
310
90137CFFFFFFFF411213D0D5D0137CFFFFFFFF4112539193D04494E464FCFFFFFFFF411311505110135CFFFFFFFF419397D0921395902394ECFFFFFFFF419397D0D3D38C502304ECFFFFFFFF419397D0D3D38C902314ECFFFFFFFF419397D0D3D38CD02324ECFFFFFFFF419397D0D3D38D102324ECFFFFFFFF419397D0D153
310
93902374ECFFFFFFFF419397D0D15395D02374ECFFFFFFFF419397D1125312502354ECFFFFFFFF419397D2105510D02384ECFFFFFFFF419397D2125113902334ECFFFFFFFF419397D2125115D02334ECFFFFFFFF419397D3115051102354ECFFFFFFFF419397D391D25410349504ECFFFFFFFF419397D412105390334414EC
310
FFFFFFFF419397D510D3D3902304ECFFFFFFFF419397D5121312502344ECFFFFFFFF419397D5131153902304ECFFFFFFFF419397D594131250332414ECFFFFFFFF411391D2541024950CFFFFFFFF411410530C9055241484D3540519411410530CD055241484D3540923411410530D5055241484D35CFFFFFFFF4114121053
310
9023441CFFFFFFFF411413D4D390135CFFFFFFFF411490D1D390137CFFFFFFFF411490D1D5D0137CFFFFFFFF4114D09492D0134CFFFFFFFF4114D150D510134CFFFFFFFF4114D6508CD013540923411354D6535013540923411510D3D390130CFFFFFFFF411512131250134CFFFFFFFF411512550C9055241484D354051941
310
1512550CD055241484D3540923411512550D5055241484D35CFFFFFFFF411513115390130CFFFFFFFF415514905253105545241494CCFFFFFFFF411514931250134CFFFFFFFF411516150C5013640D19411516150C9013640D19411516150CD0136CFFFFFFFF411516150D5013641D32411516150DD0136479464115925155
310
D0456494557CFFFFFFFF4115915112103484944CFFFFFFFF4115915115903564953CFFFFFFFF41159413125023241CFFFFFFFF411692569050134CFFFFFFFFAA9FD404FE429014650248D0346504465054C906465074C90E4C91E519FD8C
340
14
340
14
340
14
340
2478
340
14
340
14
340
14
340
2479
340
14
340
14
340
2479
340
247A
340
14
340
14
340
14
340
14
340
2478
340
14
340
14
340
14
340
2479
340
14
340
14
340
2479
340
247A
340
14
340
247B
340
14
340
14
340
14
340
14
340
14
340
2478
340
14
340
14
340
14
340
13
340
13
340
13
340
13
340
13
340
13
340
13
340
13
340
13
340
247C
340
13
340
13
340
13
340
13
340
13
340
13
340
13
340
13
340
13
340
13
340
13
340
13
340
13
340
14
340
13
340
13
340
13
340
13
340
247D
340
13
340
13
340
247C
340
13
340
13
340
13
340
13
340
13
340
13
340
13
340
13
340
247C
340
13
340
13
340
13
340
247D
340
13
340
13
340
13
340
13
340
13
340
13
340
13
340
13
340
13
340
13
340
13
340
13
340
13
340
13
340
247C
340
13
340
13
340
13
340
13
340
13
340
13
340
13
340
13
340
13
340
13
340
13
340
13
340
13
340
13
340
13
340
13
340
13
340
13
340
13
340
13
340
13
340
13
340
2480
 94
        0
  0
XRECORD
  5
3E15
102
{ACAD_REACTORS
330
3E13
102
}
330
3E13
100
AcDbXrecord
280
     1
330
3CF2
330
3CF3
330
3DAC
330
3CA7
330
3CAE
330
3CB0
  0
XRECORD
  5
347B
102
{ACAD_REACTORS
330
347A
102
}
330
347A
100
AcDbXrecord
280
     1
  1
-1
  1
*-1
  1
*
  1
*
 70
     0
  1
*
  1
*
  0
XRECORD
  5
347C
102
{ACAD_REACTORS
330
347A
102
}
330
347A
100
AcDbXrecord
280
     1
  1
-16
  1
*-16
  1
*
  1
*
 70
     4
  1
*
  1
*
  0
XRECORD
  5
347D
102
{ACAD_REACTORS
330
347A
102
}
330
347A
100
AcDbXrecord
280
     1
  1
-19
  1
*-19
  1
*
  1
*
 70
     0
  1
*
  1
*
  0
XRECORD
  5
347E
102
{ACAD_REACTORS
330
347A
102
}
330
347A
100
AcDbXrecord
280
     1
  1
-2
  1
*-2
  1
*
  1
*
 70
     0
  1
*
  1
*
  0
XRECORD
  5
347F
102
{ACAD_REACTORS
330
347A
102
}
330
347A
100
AcDbXrecord
280
     1
  1
-3
  1
*-3
  1
*
  1
*
 70
     0
  1
*
  1
*
  0
XRECORD
  5
3480
102
{ACAD_REACTORS
330
347A
102
}
330
347A
100
AcDbXrecord
280
     1
  1
-4
  1
*-4
  1
*
  1
*
 70
     0
  1
*
  1
*
  0
XRECORD
  5
3481
102
{ACAD_REACTORS
330
347A
102
}
330
347A
100
AcDbXrecord
280
     1
  1
00013
  1
00013-*
  1
*
  1
*
 70
     0
  1
*
  1
*
  0
XRECORD
  5
3482
102
{ACAD_REACTORS
330
347A
102
}
330
347A
100
AcDbXrecord
280
     1
  1
00031
  1
00031-*
  1
*
  1
*
 70
     0
  1
*
  1
*
  0
XRECORD
  5
3483
102
{ACAD_REACTORS
330
347A
102
}
330
347A
100
AcDbXrecord
280
     1
  1
00033
  1
00033-*
  1
*
  1
*
 70
     0
  1
*
  1
*
  0
XRECORD
  5
3484
102
{ACAD_REACTORS
330
347A
102
}
330
347A
100
AcDbXrecord
280
     1
  1
00041
  1
00041-*
  1
*
  1
*
 70
     0
  1
*
  1
*
  0
XRECORD
  5
3485
102
{ACAD_REACTORS
330
347A
102
}
330
347A
100
AcDbXrecord
280
     1
  1
00051
  1
00051-*
  1
*
  1
*
 70
     0
  1
*
  1
*
  0
XRECORD
  5
3486
102
{ACAD_REACTORS
330
347A
102
}
330
347A
100
AcDbXrecord
280
     1
  1
00071
  1
00071-*
  1
*
  1
*
 70
     0
  1
*
  1
*
  0
XRECORD
  5
3487
102
{ACAD_REACTORS
330
347A
102
}
330
347A
100
AcDbXrecord
280
     1
  1
00081
  1
00081-*
  1
*
  1
*
 70
     0
  1
*
  1
*
  0
XRECORD
  5
3488
102
{ACAD_REACTORS
330
347A
102
}
330
347A
100
AcDbXrecord
280
     1
  1
00183
  1
00183-*
  1
*
  1
*
 70
     0
  1
*
  1
*
  0
XRECORD
  5
3489
102
{ACAD_REACTORS
330
347A
102
}
330
347A
100
AcDbXrecord
280
     1
  1
00203
  1
00203-*
  1
*
  1
*
 70
     0
  1
*
  1
*
  0
XRECORD
  5
348A
102
{ACAD_REACTORS
330
347A
102
}
330
347A
100
AcDbXrecord
280
     1
  1
00213
  1
00213-*
  1
*
  1
*
 70
     0
  1
*
  1
*
  0
XRECORD
  5
348B
102
{ACAD_REACTORS
330
347A
102
}
330
347A
100
AcDbXrecord
280
     1
  1
00223
  1
00223-*
  1
*
  1
*
 70
     0
  1
*
  1
*
  0
XRECORD
  5
348C
102
{ACAD_REACTORS
330
347A
102
}
330
347A
100
AcDbXrecord
280
     1
  1
00323
  1
00323-*
  1
*
  1
*
 70
     0
  1
*
  1
*
  0
XRECORD
  5
348D
102
{ACAD_REACTORS
330
347A
102
}
330
347A
100
AcDbXrecord
280
     1
  1
00333
  1
00333-*
  1
*
  1
*
 70
     0
  1
*
  1
*
  0
XRECORD
  5
348E
102
{ACAD_REACTORS
330
347A
102
}
330
347A
100
AcDbXrecord
280
     1
  1
00343
  1
00343-*
  1
*
  1
*
 70
     0
  1
*
  1
*
  0
XRECORD
  5
348F
102
{ACAD_REACTORS
330
347A
102
}
330
347A
100
AcDbXrecord
280
     1
  1
00383
  1
00383-*
  1
*
  1
*
 70
     0
  1
*
  1
*
  0
XRECORD
  5
3490
102
{ACAD_REACTORS
330
347A
102
}
330
347A
100
AcDbXrecord
280
     1
  1
00413
  1
00413-*
  1
*
  1
*
 70
     0
  1
*
  1
*
  0
XRECORD
  5
3491
102
{ACAD_REACTORS
330
347A
102
}
330
347A
100
AcDbXrecord
280
     1
  1
00433
  1
00433-*
  1
*
  1
*
 70
     0
  1
*
  1
*
  0
XRECORD
  5
3492
102
{ACAD_REACTORS
330
347A
102
}
330
347A
100
AcDbXrecord
280
     1
  1
00443
  1
00443-*
  1
*
  1
*
 70
     0
  1
*
  1
*
  0
XRECORD
  5
3493
102
{ACAD_REACTORS
330
347A
102
}
330
347A
100
AcDbXrecord
280
     1
  1
00450
  1
00450-*
  1
*
  1
*
 70
     0
  1
*
  1
*
  0
XRECORD
  5
3494
102
{ACAD_REACTORS
330
347A
102
}
330
347A
100
AcDbXrecord
280
     1
  1
00453
  1
00453-*
  1
*
  1
*
 70
     0
  1
*
  1
*
  0
XRECORD
  5
3495
102
{ACAD_REACTORS
330
347A
102
}
330
347A
100
AcDbXrecord
280
     1
  1
00463
  1
00463-*
  1
*
  1
*
 70
     0
  1
*
  1
*
  0
XRECORD
  5
3496
102
{ACAD_REACTORS
330
347A
102
}
330
347A
100
AcDbXrecord
280
     1
  1
00483
  1
00483-*
  1
*
  1
*
 70
     0
  1
*
  1
*
  0
XRECORD
  5
3497
102
{ACAD_REACTORS
330
347A
102
}
330
347A
100
AcDbXrecord
280
     1
  1
00493
  1
00493-*
  1
*
  1
*
 70
     0
  1
*
  1
*
  0
XRECORD
  5
3498
102
{ACAD_REACTORS
330
347A
102
}
330
347A
100
AcDbXrecord
280
     1
  1
00533
  1
00533-*
  1
*
  1
*
 70
     0
  1
*
  1
*
  0
XRECORD
  5
3499
102
{ACAD_REACTORS
330
347A
102
}
330
347A
100
AcDbXrecord
280
     1
  1
00543
  1
00543-*
  1
*
  1
*
 70
     0
  1
*
  1
*
  0
XRECORD
  5
349A
102
{ACAD_REACTORS
330
347A
102
}
330
347A
100
AcDbXrecord
280
     1
  1
00613
  1
00613-*
  1
*
  1
*
 70
     0
  1
*
  1
*
  0
XRECORD
  5
349B
102
{ACAD_REACTORS
330
347A
102
}
330
347A
100
AcDbXrecord
280
     1
  1
00623
  1
00623-*
  1
*
  1
*
 70
     0
  1
*
  1
*
  0
XRECORD
  5
349C
102
{ACAD_REACTORS
330
347A
102
}
330
347A
100
AcDbXrecord
280
     1
  1
00633
  1
00633-*
  1
*
  1
*
 70
     0
  1
*
  1
*
  0
XRECORD
  5
349D
102
{ACAD_REACTORS
330
347A
102
}
330
347A
100
AcDbXrecord
280
     1
  1
01283
  1
01283-*
  1
*
  1
*
 70
     0
  1
*
  1
*
  0
XRECORD
  5
349E
102
{ACAD_REACTORS
330
347A
102
}
330
347A
100
AcDbXrecord
280
     1
  1
01293
  1
01293-*
  1
*
  1
*
 70
     0
  1
*
  1
*
  0
XRECORD
  5
349F
102
{ACAD_REACTORS
330
347A
102
}
330
347A
100
AcDbXrecord
280
     1
  1
01323
  1
01323-*
  1
*
  1
*
 70
     0
  1
*
  1
*
  0
XRECORD
  5
34A0
102
{ACAD_REACTORS
330
347A
102
}
330
347A
100
AcDbXrecord
280
     1
  1
01363
  1
01363-*
  1
*
  1
*
 70
     0
  1
*
  1
*
  0
XRECORD
  5
34A1
102
{ACAD_REACTORS
330
347A
102
}
330
347A
100
AcDbXrecord
280
     1
  1
01373
  1
01373-*
  1
*
  1
*
 70
     0
  1
*
  1
*
  0
XRECORD
  5
34A2
102
{ACAD_REACTORS
330
347A
102
}
330
347A
100
AcDbXrecord
280
     1
  1
01543
  1
01543-*
  1
*
  1
*
 70
     0
  1
*
  1
*
  0
XRECORD
  5
34A3
102
{ACAD_REACTORS
330
347A
102
}
330
347A
100
AcDbXrecord
280
     1
  1
1
  1
*-1
  1
*
  1
*
 70
     0
  1
*
  1
*
  0
XRECORD
  5
34A4
102
{ACAD_REACTORS
330
347A
102
}
330
347A
100
AcDbXrecord
280
     1
  1
12-9
  1
*12*,*9*
  1
*
  1
*
 70
     0
  1
*
  1
*
  0
XRECORD
  5
34A5
102
{ACAD_REACTORS
330
347A
102
}
330
347A
100
AcDbXrecord
280
     1
  1
16
  1
*-16
  1
*
  1
*
 70
     0
  1
*
  1
*
  0
XRECORD
  5
34A6
102
{ACAD_REACTORS
330
347A
102
}
330
347A
100
AcDbXrecord
280
     1
  1
19
  1
*-19
  1
*
  1
*
 70
     0
  1
*
  1
*
  0
XRECORD
  5
34A7
102
{ACAD_REACTORS
330
347A
102
}
330
347A
100
AcDbXrecord
280
     1
  1
2
  1
*-2
  1
*
  1
*
 70
     0
  1
*
  1
*
  0
XRECORD
  5
34A8
102
{ACAD_REACTORS
330
347A
102
}
330
347A
100
AcDbXrecord
280
     1
  1
3
  1
*3
  1
*
  1
*
 70
     0
  1
*
  1
*
  0
XRECORD
  5
34A9
102
{ACAD_REACTORS
330
347A
102
}
330
347A
100
AcDbXrecord
280
     1
  1
4
  1
*-4
  1
*
  1
*
 70
     0
  1
*
  1
*
  0
XRECORD
  5
34AA
102
{ACAD_REACTORS
330
347A
102
}
330
347A
100
AcDbXrecord
280
     1
  1
9
  1
*9,*9n
  1
*
  1
*
 70
     0
  1
*
  1
*
  0
XRECORD
  5
34AB
102
{ACAD_REACTORS
330
347A
102
}
330
347A
100
AcDbXrecord
280
     1
  1
am
  1
*am*
  1
*
  1
*
 70
     0
  1
*
  1
*
  0
XRECORD
  5
34AC
102
{ACAD_REACTORS
330
347A
102
}
330
347A
100
AcDbXrecord
280
     1
  1
am3
  1
*3
  1
*
  1
*
 70
     0
  1
*
  1
*
  0
XRECORD
  5
34AD
102
{ACAD_REACTORS
330
347A
102
}
330
347A
100
AcDbXrecord
280
     1
  1
BA
  1
BA*
  1
*
  1
*
 70
     0
  1
*
  1
*
  0
XRECORD
  5
34AE
102
{ACAD_REACTORS
330
347A
102
}
330
347A
100
AcDbXrecord
280
     1
  1
BA-SIMUL
  1
BA-SIMUL*
  1
*
  1
*
 70
     0
  1
*
  1
*
  0
XRECORD
  5
34AF
102
{ACAD_REACTORS
330
347A
102
}
330
347A
100
AcDbXrecord
280
     1
  1
CACHE
  1
*
  1
*
  1
CACHE
 70
     0
  1
*
  1
*
  0
XRECORD
  5
34B0
102
{ACAD_REACTORS
330
347A
102
}
330
347A
100
AcDbXrecord
280
     1
  1
cacher
  1
*-2
  1
*
  1
*
 70
     0
  1
*
  1
*
  0
XRECORD
  5
34B1
102
{ACAD_REACTORS
330
347A
102
}
330
347A
100
AcDbXrecord
280
     1
  1
Calque
  1
*
  1
*
  1
*
 70
     4
  1
*
  1
*
  0
XRECORD
  5
34B2
102
{ACAD_REACTORS
330
347A
102
}
330
347A
100
AcDbXrecord
280
     1
  1
Calque 9
  1
*9*
  1
*
  1
*
 70
     0
  1
*
  1
*
  0
XRECORD
  5
34B3
102
{ACAD_REACTORS
330
347A
102
}
330
347A
100
AcDbXrecord
280
     1
  1
CENTER
  1
*
  1
*
  1
CENTER
 70
     0
  1
*
  1
*
  0
XRECORD
  5
34B4
102
{ACAD_REACTORS
330
347A
102
}
330
347A
100
AcDbXrecord
280
     1
  1
cotation
  1
*-3
  1
*
  1
*
 70
     0
  1
*
  1
*
  0
XRECORD
  5
34B5
102
{ACAD_REACTORS
330
347A
102
}
330
347A
100
AcDbXrecord
280
     1
  1
dim
  1
*dim
  1
*
  1
*
 70
     0
  1
*
  1
*
  0
XRECORD
  5
34B6
102
{ACAD_REACTORS
330
347A
102
}
330
347A
100
AcDbXrecord
280
     1
  1
FORT
  1
*
  1
*
  1
cONTINUOUS
 70
     0
  1
*
  1
*
  0
XRECORD
  5
34B7
102
{ACAD_REACTORS
330
347A
102
}
330
347A
100
AcDbXrecord
280
     1
  1
Geler les plans
  1
*
  1
*
  1
*
 70
    12
  1
*
  1
*
  0
XRECORD
  5
34B8
102
{ACAD_REACTORS
330
347A
102
}
330
347A
100
AcDbXrecord
280
     1
  1
geler tout
  1
*
  1
*
  1
*
 70
     4
  1
*
  1
*
  0
XRECORD
  5
34B9
102
{ACAD_REACTORS
330
347A
102
}
330
347A
100
AcDbXrecord
280
     1
  1
gelé
  1
*
  1
*
  1
*
 70
     4
  1
*
  1
*
  0
XRECORD
  5
34BA
102
{ACAD_REACTORS
330
347A
102
}
330
347A
100
AcDbXrecord
280
     1
  1
hid
  1
*hid
  1
*
  1
*
 70
     0
  1
*
  1
*
  0
XRECORD
  5
34BB
102
{ACAD_REACTORS
330
347A
102
}
330
347A
100
AcDbXrecord
280
     1
  1
HIDDEN
  1
*
  1
*
  1
HIDDEN
 70
     0
  1
*
  1
*
  0
XRECORD
  5
34BC
102
{ACAD_REACTORS
330
347A
102
}
330
347A
100
AcDbXrecord
280
     1
  1
mater
  1
mater-*
  1
*
  1
*
 70
     0
  1
*
  1
*
  0
XRECORD
  5
34BD
102
{ACAD_REACTORS
330
347A
102
}
330
347A
100
AcDbXrecord
280
     1
  1
n
  1
*n*
  1
*
  1
*
 70
     0
  1
*
  1
*
  0
XRECORD
  5
34BE
102
{ACAD_REACTORS
330
347A
102
}
330
347A
100
AcDbXrecord
280
     1
  1
nom
  1
*n
  1
*
  1
*
 70
     0
  1
*
  1
*
  0
XRECORD
  5
34BF
102
{ACAD_REACTORS
330
347A
102
}
330
347A
100
AcDbXrecord
280
     1
  1
Piece
  1
*N
  1
*
  1
*
 70
     0
  1
*
  1
*
  0
XRECORD
  5
34C0
102
{ACAD_REACTORS
330
347A
102
}
330
347A
100
AcDbXrecord
280
     1
  1
PIPPO
  1
*
  1
7
  1
*
 70
     0
  1
*
  1
*
  0
XRECORD
  5
34C1
102
{ACAD_REACTORS
330
347A
102
}
330
347A
100
AcDbXrecord
280
     1
  1
pointillé
  1
*3
  1
*
  1
*
 70
     0
  1
*
  1
*
  0
XRECORD
  5
34C2
102
{ACAD_REACTORS
330
347A
102
}
330
347A
100
AcDbXrecord
280
     1
  1
TEMP
  1
*9N
  1
*
  1
*
 70
     0
  1
*
  1
*
  0
XRECORD
  5
34C3
102
{ACAD_REACTORS
330
347A
102
}
330
347A
100
AcDbXrecord
280
     1
  1
TRACER-16
  1
*-16
  1
*
  1
*
 70
     0
  1
*
  1
*
  0
XRECORD
  5
34C4
102
{ACAD_REACTORS
330
347A
102
}
330
347A
100
AcDbXrecord
280
     1
  1
TRACER-2
  1
*-2
  1
*
  1
*
 70
     0
  1
*
  1
*
  0
XRECORD
  5
34C5
102
{ACAD_REACTORS
330
347A
102
}
330
347A
100
AcDbXrecord
280
     1
  1
TRACER1
  1
*-1
  1
*
  1
*
 70
     0
  1
*
  1
*
  0
XRECORD
  5
34C6
102
{ACAD_REACTORS
330
347A
102
}
330
347A
100
AcDbXrecord
280
     1
  1
vis
  1
*vis
  1
*
  1
*
 70
     0
  1
*
  1
*
  0
XRECORD
  5
34C7
102
{ACAD_REACTORS
330
347A
102
}
330
347A
100
AcDbXrecord
280
     1
  1
xx
  1
*9
  1
*
  1
*
 70
     0
  1
*
  1
*
  0
LAYER_INDEX
  5
305A
102
{ACAD_REACTORS
330
3059
102
}
330
3059
100
AcDbIndex
 40
2455402.410587801
100
AcDbLayerIndex
  8
0
360
305B
 90
        8
  8
DISEGNO
360
305C
 90
      337
  8
QUOTE
360
305D
 90
        1
  8
NASCOSTE
360
305E
 90
        0
  8
ASSI
360
305F
 90
       51
  8
NORMALI
360
3060
 90
       11
  8
TRATTEGGI
360
3061
 90
       28
  8
Defpoints
360
3062
 90
        0
  8
INGOMBRI
360
3064
 90
       34
  8
4150007_A-Piastra di collegamento.ipt.1-Spigoli visibili
360
3065
 90
       10
  8
4360009_C_DX-TLM MCR_S 105 ø25 ø19 Destra.iam.1-Spigoli visibili
360
3066
 90
       24
  8
4130002-Raschiatore TLM MCR_S 105.ipt.1-Spigoli visibili
360
360F
 90
       18
  8
4360048-TLF MCR_S 105.iam.1-Spigoli visibili
360
3610
 90
      147
  0
DICTIONARY
  5
3E22
330
3E21
100
AcDbDictionary
280
     1
281
     1
  3
ACAD_XREC_ROUNDTRIP
360
3E78
  3
BUMPTILE
360
3E24
  3
DIFFUSETILE
360
3E23
  3
OPACITYTILE
360
3E27
  3
REFLECTIONTILE
360
3E26
  3
REFRACTIONTILE
360
3E28
  3
SPECULARTILE
360
3E25
  0
DICTIONARY
  5
3E1A
330
3E19
100
AcDbDictionary
280
     1
281
     1
  3
ACAD_XREC_ROUNDTRIP
360
3E77
  3
BUMPTILE
360
3E1C
  3
DIFFUSETILE
360
3E1B
  3
OPACITYTILE
360
3E1F
  3
REFLECTIONTILE
360
3E1E
  3
REFRACTIONTILE
360
3E20
  3
SPECULARTILE
360
3E1D
  0
DICTIONARY
  5
3E2A
330
3E29
100
AcDbDictionary
280
     1
281
     1
  3
ACAD_XREC_ROUNDTRIP
360
3E79
  3
BUMPTILE
360
3E2C
  3
DIFFUSETILE
360
3E2B
  3
OPACITYTILE
360
3E2F
  3
REFLECTIONTILE
360
3E2E
  3
REFRACTIONTILE
360
3E30
  3
SPECULARTILE
360
3E2D
  0
DICTIONARY
  5
3E74
330
3E44
100
AcDbDictionary
280
     1
281
     1
  3
ACAD_ROUNDTRIP_2008_TABLESTYLE_CELLSTYLEMAP
360
3E75
  3
ACAD_XREC_ROUNDTRIP
360
3E7A
  0
ACAD_PROXY_OBJECT
  5
2836
102
{ACAD_REACTORS
330
2835
102
}
330
2835
100
AcDbProxyObject
 90
      499
 91
      524
 95
   851991
 70
     0
 93
      139
310
057356C1D5C406406AA8FFFFFFFF0AE2404C
330
18
330
0
330
0
 94
        0
  0
ACAD_PROXY_OBJECT
  5
2B3F
102
{ACAD_REACTORS
330
2475
102
}
330
2475
100
AcDbProxyObject
 90
      499
 91
      544
 95
   851991
 70
     0
 93
     2109
310
570B81E85EB51B8BE3FD04414E5349405901409022E07A17AD46E2F8FD2208721C82C6DAA6EAE4CCA8CAF0E8A6E8C88120284A0B1B6A321A329BA3220480A1A82C6DAAECAD8C8D2DCCEA6E8C8812028420B1B6A4B229BA3220480A1682C6DA88C2E8EADAA6E8C88120284A0B1B6A127A6A9BA3220480A2082DAC8E888CAE8C
310
2D2D8A6F2DAA6E8C88120288A0B6B23A29B2B1BA34B7B729BCB6A9BA3220480A2282DAC8E886CADCE8CAE498D2DCCAA6E8C88120285A0B6B23A2737BA32A9BA3220480A1682C682DACE98C2F2A6E8C88120285A0B1A0B6B3A234B6A9BA3220480A2282C682DACE90DED8CA86D0C2E4E8A6E8C88120286A0B1A0B6B3AA34BA3
310
632A9BA3220480A02814
340
251E
360
2B40
360
2B41
360
2B42
360
2B43
360
2B44
360
2B45
360
2B46
360
2B47
360
2B48
360
2B49
360
2B4A
360
2B4B
360
2B4C
360
2B4D
 94
        0
  0
ACAD_PROXY_OBJECT
  5
283A
102
{ACAD_REACTORS
330
2475
102
}
330
2475
100
AcDbProxyObject
 90
      499
 91
      526
 95
   851991
 70
     0
 93
     2211
310
5700000000000000C40D0349534F405901409020000000000000310322287A1682DAC8E88AC8CECAA6E8C8812028720B1B6A9BAB9332A32BC3A29BA3220480A1282C6DA8C868CA6E8C88120286A0B1B6ABB2B63234B733A9BA3220480A1082C6DA92C8A6E8C88120285A0B1B6A230BA3AB6A9BA3220480A1282C6DA849E9AA
310
6E8C8812028820B6B23A2232BA30B4B629BCB6A9BA3220480A2282DAC8E8A6CAC6E8D2DEDCA6F2DAA6E8C88120288A0B6B23A21B2B73A32B92634B732A9BA3220480A1682DAC8E89CDEE8CAA6E8C88120285A0B1A0B6B3A630BCA9BA3220480A1682C682DACE88D2DAA6E8C88120288A0B1A0B6B3A437B632A1B430B93A29B
310
A3220480A1A82C682DACEA8D2E8D8CAA6E8C881203204C
340
2481
360
283C
360
283D
360
283E
360
283F
360
2840
360
2841
360
2842
360
2843
360
2844
360
2845
360
2846
360
2847
360
2848
360
2849
360
284A
 94
        0
  0
ACAD_PROXY_OBJECT
  5
29A1
102
{ACAD_REACTORS
330
2456
102
}
330
2456
100
AcDbProxyObject
 90
      499
 91
      506
 95
   851991
 70
     0
 93
      429
310
40506426568696E642229ADEC8D2CCD2C6C2E8D2DEDC98CAECCAD8940EA2E4555FB202080883DA22BA3A9A2AA2A24A723A9A2A7223EC
 94
        0
  0
ACAD_PROXY_OBJECT
  5
2823
102
{ACAD_REACTORS
330
2456
102
}
330
2456
100
AcDbProxyObject
 90
      499
 91
      506
 95
   851991
 70
     0
 93
     2396
310
4050B44574753455454494E4753A1286829C8E82A4A482B282A106660F8686AF86C608321A2A720A723A0A849A1ABE1C983E18999AA0C868A9C889282940000000000000488083A1A2A72224A0A9A0A8418983E19183E199820E868A9C8892A6A894000000000000010808321A2A72622A7250000000000000122020C868A9
310
C9E8C8C940000000000000488084A1A624A720A92920ACA0A8418983E19183E19982108698929C8AA8B2A082A0AB098929C8A84A22BA3AAA9A1A0A622A50A0E9882A6A89E849482A02608426A0A5A2AB24A2ABA7E8120CA0A68682988A0C00800010652455649534941501304154D0D0531150540CC4E8C50954494D455354
310
414D504A0F530A7A2611A734141D5915494D253D3905414C4D4B8C0C1107B44574753455454494E4753454E447DC
 94
        0
  0
ACAD_PROXY_OBJECT
  5
2CE6
102
{ACAD_REACTORS
330
2456
102
}
330
2456
100
AcDbProxyObject
 90
      499
 91
      506
 95
   851991
 70
     0
 93
      411
310
4050346454D21092DCC6E486DECACC942842630BCA3B937BAB820A8320A6AFA322A0A20F688AE8EA68AA8A8929C8EA68A9C88FAC
 94
        0
  0
ACAD_PROXY_OBJECT
  5
2CE5
102
{ACAD_REACTORS
330
2456
102
}
330
2456
100
AcDbProxyObject
 90
      499
 91
      506
 95
   851991
 70
     0
 93
      513
310
40505536861667421292DCE8CAE4E4EAE0E89FC84A634B3B43A2634B732A7F21A98D2CED0E898D2DCCAACD2CAEE9FC883DA22BA3A9A2AA2A24A723A9A2A7223ECC
 94
        0
  0
ACAD_PROXY_OBJECT
  5
2824
102
{ACAD_REACTORS
330
2456
102
}
330
2456
100
AcDbProxyObject
 90
      499
 91
      506
 95
   851991
 70
     0
 93
      852
310
4050D5452414E5353455454494E4753A2488A482AE929C8EA8A4829CA69882A8929E9C0C00800050D4F524947494E414C4C595F4F4E0600400008529A7AAA921A2A620A723A0A81A4AA20A12AAA0A48AA68AA4AC8A0C0080001107B44574753455454494E4753454E447DC
 94
        0
  0
IDBUFFER
  5
305B
330
0
100
AcDbIdBuffer
330
3CA7
330
3CAE
330
3CB0
330
3CF2
330
3CF3
330
3DF7
330
3E01
330
3E02
  0
IDBUFFER
  5
305C
330
0
100
AcDbIdBuffer
330
31ED
330
31EF
330
31F0
330
31F2
330
31F3
330
31F4
330
31F5
330
31F6
330
31F8
330
31F9
330
31FA
330
31FB
330
31FC
330
31FD
330
31FE
330
31FF
330
3200
330
3201
330
3202
330
3203
330
3205
330
3206
330
3207
330
3208
330
3209
330
320A
330
320B
330
320C
330
320D
330
320E
330
320F
330
3210
330
3212
330
3213
330
3214
330
3217
330
3218
330
3219
330
321A
330
321B
330
321C
330
321D
330
321E
330
321F
330
3220
330
3221
330
3222
330
3223
330
3224
330
3225
330
3229
330
322A
330
322B
330
322D
330
322E
330
322F
330
3230
330
3231
330
3232
330
3233
330
3237
330
3239
330
323A
330
323C
330
323E
330
323F
330
3241
330
3242
330
3243
330
3244
330
3246
330
3247
330
3248
330
3249
330
324A
330
324B
330
324C
330
324D
330
324E
330
324F
330
3250
330
3251
330
3252
330
3254
330
3255
330
3256
330
3258
330
325C
330
3262
330
3263
330
3264
330
3265
330
3266
330
3267
330
3268
330
3269
330
326A
330
326F
330
3279
330
327E
330
3280
330
3284
330
3285
330
3288
330
3289
330
328A
330
328B
330
328C
330
328D
330
328F
330
3290
330
3292
330
3294
330
3295
330
3296
330
3297
330
3298
330
3299
330
329A
330
329B
330
329D
330
329E
330
329F
330
32A0
330
32A1
330
32A2
330
32A3
330
32A4
330
32A5
330
32A6
330
32A7
330
32A8
330
32A9
330
32AA
330
32AB
330
32AD
330
32AE
330
32AF
330
32B0
330
32B1
330
32B2
330
32B3
330
32B4
330
32B5
330
32B6
330
32B7
330
32B8
330
32B9
330
32BA
330
32BB
330
32BC
330
32BD
330
32BE
330
32BF
330
32C0
330
32C1
330
32C2
330
32C3
330
32C4
330
32C5
330
32C6
330
32C7
330
32C8
330
32C9
330
32CA
330
32CB
330
32CC
330
32CD
330
32CE
330
32CF
330
32D4
330
32D5
330
32D6
330
32D7
330
32D8
330
32D9
330
32DA
330
32DB
330
32DC
330
32DD
330
32DE
330
32DF
330
32E0
330
32E1
330
32E2
330
32E3
330
32E4
330
32E5
330
32E7
330
32E8
330
32E9
330
32EA
330
32EB
330
32EC
330
32ED
330
32EE
330
32EF
330
32F1
330
32F3
330
32F4
330
32F5
330
32F6
330
32F7
330
32F8
330
32F9
330
32FA
330
32FB
330
32FC
330
32FD
330
32FE
330
32FF
330
3300
330
3301
330
3302
330
3304
330
3305
330
3306
330
3308
330
3309
330
330A
330
330B
330
330C
330
330D
330
330E
330
330F
330
3310
330
3311
330
3312
330
3313
330
3314
330
3315
330
3316
330
3317
330
3C36
330
3C39
330
3C3A
330
3C3B
330
3C3C
330
3C41
330
3C43
330
3C49
330
3C77
330
3C7A
330
3C7F
330
3CA1
330
3CA6
330
3CA8
330
3CAA
330
3CAB
330
3CB1
330
3CB4
330
3CB5
330
3CB6
330
3CB8
330
3CB9
330
3CBB
330
3CBC
330
3CC3
330
3CC6
330
3CC7
330
3CC8
330
3CEA
330
3CEB
330
3CEC
330
3CEE
330
3CEF
330
3CF0
330
3CF4
330
3CF5
330
3CF7
330
3CF8
330
3CFA
330
3CFC
330
3CFD
330
3CFE
330
3D15
330
3D16
330
3D17
330
3D1C
330
3D1D
330
3D1E
330
3D1F
330
3D21
330
3D22
330
3D23
330
3D24
330
3D25
330
3D27
330
3D28
330
3D29
330
3D2A
330
3D30
330
3D31
330
3D33
330
3D34
330
3D35
330
3D36
330
3D37
330
3D39
330
3D3A
330
3D3B
330
3D3C
330
3D3D
330
3D3E
330
3D40
330
3D41
330
3D42
330
3D43
330
3D44
330
3D46
330
3D47
330
3D48
330
3D4A
330
3D4B
330
3D4C
330
3D4D
330
3D53
330
3D57
330
3D58
330
3D9B
330
3D9C
330
3D9D
330
3D9E
330
3D9F
330
3DA3
330
3DBE
330
3DED
330
3DEE
330
3DF2
330
3DF4
330
3DF5
330
3DF8
330
3DFD
330
3DFE
330
3E03
330
3E10
330
3E11
  0
IDBUFFER
  5
305D
330
0
100
AcDbIdBuffer
330
3DAC
  0
IDBUFFER
  5
305E
330
0
100
AcDbIdBuffer
  0
IDBUFFER
  5
305F
330
0
100
AcDbIdBuffer
330
31EB
330
3204
330
3245
330
329C
330
32AC
330
35D8
330
35EC
330
3C37
330
3C38
330
3CA3
330
3CA4
330
3CA5
330
3CA9
330
3CAC
330
3CAD
330
3CAF
330
3CB2
330
3CB3
330
3CB7
330
3CBA
330
3CBD
330
3CBE
330
3CBF
330
3CC2
330
3CC9
330
3CED
330
3CF1
330
3CF6
330
3CF9
330
3CFB
330
3CFF
330
3D1A
330
3D20
330
3D26
330
3D32
330
3D38
330
3D3F
330
3D45
330
3D49
330
3D56
330
3DA0
330
3DA1
330
3DA2
330
3DAB
330
3DB1
330
3DB9
330
3DBD
330
3DC6
330
3DC7
330
3DF3
330
3DFF
  0
IDBUFFER
  5
3060
330
0
100
AcDbIdBuffer
330
3240
330
3253
330
3257
330
3278
330
327A
330
327D
330
327F
330
3286
330
328E
330
3293
330
3381
  0
IDBUFFER
  5
3061
330
0
100
AcDbIdBuffer
330
3DA4
330
3DA5
330
3DA6
330
3DA7
330
3DA8
330
3DA9
330
3DAA
330
3DAD
330
3DAE
330
3DAF
330
3DB0
330
3DB2
330
3DB3
330
3DB4
330
3DB5
330
3DB6
330
3DB7
330
3DB8
330
3DBA
330
3DBB
330
3DBC
330
3DBF
330
3DC0
330
3DC1
330
3DC2
330
3DC3
330
3DC4
330
3DC5
  0
IDBUFFER
  5
3062
330
0
100
AcDbIdBuffer
  0
IDBUFFER
  5
3064
330
0
100
AcDbIdBuffer
330
3211
330
3215
330
3216
330
323B
330
323D
330
325A
330
325B
330
325D
330
325E
330
325F
330
3260
330
3261
330
326B
330
326C
330
3270
330
3271
330
3272
330
3273
330
3277
330
3281
330
3282
330
3283
330
32D1
330
32D2
330
32D3
330
32E6
330
32F0
330
32F2
330
3303
330
3307
330
3D4E
330
3D54
330
3DCE
330
3DD9
  0
IDBUFFER
  5
3065
330
0
100
AcDbIdBuffer
330
3D18
330
3D19
330
3D2B
330
3D2C
330
3D2D
330
3D2E
330
3D4F
330
3D50
330
3D51
330
3D52
  0
IDBUFFER
  5
3066
330
0
100
AcDbIdBuffer
330
3C40
330
3C42
330
3C44
330
3C45
330
3C46
330
3C47
330
3C48
330
3C4A
330
3C4B
330
3C4C
330
3C4D
330
3C4E
330
3C4F
330
3C50
330
3C51
330
3C52
330
3C53
330
3C54
330
3C78
330
3C79
330
3C7B
330
3C7C
330
3C7D
330
3C7E
  0
IDBUFFER
  5
360F
330
0
100
AcDbIdBuffer
330
3C3D
330
3C3E
330
3C3F
330
3C55
330
3C56
330
3C57
330
3C58
330
3C59
330
3C5A
330
3C5B
330
3C76
330
3C80
330
3C81
330
3C82
330
3C83
330
3C9E
330
3C9F
330
3CA0
  0
IDBUFFER
  5
3610
330
0
100
AcDbIdBuffer
330
3C24
330
3C25
330
3C26
330
3C27
330
3C28
330
3C29
330
3C2A
330
3C2B
330
3C2C
330
3C2D
330
3C2E
330
3C2F
330
3C30
330
3C31
330
3C32
330
3C33
330
3C34
330
3C35
330
3CA2
330
3CC0
330
3CC1
330
3CC4
330
3CC5
330
3CCA
330
3CCB
330
3CCC
330
3CCD
330
3CCE
330
3CCF
330
3CD0
330
3CD1
330
3CD2
330
3CD3
330
3CD4
330
3CD5
330
3CD6
330
3CD7
330
3CD8
330
3CD9
330
3CDA
330
3CDB
330
3CDC
330
3CDD
330
3CDE
330
3CDF
330
3CE0
330
3CE1
330
3CE2
330
3CE3
330
3CE4
330
3CE5
330
3CE6
330
3CE7
330
3CE8
330
3CE9
330
3D00
330
3D01
330
3D02
330
3D03
330
3D04
330
3D05
330
3D06
330
3D07
330
3D08
330
3D09
330
3D0A
330
3D0B
330
3D0C
330
3D0D
330
3D0E
330
3D0F
330
3D10
330
3D11
330
3D12
330
3D13
330
3D14
330
3D55
330
3D59
330
3D5A
330
3D5B
330
3D5C
330
3D5D
330
3D5E
330
3D5F
330
3D60
330
3D61
330
3D7C
330
3D7D
330
3D98
330
3D99
330
3D9A
330
3DC8
330
3DC9
330
3DCA
330
3DCB
330
3DCC
330
3DCD
330
3DCF
330
3DD0
330
3DD1
330
3DD2
330
3DD3
330
3DD4
330
3DD5
330
3DD6
330
3DD7
330
3DD8
330
3DDA
330
3DDB
330
3DDC
330
3DDD
330
3DDE
330
3DDF
330
3DE0
330
3DE1
330
3DE2
330
3DE3
330
3DE4
330
3DE5
330
3DE6
330
3DE7
330
3DE8
330
3DE9
330
3DEA
330
3DEB
330
3DEC
330
3DEF
330
3DF0
330
3DF1
330
3DF6
330
3DF9
330
3DFA
330
3DFB
330
3DFC
330
3E00
330
3E04
330
3E05
330
3E06
330
3E07
330
3E08
330
3E09
330
3E0A
330
3E0B
330
3E0C
330
3E0D
330
3E0E
330
3E0F
  0
XRECORD
  5
3E78
102
{ACAD_REACTORS
330
3E22
102
}
330
3E22
100
AcDbXrecord
280
     1
102
MATERIAL
148
0.0
149
0.0
149
0.0
 93
        0
 94
      127
282
     0
 72
     0
 77
     0
171
     0
175
     0
179
     0
273
     0
  0
XRECORD
  5
3E24
102
{ACAD_REACTORS
330
3E22
102
}
330
3E22
100
AcDbXrecord
280
     1
270
     1
271
     1
  0
XRECORD
  5
3E23
102
{ACAD_REACTORS
330
3E22
102
}
330
3E22
100
AcDbXrecord
280
     1
270
     1
271
     1
  0
XRECORD
  5
3E27
102
{ACAD_REACTORS
330
3E22
102
}
330
3E22
100
AcDbXrecord
280
     1
270
     1
271
     1
  0
XRECORD
  5
3E26
102
{ACAD_REACTORS
330
3E22
102
}
330
3E22
100
AcDbXrecord
280
     1
270
     1
271
     1
  0
XRECORD
  5
3E28
102
{ACAD_REACTORS
330
3E22
102
}
330
3E22
100
AcDbXrecord
280
     1
270
     1
271
     1
  0
XRECORD
  5
3E25
102
{ACAD_REACTORS
330
3E22
102
}
330
3E22
100
AcDbXrecord
280
     1
270
     1
271
     1
  0
XRECORD
  5
3E77
102
{ACAD_REACTORS
330
3E1A
102
}
330
3E1A
100
AcDbXrecord
280
     1
102
MATERIAL
148
0.0
149
0.0
149
0.0
 93
        0
 94
      127
282
     0
 72
     0
 77
     0
171
     0
175
     0
179
     0
273
     0
  0
XRECORD
  5
3E1C
102
{ACAD_REACTORS
330
3E1A
102
}
330
3E1A
100
AcDbXrecord
280
     1
270
     1
271
     1
  0
XRECORD
  5
3E1B
102
{ACAD_REACTORS
330
3E1A
102
}
330
3E1A
100
AcDbXrecord
280
     1
270
     1
271
     1
  0
XRECORD
  5
3E1F
102
{ACAD_REACTORS
330
3E1A
102
}
330
3E1A
100
AcDbXrecord
280
     1
270
     1
271
     1
  0
XRECORD
  5
3E1E
102
{ACAD_REACTORS
330
3E1A
102
}
330
3E1A
100
AcDbXrecord
280
     1
270
     1
271
     1
  0
XRECORD
  5
3E20
102
{ACAD_REACTORS
330
3E1A
102
}
330
3E1A
100
AcDbXrecord
280
     1
270
     1
271
     1
  0
XRECORD
  5
3E1D
102
{ACAD_REACTORS
330
3E1A
102
}
330
3E1A
100
AcDbXrecord
280
     1
270
     1
271
     1
  0
XRECORD
  5
3E79
102
{ACAD_REACTORS
330
3E2A
102
}
330
3E2A
100
AcDbXrecord
280
     1
102
MATERIAL
148
0.0
149
0.0
149
0.0
 93
        0
 94
      127
282
     0
 72
     0
 77
     0
171
     0
175
     0
179
     0
273
     0
  0
XRECORD
  5
3E2C
102
{ACAD_REACTORS
330
3E2A
102
}
330
3E2A
100
AcDbXrecord
280
     1
270
     1
271
     1
  0
XRECORD
  5
3E2B
102
{ACAD_REACTORS
330
3E2A
102
}
330
3E2A
100
AcDbXrecord
280
     1
270
     1
271
     1
  0
XRECORD
  5
3E2F
102
{ACAD_REACTORS
330
3E2A
102
}
330
3E2A
100
AcDbXrecord
280
     1
270
     1
271
     1
  0
XRECORD
  5
3E2E
102
{ACAD_REACTORS
330
3E2A
102
}
330
3E2A
100
AcDbXrecord
280
     1
270
     1
271
     1
  0
XRECORD
  5
3E30
102
{ACAD_REACTORS
330
3E2A
102
}
330
3E2A
100
AcDbXrecord
280
     1
270
     1
271
     1
  0
XRECORD
  5
3E2D
102
{ACAD_REACTORS
330
3E2A
102
}
330
3E2A
100
AcDbXrecord
280
     1
270
     1
271
     1
  0
CELLSTYLEMAP
  5
3E75
102
{ACAD_REACTORS
330
3E74
102
}
330
3E74
100
AcDbCellStyleMap
 90
        3
300
CELLSTYLE
  1
TABLEFORMAT_BEGIN
 90
        5
170
     1
 91
        0
 92
    32768
 62
   257
 93
        1
300
CONTENTFORMAT
  1
CONTENTFORMAT_BEGIN
 90
        0
 91
        0
 92
      512
 93
        0
300

 40
0.0
140
1.0
 94
        5
 62
     0
340
F
144
6.0
309
CONTENTFORMAT_END
171
     1
301
MARGIN
  1
CELLMARGIN_BEGIN
 40
1.5
 40
1.5
 40
1.5
 40
1.5
 40
4.5
 40
4.5
309
CELLMARGIN_END
 94
        6
 95
        1
302
GRIDFORMAT
  1
GRIDFORMAT_BEGIN
 90
        0
 91
        1
 62
     0
 92
       -2
340
0
 93
        0
 40
1.125
309
GRIDFORMAT_END
 95
        2
302
GRIDFORMAT
  1
GRIDFORMAT_BEGIN
 90
        0
 91
        1
 62
     0
 92
       -2
340
0
 93
        0
 40
1.125
309
GRIDFORMAT_END
 95
        4
302
GRIDFORMAT
  1
GRIDFORMAT_BEGIN
 90
        0
 91
        1
 62
     0
 92
       -2
340
0
 93
        0
 40
1.125
309
GRIDFORMAT_END
 95
        8
302
GRIDFORMAT
  1
GRIDFORMAT_BEGIN
 90
        0
 91
        1
 62
     0
 92
       -2
340
0
 93
        0
 40
1.125
309
GRIDFORMAT_END
 95
       16
302
GRIDFORMAT
  1
GRIDFORMAT_BEGIN
 90
        0
 91
        1
 62
     0
 92
       -2
340
0
 93
        0
 40
1.125
309
GRIDFORMAT_END
 95
       32
302
GRIDFORMAT
  1
GRIDFORMAT_BEGIN
 90
        0
 91
        1
 62
     0
 92
       -2
340
0
 93
        0
 40
1.125
309
GRIDFORMAT_END
309
TABLEFORMAT_END
  1
CELLSTYLE_BEGIN
 90
        1
 91
        1
300
_TITLE
309
CELLSTYLE_END
300
CELLSTYLE
  1
TABLEFORMAT_BEGIN
 90
        5
170
     1
 91
        0
 92
        0
 62
   257
 93
        1
300
CONTENTFORMAT
  1
CONTENTFORMAT_BEGIN
 90
        0
 91
        0
 92
      512
 93
        0
300

 40
0.0
140
1.0
 94
        5
 62
     0
340
F
144
4.5
309
CONTENTFORMAT_END
171
     1
301
MARGIN
  1
CELLMARGIN_BEGIN
 40
1.5
 40
1.5
 40
1.5
 40
1.5
 40
4.5
 40
4.5
309
CELLMARGIN_END
 94
        6
 95
        1
302
GRIDFORMAT
  1
GRIDFORMAT_BEGIN
 90
        0
 91
        1
 62
     0
 92
       -2
340
0
 93
        0
 40
1.125
309
GRIDFORMAT_END
 95
        2
302
GRIDFORMAT
  1
GRIDFORMAT_BEGIN
 90
        0
 91
        1
 62
     0
 92
       -2
340
0
 93
        0
 40
1.125
309
GRIDFORMAT_END
 95
        4
302
GRIDFORMAT
  1
GRIDFORMAT_BEGIN
 90
        0
 91
        1
 62
     0
 92
       -2
340
0
 93
        0
 40
1.125
309
GRIDFORMAT_END
 95
        8
302
GRIDFORMAT
  1
GRIDFORMAT_BEGIN
 90
        0
 91
        1
 62
     0
 92
       -2
340
0
 93
        0
 40
1.125
309
GRIDFORMAT_END
 95
       16
302
GRIDFORMAT
  1
GRIDFORMAT_BEGIN
 90
        0
 91
        1
 62
     0
 92
       -2
340
0
 93
        0
 40
1.125
309
GRIDFORMAT_END
 95
       32
302
GRIDFORMAT
  1
GRIDFORMAT_BEGIN
 90
        0
 91
        1
 62
     0
 92
       -2
340
0
 93
        0
 40
1.125
309
GRIDFORMAT_END
309
TABLEFORMAT_END
  1
CELLSTYLE_BEGIN
 90
        2
 91
        1
300
_HEADER
309
CELLSTYLE_END
300
CELLSTYLE
  1
TABLEFORMAT_BEGIN
 90
        5
170
     1
 91
        0
 92
        0
 62
   257
 93
        1
300
CONTENTFORMAT
  1
CONTENTFORMAT_BEGIN
 90
        0
 91
        0
 92
      512
 93
        0
300

 40
0.0
140
1.0
 94
        2
 62
     0
340
F
144
4.5
309
CONTENTFORMAT_END
171
     1
301
MARGIN
  1
CELLMARGIN_BEGIN
 40
1.5
 40
1.5
 40
1.5
 40
1.5
 40
4.5
 40
4.5
309
CELLMARGIN_END
 94
        6
 95
        1
302
GRIDFORMAT
  1
GRIDFORMAT_BEGIN
 90
        0
 91
        1
 62
     0
 92
       -2
340
0
 93
        0
 40
1.125
309
GRIDFORMAT_END
 95
        2
302
GRIDFORMAT
  1
GRIDFORMAT_BEGIN
 90
        0
 91
        1
 62
     0
 92
       -2
340
0
 93
        0
 40
1.125
309
GRIDFORMAT_END
 95
        4
302
GRIDFORMAT
  1
GRIDFORMAT_BEGIN
 90
        0
 91
        1
 62
     0
 92
       -2
340
0
 93
        0
 40
1.125
309
GRIDFORMAT_END
 95
        8
302
GRIDFORMAT
  1
GRIDFORMAT_BEGIN
 90
        0
 91
        1
 62
     0
 92
       -2
340
0
 93
        0
 40
1.125
309
GRIDFORMAT_END
 95
       16
302
GRIDFORMAT
  1
GRIDFORMAT_BEGIN
 90
        0
 91
        1
 62
     0
 92
       -2
340
0
 93
        0
 40
1.125
309
GRIDFORMAT_END
 95
       32
302
GRIDFORMAT
  1
GRIDFORMAT_BEGIN
 90
        0
 91
        1
 62
     0
 92
       -2
340
0
 93
        0
 40
1.125
309
GRIDFORMAT_END
309
TABLEFORMAT_END
  1
CELLSTYLE_BEGIN
 90
        3
 91
        2
300
_DATA
309
CELLSTYLE_END
  0
XRECORD
  5
3E7A
102
{ACAD_REACTORS
330
3E74
102
}
330
3E74
100
AcDbXrecord
280
     1
102
ACAD_ROUNDTRIP_PRE2007_TABLESTYLE
 90
      512
 91
        0
  1

 92
      512
 93
        0
  2

 94
      512
 95
        0
  3

  0
ACAD_PROXY_OBJECT
  5
2B40
330
2B3F
100
AcDbProxyObject
 90
      499
 91
      545
 95
   851991
 70
     0
 93
       96
310
57020E80A0280A0280A0280800
 94
        0
  0
ACAD_PROXY_OBJECT
  5
2B41
330
2B3F
100
AcDbProxyObject
 90
      499
 91
      546
 95
   851991
 70
     0
 93
      332
310
5710E405014050140501405014050140501405014250140501405014050140501200000000000000040C
340
251F
 94
        0
  0
ACAD_PROXY_OBJECT
  5
2B42
330
2B3F
100
AcDbProxyObject
 90
      499
 91
      547
 95
   851991
 70
     0
 93
      402
310
570C199999999999E99F91F405014050140501405014050140501405014050140501405014050140501405014050140501404C
340
0
 94
        0
  0
ACAD_PROXY_OBJECT
  5
2B43
330
2B3F
100
AcDbProxyObject
 90
      499
 91
      548
 95
   851991
 70
     0
 93
       10
310
570C
 94
        0
  0
ACAD_PROXY_OBJECT
  5
2B44
330
2B3F
100
AcDbProxyObject
 90
      499
 91
      549
 95
   851991
 70
     0
 93
      223
310
572290EA22A7D90F49F9353333333333727F44D4CCCCCCCCCDC9FA04
340
2519
340
251A
 94
        0
  0
ACAD_PROXY_OBJECT
  5
2B45
330
2B3F
100
AcDbProxyObject
 90
      499
 91
      550
 95
   851991
 70
     0
 93
    12881
310
5710E4112551153501411413D4CB901405014069011349A4F2590CB64FD3347454E545241434F2C4954412C302C504F532E2C47454E54524154582C25732C2847454E4D53472067656E647767203232322940690120281A8AA2CA0281A8AA602028120280A03202269349E4B2196C9FA648E8A9CA8A482869E5892A8825860
310
58A2A980588E8A9CA8A482A8B0584AE658508E8A9C9AA68E40CECADCC8EECE406464665280D202405044E414D45405044E4F4D454051C40640A8BA5C2E97CBE502404CD1D15395149050D3CB1255104B0C0B1393D3514B11D15395149055160B095CCB0A11D1539354D1C819D95B991DD9C80C8C8D8A50190B3D424C4F434B
310
3A4E414D4540480A0A888AA686A480A16888AA686A492B4929E9C8A80A3A80C81D10782C06030180C809D23A2A72A2920A1A79624AA209618162222A9A1A924AD24A7A7229623A2A72A2920AA2C1612B9961423A2A726A9A39033B2B7323BB39019189B94A024809014214D51053911054911014214D510539110549110147
310
501904A383BFDFEFF5FBFCFD3747454E545241434F2C4954412C302C5354414E444152442C47454E54524154582C25732C2847454E4D53472067656E64776720323138294049012028426A0AA22A924A0A620284A6A0AA22A924A0A622A028EA0320B41416D838E9017D9FA708E8A9CA8A482869E5892A8825860589A82A88
310
AA49282988A588E8A9CA8A482A8B0584AE658508E8A9C9AA68E40CECADCC8EECE406464625280D202405044E4F5445405044E4F54414051D40641A8BA5C2E97CBE5F23F4CD1D15395149050D3CB1255104B0C0B1393D5104B11D15395149055160B095CCB0A11D1539354D1C819D95B991DD9C80C8C8D4A501A40480A0CAC8
310
A9C889EA480A128C9EA49C92A89EA48A80A3A80C83D174B85D2F97CBE47E9C23A2A72A2920A1A79624AA209618162327A92724AA27A9229623A2A72A2920AA2C1612B9961423A2A726A9A39033B2B7323BB39019191A14A0348090141911154D0D48C90143511154D0D492569253D391480C90147501908A20F0580C060301
310
9013B47454E545241434F2C4954412C302C4445534352495A494F4E4520322C47454E54524154582C25732C2847454E4D53472067656E6477672033362940490120284A9AA20A72220A922192028529AA20A72220A92210192028EA0321347077FBFDFEBF7F9FA728E8A9CA8A482869E5892A882586058A6A8829C8882A488
310
4064588E8A9CA8A482A8B0584AE658508E8A9C9AA68E40CECADCC8EECE4064646052809202405094D4154455249414C324050B4D4154455249414C4520324051D40642A8282DB071D202FB3F4E51D15395149050D3CB1255104B0C0B135055115492505311480C8B11D15395149055160B095CCB0A11D1539354D1C819D95B
310
991DD9C80D0C0A501240480A089A82A6A680A0A9A82A6A68280A3A80A0485A0681174B85D2F97CBE47E99A3A2A72A2920A1A79624AA2096181626A0A9A9A09623A2A72A2920AA2C1612B9961423A2A726A9A39033B2B7323BB3901A1914A024809014154149250D150141941491569693D01475014090C409022E970BA5F2F
310
97C8FD3447454E545241434F2C4954412C302C5052455A5A4F2C47454E54524154582C25732C2847454E4D53472067656E6477672034332940490120281A224A6A028326A4A9AAA920A028EA028121A81A045D2E174BE5F2F91FA688E8A9CA8A482869E5892A8825860589A92A6AAA482588E8A9CA8A482A8B0584AE658508
310
E8A9C9AA68E40CECADCC8EECE406868528092024050E441022E07A17AD46E338FD1E004062B355AAD56AB7D8FCACD56AB55AADF63F41CF4F125511534F9014062B355AAD56AB7D8FCACD56AB55AADF63F41CF4F125511534F9014062431F8FC5E0F3B8FC90C7E3F1783CEE3F41CF4F125511534F9014062431F8FC5E0F3B8F
310
C90C7E3F1783CEE3F41CF4F125511534F90140A404ACD56AB55AADF63F2B355AAD56AB7D8FD073D3C4954454D3E405063D3C5154593E405018ACD56AB55AADF63F2B355AAD56AB7D8FD073D3C4954454D3E40640400ACD56AB55AADF63F2B355AAD56AB7D8FE8800000000000002081A0881A068120480A032208521122080
310
D21480D211480A1485214852050000000000003C2FC000000000000F0BF4050241C3BDF4F8D976EA23F0EF7D3E365DBA88FCB81E85EB51B8BE3FC80D069014090541D06901A5C0F42F5A8DC5F1FA0483A048098A0280CC
340
0
340
0
 94
        0
  0
ACAD_PROXY_OBJECT
  5
2B46
330
2B3F
100
AcDbProxyObject
 90
      499
 91
      551
 95
   851991
 70
     0
 93
      960
310
5700B81E85EB51B8CE3F4BCF511155105253080F11115510525317D3105091530F971414D0D05311480F11115510525317D05094D4D0D053114F92341C9A9999999999B93F26A666666666724FC000000000000E03F40000000000000040000000000000051000000000000002440478B81E85EB51B8CE3F00
340
2515
340
251E
 94
        0
  0
ACAD_PROXY_OBJECT
  5
2B47
330
2B3F
100
AcDbProxyObject
 90
      499
 91
      552
 95
   851991
 70
     0
 93
      745
310
570031703D0BD6A3719C7E999EA9A2A1AA24A7A7101E29A2A1AA24A7A72FA620A122A62FA324A929AA1F169E29A2A1AA24A7A72FA620A122A62FA620A9AA1F1353333333333B27EFF41C8823C4D4CCCCCCCCCEC9FC5C0F42F5A8DC671FCC
340
2515
340
251E
 94
        0
  0
ACAD_PROXY_OBJECT
  5
2B48
330
2B3F
100
AcDbProxyObject
 90
      499
 91
      553
 95
   851991
 70
     0
 93
      279
310
5702B8716D9CEF7C33F0A5723F0BD4A2F0FC295C8FC2F528BC3FA199999999999F99FC
 94
        0
  0
ACAD_PROXY_OBJECT
  5
2B49
330
2B3F
100
AcDbProxyObject
 90
      499
 91
      554
 95
   851991
 70
     0
 93
     5890
310
571084050B90142A40502405094D6F64656C6C6F2031405EA3D3C696628657175616C28486F6C653A7461707065642C223022292C222525632220486F6C653A6469612C20486F6C653A6E6F6D696E616C2022202220696628657175616C28486F6C653A756E6974732C223122292C2278222C222D22292022202220486F6C6
310
53A706974636864657363293E207B5C46414D4744543B787D203C696628657175616C28486F6C653A7465726D696E6174696F6E2C223022292C486F6C653A64657074682C225448525522293E5C507B5C46414D4744543B767D2525633C486F6C653A63746469613E207B5C46414D4744543B787D203C486F6C653A6374646
310
57074683E40640503405094D6F64656C6C6F2031405E33D3C696628657175616C28486F6C653A7461707065642C223022292C222525632220486F6C653A6469612C20486F6C653A6E6F6D696E616C2022202220696628657175616C28486F6C653A756E6974732C223122292C2278222C222D22292022202220486F6C653A7
310
06974636864657363293E207B5C46414D4744543B787D203C696628657175616C28486F6C653A7465726D696E6174696F6E2C223022292C486F6C653A64657074682C225448525522293E5C507B5C46414D4744543B777D2525633C486F6C653A63746469613E2058203C486F6C653A6374616E676C653E252564406405014
310
05094D6F64656C6C6F2031405B43D3C696628657175616C28486F6C653A7461707065642C223022292C222525632220486F6C653A6469612C20486F6C653A6E6F6D696E616C2022202220696628657175616C28486F6C653A756E6974732C223122292C2278222C222D22292022202220486F6C653A7069746368646573632
310
93E5C507B5C46414D4744543B787D203C696628657175616C28486F6C653A7465726D696E6174696F6E2C223022292C486F6C653A64657074682C225448525522293E4064051E405094D6F64656C6C6F20314050C3D3C535444503A444553433E40640515A8C
 94
        0
  0
ACAD_PROXY_OBJECT
  5
2B4A
330
2B3F
100
AcDbProxyObject
 90
      499
 91
      539
 95
   851991
 70
     0
 93
       20
310
57101C
340
0
 94
        0
  0
ACAD_PROXY_OBJECT
  5
2B4B
330
2B3F
100
AcDbProxyObject
 90
      499
 91
      540
 95
   851991
 70
     0
 93
      258
310
57102000000000000380FC000000000000E03F408F0F9023C3E40DB18CCCFFFF8C
340
2521
340
0
340
0
340
2522
340
2523
340
0
340
2524
340
2525
340
2526
340
0
 94
        0
  0
ACAD_PROXY_OBJECT
  5
2B4C
330
2B3F
100
AcDbProxyObject
 90
      499
 91
      555
 95
   851991
 70
     0
 93
    13409
310
5711A023FFFFFFFD010300002E07A17AD46E2F8FC09010300002E07A17AD46E2F8FC080511454C454E434F20434F4F5244494E415445015011D15395149050D3CB1255104B0C0B1153115390D3C810D3D3D49112539055114B11D15395149055160B095CCB0A11D1539354D1C819D95B991A5B5E880CCC0A78000C00000000
310
0000000000000000000000007B14AE47E17AA43F2E07A17AD46E2F8FD021EC52B91F85EA90FCB81E85EB51B8BE3F40A014315105091531310481193D4924053B47454E545241434F2C4954412C302C544142454C4C4120464F52492C47454E54524154582C25732C2847454E4D53472067656E64696D7A20333129E0003000
310
000000000000000000000000000001EC52B91F85EA90FCB81E85EB51B8BE3F4087B14AE47E17AA43F2E07A17AD46E2F8FD0290B4410F4450240D04415014391244D05449074510C4350F000141D3D49251D253914053547454E545241434F2C4954412C302C4F524947494E452C47454E54524154582C25732C2847454E4D5
310
3472067656E64696D7A20312900010105002214000283A7A924A3A4A72280A6A8E8A9CA8A482869E5892A8825860589EA4928E929C8A588E8A9CA8A482A8B0584AE658508E8A9C9AA68E40CECADCC8D2DAF4406252000202080043E8000504464F524F014C91D15395149050D3CB1255104B0C0B1193D493CB11D153951490
310
55160B095CCB0A11D1539354D1C819D95B991A5B5E880C8A405163D3C486F6C654974656D3E3C486F6C65496E6465783E010104002234000280AC00A5E8E8A9CA8A482869E5892A882586058B0588E8A9CA8A482A8B0584AE658508E8A9C9AA68E40CECADCC8D2DAF4406652000202000040A800050159014BD1D153951490
310
50D3CB1255104B0C0B164B11D15395149055160B095CCB0A11D1539354D1C819D95B991A5B5E880D0A4000404000081D0000A02A40297A3A2A72A2920A1A79624AA20961816291623A2A72A2920AA2C1612B9961423A2A726A9A39033B2B73234B6BD101B148000808000104A000141954ACC0D0D0D0053447454E54524143
310
4F2C4954412C302C552B303434342C47454E54524154582C25732C2847454E4D53472067656E64696D7A203729000101030020B40002822827A99700A668E8A9CA8A482869E5892A882586058A09EA65C588E8A9CA8A482A8B0584AE658508E8A9C9AA68E40CECADCC8D2DAF4406268520002020A004068000506494E44494
310
345014D51D15395149050D3CB1255104B0C0B1253911250D14B11D15395149055160B095CCB0A11D1539354D1C819D95B991A5B5E880C4D4A400040414008750000A088C9EA49E0299A3A2A72A2920A1A79624AA209618162327A9279623A2A72A2920AA2C1612B9961423A2A726A9A39033B2B73234B6BD10189B14800080
310
8200112A000142D253911250D1481193D493C053A47454E545241434F2C4954412C302C494E4449434520464F524F2C47454E54524154582C25732C2847454E4D53472067656E64696D7A20313729000101050022740002819292A180A628E8A9CA8A482869E5892A8825860584A4A86588E8A9CA8A482A8B0584AE658508E
310
8A9C9AA68E40CECADCC8D2DAF4407052000202020041E80005035154C0014C91D15395149050D3CB1255104B0C0B1455300B11D15395149055160B095CCB0A11D1539354D1C819D95B991A5B5E880C4E4A400040418008A50000A16888AA686A492B4929E9C8A029D23A2A72A2920A1A79624AA209618162222A9A1A924AD2
310
4A7A7229623A2A72A2920AA2C1612B9961423A2A726A9A39033B2B73234B6BD10191814800080020010CA00014214D51053911054910053747454E545241434F2C4954412C302C5354414E444152442C47454E54524154582C25732C2847454E4D53472067656E64696D7A20323129000100040021B4878030026A66666666
310
67A4FE064D4CCCCCCCCCF49FC049A9999999999E93F809353333333333D27F0226A6666666667A4FE044D4CCCCCCCCCF49FC009A9999999999D93F801353333333333D27F0026A6666666667A4FE004D4CCCCCCCCCF49FC0D819703D0BD6A371BC7F03000000000000001020633B333333333032050F006004D4CCCCCCCCCF
310
49FC0C9A9999999999E93F819353333333333D27F0326A6666666667A4FE064D4CCCCCCCCCF49FC0C9A9999999999E93F801353333333333B27F0026A6666666667A4FE064D4CCCCCCCCCF49FC009A9999999999E93F81B032E07A17AD46E378FE06000000000000002040C6766666666660640A088800000021E000000890
310
000002260000008220E00020089000000206000200810000804C
340
0
340
0
340
0
340
0
 94
        0
  0
ACAD_PROXY_OBJECT
  5
2B4D
330
2B3F
100
AcDbProxyObject
 90
      499
 91
      542
 95
   851991
 70
     0
 93
     5766
310
5719741105394D2506414E53495F4342905394D257D512551554D15414E53495F54525F5265766973696F6E6C697374614191243202831372E307832322E30706F6C6C2E2941905394D257D0D1246202832382E307834302E30706F6C6C2E2941905394D257D1911412028382E357831312E30706F6C6C2E2941905394D257
310
D051242202831312E307831372E30706F6C6C2E2941905394D257D091244202832322E307833342E30706F6C6C2E2941905394D257D111245202833342E307834342E30706F6C6C2E2941905394D257D150544505394D24810D85C9D1A59DB1A5BC81050D0C414E53495F5449544C4541434310D85C9D1A59DB1A5BC81554D
310
0A414E53495F544954555344105394D24810D85C9D1A59DB1A5BC81050B414E53495F5449544C454144105394D24810D85C9D1A59DB1A5BC81110B414E53495F5449544C454444505394D24810D85C9D1A59DB1A5BC81110D0C414E53495F5449544C45444342116456C656E636F207265766973696F6E6920445F54525F45
310
505394D257D51497D4995D9A5CDA5BDB9B1A5CDD19116456C656E636F207265766973696F6E6920415F424C5F45505394D257D09317D4995D9A5CDA5BDB9B1A5CDD18516456C656E636F207265766973696F6E6920415F544C5F45505394D257D51317D4995D9A5CDA5BDB9B1A5CDD18516456C656E636F207265766973696
310
F6E6920445F424C5F45505394D257D09317D4995D9A5CDA5BDB9B1A5CDD19116456C656E636F207265766973696F6E6920445F544C5F45505394D257D51317D4995D9A5CDA5BDB9B1A5CDD19116456C656E636F207265766973696F6E6920415F42525F45505394D257D09497D4995D9A5CDA5BDB9B1A5CDD18516456C656E
310
636F207265766973696F6E6920415F54525F45505394D257D51497D4995D9A5CDA5BDB9B1A5CDD18516456C656E636F207265766973696F6E6920445F42525F45505394D257D09497D4995D9A5CDA5BDB9B1A5CDD190
 94
        0
  0
ACAD_PROXY_OBJECT
  5
283C
330
283A
100
AcDbProxyObject
 90
      499
 91
      528
 95
   851991
 70
     0
 93
       12
310
571C
 94
        0
  0
ACAD_PROXY_OBJECT
  5
283D
330
283A
100
AcDbProxyObject
 90
      499
 91
      529
 95
   851991
 70
     0
 93
       96
310
572A0E80A0280A0280A0280F00
 94
        0
  0
ACAD_PROXY_OBJECT
  5
283E
330
283A
100
AcDbProxyObject
 90
      499
 91
      530
 95
   851991
 70
     0
 93
      272
310
5710E4050140501405014050140501405014050140D01405012C00000000000000406C
340
248D
 94
        0
  0
ACAD_PROXY_OBJECT
  5
283F
330
283A
100
AcDbProxyObject
 90
      499
 91
      531
 95
   851991
 70
     0
 93
      496
310
5728666666666667A67E199999999999E99FD224050140501405014050140501405014050140501405014050140501405014050140501405014050140501C0
340
248E
 94
        0
  0
ACAD_PROXY_OBJECT
  5
2840
330
283A
100
AcDbProxyObject
 90
      499
 91
      532
 95
   851991
 70
     0
 93
       10
310
570C
 94
        0
  0
ACAD_PROXY_OBJECT
  5
2841
330
283A
100
AcDbProxyObject
 90
      499
 91
      533
 95
   851991
 70
     0
 93
      223
310
572290EA22A7D90F49F8000000000000108140000000000000420204
340
248F
340
2490
 94
        0
  0
ACAD_PROXY_OBJECT
  5
2842
330
283A
100
AcDbProxyObject
 90
      499
 91
      534
 95
   851991
 70
     0
 93
    12879
310
5710E411255115350141141BDCCB90140501406901000000000000091013347454E545241434F2C4954412C302C506F732E2C47454E54524154582C25732C2847454E4D53472067656E647767203232322940690120281A8AA2CA0281A8BA702028120280A0320200000000000012202648E8A9CA8A482869E5892A8825860
310
58A2E9C0588E8A9CA8A482A8B0584AE658508E8A9C9AA68E40CECADCC8EECE406464665280D202405044E414D45405044E6F6D654051C40640A80000000000004E404CD1D15395149050D3CB1255104B0C0B139BDB594B11D15395149055160B095CCB0A11D1539354D1C819D95B991DD9C80C8C8D8A50190B3D424C4F434B
310
3A4E414D4540480A0A888AA686A480A1688CAE6C6E4D2F4D2DEDCCA80A3A80C81D0000000000100A2809D23A2A72A2920A1A79624AA209618162232B9B1B934BD34B7B7329623A2A72A2920AA2C1612B9961423A2A726A9A39033B2B7323BB39019189B94A034809014214D51053911054911014214DD185B99185C9910147
310
501904A000000000000125013747454E545241434F2C4954412C302C5374616E646172642C47454E54524154582C25732C2847454E4D53472067656E64776720323138294069012028426A0AA22A924A0A620284A6B0BA32B934B0B632A028EA0320B40000000000001CA02708E8A9CA8A482869E5892A8825860589AC2E8C
310
AE4D2C2D8CA588E8A9CA8A482A8B0584AE658508E8A9C9AA68E40CECADCC8EECE406464625280D202405044E4F5445405044E6F74614051D40641A80000000000003E404CD1D15395149050D3CB1255104B0C0B139BDD184B11D15395149055160B095CCB0A11D1539354D1C819D95B991DD9C80C8C8D4A501240480A0CAC8
310
A9C889EA480A128CDEE4DCD2E8DEE4CA80A3A80C83D00000000000007C809C23A2A72A2920A1A79624AA209618162337B93734BA37B9329623A2A72A2920AA2C1612B9961423A2A726A9A39033B2B7323BB39019191A14A0248090141911154D0D48C9014351195CD8DC9A5E9A5BDB99480C90147501908A00000000002014
310
5013B47454E545241434F2C4954412C302C4465736372697A696F6E6520322C47454E54524154582C25732C2847454E4D53472067656E6477672033362940490120284A9AA20A72220A922192028529BA30B73230B93210192028EA03213400000000000024A02728E8A9CA8A482869E5892A882586058A6E8C2DCC8C2E4C8
310
4064588E8A9CA8A482A8B0584AE658508E8A9C9AA68E40CECADCC8EECE4064646052809202405094D4154455249414C324050B4D6174657269616C6520324051D40642A8713D0AD7A37045404E51D15395149050D3CB1255104B0C0B13585D195C9A585B19480C8B11D15395149055160B095CCB0A11D1539354D1C819D95B
310
991DD9C80D0C0A501240480A089A82A6A680A0A9AC2E6E6C280A3A80A0485A068100000000000007C8099A3A2A72A2920A1A79624AA2096181626B0B9B9B09623A2A72A2920AA2C1612B9961423A2A726A9A39033B2B7323BB3901A1914A024809014154149250D150141941C995E9E9BD01475014090C4090200000000000
310
00F9013447454E545241434F2C4954412C302C5072657A7A6F2C47454E54524154582C25732C2847454E4D53472067656E6477672034332940490120281A224A6A028326B4B9BAB930A028EA028121A81A040000000000001F202688E8A9CA8A482869E5892A8825860589AD2E6EAE4C2588E8A9CA8A482A8B0584AE658508
310
E8A9C9AA68E40CECADCC8EECE406868528092024050E445020000000000000510107004060000000000000F9000000000000003E4041CF4F125511534F9014060000000000000F9000000000000003E4041CF4F125511534F9014060000000000000D100000000000000344041CF4F125511534F9014060000000000000D10
310
0000000000000344041CF4F125511534F90140A4040000000000003E400000000000000F901073D3C4954454D3E405063D3C5154593E4050180000000000003E400000000000000F901073D3C4954454D3E406404000000000000003E400000000000000F902888000000000000208081A0881A068120480A0322085211220
310
80D21480D211480A1485214852050000000000003C2FC000000000000F0BF4050241CCDCCCCCCCCCCEC3F3373333333333B0FC0000000000000C40480D0590140D04416406800000000000018808120480A026280A02
340
0
340
0
 94
        0
  0
ACAD_PROXY_OBJECT
  5
2843
330
283A
100
AcDbProxyObject
 90
      499
 91
      535
 95
   851991
 70
     0
 93
      864
310
5704000000000000144048CF4F11115510525317D3105091530F880A0F11115510525317D05094D4D0D053114F8A51141C9A9999999999B93F26A666666666724FC000000000000E03F4000000000000004000000000000005100000000000000244041C0000000000001440D7
340
14
340
2481
 94
        0
  0
ACAD_PROXY_OBJECT
  5
2844
330
283A
100
AcDbProxyObject
 90
      499
 91
      536
 95
   851991
 70
     0
 93
      745
310
5700B00000000000002880959E9E29A2A1AA24A7A72FA620A122A62FA324A929AA1F169E29A2A1AA24A7A72FA620A122A62FA620A9AA1F00000000000004880FF41C88A0E0000000000001220000000000000028800000000000000A204C
340
B9
340
2481
 94
        0
  0
ACAD_PROXY_OBJECT
  5
2845
330
283A
100
AcDbProxyObject
 90
      499
 91
      537
 95
   851991
 70
     0
 93
      151
310
57280000000000000840A3D0A5723F0BD1F200
 94
        0
  0
ACAD_PROXY_OBJECT
  5
2846
330
283A
100
AcDbProxyObject
 90
      499
 91
      538
 95
   851991
 70
     0
 93
     5762
310
571084050B90142A40502405094D6F64656C6C6F2031405DC3D2525633C486F6C653A63746469613E2078203C486F6C653A637464657074683E20555C503C696628657175616C28486F6C653A7461707065642C223022292C222525632220486F6C653A6469612C20486F6C653A6E6F6D696E616C20222078202220486F6C6
310
53A70697463686465736320696628657175616C28486F6C653A7461707065642C223122292C222078202220486F6C653A74617064657074682C222229293E203C696628657175616C28486F6C653A7465726D696E6174696F6E2C223022292C22202F202220486F6C653A64657074682C222022293E40640503405094D6F64
310
656C6C6F2031405DD3D2525633C486F6C653A63746469613E2078203C486F6C653A6374616E676C653E2525645C503C696628657175616C28486F6C653A7461707065642C223022292C222525632220486F6C653A6469612C20486F6C653A6E6F6D696E616C20222078202220486F6C653A706974636864657363206966286
310
57175616C28486F6C653A7461707065642C223122292C222078202220486F6C653A74617064657074682C222229293E203C696628657175616C28486F6C653A7465726D696E6174696F6E2C223022292C22202F202220486F6C653A64657074682C222022293E40640501405094D6F64656C6C6F2031405B83D3C696628657
310
175616C28486F6C653A7461707065642C223022292C222525632220486F6C653A6469612C20486F6C653A6E6F6D696E616C20222078202220486F6C653A70697463686465736320696628657175616C28486F6C653A7461707065642C223122292C222078202220486F6C653A74617064657074682C222229293E203C69662
310
8657175616C28486F6C653A7465726D696E6174696F6E2C223022292C22202F202220486F6C653A64657074682C222022293E4064051E405094D6F64656C6C6F20314050C3D3C535444503A444553433E40640515A8C
 94
        0
  0
ACAD_PROXY_OBJECT
  5
2847
330
283A
100
AcDbProxyObject
 90
      499
 91
      539
 95
   851991
 70
     0
 93
       20
310
57101C
340
283B
 94
        0
  0
ACAD_PROXY_OBJECT
  5
2848
330
283A
100
AcDbProxyObject
 90
      499
 91
      540
 95
   851991
 70
     0
 93
      250
310
571020000000000000A1000000000000002440408F0F9023C3E409A0DCFFFF8C
340
2494
340
0
340
0
340
2495
340
2496
340
2497
340
2498
340
2499
340
249E
340
0
 94
        0
  0
ACAD_PROXY_OBJECT
  5
2849
330
283A
100
AcDbProxyObject
 90
      499
 91
      541
 95
   851991
 70
     0
 93
    13755
310
5711A003FFFFFFFD0303000300000000000003100090303000300000000000003100080511456C656E636F20636F6F7264696E617465015011D15395149050D3CB1255104B0C0B115B195B98DBC818DBDBDC991A5B985D194B11D15395149055160B095CCB0A11D1539354D1C819D95B991A5B5E880CCC0A78000C00000000
310
000000000000000000000001000000000000031010240000000000000C4040A0143151858995B1B1848199BDC9A4053B47454E545241434F2C4954412C302C546162656C6C6120666F72692C47454E54524154582C25732C2847454E4D53472067656E64696D7A20333129E000300000000000000000000000000000000400
310
00000000000C40409000000000000031010290D44111409034110541D0C4350F4050E44D03449074510F000141D3DC9A59DA5B994053547454E545241434F2C4954412C302C4F726967696E652C47454E54524154582C25732C2847454E4D53472067656E64696D7A203129000101050022140002822337B93780A648E8A9C
310
A8A482869E5892A8825860588CDEE4DE588E8A9CA8A482A8B0584AE658508E8A9C9AA68E40CECADCC8D2DAF4406452029F9E9E27B934B3B4B71F1E24A31427A91424A9A12620A7259427B934B3B4B7149624A9A12620A7259424B73232BC149496111116111711149F1E24B73232BC1F00808200111A000140560052F47454
310
E545241434F2C4954412C302C582C47454E54524154582C25732C2847454E4D53472067656E64696D7A20332900010100002054000280AC80A5E8E8A9CA8A482869E5892A882586058B2588E8A9CA8A482A8B0584AE658508E8A9C9AA68E40CECADCC8D2DAF4406852000202000040E800050172014BD1D15395149050D3CB
310
1255104B0C0B1C8B11D15395149055160B095CCB0A11D1539354D1C819D95B991A5B5E880D8A400040400008250000A0CAA5660686868029A23A2A72A2920A1A79624AA209618162A95981A1A1A1623A2A72A2920AA2C1612B9961423A2A726A9A39033B2B73234B6BD101B948000808180105A000140C94958C053147454E
310
545241434F2C4954412C302C2525632C47454E54524154582C25732C2847454E4D53472067656E64696D7A203829000101010020F4000285A232B9B1B934BD34B7B73280A748E8A9CA8A482869E5892A88258605888CAE6C6E4D2F4D2DEDCCA588E8A9CA8A482A8B0584AE658508E8A9C9AA68E40CECADCC8D2DAF44064605
310
2000200080043280005085374616E64617264014DD1D15395149050D3CB1255104B0C0B14DD185B99185C990B11D15395149055160B095CCB0A11D1539354D1C819D95B991A5B5E880C8C4A4000400100086D0000A0E9EE4D2CED2DCCA029AA3A2A72A2920A1A79624AA2096181627B934B3B4B7329623A2A72A2920AA2C16
310
12B9961423A2A726A9A39033B2B73234B6BD10189480A026202020A0043E8000504506F732E014CD1D15395149050D3CB1255104B0C0B141BDCCB8B11D15395149055160B095CCB0A11D1539354D1C819D95B991A5B5E880C4D0A4000404140080D0000A0C92DCC8D2C6CA029AA3A2A72A2920A1A79624AA2096181624B732
310
34B1B29623A2A72A2920AA2C1612B9961423A2A726A9A39033B2B73234B6BD10189A94800080828010EA000142D25B991A58D948199BDC9BC053A47454E545241434F2C4954412C302C496E6469636520666F726F2C47454E54524154582C25732C2847454E4D53472067656E64696D7A20313729000101050022740002822
310
337B93780A668E8A9CA8A482869E5892A8825860588CDEE4DE588E8A9CA8A482A8B0584AE658508E8A9C9AA68E40CECADCC8D2DAF440626C52000202080044A80005035174E0014C91D15395149050D3CB1255104B0C0B145D380B11D15395149055160B095CCB0A11D1539354D1C819D95B991A5B5E880C4E4A4000404180
310
08A521E000000000000001CA040C00000000000034408080000000000006881010000000000000D102040000000000001A204080000000000003440818000000000000728103000000000000125020600000000004028A040000000000000034408000000000000004881000000000000000D102000000000000001A204000
310
000000000003440818000000000000508143C0000000000000039408180000000000006881030000000000000D102060000000000001A2040C00000000000034408180000000000006881030000000000000E5020600000000000024A040C00000000008051408000000000000006881000000000000000910200000000000
310
0001A2040000000000000034408180000000000006881030000000000000A10283A2000000087800000204000000818000002080000008280000020E00000080A24000000C
340
0
340
0
340
0
340
0
 94
        0
  0
ACAD_PROXY_OBJECT
  5
284A
330
283A
100
AcDbProxyObject
 90
      499
 91
      542
 95
   851991
 70
     0
 93
     7258
310
5719740D254D3D0649534F5F4133429254D3D7D5125513115051349534F5F42525F5265766973696F6E6C69737446111413478342028323937783834316D6D2920421254D3D7D04D1E0D11141327835202835393478323130326D6D29421254D3D7D04C9E0D51141337837202834323078323038306D6D29421254D3D7D04C
310
DE0DD1141347839202832393778313839326D6D29421254D3D7D04D1E0E50E41312028353934783834316D6D29419254D3D7D04C51141327834202835393478313638326D6D29421254D3D7D04C9E0D11141347838202832393778313638326D6D29421254D3D7D04D1E0E10E41332028323937783432306D6D29419254D3D
310
7D04CD104130202838343078313138396D6D2920419254D3D7D04C11141347835202832393778313035316D6D29421254D3D7D04D1E0D51141347836202832393778313236316D6D29421254D3D7D04D1E0D91141347837202832393778313437316D6D29421254D3D7D04D1E0DD1141327833202835393478313236316D6D
310
29421254D3D7D04C9E0CD1141337834202834323078313138396D6D29421254D3D7D04CDE0D110413478332028323937783633306D6D29421254D3D7D04D1E0CD1141337835202834323078313438366D6D29421254D3D7D04CDE0D51141337836202834323078313738336D6D29421254D3D7D04CDE0D9104133783320283
310
43230783839316D6D29421254D3D7D04CDE0CD0E41322028343230783539346D6D29419254D3D7D04C9124130783220283131383978313638326D6D29421254D3D7D04C1E0C90E41342028323937783231306D6D29419254D3D7D04D1124130783320283131383978323532336D6D29421254D3D7D04C1E0CD114131783420
310
2838343178323337386D6D29421254D3D7D04C5E0D11141317833202838343178313738336D6D29421254D3D7D04C5E0CD0243D254D3C810D85C9D1A59DB1A5BC81050A49534F5F5449544C454143D254D3C810D85C9D1A59DB1A5BC81090A49534F5F5449544C454241114456C656E636F207265766973696F6E695F54525
310
F44D254D3D7D51497D4995D9A5CDA5BDB9B1A5CDD114456C656E636F207265766973696F6E695F424C5F44D254D3D7D09317D4995D9A5CDA5BDB9B1A5CDD114456C656E636F207265766973696F6E695F544C5F44D254D3D7D51317D4995D9A5CDA5BDB9B1A5CDD114456C656E636F207265766973696F6E695F42525F44D2
310
54D3D7D09497D4995D9A5CDA5BDB9B1A5CDD0C
 94
        0
  0
ENDSEC
  0
EOF
